  0
SECTION
  2
HEADER
  9
$ACADVER
  1
AC1012
  9
$DWGCODEPAGE
  3
ansi_932
  9
$INSBASE
 10
0.0
 20
0.0
 30
0.0
  9
$EXTMIN
 10
930.6652642782467
 20
1562.745859226641
 30
0.0
  9
$EXTMAX
 10
1289.250277740753
 20
1780.678524751992
 30
0.0
  9
$LIMMIN
 10
0.0
 20
0.0
  9
$LIMMAX
 10
420.0
 20
297.0
  9
$ORTHOMODE
 70
     0
  9
$REGENMODE
 70
     1
  9
$FILLMODE
 70
     1
  9
$QTEXTMODE
 70
     0
  9
$MIRRTEXT
 70
     0
  9
$DRAGMODE
 70
     2
  9
$LTSCALE
 40
0.5
  9
$OSMODE
 70
 12415
  9
$ATTMODE
 70
     1
  9
$TEXTSIZE
 40
2.5
  9
$TRACEWID
 40
1.0
  9
$TEXTSTYLE
  7
STANDARD
  9
$CLAYER
  8
1TEXT
  9
$CELTYPE
  6
BYLAYER
  9
$CECOLOR
 62
   256
  9
$CELTSCALE
 40
1.0
  9
$DELOBJ
 70
     1
  9
$DISPSILH
 70
     0
  9
$DIMSCALE
 40
1.0
  9
$DIMASZ
 40
1.0
  9
$DIMEXO
 40
0.0
  9
$DIMDLI
 40
7.0
  9
$DIMRND
 40
0.0
  9
$DIMDLE
 40
0.0
  9
$DIMEXE
 40
1.0
  9
$DIMTP
 40
0.0
  9
$DIMTM
 40
0.0
  9
$DIMTXT
 40
3.5
  9
$DIMCEN
 40
0.0
  9
$DIMTSZ
 40
0.0
  9
$DIMTOL
 70
     0
  9
$DIMLIM
 70
     0
  9
$DIMTIH
 70
     0
  9
$DIMTOH
 70
     0
  9
$DIMSE1
 70
     0
  9
$DIMSE2
 70
     0
  9
$DIMTAD
 70
     1
  9
$DIMZIN
 70
     8
  9
$DIMBLK
  1

  9
$DIMASO
 70
     1
  9
$DIMSHO
 70
     1
  9
$DIMPOST
  1
 
  9
$DIMAPOST
  1

  9
$DIMALT
 70
     0
  9
$DIMALTD
 70
     2
  9
$DIMALTF
 40
25.4
  9
$DIMLFAC
 40
1.0
  9
$DIMTOFL
 70
     1
  9
$DIMTVP
 40
0.0
  9
$DIMTIX
 70
     0
  9
$DIMSOXD
 70
     0
  9
$DIMSAH
 70
     1
  9
$DIMBLK1
  1
OPEN30
  9
$DIMBLK2
  1
OPEN30
  9
$DIMSTYLE
  2
KENX010
  9
$DIMCLRD
 70
   256
  9
$DIMCLRE
 70
   256
  9
$DIMCLRT
 70
   201
  9
$DIMTFAC
 40
0.7
  9
$DIMGAP
 40
0.7
  9
$DIMJUST
 70
     0
  9
$DIMSD1
 70
     0
  9
$DIMSD2
 70
     0
  9
$DIMTOLJ
 70
     1
  9
$DIMTZIN
 70
     8
  9
$DIMALTZ
 70
     0
  9
$DIMALTTZ
 70
     0
  9
$DIMFIT
 70
     2
  9
$DIMUPT
 70
     0
  9
$DIMUNIT
 70
     2
  9
$DIMDEC
 70
     6
  9
$DIMTDEC
 70
     3
  9
$DIMALTU
 70
     2
  9
$DIMALTTD
 70
     2
  9
$DIMTXSTY
  7
STANDARD
  9
$DIMAUNIT
 70
     0
  9
$LUNITS
 70
     2
  9
$LUPREC
 70
     4
  9
$SKETCHINC
 40
1.0
  9
$FILLETRAD
 40
0.0
  9
$AUNITS
 70
     0
  9
$AUPREC
 70
     2
  9
$MENU
  1
acad
  9
$ELEVATION
 40
0.0
  9
$PELEVATION
 40
0.0
  9
$THICKNESS
 40
0.0
  9
$LIMCHECK
 70
     0
  9
$CHAMFERA
 40
10.0
  9
$CHAMFERB
 40
10.0
  9
$CHAMFERC
 40
20.0
  9
$CHAMFERD
 40
0.0
  9
$SKPOLY
 70
     0
  9
$TDCREATE
 40
2453931.552584271
  9
$TDUPDATE
 40
2459391.456359028
  9
$TDINDWG
 40
2.4060585995
  9
$TDUSRTIMER
 40
2.4060558796
  9
$USRTIMER
 70
     1
  9
$ANGBASE
 50
0.0
  9
$ANGDIR
 70
     0
  9
$PDMODE
 70
     0
  9
$PDSIZE
 40
0.0
  9
$PLINEWID
 40
0.0
  9
$COORDS
 70
     2
  9
$SPLFRAME
 70
     0
  9
$SPLINETYPE
 70
     6
  9
$SPLINESEGS
 70
     8
  9
$ATTDIA
 70
     0
  9
$ATTREQ
 70
     1
  9
$HANDLING
 70
     1
  9
$HANDSEED
  5
BE1A
  9
$SURFTAB1
 70
     6
  9
$SURFTAB2
 70
     6
  9
$SURFTYPE
 70
     6
  9
$SURFU
 70
     6
  9
$SURFV
 70
     6
  9
$UCSNAME
  2

  9
$UCSORG
 10
0.0
 20
0.0
 30
0.0
  9
$UCSXDIR
 10
1.0
 20
0.0
 30
0.0
  9
$UCSYDIR
 10
0.0
 20
1.0
 30
0.0
  9
$PUCSNAME
  2

  9
$PUCSORG
 10
0.0
 20
0.0
 30
0.0
  9
$PUCSXDIR
 10
1.0
 20
0.0
 30
0.0
  9
$PUCSYDIR
 10
0.0
 20
1.0
 30
0.0
  9
$USERI1
 70
     0
  9
$USERI2
 70
     0
  9
$USERI3
 70
     0
  9
$USERI4
 70
     0
  9
$USERI5
 70
     0
  9
$USERR1
 40
0.0
  9
$USERR2
 40
0.0
  9
$USERR3
 40
0.0
  9
$USERR4
 40
0.0
  9
$USERR5
 40
4.5
  9
$WORLDVIEW
 70
     1
  9
$SHADEDGE
 70
     3
  9
$SHADEDIF
 70
    70
  9
$TILEMODE
 70
     1
  9
$MAXACTVP
 70
    48
  9
$PINSBASE
 10
0.0
 20
0.0
 30
0.0
  9
$PLIMCHECK
 70
     0
  9
$PEXTMIN
 10
1.000000000000000E+20
 20
1.000000000000000E+20
 30
1.000000000000000E+20
  9
$PEXTMAX
 10
-1.000000000000000E+20
 20
-1.000000000000000E+20
 30
-1.000000000000000E+20
  9
$PLIMMIN
 10
0.0
 20
0.0
  9
$PLIMMAX
 10
420.0
 20
297.0
  9
$UNITMODE
 70
     0
  9
$VISRETAIN
 70
     1
  9
$PLINEGEN
 70
     0
  9
$PSLTSCALE
 70
     1
  9
$TREEDEPTH
 70
  3020
  9
$PICKSTYLE
 70
     1
  9
$CMLSTYLE
  2
STANDARD
  9
$CMLJUST
 70
     0
  9
$CMLSCALE
 40
20.0
  9
$SAVEIMAGES
 70
     1
  0
ENDSEC
  0
SECTION
  2
CLASSES
  0
CLASS
  1
DICTIONARYVAR
  2
AcDbDictionaryVar
  3
ObjectDBX Classes
 90
        0
280
     0
281
     0
  0
CLASS
  1
IDBUFFER
  2
AcDbIdBuffer
  3
ObjectDBX Classes
 90
    32768
280
     0
281
     0
  0
CLASS
  1
LWPOLYLINE
  2
AcDbPolyline
  3
ObjectDBX Classes
 90
    32768
280
     0
281
     1
  0
CLASS
  1
ACDBDICTIONARYWDFLT
  2
AcDbDictionaryWithDefault
  3
ObjectDBX Classes
 90
    32768
280
     0
281
     0
  0
CLASS
  1
ACDBPLACEHOLDER
  2
AcDbPlaceHolder
  3
ObjectDBX Classes
 90
        0
280
     0
281
     0
  0
CLASS
  1
LAYOUT
  2
AcDbLayout
  3
ObjectDBX Classes
 90
        0
280
     0
281
     0
  0
CLASS
  1
TABLESTYLE
  2
AcDbTableStyle
  3
ObjectDBX Classes
 90
     4095
280
     0
281
     0
  0
CLASS
  1
SORTENTSTABLE
  2
AcDbSortentsTable
  3
ObjectDBX Classes
 90
    32768
280
     0
281
     0
  0
CLASS
  1
DIMASSOC
  2
AcDbDimAssoc
  3
"AcDbDimAssoc|Product Desc:     AcDim ARX App For Dimension|Company:          Autodesk, Inc.|WEB Address:      www.autodesk.com"
 90
        0
280
     0
281
     0
  0
CLASS
  1
MATERIAL
  2
AcDbMaterial
  3
ObjectDBX Classes
 90
     1153
280
     0
281
     0
  0
CLASS
  1
VISUALSTYLE
  2
AcDbVisualStyle
  3
ObjectDBX Classes
 90
     4095
280
     0
281
     0
  0
CLASS
  1
SCALE
  2
AcDbScale
  3
ObjectDBX Classes
 90
     1153
280
     0
281
     0
  0
CLASS
  1
MLEADERSTYLE
  2
AcDbMLeaderStyle
  3
ACDB_MLEADERSTYLE_CLASS
 90
     4095
280
     0
281
     0
  0
CLASS
  1
CELLSTYLEMAP
  2
AcDbCellStyleMap
  3
ObjectDBX Classes
 90
     1152
280
     0
281
     0
  0
CLASS
  1
SUN
  2
AcDbSun
  3
SCENEOE
 90
     1153
280
     0
281
     0
  0
CLASS
  1
XRECORD
  2
AcDbXrecord
  3
ObjectDBX Classes
 90
    32768
280
     0
281
     0
  0
CLASS
  1
HATCH
  2
AcDbHatch
  3
ObjectDBX Classes
 90
    32768
280
     0
281
     1
  0
ENDSEC
  0
SECTION
  2
TABLES
  0
TABLE
  2
VPORT
  5
8
330
0
100
AcDbSymbolTable
 70
     1
  0
VPORT
  5
9AFE
330
8
100
AcDbSymbolTableRecord
100
AcDbViewportTableRecord
  2
*ACTIVE
 70
     0
 10
0.0
 20
0.0
 11
1.0
 21
1.0
 12
1109.9577710095
 22
1671.712191989317
 13
0.0
 23
0.0
 14
10.0
 24
10.0
 15
10.0
 25
10.0
 16
0.0
 26
0.0
 36
1.0
 17
0.0
 27
0.0
 37
0.0
 40
233.9908619324822
 41
2.137115839243499
 42
50.0
 43
0.0
 44
0.0
 50
0.0
 51
0.0
 71
    16
 72
  1000
 73
     1
 74
     1
 75
     0
 76
     0
 77
     0
 78
     0
1001
ACAD_NAV_VCDISPLAY
1070
     3
  0
ENDTAB
  0
TABLE
  2
LTYPE
  5
5
330
0
100
AcDbSymbolTable
 70
     4
  0
LTYPE
  5
12
330
5
100
AcDbSymbolTableRecord
100
AcDbLinetypeTableRecord
  2
BYBLOCK
 70
     0
  3

 72
    65
 73
     0
 40
0.0
  0
LTYPE
  5
13
330
5
100
AcDbSymbolTableRecord
100
AcDbLinetypeTableRecord
  2
BYLAYER
 70
     0
  3

 72
    65
 73
     0
 40
0.0
  0
LTYPE
  5
14
330
5
100
AcDbSymbolTableRecord
100
AcDbLinetypeTableRecord
  2
CONTINUOUS
 70
     0
  3
Solid line
 72
    65
 73
     0
 40
0.0
  0
LTYPE
  5
26
330
5
100
AcDbSymbolTableRecord
100
AcDbLinetypeTableRecord
  2
CENTER2
 70
     0
  3
Center (.5x) ___ _ ___ _ ___ _ ___ _ ___ _ ___
 72
    65
 73
     4
 40
28.575
 49
19.05
 74
     0
 49
-3.175
 74
     0
 49
3.175
 74
     0
 49
-3.175
 74
     0
  0
LTYPE
  5
FF
330
5
100
AcDbSymbolTableRecord
100
AcDbLinetypeTableRecord
  2
HIDDEN
 70
     0
  3
Hidden __ __ __ __ __ __ __ __ __ __ __ __ __ _
 72
    65
 73
     2
 40
9.524999999999999
 49
6.35
 74
     0
 49
-3.175
 74
     0
  0
LTYPE
  5
100
330
5
100
AcDbSymbolTableRecord
100
AcDbLinetypeTableRecord
  2
PHANTOM2
 70
     0
  3
Phantom (0.5x) ___ _ _ ___ _ _ ___ _ _ ___ _ _
 72
    65
 73
     6
 40
31.75
 49
15.875
 74
     0
 49
-3.175
 74
     0
 49
3.175
 74
     0
 49
-3.175
 74
     0
 49
3.175
 74
     0
 49
-3.175
 74
     0
  0
ENDTAB
  0
TABLE
  2
LAYER
  5
2
102
{ACAD_XDICTIONARY
360
9B72
102
}
330
0
100
AcDbSymbolTable
 70
     8
  0
LAYER
  5
E
102
{ACAD_XDICTIONARY
360
9B7B
102
}
330
2
100
AcDbSymbolTableRecord
100
AcDbLayerTableRecord
  2
0
 70
     0
 62
     7
  6
CONTINUOUS
  0
LAYER
  5
29
102
{ACAD_XDICTIONARY
360
9B7D
102
}
330
2
100
AcDbSymbolTableRecord
100
AcDbLayerTableRecord
  2
1CENTER
 70
     0
 62
     7
  6
CENTER2
  0
LAYER
  5
31
102
{ACAD_XDICTIONARY
360
9B7F
102
}
330
2
100
AcDbSymbolTableRecord
100
AcDbLayerTableRecord
  2
1TEXT
 70
     0
 62
     7
  6
CONTINUOUS
  0
LAYER
  5
101
102
{ACAD_XDICTIONARY
360
9B89
102
}
330
2
100
AcDbSymbolTableRecord
100
AcDbLayerTableRecord
  2
1DIM
 70
     0
 62
     7
  6
CONTINUOUS
  0
LAYER
  5
102
102
{ACAD_XDICTIONARY
360
9B8B
102
}
330
2
100
AcDbSymbolTableRecord
100
AcDbLayerTableRecord
  2
1HIDDEN
 70
     0
 62
     7
  6
HIDDEN
  0
LAYER
  5
103
102
{ACAD_XDICTIONARY
360
9B8D
102
}
330
2
100
AcDbSymbolTableRecord
100
AcDbLayerTableRecord
  2
1PHANTOM
 70
     0
 62
     7
  6
PHANTOM2
  0
LAYER
  5
25F
102
{ACAD_XDICTIONARY
360
9B91
102
}
330
2
100
AcDbSymbolTableRecord
100
AcDbLayerTableRecord
  2
01
 70
     0
 62
     1
  6
CONTINUOUS
  0
LAYER
  5
26D
102
{ACAD_XDICTIONARY
360
9BAD
102
}
330
2
100
AcDbSymbolTableRecord
100
AcDbLayerTableRecord
  2
1HATCH
 70
     0
 62
     7
  6
CONTINUOUS
  0
ENDTAB
  0
TABLE
  2
STYLE
  5
3
330
0
100
AcDbSymbolTable
 70
     1
  0
STYLE
  5
F
330
3
100
AcDbSymbolTableRecord
100
AcDbTextStyleTableRecord
  2
STANDARD
 70
     0
 40
0.0
 41
1.0
 50
0.0
 71
     0
 42
2.5
  3
txt.shx
  4
extfont.shx
  0
ENDTAB
  0
TABLE
  2
VIEW
  5
6
330
0
100
AcDbSymbolTable
 70
     0
  0
ENDTAB
  0
TABLE
  2
UCS
  5
7
330
0
100
AcDbSymbolTable
 70
     0
  0
ENDTAB
  0
TABLE
  2
APPID
  5
9
330
0
100
AcDbSymbolTable
 70
    15
  0
APPID
  5
10
330
9
100
AcDbSymbolTableRecord
100
AcDbRegAppTableRecord
  2
ACAD
 70
     0
  0
APPID
  5
21
330
9
100
AcDbSymbolTableRecord
100
AcDbRegAppTableRecord
  2
DRAWINGVARIABLESXDATA
 70
     0
  0
APPID
  5
64
330
9
100
AcDbSymbolTableRecord
100
AcDbRegAppTableRecord
  2
CONTENTTABDATA
 70
     0
  0
APPID
  5
65
330
9
100
AcDbSymbolTableRecord
100
AcDbRegAppTableRecord
  2
CONTENTCURRENTTAB
 70
     0
  0
APPID
  5
66
330
9
100
AcDbSymbolTableRecord
100
AcDbRegAppTableRecord
  2
CONTENTBLOCKDESCRIPTION
 70
     0
  0
APPID
  5
67
330
9
100
AcDbSymbolTableRecord
100
AcDbRegAppTableRecord
  2
CONTENTBLOCKICON
 70
     0
  0
APPID
  5
68
330
9
100
AcDbSymbolTableRecord
100
AcDbRegAppTableRecord
  2
CONTENTLONGBLOCKNAME
 70
     0
  0
APPID
  5
156D
330
9
100
AcDbSymbolTableRecord
100
AcDbRegAppTableRecord
  2
ACAD_PSEXT
 70
     0
  0
APPID
  5
3039
330
9
100
AcDbSymbolTableRecord
100
AcDbRegAppTableRecord
  2
ACAD_DSTYLE_DIMTEXT_FILL
 70
     0
  0
APPID
  5
9B79
330
9
100
AcDbSymbolTableRecord
100
AcDbRegAppTableRecord
  2
ACAD_EXEMPT_FROM_CAD_STAND
 70
     0
  0
APPID
  5
9BD6
330
9
100
AcDbSymbolTableRecord
100
AcDbRegAppTableRecord
  2
ACAD_NAV_VCDISPLAY
 70
     0
  0
APPID
  5
9C73
330
9
100
AcDbSymbolTableRecord
100
AcDbRegAppTableRecord
  2
ACAD_MLEADERVER
 70
     0
  0
APPID
  5
AD14
330
9
100
AcDbSymbolTableRecord
100
AcDbRegAppTableRecord
  2
ACADANNOTATIVE
 70
     0
  0
APPID
  5
AD15
330
9
100
AcDbSymbolTableRecord
100
AcDbRegAppTableRecord
  2
ACDBBLOCKREPETAG
 70
     0
  0
APPID
  5
B96A
330
9
100
AcDbSymbolTableRecord
100
AcDbRegAppTableRecord
  2
ACAD_OBJECT_CHANGE_GUID
 70
     0
  0
ENDTAB
  0
TABLE
  2
DIMSTYLE
  5
A
330
0
100
AcDbSymbolTable
 70
     1
  0
DIMSTYLE
105
105
330
A
100
AcDbSymbolTableRecord
100
AcDbDimStyleTableRecord
  2
KENX010
 70
     0
  3
 
  4

  5

  6
DOT
  7
DOT
 40
1.0
 41
1.0
 42
0.0
 43
7.0
 44
1.0
 45
0.0
 46
0.0
 47
0.0
 48
0.0
140
3.5
141
0.0
142
0.0
143
25.4
144
1.0
145
0.0
146
0.7
147
0.7
 71
     0
 72
     0
 73
     0
 74
     0
 75
     0
 76
     0
 77
     1
 78
     8
170
     0
171
     2
172
     1
173
     1
174
     0
175
     0
176
   256
177
   256
178
   201
179
     3
270
     2
271
     6
272
     3
273
     2
274
     2
340
F
275
     0
280
     0
281
     0
282
     0
283
     1
284
     8
285
     0
286
     0
287
     2
288
     0
  0
ENDTAB
  0
TABLE
  2
BLOCK_RECORD
  5
1
330
0
100
AcDbSymbolTable
 70
    15
  0
BLOCK_RECORD
  5
18
102
{ACAD_XDICTIONARY
360
510
102
}
330
1
100
AcDbSymbolTableRecord
100
AcDbBlockTableRecord
  2
*MODEL_SPACE
  0
BLOCK_RECORD
  5
15
330
1
100
AcDbSymbolTableRecord
100
AcDbBlockTableRecord
  2
*PAPER_SPACE
  0
BLOCK_RECORD
  5
42
330
1
100
AcDbSymbolTableRecord
100
AcDbBlockTableRecord
  2
_OPEN30
  0
BLOCK_RECORD
  5
DF
330
1
100
AcDbSymbolTableRecord
100
AcDbBlockTableRecord
  2
_DOT
  0
BLOCK_RECORD
  5
209F
330
1
100
AcDbSymbolTableRecord
100
AcDbBlockTableRecord
  2
関連謬けなし
  0
BLOCK_RECORD
  5
20A2
330
1
100
AcDbSymbolTableRecord
100
AcDbBlockTableRecord
  2
関連謬けなし1
  0
BLOCK_RECORD
  5
20A5
330
1
100
AcDbSymbolTableRecord
100
AcDbBlockTableRecord
  2
関連謬けなし2
  0
BLOCK_RECORD
  5
20A8
330
1
100
AcDbSymbolTableRecord
100
AcDbBlockTableRecord
  2
関連謬けなし3
  0
BLOCK_RECORD
  5
20AB
330
1
100
AcDbSymbolTableRecord
100
AcDbBlockTableRecord
  2
関連謬けなし4
  0
BLOCK_RECORD
  5
20AE
330
1
100
AcDbSymbolTableRecord
100
AcDbBlockTableRecord
  2
関連謬けなし5
  0
BLOCK_RECORD
  5
AD64
330
1
100
AcDbSymbolTableRecord
100
AcDbBlockTableRecord
  2
A3WAKUKAWAJUN2017_HYOUDAI_
  0
BLOCK_RECORD
  5
BC79
330
1
100
AcDbSymbolTableRecord
100
AcDbBlockTableRecord
  2
*X97
  0
BLOCK_RECORD
  5
BCC7
330
1
100
AcDbSymbolTableRecord
100
AcDbBlockTableRecord
  2
*X98
  0
BLOCK_RECORD
  5
BD19
330
1
100
AcDbSymbolTableRecord
100
AcDbBlockTableRecord
  2
*X99
  0
BLOCK_RECORD
  5
BD6A
330
1
100
AcDbSymbolTableRecord
100
AcDbBlockTableRecord
  2
*X100
  0
BLOCK_RECORD
  5
BDA7
330
1
100
AcDbSymbolTableRecord
100
AcDbBlockTableRecord
  2
*X101
  0
BLOCK_RECORD
  5
BDE7
330
1
100
AcDbSymbolTableRecord
100
AcDbBlockTableRecord
  2
*X102
  0
ENDTAB
  0
ENDSEC
  0
SECTION
  2
BLOCKS
  0
BLOCK
  5
19
330
18
100
AcDbEntity
  8
0
100
AcDbBlockBegin
  2
*MODEL_SPACE
 70
     0
 10
0.0
 20
0.0
 30
0.0
  3
*MODEL_SPACE
  1

  0
ENDBLK
  5
1A
330
18
100
AcDbEntity
  8
0
100
AcDbBlockEnd
  0
BLOCK
  5
16
330
15
100
AcDbEntity
 67
     1
  8
0
100
AcDbBlockBegin
  2
*PAPER_SPACE
 70
     0
 10
0.0
 20
0.0
 30
0.0
  3
*PAPER_SPACE
  1

  0
ENDBLK
  5
17
330
15
100
AcDbEntity
 67
     1
  8
0
100
AcDbBlockEnd
  0
BLOCK
  5
43
330
42
100
AcDbEntity
  8
0
100
AcDbBlockBegin
  2
_OPEN30
 70
     0
 10
0.0
 20
0.0
 30
0.0
  3
_OPEN30
  1

  0
LINE
  5
44
330
42
100
AcDbEntity
  8
0
  6
BYBLOCK
 62
     0
100
AcDbLine
 10
-1.0
 20
0.26794919
 30
0.0
 11
0.0
 21
0.0
 31
0.0
  0
LINE
  5
45
330
42
100
AcDbEntity
  8
0
  6
BYBLOCK
 62
     0
100
AcDbLine
 10
0.0
 20
0.0
 30
0.0
 11
-1.0
 21
-0.26794919
 31
0.0
  0
LINE
  5
46
330
42
100
AcDbEntity
  8
0
  6
BYBLOCK
 62
     0
100
AcDbLine
 10
0.0
 20
0.0
 30
0.0
 11
-1.0
 21
0.0
 31
0.0
  0
ENDBLK
  5
47
330
42
100
AcDbEntity
  8
0
100
AcDbBlockEnd
  0
BLOCK
  5
E5
330
DF
100
AcDbEntity
  8
0
100
AcDbBlockBegin
  2
_DOT
 70
     0
 10
0.0
 20
0.0
 30
0.0
  3
_DOT
  1

  0
POLYLINE
  5
E0
330
DF
100
AcDbEntity
  8
0
  6
BYBLOCK
 62
     0
100
AcDb2dPolyline
 66
     1
 10
0.0
 20
0.0
 30
0.0
 70
     1
 40
0.5
 41
0.5
  0
VERTEX
  5
BC77
330
E0
100
AcDbEntity
  8
0
  6
BYBLOCK
 62
     0
100
AcDbVertex
100
AcDb2dVertex
 10
-0.25
 20
0.0
 30
0.0
 42
1.0
  0
VERTEX
  5
BC78
330
E0
100
AcDbEntity
  8
0
  6
BYBLOCK
 62
     0
100
AcDbVertex
100
AcDb2dVertex
 10
0.25
 20
0.0
 30
0.0
 42
1.0
  0
SEQEND
  5
BE19
330
E0
100
AcDbEntity
  8
0
  6
BYBLOCK
 62
     0
  0
LINE
  5
E4
330
DF
100
AcDbEntity
  8
0
  6
BYBLOCK
 62
     0
100
AcDbLine
 10
-0.5
 20
0.0
 30
0.0
 11
-1.0
 21
0.0
 31
0.0
  0
ENDBLK
  5
E6
330
DF
100
AcDbEntity
  8
0
100
AcDbBlockEnd
  0
BLOCK
  5
20A0
330
209F
100
AcDbEntity
  8
0
100
AcDbBlockBegin
  2
関連謬けなし
 70
     0
 10
0.0
 20
0.0
 30
0.0
  3
関連謬けなし
  1

  0
ENDBLK
  5
20A1
330
209F
100
AcDbEntity
  8
0
100
AcDbBlockEnd
  0
BLOCK
  5
20A3
330
20A2
100
AcDbEntity
  8
0
100
AcDbBlockBegin
  2
関連謬けなし1
 70
     0
 10
0.0
 20
0.0
 30
0.0
  3
関連謬けなし1
  1

  0
ENDBLK
  5
20A4
330
20A2
100
AcDbEntity
  8
0
100
AcDbBlockEnd
  0
BLOCK
  5
20A6
330
20A5
100
AcDbEntity
  8
0
100
AcDbBlockBegin
  2
関連謬けなし2
 70
     0
 10
0.0
 20
0.0
 30
0.0
  3
関連謬けなし2
  1

  0
ENDBLK
  5
20A7
330
20A5
100
AcDbEntity
  8
0
100
AcDbBlockEnd
  0
BLOCK
  5
20A9
330
20A8
100
AcDbEntity
  8
0
100
AcDbBlockBegin
  2
関連謬けなし3
 70
     0
 10
0.0
 20
0.0
 30
0.0
  3
関連謬けなし3
  1

  0
ENDBLK
  5
20AA
330
20A8
100
AcDbEntity
  8
0
100
AcDbBlockEnd
  0
BLOCK
  5
20AC
330
20AB
100
AcDbEntity
  8
0
100
AcDbBlockBegin
  2
関連謬けなし4
 70
     0
 10
0.0
 20
0.0
 30
0.0
  3
関連謬けなし4
  1

  0
ENDBLK
  5
20AD
330
20AB
100
AcDbEntity
  8
0
100
AcDbBlockEnd
  0
BLOCK
  5
20AF
330
20AE
100
AcDbEntity
  8
0
100
AcDbBlockBegin
  2
関連謬けなし5
 70
     0
 10
0.0
 20
0.0
 30
0.0
  3
関連謬けなし5
  1

  0
ENDBLK
  5
20B0
330
20AE
100
AcDbEntity
  8
0
100
AcDbBlockEnd
  0
BLOCK
  5
B463
330
AD64
100
AcDbEntity
  8
0
100
AcDbBlockBegin
  2
A3WAKUKAWAJUN2017_HYOUDAI_
 70
     0
 10
0.0
 20
0.0
 30
0.0
  3
A3WAKUKAWAJUN2017_HYOUDAI_
  1

  0
LINE
  5
AD66
330
AD64
100
AcDbEntity
  8
0
100
AcDbLine
 10
13.26299999998673
 20
-0.0001000000000317
 30
0.0
 11
9.236999999990758
 21
8.999899999990987
 31
0.0
1001
ACAD
1000
ASC_BOUNDS
1002
{
1070
    19
1005
ADA7
1002
}
  0
LINE
  5
AD67
330
AD64
100
AcDbEntity
  8
0
100
AcDbLine
 10
5.657999999994331
 20
0.9999999999989768
 30
0.0
 11
9.236999999990758
 21
8.999999999991019
 31
0.0
1001
ACAD
1000
ASC_BOUNDS
1002
{
1070
    19
1005
ADA7
1002
}
  0
LINE
  5
AD68
330
AD64
100
AcDbEntity
  8
0
100
AcDbLine
 10
18.59199999998134
 20
-0.2368999999997641
 30
0.0
 11
16.46099999998353
 21
5.432899999994561
 31
0.0
1001
ACAD
1000
ASC_BOUNDS
1002
{
1070
    19
1005
ADA8
1002
}
  0
LINE
  5
AD69
330
AD64
100
AcDbEntity
  8
0
100
AcDbLine
 10
18.59199999998134
 20
-0.2368999999997641
 30
0.0
 11
22.38199999997767
 21
8.763099999991255
 31
0.0
1001
ACAD
1000
ASC_BOUNDS
1002
{
1070
    19
1005
ADA8
1002
}
  0
LINE
  5
AD6A
330
AD64
100
AcDbEntity
  8
0
100
AcDbLine
 10
14.32899999998563
 20
-0.2368999999997641
 30
0.0
 11
16.46099999998353
 21
5.432899999994561
 31
0.0
1001
ACAD
1000
ASC_BOUNDS
1002
{
1070
    19
1005
ADA8
1002
}
  0
LINE
  5
AD6B
330
AD64
100
AcDbEntity
  8
0
100
AcDbLine
 10
14.32899999998563
 20
-0.2368999999997641
 30
0.0
 11
10.53899999998941
 21
8.763099999991255
 31
0.0
1001
ACAD
1000
ASC_BOUNDS
1002
{
1070
    19
1005
ADA8
1002
}
  0
LINE
  5
AD6C
330
AD64
100
AcDbEntity
  8
0
100
AcDbLine
 10
19.53899999998043
 20
-0.0001000000000317
 30
0.0
 11
23.56599999997638
 21
8.999899999990987
 31
0.0
1001
ACAD
1000
ASC_BOUNDS
1002
{
1070
    19
1005
ADA9
1002
}
  0
LINE
  5
AD6D
330
AD64
100
AcDbEntity
  8
0
100
AcDbLine
 10
26.97358892824991
 20
1.383099999991202
 30
0.0
 11
23.56599999997638
 21
8.999899999990987
 31
0.0
1001
ACAD
1000
ASC_BOUNDS
1002
{
1070
    19
1005
ADA9
1002
}
  0
LINE
  5
AD6E
330
AD64
100
AcDbEntity
  8
0
100
AcDbLine
 10
5.657999999994331
 20
0.9999999999989768
 30
0.0
 11
3.181999999996833
 21
4.668599999995308
 31
0.0
1001
ACAD
1000
ASC_BOUNDS
1002
{
1070
    19
1005
ADA7
1002
}
  0
LINE
  5
AD6F
330
AD64
100
AcDbEntity
  8
0
100
AcDbLine
 10
4.617999999995391
 20
-0.0001000000000317
 30
0.0
 11
1.420999999998571
 21
4.736799999995242
 31
0.0
1001
ACAD
1000
ASC_BOUNDS
1002
{
1070
    19
1005
ADA7
1002
}
  0
LINE
  5
AD70
330
AD64
100
AcDbEntity
  8
0
100
AcDbLine
 10
1.420999999998571
 20
8.763099999991255
 30
0.0
 11
1.420999999998571
 21
0.0
 31
0.0
1001
ACAD
1000
ASC_BOUNDS
1002
{
1070
    19
1005
ADAC
1002
}
  0
LINE
  5
AD71
330
AD64
100
AcDbEntity
  8
0
100
AcDbLine
 10
0.0
 20
8.763099999991255
 30
0.0
 11
0.0
 21
0.0
 31
0.0
1001
ACAD
1000
ASC_BOUNDS
1002
{
1070
    19
1005
ADAC
1002
}
  0
LINE
  5
AD72
330
AD64
100
AcDbEntity
  8
0
100
AcDbLine
 10
6.766999999993232
 20
-0.0001000000000317
 30
0.0
 11
7.826999999992154
 21
2.368399999997621
 31
0.0
1001
ACAD
1000
ASC_BOUNDS
1002
{
1070
    19
1005
ADA7
1002
}
  0
LINE
  5
AD73
330
AD64
100
AcDbEntity
  8
0
100
AcDbLine
 10
0.0
 20
0.0
 30
0.0
 11
1.420999999998571
 21
0.0
 31
0.0
1001
ACAD
1000
ASC_BOUNDS
1002
{
1070
    19
1005
ADAC
1002
}
  0
LINE
  5
AD74
330
AD64
100
AcDbEntity
  8
0
100
AcDbLine
 10
4.617999999995391
 20
0.0
 30
0.0
 11
6.766999999993232
 21
0.0
 31
0.0
1001
ACAD
1000
ASC_BOUNDS
1002
{
1070
    19
1005
ADA7
1002
}
  0
LINE
  5
AD75
330
AD64
100
AcDbEntity
  8
0
100
AcDbLine
 10
11.70599999998831
 20
-0.0001000000000317
 30
0.0
 11
10.64699999998936
 21
2.368399999997621
 31
0.0
1001
ACAD
1000
ASC_BOUNDS
1002
{
1070
    19
1005
ADA7
1002
}
  0
LINE
  5
AD76
330
AD64
100
AcDbEntity
  8
0
100
AcDbLine
 10
7.826999999992154
 20
2.368399999997621
 30
0.0
 11
10.64699999998936
 21
2.368399999997621
 31
0.0
1001
ACAD
1000
ASC_BOUNDS
1002
{
1070
    19
1005
ADA7
1002
}
  0
LINE
  5
AD77
330
AD64
100
AcDbEntity
  8
0
100
AcDbLine
 10
11.70599999998831
 20
0.0
 30
0.0
 11
13.26299999998673
 21
0.0
 31
0.0
1001
ACAD
1000
ASC_BOUNDS
1002
{
1070
    19
1005
ADA7
1002
}
  0
LINE
  5
AD78
330
AD64
100
AcDbEntity
  8
0
100
AcDbLine
 10
22.15599999997789
 20
2.368399999997621
 30
0.0
 11
24.97599999997499
 21
2.368399999997621
 31
0.0
1001
ACAD
1000
ASC_BOUNDS
1002
{
1070
    19
1005
ADA9
1002
}
  0
LINE
  5
AD79
330
AD64
100
AcDbEntity
  8
0
100
AcDbLine
 10
19.53899999998043
 20
0.0
 30
0.0
 11
21.09599999997886
 21
0.0
 31
0.0
1001
ACAD
1000
ASC_BOUNDS
1002
{
1070
    19
1005
ADA9
1002
}
  0
LINE
  5
AD7A
330
AD64
100
AcDbEntity
  8
0
100
AcDbLine
 10
21.09599999997886
 20
-0.0001000000000317
 30
0.0
 11
22.15599999997789
 21
2.368399999997621
 31
0.0
1001
ACAD
1000
ASC_BOUNDS
1002
{
1070
    19
1005
ADA9
1002
}
  0
LINE
  5
AD7B
330
AD64
100
AcDbEntity
  8
0
100
AcDbLine
 10
26.02015566812236
 20
0.0330999999912365
 30
0.0
 11
24.97599999997499
 21
2.368399999997621
 31
0.0
1001
ACAD
1000
ASC_BOUNDS
1002
{
1070
    19
1005
ADA9
1002
}
  0
LINE
  5
AD7C
330
AD64
100
AcDbEntity
  8
0
100
AcDbLine
 10
14.32399999998563
 20
3.315799999996671
 30
0.0
 11
16.46099999998353
 21
8.999899999990987
 31
0.0
1001
ACAD
1000
ASC_BOUNDS
1002
{
1070
    19
1005
ADA8
1002
}
  0
LINE
  5
AD7D
330
AD64
100
AcDbEntity
  8
0
100
AcDbLine
 10
6.432999999993513
 20
8.763099999991255
 30
0.0
 11
3.181999999996833
 21
4.668599999995308
 31
0.0
1001
ACAD
1000
ASC_BOUNDS
1002
{
1070
    19
1005
ADA7
1002
}
  0
LINE
  5
AD7E
330
AD64
100
AcDbEntity
  8
0
100
AcDbLine
 10
4.617999999995391
 20
8.763099999991255
 30
0.0
 11
1.420999999998571
 21
4.736799999995242
 31
0.0
1001
ACAD
1000
ASC_BOUNDS
1002
{
1070
    19
1005
ADA7
1002
}
  0
LINE
  5
AD7F
330
AD64
100
AcDbEntity
  8
0
100
AcDbLine
 10
0.0
 20
8.763099999991255
 30
0.0
 11
1.420999999998571
 21
8.763099999991255
 31
0.0
1001
ACAD
1000
ASC_BOUNDS
1002
{
1070
    19
1005
ADAC
1002
}
  0
LINE
  5
AD80
330
AD64
100
AcDbEntity
  8
0
100
AcDbLine
 10
4.617999999995391
 20
8.763099999991255
 30
0.0
 11
6.432999999993513
 21
8.763099999991255
 31
0.0
1001
ACAD
1000
ASC_BOUNDS
1002
{
1070
    19
1005
ADA7
1002
}
  0
LINE
  5
AD81
330
AD64
100
AcDbEntity
  8
0
100
AcDbLine
 10
14.32399999998563
 20
3.315799999996671
 30
0.0
 11
12.02999999998792
 21
8.763099999991255
 31
0.0
1001
ACAD
1000
ASC_BOUNDS
1002
{
1070
    19
1005
ADA8
1002
}
  0
LINE
  5
AD82
330
AD64
100
AcDbEntity
  8
0
100
AcDbLine
 10
10.06399999998996
 20
3.670999999996297
 30
0.0
 11
9.236999999990758
 21
5.5200999999945
 31
0.0
1001
ACAD
1000
ASC_BOUNDS
1002
{
1070
    19
1005
ADA7
1002
}
  0
LINE
  5
AD83
330
AD64
100
AcDbEntity
  8
0
100
AcDbLine
 10
8.409999999991555
 20
3.670999999996297
 30
0.0
 11
9.236999999990758
 21
5.5200999999945
 31
0.0
1001
ACAD
1000
ASC_BOUNDS
1002
{
1070
    19
1005
ADA7
1002
}
  0
LINE
  5
AD84
330
AD64
100
AcDbEntity
  8
0
100
AcDbLine
 10
8.409999999991555
 20
3.670999999996297
 30
0.0
 11
10.06399999998996
 21
3.670999999996297
 31
0.0
1001
ACAD
1000
ASC_BOUNDS
1002
{
1070
    19
1005
ADA7
1002
}
  0
LINE
  5
AD85
330
AD64
100
AcDbEntity
  8
0
100
AcDbLine
 10
10.53899999998941
 20
8.763099999991255
 30
0.0
 11
12.02999999998792
 21
8.763099999991255
 31
0.0
1001
ACAD
1000
ASC_BOUNDS
1002
{
1070
    19
1005
ADA8
1002
}
  0
LINE
  5
AD86
330
AD64
100
AcDbEntity
  8
0
100
AcDbLine
 10
22.7389999999773
 20
3.670999999996297
 30
0.0
 11
23.56599999997638
 21
5.5200999999945
 31
0.0
1001
ACAD
1000
ASC_BOUNDS
1002
{
1070
    19
1005
ADA9
1002
}
  0
LINE
  5
AD87
330
AD64
100
AcDbEntity
  8
0
100
AcDbLine
 10
22.7389999999773
 20
3.670999999996297
 30
0.0
 11
24.39299999997559
 21
3.670999999996297
 31
0.0
1001
ACAD
1000
ASC_BOUNDS
1002
{
1070
    19
1005
ADA9
1002
}
  0
LINE
  5
AD88
330
AD64
100
AcDbEntity
  8
0
100
AcDbLine
 10
18.59799999998143
 20
3.315799999996671
 30
0.0
 11
20.89099999997916
 21
8.763099999991255
 31
0.0
1001
ACAD
1000
ASC_BOUNDS
1002
{
1070
    19
1005
ADA8
1002
}
  0
LINE
  5
AD89
330
AD64
100
AcDbEntity
  8
0
100
AcDbLine
 10
18.59799999998143
 20
3.315799999996671
 30
0.0
 11
16.46099999998353
 21
8.999899999990987
 31
0.0
1001
ACAD
1000
ASC_BOUNDS
1002
{
1070
    19
1005
ADA8
1002
}
  0
LINE
  5
AD8A
330
AD64
100
AcDbEntity
  8
0
100
AcDbLine
 10
20.89099999997916
 20
8.763099999991255
 30
0.0
 11
22.38199999997767
 21
8.763099999991255
 31
0.0
1001
ACAD
1000
ASC_BOUNDS
1002
{
1070
    19
1005
ADA8
1002
}
  0
LINE
  5
AD8B
330
AD64
100
AcDbEntity
  8
0
100
AcDbLine
 10
24.39299999997559
 20
3.670999999996297
 30
0.0
 11
23.56599999997638
 21
5.5200999999945
 31
0.0
1001
ACAD
1000
ASC_BOUNDS
1002
{
1070
    19
1005
ADA9
1002
}
  0
LINE
  5
AD8C
330
AD64
100
AcDbEntity
  8
0
100
AcDbLine
 10
44.99999999995498
 20
-0.2368999999997641
 30
0.0
 11
40.02599999995994
 21
5.341799999994635
 31
0.0
1001
ACAD
1000
ASC_BOUNDS
1002
{
1070
    19
1005
ADAB
1002
}
  0
LINE
  5
AD8D
330
AD64
100
AcDbEntity
  8
0
100
AcDbLine
 10
40.02599999995994
 20
5.341799999994635
 30
0.0
 11
40.02599999995994
 21
0.0
 31
0.0
1001
ACAD
1000
ASC_BOUNDS
1002
{
1070
    19
1005
ADAB
1002
}
  0
LINE
  5
AD8E
330
AD64
100
AcDbEntity
  8
0
100
AcDbLine
 10
38.60499999996136
 20
8.999999999991019
 30
0.0
 11
38.60499999996136
 21
0.0
 31
0.0
1001
ACAD
1000
ASC_BOUNDS
1002
{
1070
    19
1005
ADAB
1002
}
  0
LINE
  5
AD8F
330
AD64
100
AcDbEntity
  8
0
100
AcDbLine
 10
44.99999999995498
 20
8.763099999991255
 30
0.0
 11
44.99999999995498
 21
-0.2368999999997641
 31
0.0
1001
ACAD
1000
ASC_BOUNDS
1002
{
1070
    19
1005
ADAB
1002
}
  0
LINE
  5
AD90
330
AD64
100
AcDbEntity
  8
0
100
AcDbLine
 10
38.60499999996136
 20
0.0
 30
0.0
 11
40.02599999995994
 21
0.0
 31
0.0
1001
ACAD
1000
ASC_BOUNDS
1002
{
1070
    19
1005
ADAB
1002
}
  0
LINE
  5
AD91
330
AD64
100
AcDbEntity
  8
0
100
AcDbLine
 10
43.57899999995641
 20
3.421199999996588
 30
0.0
 11
38.60499999996136
 21
8.999899999990987
 31
0.0
1001
ACAD
1000
ASC_BOUNDS
1002
{
1070
    19
1005
ADAB
1002
}
  0
LINE
  5
AD92
330
AD64
100
AcDbEntity
  8
0
100
AcDbLine
 10
43.57899999995641
 20
8.763099999991255
 30
0.0
 11
43.57899999995641
 21
3.421199999996588
 31
0.0
1001
ACAD
1000
ASC_BOUNDS
1002
{
1070
    19
1005
ADAB
1002
}
  0
LINE
  5
AD93
330
AD64
100
AcDbEntity
  8
0
100
AcDbLine
 10
43.57899999995641
 20
8.763099999991255
 30
0.0
 11
44.99999999995498
 21
8.763099999991255
 31
0.0
1001
ACAD
1000
ASC_BOUNDS
1002
{
1070
    19
1005
ADAB
1002
}
  0
LINE
  5
AD94
330
AD64
100
AcDbEntity
  8
0
100
AcDbLine
 10
37.67199999996831
 20
8.763099999991255
 30
0.0
 11
36.23199999996837
 21
8.763099999991255
 31
0.0
  0
LINE
  5
AD95
330
AD64
100
AcDbEntity
  8
0
100
AcDbLine
 10
31.64199999996833
 20
8.763099999991255
 30
0.0
 11
31.64199999996833
 21
2.481619422925121
 31
0.0
  0
LINE
  5
AD96
330
AD64
100
AcDbEntity
  8
0
100
AcDbLine
 10
37.67199999996831
 20
8.763099999991255
 30
0.0
 11
37.67199999996831
 21
2.481619422925121
 31
0.0
  0
LINE
  5
AD97
330
AD64
100
AcDbEntity
  8
0
100
AcDbLine
 10
36.23199999996837
 20
8.763099999991255
 30
0.0
 11
36.23199999996837
 21
2.481619422925064
 31
0.0
  0
LINE
  5
AD98
330
AD64
100
AcDbEntity
  8
0
100
AcDbLine
 10
33.08199999996839
 20
8.763099999991255
 30
0.0
 11
33.08199999996839
 21
2.481619422925121
 31
0.0
  0
ARC
  5
AD99
330
AD64
100
AcDbEntity
  8
0
100
AcDbCircle
 10
34.65699999996832
 20
3.183099999991214
 30
0.0
 40
3.420000000000007
100
AcDbArc
 50
240.0000000000255
 51
299.9999999999766
  0
ARC
  5
AD9A
330
AD64
100
AcDbEntity
  8
0
100
AcDbCircle
 10
34.65699999996832
 20
3.183099999991214
 30
0.0
 40
1.97999999999999
100
AcDbArc
 50
240.000000000026
 51
299.9999999999703
  0
LINE
  5
AD9B
330
AD64
100
AcDbEntity
  8
0
100
AcDbLine
 10
33.08199999996828
 20
8.763099999991255
 30
0.0
 11
31.64199999996833
 21
8.763099999991255
 31
0.0
  0
ARC
  5
AD9C
330
AD64
100
AcDbEntity
  8
0
100
AcDbCircle
 10
35.06199999996829
 20
2.481619422925064
 30
0.0
 40
1.17
100
AcDbArc
 50
299.9999999999699
 51
0.0
  0
ARC
  5
AD9D
330
AD64
100
AcDbEntity
  8
0
100
AcDbCircle
 10
34.25199999996835
 20
2.481619422925121
 30
0.0
 40
1.17
100
AcDbArc
 50
180.0
 51
240.0000000000238
  0
ARC
  5
AD9E
330
AD64
100
AcDbEntity
  8
0
100
AcDbCircle
 10
35.06199999996841
 20
2.481619422925121
 30
0.0
 40
2.61
100
AcDbArc
 50
299.9999999999756
 51
0.0
  0
ARC
  5
AD9F
330
AD64
100
AcDbEntity
  8
0
100
AcDbCircle
 10
34.25199999996835
 20
2.481619422925121
 30
0.0
 40
2.61
100
AcDbArc
 50
180.0
 51
240.0000000000244
  0
LINE
  5
ADA0
330
AD64
100
AcDbEntity
  8
0
100
AcDbLine
 10
29.30199999996933
 20
8.763099999991255
 30
0.0
 11
30.74199999996927
 21
8.763099999991255
 31
0.0
1001
ACAD
1000
ASC_BOUNDS
1002
{
1070
    19
1005
ADA9
1002
}
  0
LINE
  5
ADA1
330
AD64
100
AcDbEntity
  8
0
100
AcDbLine
 10
30.74199999996927
 20
8.763099999991255
 30
0.0
 11
30.74199999996927
 21
2.373099999991211
 31
0.0
1001
ACAD
1000
ASC_BOUNDS
1002
{
1070
    19
1005
ADA9
1002
}
  0
LINE
  5
ADA2
330
AD64
100
AcDbEntity
  8
0
100
AcDbLine
 10
26.02015566812236
 20
0.0330999999912365
 30
0.0
 11
28.40199999996923
 21
0.0330999999912365
 31
0.0
1001
ACAD
1000
ASC_BOUNDS
1002
{
1070
    19
1005
ADA9
1002
}
  0
LINE
  5
ADA3
330
AD64
100
AcDbEntity
  8
0
100
AcDbLine
 10
29.30199999996933
 20
8.763099999991255
 30
0.0
 11
29.30199999996933
 21
2.283099999991236
 31
0.0
1001
ACAD
1000
ASC_BOUNDS
1002
{
1070
    19
1005
ADA9
1002
}
  0
LINE
  5
ADA4
330
AD64
100
AcDbEntity
  8
0
100
AcDbLine
 10
26.97358892824991
 20
1.383099999991202
 30
0.0
 11
28.40199999996923
 21
1.383099999991202
 31
0.0
1001
ACAD
1000
ASC_BOUNDS
1002
{
1070
    19
1005
ADA9
1002
}
  0
ARC
  5
ADA5
330
AD64
100
AcDbEntity
  8
0
100
AcDbCircle
 10
28.40199999996923
 20
2.283099999991236
 30
0.0
 40
0.9
100
AcDbArc
 50
270.0
 51
0.0
1001
ACAD
1000
ASC_BOUNDS
1002
{
1070
    19
1005
ADA9
1002
}
  0
ARC
  5
ADA6
330
AD64
100
AcDbEntity
  8
0
100
AcDbCircle
 10
28.40199999996923
 20
2.373099999991211
 30
0.0
 40
2.34
100
AcDbArc
 50
270.0
 51
0.0
1001
ACAD
1000
ASC_BOUNDS
1002
{
1070
    19
1005
ADA9
1002
}
  0
INSERT
  5
ADA7
330
AD64
100
AcDbEntity
  8
0
100
AcDbBlockReference
  2
*X97
 10
0.0
 20
0.0
 30
0.0
1001
ACAD
1000
HATCH
1002
{
1070
    19
1000
ANSI37
1040
0.15
1040
0.0
1000
ASC_BOUNDS
1070
     2
1070
     2
1070
    12
1005
AD66
1005
AD67
1005
AD6E
1005
AD7D
1005
AD80
1005
AD7E
1005
AD6F
1005
AD74
1005
AD72
1005
AD76
1005
AD75
1005
AD77
1070
     2
1070
     3
1005
AD82
1005
AD84
1005
AD83
1000
ASC_SEEDPOINT
1011
3.614004224891801
1021
2.996669441146025
1031
0.0
1000
R14_HATCH_DATA
1000
ADA7
1011
1.0
1021
0.0
1031
0.0
1011
0.0
1021
1.0
1031
0.0
1011
0.0
1021
0.0
1031
1.0
1040
0.0
1010
0.0
1020
0.0
1030
1.0
1000
ANSI37
1070
     0
1070
     1
1071
        2
1071
        7
1070
     0
1070
     1
1071
       17
1040
13.26299999998673
1040
-0.0001000000000317
1040
9.236999999990758
1040
8.999899999990987
1040
9.236999999990758
1040
8.999999999991019
1040
5.657999999994331
1040
0.9999999999989768
1040
3.181999999996833
1040
4.668599999995308
1040
6.432999999993513
1040
8.763099999991255
1040
4.617999999995391
1040
8.763099999991255
1040
1.420999999998571
1040
4.736799999995242
1040
4.617999999995391
1040
-0.0001000000000317
1040
4.617999999995391
1040
0.0
1040
6.766999999993232
1040
0.0
1040
6.766999999993232
1040
-0.0001000000000317
1040
7.826999999992154
1040
2.368399999997621
1040
10.64699999998936
1040
2.368399999997621
1040
11.70599999998831
1040
-0.0001000000000317
1040
11.70599999998831
1040
0.0
1040
13.26299999998673
1040
0.0
1071
       12
1005
AD66
1005
AD67
1005
AD6E
1005
AD7D
1005
AD80
1005
AD7E
1005
AD6F
1005
AD74
1005
AD72
1005
AD76
1005
AD75
1005
AD77
1071
       22
1070
     0
1070
     1
1071
        3
1040
9.236999999990758
1040
5.5200999999945
1040
10.06399999998996
1040
3.670999999996297
1040
8.409999999991555
1040
3.670999999996297
1071
        3
1005
AD82
1005
AD84
1005
AD83
1070
     0
1070
     1
1040
0.0
1040
0.15
1070
     0
1070
     2
1040
0.7853981633974483
1040
49.29960901727088
1040
-10.17736998311392
1040
-0.3367596045400932
1040
0.3367596045400932
1070
     0
1040
2.356194490192345
1040
49.29960901727088
1040
-10.17736998311392
1040
-0.3367596045400932
1040
-0.3367596045400932
1070
     0
1040
0.0110235143455945
1071
        2
1040
3.614004224891801
1040
2.996669441146025
1040
0.0
1040
3.614004224891801
1040
2.996669441146025
1040
0.0
1002
}
  0
INSERT
  5
ADA8
330
AD64
100
AcDbEntity
  8
0
100
AcDbBlockReference
  2
*X98
 10
0.0
 20
0.0
 30
0.0
1001
ACAD
1000
HATCH
1002
{
1070
    19
1000
ANSI37
1040
0.15
1040
0.0
1000
ASC_BOUNDS
1070
     1
1070
     2
1070
    10
1005
AD68
1005
AD69
1005
AD8A
1005
AD88
1005
AD89
1005
AD7C
1005
AD81
1005
AD85
1005
AD6B
1005
AD6A
1000
ASC_SEEDPOINT
1011
14.73245321214324
1021
2.798246178283421
1031
0.0
1000
R14_HATCH_DATA
1000
ADA8
1011
1.0
1021
0.0
1031
0.0
1011
0.0
1021
1.0
1031
0.0
1011
0.0
1021
0.0
1031
1.0
1040
0.0
1010
0.0
1020
0.0
1030
1.0
1000
ANSI37
1070
     0
1070
     1
1071
        1
1071
        7
1070
     0
1070
     1
1071
       10
1040
16.46099999998353
1040
5.432899999994561
1040
18.59199999998134
1040
-0.2368999999997641
1040
22.38199999997767
1040
8.763099999991255
1040
20.89099999997916
1040
8.763099999991255
1040
18.59799999998143
1040
3.315799999996671
1040
16.46099999998353
1040
8.999899999990987
1040
14.32399999998563
1040
3.315799999996671
1040
12.02999999998792
1040
8.763099999991255
1040
10.53899999998941
1040
8.763099999991255
1040
14.32899999998563
1040
-0.2368999999997641
1071
       10
1005
AD68
1005
AD69
1005
AD8A
1005
AD88
1005
AD89
1005
AD7C
1005
AD81
1005
AD85
1005
AD6B
1005
AD6A
1070
     0
1070
     1
1040
0.0
1040
0.15
1070
     0
1070
     2
1040
0.7853981633974483
1040
49.29960901727088
1040
-10.17736998311392
1040
-0.3367596045400932
1040
0.3367596045400932
1070
     0
1040
2.356194490192345
1040
49.29960901727088
1040
-10.17736998311392
1040
-0.3367596045400932
1040
-0.3367596045400932
1070
     0
1040
0.0110235143455945
1071
        1
1040
14.73245321214324
1040
2.798246178283421
1040
0.0
1002
}
  0
INSERT
  5
ADA9
330
AD64
100
AcDbEntity
  8
0
100
AcDbBlockReference
  2
*X99
 10
0.0
 20
0.0
 30
0.0
1001
ACAD
1000
HATCH
1002
{
1070
    19
1000
ANSI37
1040
0.15
1040
0.0
1000
ASC_BOUNDS
1070
     2
1070
     2
1070
    13
1005
AD6C
1005
AD79
1005
AD7A
1005
AD78
1005
AD7B
1005
ADA2
1005
ADA6
1005
ADA1
1005
ADA0
1005
ADA3
1005
ADA5
1005
ADA4
1005
AD6D
1070
     2
1070
     3
1005
AD86
1005
AD8B
1005
AD87
1000
ASC_SEEDPOINT
1011
21.97929957367762
1021
3.294304244259308
1031
0.0
1000
R14_HATCH_DATA
1000
ADA9
1011
1.0
1021
0.0
1031
0.0
1011
0.0
1021
1.0
1031
0.0
1011
0.0
1021
0.0
1031
1.0
1040
0.0
1010
0.0
1020
0.0
1030
1.0
1000
ANSI37
1070
     0
1070
     1
1071
        2
1071
        7
1070
     1
1070
     1
1071
       15
1040
23.56599999997638
1040
8.999899999990987
1040
0.0
1040
19.53899999998043
1040
-0.0001000000000317
1040
0.0
1040
19.53899999998043
1040
0.0
1040
0.0
1040
21.09599999997886
1040
0.0
1040
0.0
1040
21.09599999997886
1040
-0.0001000000000317
1040
0.0
1040
22.15599999997789
1040
2.368399999997621
1040
0.0
1040
24.97599999997499
1040
2.368399999997621
1040
0.0
1040
26.02015566812236
1040
0.0330999999912365
1040
0.0
1040
28.40199999996923
1040
0.0330999999912365
1040
0.414213562373095
1040
30.74199999996923
1040
2.373099999991211
1040
0.0
1040
30.74199999996927
1040
8.763099999991255
1040
0.0
1040
29.30199999996933
1040
8.763099999991255
1040
0.0
1040
29.30199999996933
1040
2.283099999991236
1040
-0.414213562373095
1040
28.40199999996923
1040
1.383099999991237
1040
0.0
1040
26.97358892824991
1040
1.383099999991202
1040
0.0
1071
       13
1005
AD6C
1005
AD79
1005
AD7A
1005
AD78
1005
AD7B
1005
ADA2
1005
ADA6
1005
ADA1
1005
ADA0
1005
ADA3
1005
ADA5
1005
ADA4
1005
AD6D
1071
       22
1070
     0
1070
     1
1071
        3
1040
22.7389999999773
1040
3.670999999996297
1040
23.56599999997638
1040
5.5200999999945
1040
24.39299999997559
1040
3.670999999996297
1071
        3
1005
AD86
1005
AD8B
1005
AD87
1070
     0
1070
     1
1040
0.0
1040
0.15
1070
     0
1070
     2
1040
0.7853981633974483
1040
49.29960901727088
1040
-10.17736998311392
1040
-0.3367596045400932
1040
0.3367596045400932
1070
     0
1040
2.356194490192345
1040
49.29960901727088
1040
-10.17736998311392
1040
-0.3367596045400932
1040
-0.3367596045400932
1070
     0
1040
0.0110235143455945
1071
        2
1040
21.97929957367762
1040
3.294304244259308
1040
0.0
1040
21.97929957367762
1040
3.294304244259308
1040
0.0
1002
}
  0
INSERT
  5
ADAA
330
AD64
100
AcDbEntity
  8
0
100
AcDbBlockReference
  2
*X100
 10
0.0
 20
0.0
 30
0.0
1001
ACAD
1000
HATCH
1002
{
1070
    19
1000
ANSI37
1040
0.15
1040
0.0
1000
R14_HATCH_DATA
1000
ADAA
1011
1.0
1021
0.0
1031
0.0
1011
0.0
1021
1.0
1031
0.0
1011
0.0
1021
0.0
1031
1.0
1040
0.0
1010
0.0
1020
0.0
1030
1.0
1000
ANSI37
1070
     0
1070
     1
1071
        1
1071
        7
1070
     1
1070
     1
1071
       12
1040
31.64199999996833
1040
2.481619422925121
1040
0.2679491924310942
1040
32.94699999997067
1040
0.2212931190493919
1040
0.2679491924301353
1040
36.36699999995983
1040
0.2212931190459813
1040
0.2679491924321411
1040
37.67199999996831
1040
2.481619422928361
1040
0.0
1040
37.67199999996831
1040
8.763099999991255
1040
0.0
1040
36.23199999996837
1040
8.763099999991255
1040
0.0
1040
36.23199999996837
1040
2.481619422925064
1040
-0.2679491924310291
1040
35.64699999996708
1040
1.468369700498386
1040
-0.267949192430519
1040
33.66699999997093
1040
1.468369700497703
1040
-0.267949192431809
1040
33.08199999996839
1040
2.481619422926997
1040
0.0
1040
33.08199999996839
1040
8.763099999991255
1040
0.0
1040
31.64199999996833
1040
8.763099999991255
1040
0.0
1071
        0
1070
     0
1070
     1
1040
0.0
1040
0.15
1070
     0
1070
     2
1040
0.7853981633974483
1040
49.29960901727088
1040
-10.17736998311392
1040
-0.3367596045400932
1040
0.3367596045400932
1070
     0
1040
2.356194490192345
1040
49.29960901727088
1040
-10.17736998311392
1040
-0.3367596045400932
1040
-0.3367596045400932
1070
     0
1040
0.0110235143455945
1071
        1
1040
32.30357378967278
1040
3.988785755459219
1040
0.0
1002
}
  0
INSERT
  5
ADAB
330
AD64
100
AcDbEntity
  8
0
100
AcDbBlockReference
  2
*X101
 10
0.0
 20
0.0
 30
0.0
1001
ACAD
1000
HATCH
1002
{
1070
    19
1000
ANSI37
1040
0.15
1040
0.0
1000
ASC_BOUNDS
1070
     1
1070
     2
1070
     8
1005
AD8C
1005
AD8F
1005
AD93
1005
AD92
1005
AD91
1005
AD8E
1005
AD90
1005
AD8D
1000
ASC_SEEDPOINT
1011
39.74896370716704
1021
4.484843821435049
1031
0.0
1000
R14_HATCH_DATA
1000
ADAB
1011
1.0
1021
0.0
1031
0.0
1011
0.0
1021
1.0
1031
0.0
1011
0.0
1021
0.0
1031
1.0
1040
0.0
1010
0.0
1020
0.0
1030
1.0
1000
ANSI37
1070
     0
1070
     1
1071
        1
1071
        7
1070
     0
1070
     1
1071
        9
1040
40.02599999995994
1040
5.341799999994635
1040
44.99999999995498
1040
-0.2368999999997641
1040
44.99999999995498
1040
8.763099999991255
1040
43.57899999995641
1040
8.763099999991255
1040
43.57899999995641
1040
3.421199999996588
1040
38.60499999996136
1040
8.999899999990987
1040
38.60499999996136
1040
8.999999999991019
1040
38.60499999996136
1040
0.0
1040
40.02599999995994
1040
0.0
1071
        8
1005
AD8C
1005
AD8F
1005
AD93
1005
AD92
1005
AD91
1005
AD8E
1005
AD90
1005
AD8D
1070
     0
1070
     1
1040
0.0
1040
0.15
1070
     0
1070
     2
1040
0.7853981633974483
1040
49.29960901727088
1040
-10.17736998311392
1040
-0.3367596045400932
1040
0.3367596045400932
1070
     0
1040
2.356194490192345
1040
49.29960901727088
1040
-10.17736998311392
1040
-0.3367596045400932
1040
-0.3367596045400932
1070
     0
1040
0.0110235143455945
1071
        1
1040
39.74896370716704
1040
4.484843821435049
1040
0.0
1002
}
  0
INSERT
  5
ADAC
330
AD64
100
AcDbEntity
  8
0
100
AcDbBlockReference
  2
*X102
 10
0.0
 20
0.0
 30
0.0
1001
ACAD
1000
HATCH
1002
{
1070
    19
1000
ANSI37
1040
0.15
1040
0.0
1000
ASC_BOUNDS
1070
     1
1070
     2
1070
     4
1005
AD70
1005
AD7F
1005
AD71
1005
AD73
1000
ASC_SEEDPOINT
1011
1.079051535452663
1021
4.148538732891836
1031
0.0
1000
R14_HATCH_DATA
1000
ADAC
1011
1.0
1021
0.0
1031
0.0
1011
0.0
1021
1.0
1031
0.0
1011
0.0
1021
0.0
1031
1.0
1040
0.0
1010
0.0
1020
0.0
1030
1.0
1000
ANSI37
1070
     0
1070
     1
1071
        1
1071
        7
1070
     0
1070
     1
1071
        4
1040
1.420999999998571
1040
0.0
1040
1.420999999998571
1040
8.763099999991255
1040
0.0
1040
8.763099999991255
1040
0.0
1040
0.0
1071
        4
1005
AD70
1005
AD7F
1005
AD71
1005
AD73
1070
     0
1070
     1
1040
0.0
1040
0.15
1070
     0
1070
     2
1040
0.7853981633974483
1040
49.29960901727088
1040
-10.17736998311392
1040
-0.3367596045400932
1040
0.3367596045400932
1070
     0
1040
2.356194490192345
1040
49.29960901727088
1040
-10.17736998311392
1040
-0.3367596045400932
1040
-0.3367596045400932
1070
     0
1040
0.0053004257112761
1071
        1
1040
1.079051535452663
1040
4.148538732891836
1040
0.0
1002
}
  0
ENDBLK
  5
B464
330
AD64
100
AcDbEntity
  8
0
100
AcDbBlockEnd
  0
BLOCK
  5
BE07
330
BC79
100
AcDbEntity
  8
0
100
AcDbBlockBegin
  2
*X97
 70
     1
 10
0.0
 20
0.0
 30
0.0
  3
*X97
  1

  0
LINE
  5
BC7A
330
BC79
100
AcDbEntity
  8
0
  6
CONTINUOUS
100
AcDbLine
 10
3.418023043697893
 20
7.251849696850613
 30
0.0
 11
4.929273346838536
 21
8.763099999991255
 31
0.0
  0
LINE
  5
BC7B
330
BC79
100
AcDbEntity
  8
0
  6
CONTINUOUS
100
AcDbLine
 10
1.483656411257782
 20
4.643963855330318
 30
0.0
 11
5.60279255591872
 21
8.763099999991255
 31
0.0
  0
LINE
  5
BC7C
330
BC79
100
AcDbEntity
  8
0
  6
CONTINUOUS
100
AcDbLine
 10
1.755053947328235
 20
4.241842182320584
 30
0.0
 11
6.276311764998907
 21
8.763099999991255
 31
0.0
  0
LINE
  5
BC7D
330
BC79
100
AcDbEntity
  8
0
  6
CONTINUOUS
100
AcDbLine
 10
2.026451483398688
 20
3.839720509310849
 30
0.0
 11
4.441040904851878
 21
6.254309930764039
 31
0.0
  0
LINE
  5
BC7E
330
BC79
100
AcDbEntity
  8
0
  6
CONTINUOUS
100
AcDbLine
 10
2.297849019469139
 20
3.437598836301114
 30
0.0
 11
3.321765168359338
 21
4.461514985191313
 31
0.0
  0
LINE
  5
BC7F
330
BC79
100
AcDbEntity
  8
0
  6
CONTINUOUS
100
AcDbLine
 10
2.569246555539591
 20
3.03547716329138
 30
0.0
 11
3.593163397972743
 21
4.059394005724531
 31
0.0
  0
LINE
  5
BC80
330
BC79
100
AcDbEntity
  8
0
  6
CONTINUOUS
100
AcDbLine
 10
2.840644091610043
 20
2.633355490281646
 30
0.0
 11
3.864561627586149
 21
3.657273026257751
 31
0.0
  0
LINE
  5
BC81
330
BC79
100
AcDbEntity
  8
0
  6
CONTINUOUS
100
AcDbLine
 10
3.112041627680496
 20
2.231233817271911
 30
0.0
 11
4.135959857199554
 21
3.25515204679097
 31
0.0
  0
LINE
  5
BC82
330
BC79
100
AcDbEntity
  8
0
  6
CONTINUOUS
100
AcDbLine
 10
3.383439163750948
 20
1.829112144262177
 30
0.0
 11
4.40735808681296
 21
2.853031067324189
 31
0.0
  0
LINE
  5
BC83
330
BC79
100
AcDbEntity
  8
0
  6
CONTINUOUS
100
AcDbLine
 10
3.654836699821399
 20
1.426990471252442
 30
0.0
 11
4.678756316426365
 21
2.450910087857407
 31
0.0
  0
LINE
  5
BC84
330
BC79
100
AcDbEntity
  8
0
  6
CONTINUOUS
100
AcDbLine
 10
3.926234235891853
 20
1.024868798242709
 30
0.0
 11
4.95015454603977
 21
2.048789108390626
 31
0.0
  0
LINE
  5
BC85
330
BC79
100
AcDbEntity
  8
0
  6
CONTINUOUS
100
AcDbLine
 10
4.197631771962304
 20
0.6227471252329737
 30
0.0
 11
5.221552775653176
 21
1.646668128923846
 31
0.0
  0
LINE
  5
BC86
330
BC79
100
AcDbEntity
  8
0
  6
CONTINUOUS
100
AcDbLine
 10
8.715877546767851
 20
7.835069736359266
 30
0.0
 11
9.435953450375058
 21
8.555145639966472
 31
0.0
  0
LINE
  5
BC87
330
BC79
100
AcDbEntity
  8
0
  6
CONTINUOUS
100
AcDbLine
 10
8.170620868422267
 20
6.616293848933497
 30
0.0
 11
9.644120833743461
 21
8.08979381425469
 31
0.0
  0
LINE
  5
BC88
330
BC79
100
AcDbEntity
  8
0
  6
CONTINUOUS
100
AcDbLine
 10
7.625364190076684
 20
5.397517961507727
 30
0.0
 11
9.852288217111864
 21
7.624441988542907
 31
0.0
  0
LINE
  5
BC89
330
BC79
100
AcDbEntity
  8
0
  6
CONTINUOUS
100
AcDbLine
 10
7.080107511731101
 20
4.178742074081957
 30
0.0
 11
10.06045560048027
 21
7.159090162831124
 31
0.0
  0
LINE
  5
BC8A
330
BC79
100
AcDbEntity
  8
0
  6
CONTINUOUS
100
AcDbLine
 10
6.534850833385518
 20
2.959966186656187
 30
0.0
 11
10.26862298384867
 21
6.693738337119342
 31
0.0
  0
LINE
  5
BC8B
330
BC79
100
AcDbEntity
  8
0
  6
CONTINUOUS
100
AcDbLine
 10
4.469029308032756
 20
0.2206254522232385
 30
0.0
 11
5.492951005266582
 21
1.244547149457064
 31
0.0
  0
LINE
  5
BC8C
330
BC79
100
AcDbEntity
  8
0
  6
CONTINUOUS
100
AcDbLine
 10
5.989594155039935
 20
1.741190299230417
 30
0.0
 11
8.806950407233131
 21
4.558546551423613
 31
0.0
  0
LINE
  5
BC8D
330
BC79
100
AcDbEntity
  8
0
  6
CONTINUOUS
100
AcDbLine
 10
9.401251593263643
 20
5.152847737454126
 30
0.0
 11
10.47679036721708
 21
6.228386511407559
 31
0.0
  0
LINE
  5
BC8E
330
BC79
100
AcDbEntity
  8
0
  6
CONTINUOUS
100
AcDbLine
 10
4.921837203428691
 20
-0.0000858614610131
 30
0.0
 11
8.592923064886001
 21
3.670999999996297
 31
0.0
  0
LINE
  5
BC8F
330
BC79
100
AcDbEntity
  8
0
  6
CONTINUOUS
100
AcDbLine
 10
9.609390446785305
 20
4.6874673818956
 30
0.0
 11
10.68495775058548
 21
5.763034685695775
 31
0.0
  0
LINE
  5
BC90
330
BC79
100
AcDbEntity
  8
0
  6
CONTINUOUS
100
AcDbLine
 10
5.595387755019432
 20
-0.0000545189504582
 30
0.0
 11
7.716137258923768
 21
2.120694984953879
 31
0.0
  0
LINE
  5
BC91
330
BC79
100
AcDbEntity
  8
0
  6
CONTINUOUS
100
AcDbLine
 10
6.268938306610172
 20
-0.000023176439905
 30
0.0
 11
7.170485805526503
 21
0.9015243224764267
 31
0.0
  0
LINE
  5
BC92
330
BC79
100
AcDbEntity
  8
0
  6
CONTINUOUS
100
AcDbLine
 10
7.963842273967511
 20
2.368399999997621
 30
0.0
 11
9.266442273966188
 21
3.670999999996297
 31
0.0
  0
LINE
  5
BC93
330
BC79
100
AcDbEntity
  8
0
  6
CONTINUOUS
100
AcDbLine
 10
8.637361483047696
 20
2.368399999997621
 30
0.0
 11
9.939961483046375
 21
3.670999999996297
 31
0.0
  0
LINE
  5
BC94
330
BC79
100
AcDbEntity
  8
0
  6
CONTINUOUS
100
AcDbLine
 10
9.817529300306965
 20
4.222087026337075
 30
0.0
 11
10.89312513395388
 21
5.297682859983993
 31
0.0
  0
LINE
  5
BC95
330
BC79
100
AcDbEntity
  8
0
  6
CONTINUOUS
100
AcDbLine
 10
10.02566815382863
 20
3.756706670778549
 30
0.0
 11
11.10129251732229
 21
4.832331034272211
 31
0.0
  0
LINE
  5
BC96
330
BC79
100
AcDbEntity
  8
0
  6
CONTINUOUS
100
AcDbLine
 10
9.310880692127883
 20
2.368399999997621
 30
0.0
 11
11.30945990069069
 21
4.366979208560428
 31
0.0
  0
LINE
  5
BC97
330
BC79
100
AcDbEntity
  8
0
  6
CONTINUOUS
100
AcDbLine
 10
9.98439990120807
 20
2.36839999999762
 30
0.0
 11
11.5176272840591
 21
3.901627382848645
 31
0.0
  0
LINE
  5
BC98
330
BC79
100
AcDbEntity
  8
0
  6
CONTINUOUS
100
AcDbLine
 10
10.65037369446246
 20
2.36085458417182
 30
0.0
 11
11.7257946674275
 21
3.436275557136862
 31
0.0
  0
LINE
  5
BC99
330
BC79
100
AcDbEntity
  8
0
  6
CONTINUOUS
100
AcDbLine
 10
10.85847197087848
 20
1.895433651507656
 30
0.0
 11
11.9339620507959
 21
2.97092373142508
 31
0.0
  0
LINE
  5
BC9A
330
BC79
100
AcDbEntity
  8
0
  6
CONTINUOUS
100
AcDbLine
 10
11.0665702472945
 20
1.430012718843491
 30
0.0
 11
12.14212943416431
 21
2.505571905713296
 31
0.0
  0
LINE
  5
BC9B
330
BC79
100
AcDbEntity
  8
0
  6
CONTINUOUS
100
AcDbLine
 10
11.27466852371052
 20
0.9645917861793256
 30
0.0
 11
12.35029681753271
 21
2.040220080001513
 31
0.0
  0
LINE
  5
BC9C
330
BC79
100
AcDbEntity
  8
0
  6
CONTINUOUS
100
AcDbLine
 10
11.48276680012654
 20
0.4991708535151611
 30
0.0
 11
12.55846420090111
 21
1.57486825428973
 31
0.0
  0
LINE
  5
BC9D
330
BC79
100
AcDbEntity
  8
0
  6
CONTINUOUS
100
AcDbLine
 10
11.69086507654257
 20
0.0337499208509957
 30
0.0
 11
12.76663158426952
 21
1.109516428577947
 31
0.0
  0
LINE
  5
BC9E
330
BC79
100
AcDbEntity
  8
0
  6
CONTINUOUS
100
AcDbLine
 10
12.33057447873954
 20
-0.0000598860322123
 30
0.0
 11
12.97479896763792
 21
0.6441646028661663
 31
0.0
  0
LINE
  5
BC9F
330
BC79
100
AcDbEntity
  8
0
  6
CONTINUOUS
100
AcDbLine
 10
13.00413694809395
 20
-0.0000166257579952
 30
0.0
 11
13.18296635100632
 21
0.1788127771543824
 31
0.0
  0
LINE
  5
BCA0
330
BC79
100
AcDbEntity
  8
0
  6
CONTINUOUS
100
AcDbLine
 10
4.772852165289667
 20
-0.000092794222212
 30
0.0
 11
4.296495091028902
 21
0.4762642800385528
 31
0.0
  0
LINE
  5
BCA1
330
BC79
100
AcDbEntity
  8
0
  6
CONTINUOUS
100
AcDbLine
 10
5.446340034776103
 20
-0.0000614546284616
 30
0.0
 11
2.898195908335625
 21
2.548082671812017
 31
0.0
  0
LINE
  5
BCA2
330
BC79
100
AcDbEntity
  8
0
  6
CONTINUOUS
100
AcDbLine
 10
6.119827904262539
 20
-0.0000301150347113
 30
0.0
 11
1.499896725642348
 21
4.61990106358548
 31
0.0
  0
LINE
  5
BCA3
330
BC79
100
AcDbEntity
  8
0
  6
CONTINUOUS
100
AcDbLine
 10
6.775136745476159
 20
0.0181802528318542
 30
0.0
 11
5.699826040202669
 21
1.093490958105344
 31
0.0
  0
LINE
  5
BCA4
330
BC79
100
AcDbEntity
  8
0
  6
CONTINUOUS
100
AcDbLine
 10
6.983376846288489
 20
0.4834593610997118
 30
0.0
 11
5.908008617934405
 21
1.558827589453796
 31
0.0
  0
LINE
  5
BCA5
330
BC79
100
AcDbEntity
  8
0
  6
CONTINUOUS
100
AcDbLine
 10
5.377063484962296
 20
1.416253513345719
 30
0.0
 11
1.702276957014131
 21
5.091040041293883
 31
0.0
  0
LINE
  5
BCA6
330
BC79
100
AcDbEntity
  8
0
  6
CONTINUOUS
100
AcDbLine
 10
3.978745891735324
 20
3.488090315652877
 30
0.0
 11
2.000373521109399
 21
5.466462686278803
 31
0.0
  0
LINE
  5
BCA7
330
BC79
100
AcDbEntity
  8
0
  6
CONTINUOUS
100
AcDbLine
 10
7.191616947100819
 20
0.948738469367568
 30
0.0
 11
6.11619119566614
 21
2.024164220802247
 31
0.0
  0
LINE
  5
BCA8
330
BC79
100
AcDbEntity
  8
0
  6
CONTINUOUS
100
AcDbLine
 10
7.399857047913149
 20
1.414017577635424
 30
0.0
 11
6.324373773397875
 21
2.489500852150698
 31
0.0
  0
LINE
  5
BCA9
330
BC79
100
AcDbEntity
  8
0
  6
CONTINUOUS
100
AcDbLine
 10
7.608097148725479
 20
1.879296685903281
 30
0.0
 11
6.53255635112961
 21
2.95483748349915
 31
0.0
  0
LINE
  5
BCAA
330
BC79
100
AcDbEntity
  8
0
  6
CONTINUOUS
100
AcDbLine
 10
7.816337249537808
 20
2.344575794171138
 30
0.0
 11
6.740738928861345
 21
3.420174114847601
 31
0.0
  0
LINE
  5
BCAB
330
BC79
100
AcDbEntity
  8
0
  6
CONTINUOUS
100
AcDbLine
 10
3.310241080789734
 20
4.830114335678653
 30
0.0
 11
2.298470085204666
 21
5.84188533126372
 31
0.0
  0
LINE
  5
BCAC
330
BC79
100
AcDbEntity
  8
0
  6
CONTINUOUS
100
AcDbLine
 10
3.60832983563551
 20
5.205544789913063
 30
0.0
 11
2.596566649299935
 21
6.217307976248638
 31
0.0
  0
LINE
  5
BCAD
330
BC79
100
AcDbEntity
  8
0
  6
CONTINUOUS
100
AcDbLine
 10
3.906418590481286
 20
5.580975244147473
 30
0.0
 11
2.894663213395203
 21
6.592730621233557
 31
0.0
  0
LINE
  5
BCAE
330
BC79
100
AcDbEntity
  8
0
  6
CONTINUOUS
100
AcDbLine
 10
4.204507345327062
 20
5.956405698381884
 30
0.0
 11
3.192759777490472
 21
6.968153266218474
 31
0.0
  0
LINE
  5
BCAF
330
BC79
100
AcDbEntity
  8
0
  6
CONTINUOUS
100
AcDbLine
 10
8.466032252791512
 20
2.368399999997621
 30
0.0
 11
6.948921506593081
 21
3.885510746196053
 31
0.0
  0
LINE
  5
BCB0
330
BC79
100
AcDbEntity
  8
0
  6
CONTINUOUS
100
AcDbLine
 10
9.139551461871699
 20
2.36839999999762
 30
0.0
 11
7.157104084324816
 21
4.350847377544504
 31
0.0
  0
LINE
  5
BCB1
330
BC79
100
AcDbEntity
  8
0
  6
CONTINUOUS
100
AcDbLine
 10
4.502596100172839
 20
6.331836152616295
 30
0.0
 11
3.49085634158574
 21
7.343575911203393
 31
0.0
  0
LINE
  5
BCB2
330
BC79
100
AcDbEntity
  8
0
  6
CONTINUOUS
100
AcDbLine
 10
4.800684855018615
 20
6.707266606850705
 30
0.0
 11
3.788952905681008
 21
7.718998556188312
 31
0.0
  0
LINE
  5
BCB3
330
BC79
100
AcDbEntity
  8
0
  6
CONTINUOUS
100
AcDbLine
 10
12.18154012887317
 20
-0.0000694579236642
 30
0.0
 11
11.32140332908496
 21
0.8600673418645499
 31
0.0
  0
LINE
  5
BCB4
330
BC79
100
AcDbEntity
  8
0
  6
CONTINUOUS
100
AcDbLine
 10
12.85501608323566
 20
-0.0000262032059659
 30
0.0
 11
10.77672456435345
 21
2.078265315676246
 31
0.0
  0
LINE
  5
BCB5
330
BC79
100
AcDbEntity
  8
0
  6
CONTINUOUS
100
AcDbLine
 10
9.813070670951886
 20
2.36839999999762
 30
0.0
 11
8.51047067095321
 21
3.670999999996297
 31
0.0
  0
LINE
  5
BCB6
330
BC79
100
AcDbEntity
  8
0
  6
CONTINUOUS
100
AcDbLine
 10
10.48658988003207
 20
2.36839999999762
 30
0.0
 11
9.183989880033396
 21
3.670999999996297
 31
0.0
  0
LINE
  5
BCB7
330
BC79
100
AcDbEntity
  8
0
  6
CONTINUOUS
100
AcDbLine
 10
8.441048632286794
 20
3.740422038662712
 30
0.0
 11
7.365286662056551
 21
4.816184008892956
 31
0.0
  0
LINE
  5
BCB8
330
BC79
100
AcDbEntity
  8
0
  6
CONTINUOUS
100
AcDbLine
 10
8.649187485808454
 20
4.205802394221237
 30
0.0
 11
7.573469239788285
 21
5.281520640241407
 31
0.0
  0
LINE
  5
BCB9
330
BC79
100
AcDbEntity
  8
0
  6
CONTINUOUS
100
AcDbLine
 10
5.098773609864391
 20
7.082697061085115
 30
0.0
 11
4.087049469776277
 21
8.09442120117323
 31
0.0
  0
LINE
  5
BCBA
330
BC79
100
AcDbEntity
  8
0
  6
CONTINUOUS
100
AcDbLine
 10
5.396862364710167
 20
7.458127515319526
 30
0.0
 11
4.385146033871544
 21
8.469843846158149
 31
0.0
  0
LINE
  5
BCBB
330
BC79
100
AcDbEntity
  8
0
  6
CONTINUOUS
100
AcDbLine
 10
13.04801363231285
 20
0.4804954567970334
 30
0.0
 11
9.85750908911358
 21
3.670999999996297
 31
0.0
  0
LINE
  5
BCBC
330
BC79
100
AcDbEntity
  8
0
  6
CONTINUOUS
100
AcDbLine
 10
8.857326339330116
 20
4.671182749779763
 30
0.0
 11
7.781651817520021
 21
5.746857271589858
 31
0.0
  0
LINE
  5
BCBD
330
BC79
100
AcDbEntity
  8
0
  6
CONTINUOUS
100
AcDbLine
 10
5.694951119555943
 20
7.833557969553937
 30
0.0
 11
4.765409089118624
 21
8.763099999991255
 31
0.0
  0
LINE
  5
BCBE
330
BC79
100
AcDbEntity
  8
0
  6
CONTINUOUS
100
AcDbLine
 10
12.50286117236978
 20
1.699167125820288
 30
0.0
 11
9.68611877250287
 21
4.515909525687196
 31
0.0
  0
LINE
  5
BCBF
330
BC79
100
AcDbEntity
  8
0
  6
CONTINUOUS
100
AcDbLine
 10
9.065465192851777
 20
5.136563105338288
 30
0.0
 11
7.989834395251757
 21
6.21219390293831
 31
0.0
  0
LINE
  5
BCC0
330
BC79
100
AcDbEntity
  8
0
  6
CONTINUOUS
100
AcDbLine
 10
5.993039874401719
 20
8.208988423788346
 30
0.0
 11
5.43892829819881
 21
8.763099999991255
 31
0.0
  0
LINE
  5
BCC1
330
BC79
100
AcDbEntity
  8
0
  6
CONTINUOUS
100
AcDbLine
 10
11.95770871242671
 20
2.917838794843543
 30
0.0
 11
8.19801697298349
 21
6.677530534286761
 31
0.0
  0
LINE
  5
BCC2
330
BC79
100
AcDbEntity
  8
0
  6
CONTINUOUS
100
AcDbLine
 10
6.291128629247495
 20
8.584418878022756
 30
0.0
 11
6.112447507278997
 21
8.763099999991255
 31
0.0
  0
LINE
  5
BCC3
330
BC79
100
AcDbEntity
  8
0
  6
CONTINUOUS
100
AcDbLine
 10
11.41255625248364
 20
4.136510463866797
 30
0.0
 11
8.406199550715227
 21
7.142867165635211
 31
0.0
  0
LINE
  5
BCC4
330
BC79
100
AcDbEntity
  8
0
  6
CONTINUOUS
100
AcDbLine
 10
10.86740379254057
 20
5.355182132890051
 30
0.0
 11
8.614382128446962
 21
7.608203796983664
 31
0.0
  0
LINE
  5
BCC5
330
BC79
100
AcDbEntity
  8
0
  6
CONTINUOUS
100
AcDbLine
 10
10.3222513325975
 20
6.573853801913305
 30
0.0
 11
8.822564706178696
 21
8.073540428332114
 31
0.0
  0
LINE
  5
BCC6
330
BC79
100
AcDbEntity
  8
0
  6
CONTINUOUS
100
AcDbLine
 10
9.777098872654436
 20
7.792525470936562
 30
0.0
 11
9.030747283910433
 21
8.538877059680566
 31
0.0
  0
ENDBLK
  5
BE08
330
BC79
100
AcDbEntity
  8
0
100
AcDbBlockEnd
  0
BLOCK
  5
BE09
330
BCC7
100
AcDbEntity
  8
0
100
AcDbBlockBegin
  2
*X98
 70
     1
 10
0.0
 20
0.0
 30
0.0
  3
*X98
  1

  0
LINE
  5
BCC8
330
BCC7
100
AcDbEntity
  8
0
  6
CONTINUOUS
100
AcDbLine
 10
10.67292308101235
 20
8.445076852443387
 30
0.0
 11
10.99094622856022
 21
8.763099999991255
 31
0.0
  0
LINE
  5
BCC9
330
BCC7
100
AcDbEntity
  8
0
  6
CONTINUOUS
100
AcDbLine
 10
10.87250383178748
 20
7.971138394138331
 30
0.0
 11
11.6644654376404
 21
8.763099999991255
 31
0.0
  0
LINE
  5
BCCA
330
BCC7
100
AcDbEntity
  8
0
  6
CONTINUOUS
100
AcDbLine
 10
11.07208458256261
 20
7.497199935833273
 30
0.0
 11
12.12126590876355
 21
8.546381262034211
 31
0.0
  0
LINE
  5
BCCB
330
BCC7
100
AcDbEntity
  8
0
  6
CONTINUOUS
100
AcDbLine
 10
11.27166533333774
 20
7.023261477528216
 30
0.0
 11
12.32085164573666
 21
8.072447789927136
 31
0.0
  0
LINE
  5
BCCC
330
BCC7
100
AcDbEntity
  8
0
  6
CONTINUOUS
100
AcDbLine
 10
11.47124608411287
 20
6.549323019223158
 30
0.0
 11
12.52043738270977
 21
7.59851431782006
 31
0.0
  0
LINE
  5
BCCD
330
BCC7
100
AcDbEntity
  8
0
  6
CONTINUOUS
100
AcDbLine
 10
11.670826834888
 20
6.075384560918101
 30
0.0
 11
12.72002311968288
 21
7.124580845712984
 31
0.0
  0
LINE
  5
BCCE
330
BCC7
100
AcDbEntity
  8
0
  6
CONTINUOUS
100
AcDbLine
 10
11.87040758566313
 20
5.601446102613043
 30
0.0
 11
12.91960885665599
 21
6.650647373605907
 31
0.0
  0
LINE
  5
BCCF
330
BCC7
100
AcDbEntity
  8
0
  6
CONTINUOUS
100
AcDbLine
 10
12.06998833643825
 20
5.127507644307986
 30
0.0
 11
13.1191945936291
 21
6.176713901498832
 31
0.0
  0
LINE
  5
BCD0
330
BCC7
100
AcDbEntity
  8
0
  6
CONTINUOUS
100
AcDbLine
 10
12.26956908721338
 20
4.65356918600293
 30
0.0
 11
13.31878033060221
 21
5.702780429391757
 31
0.0
  0
LINE
  5
BCD1
330
BCC7
100
AcDbEntity
  8
0
  6
CONTINUOUS
100
AcDbLine
 10
12.46914983798851
 20
4.179630727697873
 30
0.0
 11
13.51836606757532
 21
5.228846957284683
 31
0.0
  0
LINE
  5
BCD2
330
BCC7
100
AcDbEntity
  8
0
  6
CONTINUOUS
100
AcDbLine
 10
12.66873058876364
 20
3.705692269392816
 30
0.0
 11
13.71795180454843
 21
4.754913485177607
 31
0.0
  0
LINE
  5
BCD3
330
BCC7
100
AcDbEntity
  8
0
  6
CONTINUOUS
100
AcDbLine
 10
12.86831133953877
 20
3.231753811087759
 30
0.0
 11
13.91753754152154
 21
4.280980013070531
 31
0.0
  0
LINE
  5
BCD4
330
BCC7
100
AcDbEntity
  8
0
  6
CONTINUOUS
100
AcDbLine
 10
13.0678920903139
 20
2.757815352782702
 30
0.0
 11
14.11712327849465
 21
3.807046540963456
 31
0.0
  0
LINE
  5
BCD5
330
BCC7
100
AcDbEntity
  8
0
  6
CONTINUOUS
100
AcDbLine
 10
13.26747284108903
 20
2.283876894477644
 30
0.0
 11
14.31670901546777
 21
3.333113068856379
 31
0.0
  0
LINE
  5
BCD6
330
BCC7
100
AcDbEntity
  8
0
  6
CONTINUOUS
100
AcDbLine
 10
16.36767838827179
 20
8.751678487061342
 30
0.0
 11
16.50332410898388
 21
8.887324207773432
 31
0.0
  0
LINE
  5
BCD7
330
BCC7
100
AcDbEntity
  8
0
  6
CONTINUOUS
100
AcDbLine
 10
15.96190732182191
 20
7.67238821153127
 30
0.0
 11
16.68735328004734
 21
8.397834169756699
 31
0.0
  0
LINE
  5
BCD8
330
BCC7
100
AcDbEntity
  8
0
  6
CONTINUOUS
100
AcDbLine
 10
15.55613625537202
 20
6.593097936001196
 30
0.0
 11
16.87138245111079
 21
7.908344131739965
 31
0.0
  0
LINE
  5
BCD9
330
BCC7
100
AcDbEntity
  8
0
  6
CONTINUOUS
100
AcDbLine
 10
15.15036518892213
 20
5.513807660471122
 30
0.0
 11
17.05541162217424
 21
7.418854093723231
 31
0.0
  0
LINE
  5
BCDA
330
BCC7
100
AcDbEntity
  8
0
  6
CONTINUOUS
100
AcDbLine
 10
14.74459412247225
 20
4.434517384941048
 30
0.0
 11
17.2394407932377
 21
6.929364055706499
 31
0.0
  0
LINE
  5
BCDB
330
BCC7
100
AcDbEntity
  8
0
  6
CONTINUOUS
100
AcDbLine
 10
14.33882305602236
 20
3.355227109410975
 30
0.0
 11
17.42346996430115
 21
6.439874017689766
 31
0.0
  0
LINE
  5
BCDC
330
BCC7
100
AcDbEntity
  8
0
  6
CONTINUOUS
100
AcDbLine
 10
13.46705359186416
 20
1.809938436172586
 30
0.0
 11
16.0819338255367
 21
4.424818669845129
 31
0.0
  0
LINE
  5
BCDD
330
BCC7
100
AcDbEntity
  8
0
  6
CONTINUOUS
100
AcDbLine
 10
16.63283254238972
 20
4.975717386698149
 30
0.0
 11
17.60749913536461
 21
5.950383979673033
 31
0.0
  0
LINE
  5
BCDE
330
BCC7
100
AcDbEntity
  8
0
  6
CONTINUOUS
100
AcDbLine
 10
13.66663434263929
 20
1.335999977867529
 30
0.0
 11
15.67604797733754
 21
3.345413612565779
 31
0.0
  0
LINE
  5
BCDF
330
BCC7
100
AcDbEntity
  8
0
  6
CONTINUOUS
100
AcDbLine
 10
13.86621509341442
 20
0.8620615195624723
 30
0.0
 11
15.27016212913838
 21
2.26600855528643
 31
0.0
  0
LINE
  5
BCE0
330
BCC7
100
AcDbEntity
  8
0
  6
CONTINUOUS
100
AcDbLine
 10
16.81682257348267
 20
4.486188208710908
 30
0.0
 11
17.79152830642806
 21
5.460893941656299
 31
0.0
  0
LINE
  5
BCE1
330
BCC7
100
AcDbEntity
  8
0
  6
CONTINUOUS
100
AcDbLine
 10
17.00081260457561
 20
3.996659030723667
 30
0.0
 11
17.97555747749151
 21
4.971403903639565
 31
0.0
  0
LINE
  5
BCE2
330
BCC7
100
AcDbEntity
  8
0
  6
CONTINUOUS
100
AcDbLine
 10
20.74362343514722
 20
8.412989070375462
 30
0.0
 11
21.09373436476302
 21
8.763099999991256
 31
0.0
  0
LINE
  5
BCE3
330
BCC7
100
AcDbEntity
  8
0
  6
CONTINUOUS
100
AcDbLine
 10
20.25401257174777
 20
7.249858997895826
 30
0.0
 11
21.7672535738432
 21
8.763099999991255
 31
0.0
  0
LINE
  5
BCE4
330
BCC7
100
AcDbEntity
  8
0
  6
CONTINUOUS
100
AcDbLine
 10
14.06579584418955
 20
0.3881230612574149
 30
0.0
 11
14.86427628093921
 21
1.186603498007082
 31
0.0
  0
LINE
  5
BCE5
330
BCC7
100
AcDbEntity
  8
0
  6
CONTINUOUS
100
AcDbLine
 10
14.26537659496467
 20
-0.0858153970476412
 30
0.0
 11
14.45839043274005
 21
0.1071984407277329
 31
0.0
  0
LINE
  5
BCE6
330
BCC7
100
AcDbEntity
  8
0
  6
CONTINUOUS
100
AcDbLine
 10
17.18480263566856
 20
3.507129852736426
 30
0.0
 11
18.15958664855496
 21
4.481913865622833
 31
0.0
  0
LINE
  5
BCE7
330
BCC7
100
AcDbEntity
  8
0
  6
CONTINUOUS
100
AcDbLine
 10
17.3687926667615
 20
3.017600674749186
 30
0.0
 11
18.34361581961842
 21
3.9924238276061
 31
0.0
  0
LINE
  5
BCE8
330
BCC7
100
AcDbEntity
  8
0
  6
CONTINUOUS
100
AcDbLine
 10
19.76440170834832
 20
6.086728925416191
 30
0.0
 11
22.33924590259489
 21
8.661573119662755
 31
0.0
  0
LINE
  5
BCE9
330
BCC7
100
AcDbEntity
  8
0
  6
CONTINUOUS
100
AcDbLine
 10
19.27479084494887
 20
4.923598852936555
 30
0.0
 11
21.84929622842713
 21
7.498104236414807
 31
0.0
  0
LINE
  5
BCEA
330
BCC7
100
AcDbEntity
  8
0
  6
CONTINUOUS
100
AcDbLine
 10
17.55278269785445
 20
2.528071496761945
 30
0.0
 11
18.52764499068187
 21
3.502933789589366
 31
0.0
  0
LINE
  5
BCEB
330
BCC7
100
AcDbEntity
  8
0
  6
CONTINUOUS
100
AcDbLine
 10
18.78517998154942
 20
3.760468780456919
 30
0.0
 11
21.35934655425936
 21
6.33463535316686
 31
0.0
  0
LINE
  5
BCEC
330
BCC7
100
AcDbEntity
  8
0
  6
CONTINUOUS
100
AcDbLine
 10
17.73677272894739
 20
2.038542318774704
 30
0.0
 11
20.8693968800916
 21
5.171166469918914
 31
0.0
  0
LINE
  5
BCED
330
BCC7
100
AcDbEntity
  8
0
  6
CONTINUOUS
100
AcDbLine
 10
17.92076276004034
 20
1.549013140787464
 30
0.0
 11
20.37944720592384
 21
4.007697586670968
 31
0.0
  0
LINE
  5
BCEE
330
BCC7
100
AcDbEntity
  8
0
  6
CONTINUOUS
100
AcDbLine
 10
18.10475279113329
 20
1.059483962800223
 30
0.0
 11
19.88949753175608
 21
2.84422870342302
 31
0.0
  0
LINE
  5
BCEF
330
BCC7
100
AcDbEntity
  8
0
  6
CONTINUOUS
100
AcDbLine
 10
18.28874282222623
 20
0.5699547848129822
 30
0.0
 11
19.39954785758832
 21
1.680759820175074
 31
0.0
  0
LINE
  5
BCF0
330
BCC7
100
AcDbEntity
  8
0
  6
CONTINUOUS
100
AcDbLine
 10
18.47273285331918
 20
0.0804256068257416
 30
0.0
 11
18.90959818342056
 21
0.517290936927127
 31
0.0
  0
LINE
  5
BCF1
330
BCC7
100
AcDbEntity
  8
0
  6
CONTINUOUS
100
AcDbLine
 10
14.3590401358224
 20
-0.1570118376323384
 30
0.0
 11
14.24903296539946
 21
-0.0470046672093929
 31
0.0
  0
LINE
  5
BCF2
330
BCC7
100
AcDbEntity
  8
0
  6
CONTINUOUS
100
AcDbLine
 10
14.54309291258661
 20
0.332454594683643
 30
0.0
 11
13.75908329123172
 21
1.116464216038529
 31
0.0
  0
LINE
  5
BCF3
330
BCC7
100
AcDbEntity
  8
0
  6
CONTINUOUS
100
AcDbLine
 10
14.72714568935081
 20
0.8219210269996244
 30
0.0
 11
13.26913361706399
 21
2.27993309928645
 31
0.0
  0
LINE
  5
BCF4
330
BCC7
100
AcDbEntity
  8
0
  6
CONTINUOUS
100
AcDbLine
 10
14.91119846611502
 20
1.311387459315606
 30
0.0
 11
12.77918394289625
 21
3.443401982534371
 31
0.0
  0
LINE
  5
BCF5
330
BCC7
100
AcDbEntity
  8
0
  6
CONTINUOUS
100
AcDbLine
 10
15.09525124287922
 20
1.800853891631587
 30
0.0
 11
12.28923426872852
 21
4.606870865782293
 31
0.0
  0
LINE
  5
BCF6
330
BCC7
100
AcDbEntity
  8
0
  6
CONTINUOUS
100
AcDbLine
 10
15.27930401964343
 20
2.290320323947569
 30
0.0
 11
11.79928459456078
 21
5.770339749030213
 31
0.0
  0
LINE
  5
BCF7
330
BCC7
100
AcDbEntity
  8
0
  6
CONTINUOUS
100
AcDbLine
 10
15.46335679640763
 20
2.77978675626355
 30
0.0
 11
14.48885470994921
 21
3.754288842721972
 31
0.0
  0
LINE
  5
BCF8
330
BCC7
100
AcDbEntity
  8
0
  6
CONTINUOUS
100
AcDbLine
 10
13.88507249233704
 20
4.358071060334137
 30
0.0
 11
11.30933492039305
 21
6.933808632278135
 31
0.0
  0
LINE
  5
BCF9
330
BCC7
100
AcDbEntity
  8
0
  6
CONTINUOUS
100
AcDbLine
 10
18.75840522805855
 20
0.1582575336928151
 30
0.0
 11
18.25383727664818
 21
0.6628254851031863
 31
0.0
  0
LINE
  5
BCFA
330
BCC7
100
AcDbEntity
  8
0
  6
CONTINUOUS
100
AcDbLine
 10
15.64740957317184
 20
3.269253188579531
 30
0.0
 11
14.67288388101266
 21
4.243778880738705
 31
0.0
  0
LINE
  5
BCFB
330
BCC7
100
AcDbEntity
  8
0
  6
CONTINUOUS
100
AcDbLine
 10
13.39509276772158
 20
5.521569994029786
 30
0.0
 11
10.81938524622531
 21
8.097277515526056
 31
0.0
  0
LINE
  5
BCFC
330
BCC7
100
AcDbEntity
  8
0
  6
CONTINUOUS
100
AcDbLine
 10
18.95798597883369
 20
0.6321959919978686
 30
0.0
 11
17.84825644852853
 21
1.741925522303024
 31
0.0
  0
LINE
  5
BCFD
330
BCC7
100
AcDbEntity
  8
0
  6
CONTINUOUS
100
AcDbLine
 10
19.15756672960882
 20
1.106134450302922
 30
0.0
 11
17.44267562040888
 21
2.821025559502861
 31
0.0
  0
LINE
  5
BCFE
330
BCC7
100
AcDbEntity
  8
0
  6
CONTINUOUS
100
AcDbLine
 10
15.83146234993604
 20
3.758719620895513
 30
0.0
 11
14.85691305207612
 21
4.733268918755439
 31
0.0
  0
LINE
  5
BCFF
330
BCC7
100
AcDbEntity
  8
0
  6
CONTINUOUS
100
AcDbLine
 10
16.01551512670025
 20
4.248186053211494
 30
0.0
 11
15.04094222313957
 21
5.222758956772172
 31
0.0
  0
LINE
  5
BD00
330
BCC7
100
AcDbEntity
  8
0
  6
CONTINUOUS
100
AcDbLine
 10
12.90511304310612
 20
6.685068927725435
 30
0.0
 11
10.8270819708403
 21
8.763099999991255
 31
0.0
  0
LINE
  5
BD01
330
BCC7
100
AcDbEntity
  8
0
  6
CONTINUOUS
100
AcDbLine
 10
12.41513331849066
 20
7.848567861421083
 30
0.0
 11
11.50060117992049
 21
8.763099999991255
 31
0.0
  0
LINE
  5
BD02
330
BCC7
100
AcDbEntity
  8
0
  6
CONTINUOUS
100
AcDbLine
 10
19.35714748038395
 20
1.580072908607975
 30
0.0
 11
17.03709479228923
 21
3.900125596702697
 31
0.0
  0
LINE
  5
BD03
330
BCC7
100
AcDbEntity
  8
0
  6
CONTINUOUS
100
AcDbLine
 10
19.55672823115909
 20
2.054011366913028
 30
0.0
 11
16.63151396416958
 21
4.979225633902534
 31
0.0
  0
LINE
  5
BD04
330
BCC7
100
AcDbEntity
  8
0
  6
CONTINUOUS
100
AcDbLine
 10
16.19956790346445
 20
4.737652485527476
 30
0.0
 11
15.22497139420302
 21
5.712248994788904
 31
0.0
  0
LINE
  5
BD05
330
BCC7
100
AcDbEntity
  8
0
  6
CONTINUOUS
100
AcDbLine
 10
16.38362068022866
 20
5.227118917843457
 30
0.0
 11
15.40900056526648
 21
6.201739032805637
 31
0.0
  0
LINE
  5
BD06
330
BCC7
100
AcDbEntity
  8
0
  6
CONTINUOUS
100
AcDbLine
 10
19.75630898193422
 20
2.527949825218081
 30
0.0
 11
18.70774536448286
 21
3.576513442669441
 31
0.0
  0
LINE
  5
BD07
330
BCC7
100
AcDbEntity
  8
0
  6
CONTINUOUS
100
AcDbLine
 10
19.95588973270936
 20
3.001888283523134
 30
0.0
 11
18.90726987211446
 21
4.050508144118028
 31
0.0
  0
LINE
  5
BD08
330
BCC7
100
AcDbEntity
  8
0
  6
CONTINUOUS
100
AcDbLine
 10
20.15547048348449
 20
3.475826741828186
 30
0.0
 11
19.10679437974606
 21
4.524502845566614
 31
0.0
  0
LINE
  5
BD09
330
BCC7
100
AcDbEntity
  8
0
  6
CONTINUOUS
100
AcDbLine
 10
20.35505123425962
 20
3.94976520013324
 30
0.0
 11
19.30631888737766
 21
4.998497547015201
 31
0.0
  0
LINE
  5
BD0A
330
BCC7
100
AcDbEntity
  8
0
  6
CONTINUOUS
100
AcDbLine
 10
20.55463198503475
 20
4.423703658438292
 30
0.0
 11
19.50584339500926
 21
5.472492248463787
 31
0.0
  0
LINE
  5
BD0B
330
BCC7
100
AcDbEntity
  8
0
  6
CONTINUOUS
100
AcDbLine
 10
18.37481191085755
 20
3.909446896294752
 30
0.0
 11
15.59302973632993
 21
6.691229070822371
 31
0.0
  0
LINE
  5
BD0C
330
BCC7
100
AcDbEntity
  8
0
  6
CONTINUOUS
100
AcDbLine
 10
17.96904084440766
 20
4.988737171824825
 30
0.0
 11
15.77705890739338
 21
7.180719108839104
 31
0.0
  0
LINE
  5
BD0D
330
BCC7
100
AcDbEntity
  8
0
  6
CONTINUOUS
100
AcDbLine
 10
17.56326977795777
 20
6.068027447354899
 30
0.0
 11
15.96108807845684
 21
7.670209146855838
 31
0.0
  0
LINE
  5
BD0E
330
BCC7
100
AcDbEntity
  8
0
  6
CONTINUOUS
100
AcDbLine
 10
17.15749871150789
 20
7.147317722884972
 30
0.0
 11
16.14511724952029
 21
8.15969918487257
 31
0.0
  0
LINE
  5
BD0F
330
BCC7
100
AcDbEntity
  8
0
  6
CONTINUOUS
100
AcDbLine
 10
16.751727645058
 20
8.226607998415046
 30
0.0
 11
16.32914642058374
 21
8.649189222889303
 31
0.0
  0
LINE
  5
BD10
330
BCC7
100
AcDbEntity
  8
0
  6
CONTINUOUS
100
AcDbLine
 10
20.75421273580989
 20
4.897642116743345
 30
0.0
 11
19.70536790264086
 21
5.946486949912374
 31
0.0
  0
LINE
  5
BD11
330
BCC7
100
AcDbEntity
  8
0
  6
CONTINUOUS
100
AcDbLine
 10
20.95379348658502
 20
5.371580575048398
 30
0.0
 11
19.90489241027246
 21
6.42048165136096
 31
0.0
  0
LINE
  5
BD12
330
BCC7
100
AcDbEntity
  8
0
  6
CONTINUOUS
100
AcDbLine
 10
21.15337423736015
 20
5.845519033353452
 30
0.0
 11
20.10441691790406
 21
6.894476352809547
 31
0.0
  0
LINE
  5
BD13
330
BCC7
100
AcDbEntity
  8
0
  6
CONTINUOUS
100
AcDbLine
 10
21.35295498813529
 20
6.319457491658505
 30
0.0
 11
20.30394142553566
 21
7.368471054258134
 31
0.0
  0
LINE
  5
BD14
330
BCC7
100
AcDbEntity
  8
0
  6
CONTINUOUS
100
AcDbLine
 10
21.55253573891042
 20
6.793395949963558
 30
0.0
 11
20.50346593316726
 21
7.842465755706721
 31
0.0
  0
LINE
  5
BD15
330
BCC7
100
AcDbEntity
  8
0
  6
CONTINUOUS
100
AcDbLine
 10
21.75211648968556
 20
7.267334408268612
 30
0.0
 11
20.70299044079886
 21
8.316460457155308
 31
0.0
  0
LINE
  5
BD16
330
BCC7
100
AcDbEntity
  8
0
  6
CONTINUOUS
100
AcDbLine
 10
21.95169724046069
 20
7.741272866573663
 30
0.0
 11
20.9298701070431
 21
8.763099999991256
 31
0.0
  0
LINE
  5
BD17
330
BCC7
100
AcDbEntity
  8
0
  6
CONTINUOUS
100
AcDbLine
 10
22.15127799123582
 20
8.215211324878716
 30
0.0
 11
21.60338931612328
 21
8.763099999991256
 31
0.0
  0
LINE
  5
BD18
330
BCC7
100
AcDbEntity
  8
0
  6
CONTINUOUS
100
AcDbLine
 10
22.35085874201096
 20
8.689149783183769
 30
0.0
 11
22.27690852520347
 21
8.763099999991255
 31
0.0
  0
ENDBLK
  5
BE0A
330
BCC7
100
AcDbEntity
  8
0
100
AcDbBlockEnd
  0
BLOCK
  5
BE0B
330
BD19
100
AcDbEntity
  8
0
100
AcDbBlockBegin
  2
*X99
 70
     1
 10
0.0
 20
0.0
 30
0.0
  3
*X99
  1

  0
LINE
  5
BD1A
330
BD19
100
AcDbEntity
  8
0
  6
CONTINUOUS
100
AcDbLine
 10
23.19462913593892
 20
8.169917934846424
 30
0.0
 11
23.70775465517246
 21
8.683043454079957
 31
0.0
  0
LINE
  5
BD1B
330
BD19
100
AcDbEntity
  8
0
  6
CONTINUOUS
100
AcDbLine
 10
22.64923161835078
 20
6.951001208178088
 30
0.0
 11
23.9159364069932
 21
8.217705996820516
 31
0.0
  0
LINE
  5
BD1C
330
BD19
100
AcDbEntity
  8
0
  6
CONTINUOUS
100
AcDbLine
 10
22.10383410076263
 20
5.732084481509751
 30
0.0
 11
24.12411815881395
 21
7.752368539561078
 31
0.0
  0
LINE
  5
BD1D
330
BD19
100
AcDbEntity
  8
0
  6
CONTINUOUS
100
AcDbLine
 10
21.55843658317447
 20
4.513167754841414
 30
0.0
 11
24.3322999106347
 21
7.287031082301639
 31
0.0
  0
LINE
  5
BD1E
330
BD19
100
AcDbEntity
  8
0
  6
CONTINUOUS
100
AcDbLine
 10
21.01303906558632
 20
3.294251028173077
 30
0.0
 11
24.54048166245544
 21
6.821693625042199
 31
0.0
  0
LINE
  5
BD1F
330
BD19
100
AcDbEntity
  8
0
  6
CONTINUOUS
100
AcDbLine
 10
20.46764154799817
 20
2.075334301504738
 30
0.0
 11
23.28571549467848
 21
4.89340824818505
 31
0.0
  0
LINE
  5
BD20
330
BD19
100
AcDbEntity
  8
0
  6
CONTINUOUS
100
AcDbLine
 10
19.92224403041002
 20
0.8564175748364002
 30
0.0
 11
22.74075865492779
 21
3.674932199354171
 31
0.0
  0
LINE
  5
BD21
330
BD19
100
AcDbEntity
  8
0
  6
CONTINUOUS
100
AcDbLine
 10
23.67305085490148
 20
5.280743608408048
 30
0.0
 11
24.74866341427619
 21
6.356356167782759
 31
0.0
  0
LINE
  5
BD22
330
BD19
100
AcDbEntity
  8
0
  6
CONTINUOUS
100
AcDbLine
 10
23.88118970842314
 20
4.815363252849522
 30
0.0
 11
24.95684516609694
 21
5.89101871052332
 31
0.0
  0
LINE
  5
BD23
330
BD19
100
AcDbEntity
  8
0
  6
CONTINUOUS
100
AcDbLine
 10
19.73925852647308
 20
-0.0000871381807288
 30
0.0
 11
23.4103456646501
 21
3.670999999996297
 31
0.0
  0
LINE
  5
BD24
330
BD19
100
AcDbEntity
  8
0
  6
CONTINUOUS
100
AcDbLine
 10
24.0893285619448
 20
4.349982897290997
 30
0.0
 11
25.16502691791769
 21
5.42568125326388
 31
0.0
  0
LINE
  5
BD25
330
BD19
100
AcDbEntity
  8
0
  6
CONTINUOUS
100
AcDbLine
 10
20.41282099582748
 20
-0.0000438779065108
 30
0.0
 11
21.64944178675636
 21
1.236576913022366
 31
0.0
  0
LINE
  5
BD26
330
BD19
100
AcDbEntity
  8
0
  6
CONTINUOUS
100
AcDbLine
 10
22.78126487373161
 20
2.36839999999762
 30
0.0
 11
24.08386487373029
 21
3.670999999996297
 31
0.0
  0
LINE
  5
BD27
330
BD19
100
AcDbEntity
  8
0
  6
CONTINUOUS
100
AcDbLine
 10
24.29746741546646
 20
3.884602541732471
 30
0.0
 11
25.37320866973843
 21
4.960343796004441
 31
0.0
  0
LINE
  5
BD28
330
BD19
100
AcDbEntity
  8
0
  6
CONTINUOUS
100
AcDbLine
 10
21.08638346518189
 20
-0.0000006176322938
 30
0.0
 11
21.10379033335899
 21
0.0174062505448083
 31
0.0
  0
LINE
  5
BD29
330
BD19
100
AcDbEntity
  8
0
  6
CONTINUOUS
100
AcDbLine
 10
23.4547840828118
 20
2.36839999999762
 30
0.0
 11
25.58139042155918
 21
4.495006338745002
 31
0.0
  0
LINE
  5
BD2A
330
BD19
100
AcDbEntity
  8
0
  6
CONTINUOUS
100
AcDbLine
 10
29.30199999996933
 20
8.215615917155148
 30
0.0
 11
29.84948408280543
 21
8.763099999991255
 31
0.0
  0
LINE
  5
BD2B
330
BD19
100
AcDbEntity
  8
0
  6
CONTINUOUS
100
AcDbLine
 10
24.12830329189199
 20
2.36839999999762
 30
0.0
 11
25.78957217337993
 21
4.029668881485562
 31
0.0
  0
LINE
  5
BD2C
330
BD19
100
AcDbEntity
  8
0
  6
CONTINUOUS
100
AcDbLine
 10
29.30199999996933
 20
7.54209670807496
 30
0.0
 11
30.52300329188562
 21
8.763099999991255
 31
0.0
  0
LINE
  5
BD2D
330
BD19
100
AcDbEntity
  8
0
  6
CONTINUOUS
100
AcDbLine
 10
24.80182250097217
 20
2.36839999999762
 30
0.0
 11
25.99775392520067
 21
3.564331424226122
 31
0.0
  0
LINE
  5
BD2E
330
BD19
100
AcDbEntity
  8
0
  6
CONTINUOUS
100
AcDbLine
 10
29.30199999996933
 20
6.868577498994774
 30
0.0
 11
30.74199999996926
 21
8.308577498994712
 31
0.0
  0
LINE
  5
BD2F
330
BD19
100
AcDbEntity
  8
0
  6
CONTINUOUS
100
AcDbLine
 10
25.13028238392013
 20
2.023340673865392
 30
0.0
 11
26.20593567702142
 21
3.098993966966683
 31
0.0
  0
LINE
  5
BD30
330
BD19
100
AcDbEntity
  8
0
  6
CONTINUOUS
100
AcDbLine
 10
25.33838066033617
 20
1.557919741201244
 30
0.0
 11
26.41411742884217
 21
2.633656509707244
 31
0.0
  0
LINE
  5
BD31
330
BD19
100
AcDbEntity
  8
0
  6
CONTINUOUS
100
AcDbLine
 10
25.54647893675221
 20
1.092498808537098
 30
0.0
 11
26.62229918066291
 21
2.168319052447804
 31
0.0
  0
LINE
  5
BD32
330
BD19
100
AcDbEntity
  8
0
  6
CONTINUOUS
100
AcDbLine
 10
25.75457721316825
 20
0.62707787587295
 30
0.0
 11
26.83048093248366
 21
1.702981595188365
 31
0.0
  0
LINE
  5
BD33
330
BD19
100
AcDbEntity
  8
0
  6
CONTINUOUS
100
AcDbLine
 10
29.30199999996933
 20
6.195058289914587
 30
0.0
 11
30.74199999996926
 21
7.635058289914522
 31
0.0
  0
LINE
  5
BD34
330
BD19
100
AcDbEntity
  8
0
  6
CONTINUOUS
100
AcDbLine
 10
29.30199999996933
 20
5.521539080834401
 30
0.0
 11
30.74199999996926
 21
6.961539080834331
 31
0.0
  0
LINE
  5
BD35
330
BD19
100
AcDbEntity
  8
0
  6
CONTINUOUS
100
AcDbLine
 10
29.30199999996933
 20
4.848019871754214
 30
0.0
 11
30.74199999996925
 21
6.288019871754143
 31
0.0
  0
LINE
  5
BD36
330
BD19
100
AcDbEntity
  8
0
  6
CONTINUOUS
100
AcDbLine
 10
29.30199999996933
 20
4.174500662674028
 30
0.0
 11
30.74199999996925
 21
5.614500662673953
 31
0.0
  0
LINE
  5
BD37
330
BD19
100
AcDbEntity
  8
0
  6
CONTINUOUS
100
AcDbLine
 10
25.96267548958429
 20
0.1616569432088024
 30
0.0
 11
27.18411854636669
 21
1.383099999991207
 31
0.0
  0
LINE
  5
BD38
330
BD19
100
AcDbEntity
  8
0
  6
CONTINUOUS
100
AcDbLine
 10
29.30199999996933
 20
3.500981453593841
 30
0.0
 11
30.74199999996925
 21
4.940981453593762
 31
0.0
  0
LINE
  5
BD39
330
BD19
100
AcDbEntity
  8
0
  6
CONTINUOUS
100
AcDbLine
 10
26.50763775544691
 20
0.0330999999912356
 30
0.0
 11
27.85763775544689
 21
1.383099999991223
 31
0.0
  0
LINE
  5
BD3A
330
BD19
100
AcDbEntity
  8
0
  6
CONTINUOUS
100
AcDbLine
 10
29.30199999996933
 20
2.827462244513656
 30
0.0
 11
30.74199999996925
 21
4.267462244513574
 31
0.0
  0
LINE
  5
BD3B
330
BD19
100
AcDbEntity
  8
0
  6
CONTINUOUS
100
AcDbLine
 10
27.18115696452709
 20
0.0330999999912356
 30
0.0
 11
28.6224847300034
 21
1.474427765467545
 31
0.0
  0
LINE
  5
BD3C
330
BD19
100
AcDbEntity
  8
0
  6
CONTINUOUS
100
AcDbLine
 10
29.21067223449293
 20
2.062615269957069
 30
0.0
 11
30.74199999996924
 21
3.593943035433383
 31
0.0
  0
LINE
  5
BD3D
330
BD19
100
AcDbEntity
  8
0
  6
CONTINUOUS
100
AcDbLine
 10
27.85467617360728
 20
0.0330999999912356
 30
0.0
 11
30.74199999996924
 21
2.920423826353195
 31
0.0
  0
LINE
  5
BD3E
330
BD19
100
AcDbEntity
  8
0
  6
CONTINUOUS
100
AcDbLine
 10
28.57438609860264
 20
0.0792907159064073
 30
0.0
 11
30.69580928405405
 21
2.200713901357819
 31
0.0
  0
LINE
  5
BD3F
330
BD19
100
AcDbEntity
  8
0
  6
CONTINUOUS
100
AcDbLine
 10
29.49443044814297
 20
0.3258158563665496
 30
0.0
 11
30.44928414359389
 21
1.280669551817477
 31
0.0
  0
LINE
  5
BD40
330
BD19
100
AcDbEntity
  8
0
  6
CONTINUOUS
100
AcDbLine
 10
19.59027867740337
 20
-0.0000967065718083
 30
0.0
 11
19.55485265190471
 21
0.035329318926844
 31
0.0
  0
LINE
  5
BD41
330
BD19
100
AcDbEntity
  8
0
  6
CONTINUOUS
100
AcDbLine
 10
20.26375463176586
 20
-0.0000534518541091
 30
0.0
 11
19.76305575737534
 21
0.5006454225364014
 31
0.0
  0
LINE
  5
BD42
330
BD19
100
AcDbEntity
  8
0
  6
CONTINUOUS
100
AcDbLine
 10
20.93723058612834
 20
-0.0000101971364099
 30
0.0
 11
19.97125886284597
 21
0.965961526145958
 31
0.0
  0
LINE
  5
BD43
330
BD19
100
AcDbEntity
  8
0
  6
CONTINUOUS
100
AcDbLine
 10
21.25514828313686
 20
0.355591314935257
 30
0.0
 11
20.1794619683166
 21
1.431277629755512
 31
0.0
  0
LINE
  5
BD44
330
BD19
100
AcDbEntity
  8
0
  6
CONTINUOUS
100
AcDbLine
 10
21.46338838394921
 20
0.8208704232030986
 30
0.0
 11
20.38766507378723
 21
1.896593733365069
 31
0.0
  0
LINE
  5
BD45
330
BD19
100
AcDbEntity
  8
0
  6
CONTINUOUS
100
AcDbLine
 10
21.67162848476155
 20
1.28614953147094
 30
0.0
 11
20.59586817925786
 21
2.361909836974626
 31
0.0
  0
LINE
  5
BD46
330
BD19
100
AcDbEntity
  8
0
  6
CONTINUOUS
100
AcDbLine
 10
21.8798685855739
 20
1.751428639738782
 30
0.0
 11
20.80407128472849
 21
2.827225940584183
 31
0.0
  0
LINE
  5
BD47
330
BD19
100
AcDbEntity
  8
0
  6
CONTINUOUS
100
AcDbLine
 10
22.08810868638624
 20
2.216707748006623
 30
0.0
 11
21.01227439019912
 21
3.292542044193739
 31
0.0
  0
LINE
  5
BD48
330
BD19
100
AcDbEntity
  8
0
  6
CONTINUOUS
100
AcDbLine
 10
22.60993564347543
 20
2.36839999999762
 30
0.0
 11
21.22047749566975
 21
3.757858147803296
 31
0.0
  0
LINE
  5
BD49
330
BD19
100
AcDbEntity
  8
0
  6
CONTINUOUS
100
AcDbLine
 10
23.28345485255561
 20
2.36839999999762
 30
0.0
 11
21.42868060114038
 21
4.223174251412853
 31
0.0
  0
LINE
  5
BD4A
330
BD19
100
AcDbEntity
  8
0
  6
CONTINUOUS
100
AcDbLine
 10
26.29227406164219
 20
0.0330999999912356
 30
0.0
 11
25.80009199592872
 21
0.5252820657046957
 31
0.0
  0
LINE
  5
BD4B
330
BD19
100
AcDbEntity
  8
0
  6
CONTINUOUS
100
AcDbLine
 10
23.9569740616358
 20
2.36839999999762
 30
0.0
 11
21.63688370661101
 21
4.688490355022409
 31
0.0
  0
LINE
  5
BD4C
330
BD19
100
AcDbEntity
  8
0
  6
CONTINUOUS
100
AcDbLine
 10
26.96579327072237
 20
0.0330999999912356
 30
0.0
 11
25.2554132311971
 21
1.743480039516508
 31
0.0
  0
LINE
  5
BD4D
330
BD19
100
AcDbEntity
  8
0
  6
CONTINUOUS
100
AcDbLine
 10
24.63049327071599
 20
2.36839999999762
 30
0.0
 11
23.32789327071731
 21
3.670999999996297
 31
0.0
  0
LINE
  5
BD4E
330
BD19
100
AcDbEntity
  8
0
  6
CONTINUOUS
100
AcDbLine
 10
22.92098674744635
 20
4.077906523267254
 30
0.0
 11
21.84508681208164
 21
5.153806458631966
 31
0.0
  0
LINE
  5
BD4F
330
BD19
100
AcDbEntity
  8
0
  6
CONTINUOUS
100
AcDbLine
 10
27.63931247980256
 20
0.0330999999912356
 30
0.0
 11
24.0014124797975
 21
3.670999999996297
 31
0.0
  0
LINE
  5
BD50
330
BD19
100
AcDbEntity
  8
0
  6
CONTINUOUS
100
AcDbLine
 10
23.129125600968
 20
4.5432868788258
 30
0.0
 11
22.05328991755227
 21
5.619122562241522
 31
0.0
  0
LINE
  5
BD51
330
BD19
100
AcDbEntity
  8
0
  6
CONTINUOUS
100
AcDbLine
 10
28.31283168888275
 20
0.0330999999912356
 30
0.0
 11
24.16488385994816
 21
4.181047828925828
 31
0.0
  0
LINE
  5
BD52
330
BD19
100
AcDbEntity
  8
0
  6
CONTINUOUS
100
AcDbLine
 10
23.33726445448964
 20
5.008667234384345
 30
0.0
 11
22.2614930230229
 21
6.084438665851079
 31
0.0
  0
LINE
  5
BD53
330
BD19
100
AcDbEntity
  8
0
  6
CONTINUOUS
100
AcDbLine
 10
28.86286302309502
 20
0.1565878748591523
 30
0.0
 11
27.63635089796295
 21
1.383099999991217
 31
0.0
  0
LINE
  5
BD54
330
BD19
100
AcDbEntity
  8
0
  6
CONTINUOUS
100
AcDbLine
 10
26.43704649509776
 20
2.582404402856405
 30
0.0
 11
23.61992702019732
 21
5.399523877756844
 31
0.0
  0
LINE
  5
BD55
330
BD19
100
AcDbEntity
  8
0
  6
CONTINUOUS
100
AcDbLine
 10
23.54540330801128
 20
5.47404758994289
 30
0.0
 11
22.46969612849353
 21
6.549754769460635
 31
0.0
  0
LINE
  5
BD56
330
BD19
100
AcDbEntity
  8
0
  6
CONTINUOUS
100
AcDbLine
 10
29.39405087596853
 20
0.2989192310658284
 30
0.0
 11
28.30987010704312
 21
1.383099999991234
 31
0.0
  0
LINE
  5
BD57
330
BD19
100
AcDbEntity
  8
0
  6
CONTINUOUS
100
AcDbLine
 10
25.89179548232307
 20
3.801174624711282
 30
0.0
 11
22.67789923396416
 21
7.015070873070191
 31
0.0
  0
LINE
  5
BD58
330
BD19
100
AcDbEntity
  8
0
  6
CONTINUOUS
100
AcDbLine
 10
29.79594438047407
 20
0.570544935640473
 30
0.0
 11
28.81310432793121
 21
1.553384988183336
 31
0.0
  0
LINE
  5
BD59
330
BD19
100
AcDbEntity
  8
0
  6
CONTINUOUS
100
AcDbLine
 10
25.34654446954838
 20
5.01994484656616
 30
0.0
 11
22.88610233943479
 21
7.480386976679748
 31
0.0
  0
LINE
  5
BD5A
330
BD19
100
AcDbEntity
  8
0
  6
CONTINUOUS
100
AcDbLine
 10
30.13270398501416
 20
0.9073045401805646
 30
0.0
 11
29.14234640337737
 21
1.897662121817355
 31
0.0
  0
LINE
  5
BD5B
330
BD19
100
AcDbEntity
  8
0
  6
CONTINUOUS
100
AcDbLine
 10
24.80129345677369
 20
6.238715068421037
 30
0.0
 11
23.09430544490542
 21
7.945703080289305
 31
0.0
  0
LINE
  5
BD5C
330
BD19
100
AcDbEntity
  8
0
  6
CONTINUOUS
100
AcDbLine
 10
30.44581292956759
 20
1.26771480470732
 30
0.0
 11
29.30199999996933
 21
2.411527734305588
 31
0.0
  0
LINE
  5
BD5D
330
BD19
100
AcDbEntity
  8
0
  6
CONTINUOUS
100
AcDbLine
 10
30.58814428577427
 20
1.798902657580827
 30
0.0
 11
29.30199999996933
 21
3.085046943385775
 31
0.0
  0
LINE
  5
BD5E
330
BD19
100
AcDbEntity
  8
0
  6
CONTINUOUS
100
AcDbLine
 10
24.256042443999
 20
7.457485290275915
 30
0.0
 11
23.30250855037605
 21
8.411019183898862
 31
0.0
  0
LINE
  5
BD5F
330
BD19
100
AcDbEntity
  8
0
  6
CONTINUOUS
100
AcDbLine
 10
23.71079143122431
 20
8.676255512130794
 30
0.0
 11
23.51071165584668
 21
8.876335287508418
 31
0.0
  0
LINE
  5
BD60
330
BD19
100
AcDbEntity
  8
0
  6
CONTINUOUS
100
AcDbLine
 10
30.73047564198095
 20
2.330090510454333
 30
0.0
 11
29.30199999996933
 21
3.758566152465961
 31
0.0
  0
LINE
  5
BD61
330
BD19
100
AcDbEntity
  8
0
  6
CONTINUOUS
100
AcDbLine
 10
30.74199999996924
 20
2.992085361546236
 30
0.0
 11
29.30199999996933
 21
4.432085361546148
 31
0.0
  0
LINE
  5
BD62
330
BD19
100
AcDbEntity
  8
0
  6
CONTINUOUS
100
AcDbLine
 10
30.74199999996924
 20
3.665604570626419
 30
0.0
 11
29.30199999996933
 21
5.105604570626333
 31
0.0
  0
LINE
  5
BD63
330
BD19
100
AcDbEntity
  8
0
  6
CONTINUOUS
100
AcDbLine
 10
30.74199999996925
 20
4.339123779706602
 30
0.0
 11
29.30199999996933
 21
5.77912377970652
 31
0.0
  0
LINE
  5
BD64
330
BD19
100
AcDbEntity
  8
0
  6
CONTINUOUS
100
AcDbLine
 10
30.74199999996925
 20
5.012642988786785
 30
0.0
 11
29.30199999996933
 21
6.452642988786707
 31
0.0
  0
LINE
  5
BD65
330
BD19
100
AcDbEntity
  8
0
  6
CONTINUOUS
100
AcDbLine
 10
30.74199999996925
 20
5.68616219786697
 30
0.0
 11
29.30199999996933
 21
7.126162197866894
 31
0.0
  0
LINE
  5
BD66
330
BD19
100
AcDbEntity
  8
0
  6
CONTINUOUS
100
AcDbLine
 10
30.74199999996925
 20
6.359681406947153
 30
0.0
 11
29.30199999996933
 21
7.799681406947081
 31
0.0
  0
LINE
  5
BD67
330
BD19
100
AcDbEntity
  8
0
  6
CONTINUOUS
100
AcDbLine
 10
30.74199999996926
 20
7.033200616027337
 30
0.0
 11
29.30199999996933
 21
8.473200616027269
 31
0.0
  0
LINE
  5
BD68
330
BD19
100
AcDbEntity
  8
0
  6
CONTINUOUS
100
AcDbLine
 10
30.74199999996926
 20
7.706719825107518
 30
0.0
 11
29.68561982508552
 21
8.763099999991255
 31
0.0
  0
LINE
  5
BD69
330
BD19
100
AcDbEntity
  8
0
  6
CONTINUOUS
100
AcDbLine
 10
30.74199999996926
 20
8.380239034187703
 30
0.0
 11
30.35913903416571
 21
8.763099999991255
 31
0.0
  0
ENDBLK
  5
BE0C
330
BD19
100
AcDbEntity
  8
0
100
AcDbBlockEnd
  0
BLOCK
  5
BE0D
330
BD6A
100
AcDbEntity
  8
0
100
AcDbBlockBegin
  2
*X100
 70
     1
 10
0.0
 20
0.0
 30
0.0
  3
*X100
  1

  0
LINE
  5
BD6B
330
BD6A
100
AcDbEntity
  8
0
  6
CONTINUOUS
100
AcDbLine
 10
31.64199999996833
 20
8.5350582899136
 30
0.0
 11
31.87004171004599
 21
8.763099999991255
 31
0.0
  0
LINE
  5
BD6C
330
BD6A
100
AcDbEntity
  8
0
  6
CONTINUOUS
100
AcDbLine
 10
31.64199999996833
 20
7.861539080833413
 30
0.0
 11
32.54356091912618
 21
8.763099999991255
 31
0.0
  0
LINE
  5
BD6D
330
BD6A
100
AcDbEntity
  8
0
  6
CONTINUOUS
100
AcDbLine
 10
31.64199999996833
 20
7.188019871753227
 30
0.0
 11
33.08199999996839
 21
8.628019871753281
 31
0.0
  0
LINE
  5
BD6E
330
BD6A
100
AcDbEntity
  8
0
  6
CONTINUOUS
100
AcDbLine
 10
31.64199999996833
 20
6.514500662673041
 30
0.0
 11
33.08199999996839
 21
7.954500662673095
 31
0.0
  0
LINE
  5
BD6F
330
BD6A
100
AcDbEntity
  8
0
  6
CONTINUOUS
100
AcDbLine
 10
31.64199999996833
 20
5.840981453592855
 30
0.0
 11
33.08199999996839
 21
7.28098145359291
 31
0.0
  0
LINE
  5
BD70
330
BD6A
100
AcDbEntity
  8
0
  6
CONTINUOUS
100
AcDbLine
 10
31.64199999996833
 20
5.167462244512668
 30
0.0
 11
33.08199999996839
 21
6.607462244512723
 31
0.0
  0
LINE
  5
BD71
330
BD6A
100
AcDbEntity
  8
0
  6
CONTINUOUS
100
AcDbLine
 10
31.64199999996833
 20
4.493943035432482
 30
0.0
 11
33.08199999996839
 21
5.933943035432536
 31
0.0
  0
LINE
  5
BD72
330
BD6A
100
AcDbEntity
  8
0
  6
CONTINUOUS
100
AcDbLine
 10
31.64199999996833
 20
3.820423826352294
 30
0.0
 11
33.08199999996839
 21
5.260423826352349
 31
0.0
  0
LINE
  5
BD73
330
BD6A
100
AcDbEntity
  8
0
  6
CONTINUOUS
100
AcDbLine
 10
31.64199999996833
 20
3.146904617272108
 30
0.0
 11
33.08199999996839
 21
4.586904617272163
 31
0.0
  0
LINE
  5
BD74
330
BD6A
100
AcDbEntity
  8
0
  6
CONTINUOUS
100
AcDbLine
 10
36.23199999996837
 20
8.410423826352327
 30
0.0
 11
36.58467617360729
 21
8.763099999991255
 31
0.0
  0
LINE
  5
BD75
330
BD6A
100
AcDbEntity
  8
0
  6
CONTINUOUS
100
AcDbLine
 10
36.23199999996837
 20
7.73690461727214
 30
0.0
 11
37.25819538268748
 21
8.763099999991255
 31
0.0
  0
LINE
  5
BD76
330
BD6A
100
AcDbEntity
  8
0
  6
CONTINUOUS
100
AcDbLine
 10
31.64323424774199
 20
2.474619655965573
 30
0.0
 11
33.08199999996839
 21
3.913385408191976
 31
0.0
  0
LINE
  5
BD77
330
BD6A
100
AcDbEntity
  8
0
  6
CONTINUOUS
100
AcDbLine
 10
31.74419223861915
 20
1.902058437762552
 30
0.0
 11
33.08199999996839
 21
3.239866199111789
 31
0.0
  0
LINE
  5
BD78
330
BD6A
100
AcDbEntity
  8
0
  6
CONTINUOUS
100
AcDbLine
 10
36.23199999996837
 20
7.063385408191953
 30
0.0
 11
37.67199999996831
 21
8.503385408191894
 31
0.0
  0
LINE
  5
BD79
330
BD6A
100
AcDbEntity
  8
0
  6
CONTINUOUS
100
AcDbLine
 10
36.23199999996837
 20
6.389866199111767
 30
0.0
 11
37.67199999996831
 21
7.829866199111708
 31
0.0
  0
LINE
  5
BD7A
330
BD6A
100
AcDbEntity
  8
0
  6
CONTINUOUS
100
AcDbLine
 10
31.91111233414976
 20
1.39545932421297
 30
0.0
 11
33.08199999996839
 21
2.566346990031603
 31
0.0
  0
LINE
  5
BD7B
330
BD6A
100
AcDbEntity
  8
0
  6
CONTINUOUS
100
AcDbLine
 10
36.23199999996837
 20
5.71634699003158
 30
0.0
 11
37.67199999996831
 21
7.156346990031522
 31
0.0
  0
LINE
  5
BD7C
330
BD6A
100
AcDbEntity
  8
0
  6
CONTINUOUS
100
AcDbLine
 10
32.1576374746103
 20
0.9684652555933289
 30
0.0
 11
33.20642631446081
 21
2.017254095443838
 31
0.0
  0
LINE
  5
BD7D
330
BD6A
100
AcDbEntity
  8
0
  6
CONTINUOUS
100
AcDbLine
 10
36.23199999996837
 20
5.042827780951393
 30
0.0
 11
37.67199999996831
 21
6.482827780951334
 31
0.0
  0
LINE
  5
BD7E
330
BD6A
100
AcDbEntity
  8
0
  6
CONTINUOUS
100
AcDbLine
 10
32.47774023927325
 20
0.6150488111760914
 30
0.0
 11
33.49903056428258
 21
1.636339136185419
 31
0.0
  0
LINE
  5
BD7F
330
BD6A
100
AcDbEntity
  8
0
  6
CONTINUOUS
100
AcDbLine
 10
36.23199999996837
 20
4.369308571871207
 30
0.0
 11
37.67199999996831
 21
5.809308571871148
 31
0.0
  0
LINE
  5
BD80
330
BD6A
100
AcDbEntity
  8
0
  6
CONTINUOUS
100
AcDbLine
 10
32.84396249154443
 20
0.3077518543670883
 30
0.0
 11
33.93324121824649
 21
1.397030581069146
 31
0.0
  0
LINE
  5
BD81
330
BD6A
100
AcDbEntity
  8
0
  6
CONTINUOUS
100
AcDbLine
 10
36.23199999996837
 20
3.695789362791021
 30
0.0
 11
37.67199999996831
 21
5.135789362790963
 31
0.0
  0
LINE
  5
BD82
330
BD6A
100
AcDbEntity
  8
0
  6
CONTINUOUS
100
AcDbLine
 10
33.30186329036846
 20
0.0921334441109263
 30
0.0
 11
34.46442907112041
 21
1.254699224862875
 31
0.0
  0
LINE
  5
BD83
330
BD6A
100
AcDbEntity
  8
0
  6
CONTINUOUS
100
AcDbLine
 10
36.23199999996837
 20
3.022270153710834
 30
0.0
 11
37.67199999996831
 21
4.462270153710776
 31
0.0
  0
LINE
  5
BD84
330
BD6A
100
AcDbEntity
  8
0
  6
CONTINUOUS
100
AcDbLine
 10
33.79565647746294
 20
-0.0875925778747773
 30
0.0
 11
35.24350171668284
 21
1.360252661345124
 31
0.0
  0
LINE
  5
BD85
330
BD6A
100
AcDbEntity
  8
0
  6
CONTINUOUS
100
AcDbLine
 10
36.18336676155003
 20
2.300117706212308
 30
0.0
 11
37.67199999996831
 21
3.788750944630589
 31
0.0
  0
LINE
  5
BD86
330
BD6A
100
AcDbEntity
  8
0
  6
CONTINUOUS
100
AcDbLine
 10
34.37182574910968
 20
-0.184942515308224
 30
0.0
 11
37.67199999996831
 21
3.115231735550402
 31
0.0
  0
LINE
  5
BD87
330
BD6A
100
AcDbEntity
  8
0
  6
CONTINUOUS
100
AcDbLine
 10
35.0453449581892
 20
-0.1849425153088955
 30
0.0
 11
37.66345697088136
 21
2.433169497383271
 31
0.0
  0
LINE
  5
BD88
330
BD6A
100
AcDbEntity
  8
0
  6
CONTINUOUS
100
AcDbLine
 10
35.98667157609191
 20
0.0828648935136398
 30
0.0
 11
37.51927401744566
 21
1.615467334867382
 31
0.0
  0
LINE
  5
BD89
330
BD6A
100
AcDbEntity
  8
0
  6
CONTINUOUS
100
AcDbLine
 10
32.27747408544484
 20
0.7830920669904482
 30
0.0
 11
32.24716210471949
 21
0.8134040477157893
 31
0.0
  0
LINE
  5
BD8A
330
BD6A
100
AcDbEntity
  8
0
  6
CONTINUOUS
100
AcDbLine
 10
33.83656881101902
 20
-0.1024834495035494
 30
0.0
 11
31.72538911593758
 21
2.008696245577891
 31
0.0
  0
LINE
  5
BD8B
330
BD6A
100
AcDbEntity
  8
0
  6
CONTINUOUS
100
AcDbLine
 10
34.5925470859041
 20
-0.1849425153084434
 30
0.0
 11
31.64199999996833
 21
2.765604570627322
 31
0.0
  0
LINE
  5
BD8C
330
BD6A
100
AcDbEntity
  8
0
  6
CONTINUOUS
100
AcDbLine
 10
35.26201302775981
 20
-0.1808892480839752
 30
0.0
 11
31.64199999996833
 21
3.439123779707508
 31
0.0
  0
LINE
  5
BD8D
330
BD6A
100
AcDbEntity
  8
0
  6
CONTINUOUS
100
AcDbLine
 10
35.75580621485512
 20
-0.0011632260990879
 30
0.0
 11
34.51294304365551
 21
1.241699945100514
 31
0.0
  0
LINE
  5
BD8E
330
BD6A
100
AcDbEntity
  8
0
  6
CONTINUOUS
100
AcDbLine
 10
33.08199999996839
 20
2.672642988787641
 30
0.0
 11
31.64199999996833
 21
4.112642988787695
 31
0.0
  0
LINE
  5
BD8F
330
BD6A
100
AcDbEntity
  8
0
  6
CONTINUOUS
100
AcDbLine
 10
36.24959940195042
 20
0.1785627958857976
 30
0.0
 11
35.10501653033629
 21
1.323145667499924
 31
0.0
  0
LINE
  5
BD90
330
BD6A
100
AcDbEntity
  8
0
  6
CONTINUOUS
100
AcDbLine
 10
33.08199999996839
 20
3.346162197867827
 30
0.0
 11
31.64199999996833
 21
4.786162197867881
 31
0.0
  0
LINE
  5
BD91
330
BD6A
100
AcDbEntity
  8
0
  6
CONTINUOUS
100
AcDbLine
 10
36.64615197150552
 20
0.4555294354108876
 30
0.0
 11
35.6362043832099
 21
1.465477023706505
 31
0.0
  0
LINE
  5
BD92
330
BD6A
100
AcDbEntity
  8
0
  6
CONTINUOUS
100
AcDbLine
 10
33.08199999996839
 20
4.019681406948013
 30
0.0
 11
31.64199999996833
 21
5.459681406948068
 31
0.0
  0
LINE
  5
BD93
330
BD6A
100
AcDbEntity
  8
0
  6
CONTINUOUS
100
AcDbLine
 10
37.0123742237774
 20
0.7628263922191891
 30
0.0
 11
35.97691545773309
 21
1.798285158263504
 31
0.0
  0
LINE
  5
BD94
330
BD6A
100
AcDbEntity
  8
0
  6
CONTINUOUS
100
AcDbLine
 10
33.08199999996839
 20
4.6932006160282
 30
0.0
 11
31.64199999996833
 21
6.133200616028255
 31
0.0
  0
LINE
  5
BD95
330
BD6A
100
AcDbEntity
  8
0
  6
CONTINUOUS
100
AcDbLine
 10
37.27491524157143
 20
1.173804583505349
 30
0.0
 11
36.17602012811361
 21
2.272699696963169
 31
0.0
  0
LINE
  5
BD96
330
BD6A
100
AcDbEntity
  8
0
  6
CONTINUOUS
100
AcDbLine
 10
33.08199999996839
 20
5.366719825108387
 30
0.0
 11
31.64199999996833
 21
6.806719825108441
 31
0.0
  0
LINE
  5
BD97
330
BD6A
100
AcDbEntity
  8
0
  6
CONTINUOUS
100
AcDbLine
 10
37.51739996707661
 20
1.604839067080355
 30
0.0
 11
36.23199999996837
 21
2.890239034188595
 31
0.0
  0
LINE
  5
BD98
330
BD6A
100
AcDbEntity
  8
0
  6
CONTINUOUS
100
AcDbLine
 10
37.6183579579535
 20
2.177400285283649
 30
0.0
 11
36.23199999996837
 21
3.563758243268782
 31
0.0
  0
LINE
  5
BD99
330
BD6A
100
AcDbEntity
  8
0
  6
CONTINUOUS
100
AcDbLine
 10
33.08199999996839
 20
6.040239034188573
 30
0.0
 11
31.64199999996833
 21
7.480239034188628
 31
0.0
  0
LINE
  5
BD9A
330
BD6A
100
AcDbEntity
  8
0
  6
CONTINUOUS
100
AcDbLine
 10
33.08199999996839
 20
6.713758243268759
 30
0.0
 11
31.64199999996833
 21
8.153758243268815
 31
0.0
  0
LINE
  5
BD9B
330
BD6A
100
AcDbEntity
  8
0
  6
CONTINUOUS
100
AcDbLine
 10
37.67199999996831
 20
2.797277452349027
 30
0.0
 11
36.23199999996837
 21
4.237277452348969
 31
0.0
  0
LINE
  5
BD9C
330
BD6A
100
AcDbEntity
  8
0
  6
CONTINUOUS
100
AcDbLine
 10
37.67199999996831
 20
3.470796661429214
 30
0.0
 11
36.23199999996837
 21
4.910796661429155
 31
0.0
  0
LINE
  5
BD9D
330
BD6A
100
AcDbEntity
  8
0
  6
CONTINUOUS
100
AcDbLine
 10
37.67199999996831
 20
4.1443158705094
 30
0.0
 11
36.23199999996837
 21
5.584315870509341
 31
0.0
  0
LINE
  5
BD9E
330
BD6A
100
AcDbEntity
  8
0
  6
CONTINUOUS
100
AcDbLine
 10
33.08199999996839
 20
7.387277452348946
 30
0.0
 11
31.70617745232608
 21
8.763099999991255
 31
0.0
  0
LINE
  5
BD9F
330
BD6A
100
AcDbEntity
  8
0
  6
CONTINUOUS
100
AcDbLine
 10
33.08199999996839
 20
8.060796661429134
 30
0.0
 11
32.37969666140626
 21
8.763099999991255
 31
0.0
  0
LINE
  5
BDA0
330
BD6A
100
AcDbEntity
  8
0
  6
CONTINUOUS
100
AcDbLine
 10
33.08199999996839
 20
8.734315870509318
 30
0.0
 11
33.05321587048645
 21
8.763099999991255
 31
0.0
  0
LINE
  5
BDA1
330
BD6A
100
AcDbEntity
  8
0
  6
CONTINUOUS
100
AcDbLine
 10
37.67199999996831
 20
4.817835079589586
 30
0.0
 11
36.23199999996837
 21
6.257835079589528
 31
0.0
  0
LINE
  5
BDA2
330
BD6A
100
AcDbEntity
  8
0
  6
CONTINUOUS
100
AcDbLine
 10
37.67199999996831
 20
5.491354288669772
 30
0.0
 11
36.23199999996837
 21
6.931354288669715
 31
0.0
  0
LINE
  5
BDA3
330
BD6A
100
AcDbEntity
  8
0
  6
CONTINUOUS
100
AcDbLine
 10
37.67199999996831
 20
6.164873497749959
 30
0.0
 11
36.23199999996837
 21
7.6048734977499
 31
0.0
  0
LINE
  5
BDA4
330
BD6A
100
AcDbEntity
  8
0
  6
CONTINUOUS
100
AcDbLine
 10
37.67199999996831
 20
6.838392706830145
 30
0.0
 11
36.23199999996837
 21
8.278392706830086
 31
0.0
  0
LINE
  5
BDA5
330
BD6A
100
AcDbEntity
  8
0
  6
CONTINUOUS
100
AcDbLine
 10
37.67199999996831
 20
7.511911915910333
 30
0.0
 11
36.42081191588738
 21
8.763099999991255
 31
0.0
  0
LINE
  5
BDA6
330
BD6A
100
AcDbEntity
  8
0
  6
CONTINUOUS
100
AcDbLine
 10
37.67199999996831
 20
8.185431124990519
 30
0.0
 11
37.09433112496757
 21
8.763099999991255
 31
0.0
  0
ENDBLK
  5
BE0E
330
BD6A
100
AcDbEntity
  8
0
100
AcDbBlockEnd
  0
BLOCK
  5
BE0F
330
BDA7
100
AcDbEntity
  8
0
100
AcDbBlockBegin
  2
*X101
 70
     1
 10
0.0
 20
0.0
 30
0.0
  3
*X101
  1

  0
LINE
  5
BDA8
330
BDA7
100
AcDbEntity
  8
0
  6
CONTINUOUS
100
AcDbLine
 10
38.60499999996136
 20
8.762866199104765
 30
0.0
 11
38.71672554182345
 21
8.874591740966855
 31
0.0
  0
LINE
  5
BDA9
330
BDA7
100
AcDbEntity
  8
0
  6
CONTINUOUS
100
AcDbLine
 10
38.60499999996136
 20
8.089346990024577
 30
0.0
 11
39.03418785440363
 21
8.518534844466847
 31
0.0
  0
LINE
  5
BDAA
330
BDA7
100
AcDbEntity
  8
0
  6
CONTINUOUS
100
AcDbLine
 10
38.60499999996136
 20
7.41582778094439
 30
0.0
 11
39.35165016698382
 21
8.16247794796684
 31
0.0
  0
LINE
  5
BDAB
330
BDA7
100
AcDbEntity
  8
0
  6
CONTINUOUS
100
AcDbLine
 10
38.60499999996136
 20
6.742308571864204
 30
0.0
 11
39.66911247956399
 21
7.806421051466834
 31
0.0
  0
LINE
  5
BDAC
330
BDA7
100
AcDbEntity
  8
0
  6
CONTINUOUS
100
AcDbLine
 10
38.60499999996136
 20
6.068789362784018
 30
0.0
 11
39.98657479214418
 21
7.450364154966827
 31
0.0
  0
LINE
  5
BDAD
330
BDA7
100
AcDbEntity
  8
0
  6
CONTINUOUS
100
AcDbLine
 10
38.60499999996136
 20
5.395270153703832
 30
0.0
 11
40.30403710472435
 21
7.09430725846682
 31
0.0
  0
LINE
  5
BDAE
330
BDA7
100
AcDbEntity
  8
0
  6
CONTINUOUS
100
AcDbLine
 10
38.60499999996136
 20
4.721750944623645
 30
0.0
 11
40.62149941730453
 21
6.738250361966813
 31
0.0
  0
LINE
  5
BDAF
330
BDA7
100
AcDbEntity
  8
0
  6
CONTINUOUS
100
AcDbLine
 10
38.60499999996136
 20
4.048231735543458
 30
0.0
 11
40.93896172988471
 21
6.382193465466806
 31
0.0
  0
LINE
  5
BDB0
330
BDA7
100
AcDbEntity
  8
0
  6
CONTINUOUS
100
AcDbLine
 10
38.60499999996136
 20
3.374712526463272
 30
0.0
 11
40.02599999995994
 21
4.795712526461843
 31
0.0
  0
LINE
  5
BDB1
330
BDA7
100
AcDbEntity
  8
0
  6
CONTINUOUS
100
AcDbLine
 10
38.60499999996136
 20
2.701193317383085
 30
0.0
 11
40.02599999995994
 21
4.122193317381657
 31
0.0
  0
LINE
  5
BDB2
330
BDA7
100
AcDbEntity
  8
0
  6
CONTINUOUS
100
AcDbLine
 10
40.28339754687704
 20
5.053110073378947
 30
0.0
 11
41.25642404246489
 21
6.026136568966799
 31
0.0
  0
LINE
  5
BDB3
330
BDA7
100
AcDbEntity
  8
0
  6
CONTINUOUS
100
AcDbLine
 10
40.60085985945722
 20
4.697053176878939
 30
0.0
 11
41.57388635504507
 21
5.670079672466793
 31
0.0
  0
LINE
  5
BDB4
330
BDA7
100
AcDbEntity
  8
0
  6
CONTINUOUS
100
AcDbLine
 10
43.57899999995641
 20
8.348712526458318
 30
0.0
 11
43.99338747348935
 21
8.763099999991255
 31
0.0
  0
LINE
  5
BDB5
330
BDA7
100
AcDbEntity
  8
0
  6
CONTINUOUS
100
AcDbLine
 10
43.57899999995641
 20
7.675193317378131
 30
0.0
 11
44.66690668256953
 21
8.763099999991255
 31
0.0
  0
LINE
  5
BDB6
330
BDA7
100
AcDbEntity
  8
0
  6
CONTINUOUS
100
AcDbLine
 10
38.60499999996136
 20
2.027674108302898
 30
0.0
 11
40.02599999995994
 21
3.44867410830147
 31
0.0
  0
LINE
  5
BDB7
330
BDA7
100
AcDbEntity
  8
0
  6
CONTINUOUS
100
AcDbLine
 10
38.60499999996136
 20
1.354154899222712
 30
0.0
 11
40.02599999995994
 21
2.775154899221284
 31
0.0
  0
LINE
  5
BDB8
330
BDA7
100
AcDbEntity
  8
0
  6
CONTINUOUS
100
AcDbLine
 10
38.60499999996136
 20
0.6806356901425255
 30
0.0
 11
40.02599999995994
 21
2.101635690141098
 31
0.0
  0
LINE
  5
BDB9
330
BDA7
100
AcDbEntity
  8
0
  6
CONTINUOUS
100
AcDbLine
 10
38.60499999996136
 20
0.0071164810623383
 30
0.0
 11
40.02599999995994
 21
1.428116481060911
 31
0.0
  0
LINE
  5
BDBA
330
BDA7
100
AcDbEntity
  8
0
  6
CONTINUOUS
100
AcDbLine
 10
40.9183221720374
 20
4.340996280378933
 30
0.0
 11
41.89134866762525
 21
5.314022775966786
 31
0.0
  0
LINE
  5
BDBB
330
BDA7
100
AcDbEntity
  8
0
  6
CONTINUOUS
100
AcDbLine
 10
41.23578448461758
 20
3.984939383878926
 30
0.0
 11
42.20881098020543
 21
4.957965879466778
 31
0.0
  0
LINE
  5
BDBC
330
BDA7
100
AcDbEntity
  8
0
  6
CONTINUOUS
100
AcDbLine
 10
41.55324679719776
 20
3.628882487378919
 30
0.0
 11
42.52627329278561
 21
4.601908982966772
 31
0.0
  0
LINE
  5
BDBD
330
BDA7
100
AcDbEntity
  8
0
  6
CONTINUOUS
100
AcDbLine
 10
41.87070910977793
 20
3.272825590878912
 30
0.0
 11
42.84373560536579
 21
4.245852086466765
 31
0.0
  0
LINE
  5
BDBE
330
BDA7
100
AcDbEntity
  8
0
  6
CONTINUOUS
100
AcDbLine
 10
43.57899999995641
 20
7.001674108297943
 30
0.0
 11
44.99999999995498
 21
8.422674108296516
 31
0.0
  0
LINE
  5
BDBF
330
BDA7
100
AcDbEntity
  8
0
  6
CONTINUOUS
100
AcDbLine
 10
43.57899999995641
 20
6.328154899217758
 30
0.0
 11
44.99999999995498
 21
7.749154899216329
 31
0.0
  0
LINE
  5
BDC0
330
BDA7
100
AcDbEntity
  8
0
  6
CONTINUOUS
100
AcDbLine
 10
43.57899999995641
 20
5.654635690137571
 30
0.0
 11
44.99999999995498
 21
7.075635690136142
 31
0.0
  0
LINE
  5
BDC1
330
BDA7
100
AcDbEntity
  8
0
  6
CONTINUOUS
100
AcDbLine
 10
43.57899999995641
 20
4.981116481057384
 30
0.0
 11
44.99999999995498
 21
6.402116481055955
 31
0.0
  0
LINE
  5
BDC2
330
BDA7
100
AcDbEntity
  8
0
  6
CONTINUOUS
100
AcDbLine
 10
39.27140272797921
 20
-0.0000000000000009
 30
0.0
 11
40.02599999995994
 21
0.7545972719807246
 31
0.0
  0
LINE
  5
BDC3
330
BDA7
100
AcDbEntity
  8
0
  6
CONTINUOUS
100
AcDbLine
 10
39.9449219370594
 20
-0.0000000000000009
 30
0.0
 11
40.02599999995994
 21
0.0810780629005379
 31
0.0
  0
LINE
  5
BDC4
330
BDA7
100
AcDbEntity
  8
0
  6
CONTINUOUS
100
AcDbLine
 10
42.18817142235812
 20
2.916768694378905
 30
0.0
 11
43.16119791794597
 21
3.889795189966758
 31
0.0
  0
LINE
  5
BDC5
330
BDA7
100
AcDbEntity
  8
0
  6
CONTINUOUS
100
AcDbLine
 10
42.50563373493829
 20
2.560711797878898
 30
0.0
 11
43.47866023052615
 21
3.533738293466751
 31
0.0
  0
LINE
  5
BDC6
330
BDA7
100
AcDbEntity
  8
0
  6
CONTINUOUS
100
AcDbLine
 10
43.57899999995641
 20
4.307597271977198
 30
0.0
 11
44.99999999995498
 21
5.728597271975769
 31
0.0
  0
LINE
  5
BDC7
330
BDA7
100
AcDbEntity
  8
0
  6
CONTINUOUS
100
AcDbLine
 10
43.57899999995641
 20
3.634078062897011
 30
0.0
 11
44.99999999995498
 21
5.055078062895582
 31
0.0
  0
LINE
  5
BDC8
330
BDA7
100
AcDbEntity
  8
0
  6
CONTINUOUS
100
AcDbLine
 10
42.82309604751848
 20
2.204654901378891
 30
0.0
 11
44.99999999995498
 21
4.381558853815395
 31
0.0
  0
LINE
  5
BDC9
330
BDA7
100
AcDbEntity
  8
0
  6
CONTINUOUS
100
AcDbLine
 10
43.14055836009865
 20
1.848598004878885
 30
0.0
 11
44.99999999995498
 21
3.70803964473521
 31
0.0
  0
LINE
  5
BDCA
330
BDA7
100
AcDbEntity
  8
0
  6
CONTINUOUS
100
AcDbLine
 10
43.45802067267883
 20
1.492541108378878
 30
0.0
 11
44.99999999995498
 21
3.034520435655023
 31
0.0
  0
LINE
  5
BDCB
330
BDA7
100
AcDbEntity
  8
0
  6
CONTINUOUS
100
AcDbLine
 10
43.77548298525902
 20
1.136484211878871
 30
0.0
 11
44.99999999995498
 21
2.361001226574837
 31
0.0
  0
LINE
  5
BDCC
330
BDA7
100
AcDbEntity
  8
0
  6
CONTINUOUS
100
AcDbLine
 10
44.09294529783919
 20
0.7804273153788639
 30
0.0
 11
44.99999999995498
 21
1.687482017494649
 31
0.0
  0
LINE
  5
BDCD
330
BDA7
100
AcDbEntity
  8
0
  6
CONTINUOUS
100
AcDbLine
 10
44.41040761041938
 20
0.4243704188788566
 30
0.0
 11
44.99999999995498
 21
1.013962808414463
 31
0.0
  0
LINE
  5
BDCE
330
BDA7
100
AcDbEntity
  8
0
  6
CONTINUOUS
100
AcDbLine
 10
44.72786992299955
 20
0.0683135223788494
 30
0.0
 11
44.99999999995498
 21
0.340443599334276
 31
0.0
  0
LINE
  5
BDCF
330
BDA7
100
AcDbEntity
  8
0
  6
CONTINUOUS
100
AcDbLine
 10
39.12223903415696
 20
-0.0000000000000009
 30
0.0
 11
38.60499999996136
 21
0.5172390341955961
 31
0.0
  0
LINE
  5
BDD0
330
BDA7
100
AcDbEntity
  8
0
  6
CONTINUOUS
100
AcDbLine
 10
39.79575824323715
 20
-0.0000000000000009
 30
0.0
 11
38.60499999996136
 21
1.190758243275783
 31
0.0
  0
LINE
  5
BDD1
330
BDA7
100
AcDbEntity
  8
0
  6
CONTINUOUS
100
AcDbLine
 10
40.02599999995994
 20
0.443277452357397
 30
0.0
 11
38.60499999996136
 21
1.864277452355969
 31
0.0
  0
LINE
  5
BDD2
330
BDA7
100
AcDbEntity
  8
0
  6
CONTINUOUS
100
AcDbLine
 10
40.02599999995994
 20
1.116796661437583
 30
0.0
 11
38.60499999996136
 21
2.537796661436155
 31
0.0
  0
LINE
  5
BDD3
330
BDA7
100
AcDbEntity
  8
0
  6
CONTINUOUS
100
AcDbLine
 10
40.02599999995994
 20
1.79031587051777
 30
0.0
 11
38.60499999996136
 21
3.211315870516341
 31
0.0
  0
LINE
  5
BDD4
330
BDA7
100
AcDbEntity
  8
0
  6
CONTINUOUS
100
AcDbLine
 10
40.02599999995994
 20
2.463835079597956
 30
0.0
 11
38.60499999996136
 21
3.884835079596527
 31
0.0
  0
LINE
  5
BDD5
330
BDA7
100
AcDbEntity
  8
0
  6
CONTINUOUS
100
AcDbLine
 10
40.02599999995994
 20
3.137354288678143
 30
0.0
 11
38.60499999996136
 21
4.558354288676714
 31
0.0
  0
LINE
  5
BDD6
330
BDA7
100
AcDbEntity
  8
0
  6
CONTINUOUS
100
AcDbLine
 10
40.02599999995994
 20
3.810873497758329
 30
0.0
 11
38.60499999996136
 21
5.2318734977569
 31
0.0
  0
LINE
  5
BDD7
330
BDA7
100
AcDbEntity
  8
0
  6
CONTINUOUS
100
AcDbLine
 10
40.02599999995994
 20
4.484392706838515
 30
0.0
 11
38.60499999996136
 21
5.905392706837086
 31
0.0
  0
LINE
  5
BDD8
330
BDA7
100
AcDbEntity
  8
0
  6
CONTINUOUS
100
AcDbLine
 10
44.99999999995498
 20
0.183911915923658
 30
0.0
 11
41.53858364506288
 21
3.64532827081576
 31
0.0
  0
LINE
  5
BDD9
330
BDA7
100
AcDbEntity
  8
0
  6
CONTINUOUS
100
AcDbLine
 10
40.02599999995994
 20
5.157911915918703
 30
0.0
 11
38.60499999996136
 21
6.578911915917274
 31
0.0
  0
LINE
  5
BDDA
330
BDA7
100
AcDbEntity
  8
0
  6
CONTINUOUS
100
AcDbLine
 10
44.99999999995498
 20
0.8574311250038447
 30
0.0
 11
38.60499999996136
 21
7.25243112499746
 31
0.0
  0
LINE
  5
BDDB
330
BDA7
100
AcDbEntity
  8
0
  6
CONTINUOUS
100
AcDbLine
 10
44.99999999995498
 20
1.530950334084031
 30
0.0
 11
38.60499999996136
 21
7.925950334077647
 31
0.0
  0
LINE
  5
BDDC
330
BDA7
100
AcDbEntity
  8
0
  6
CONTINUOUS
100
AcDbLine
 10
44.99999999995498
 20
2.204469543164218
 30
0.0
 11
43.57899999995641
 21
3.625469543162789
 31
0.0
  0
LINE
  5
BDDD
330
BDA7
100
AcDbEntity
  8
0
  6
CONTINUOUS
100
AcDbLine
 10
41.89876730984767
 20
5.305702233271528
 30
0.0
 11
38.60499999996136
 21
8.599469543157834
 31
0.0
  0
LINE
  5
BDDE
330
BDA7
100
AcDbEntity
  8
0
  6
CONTINUOUS
100
AcDbLine
 10
44.99999999995498
 20
2.877988752244405
 30
0.0
 11
43.57899999995641
 21
4.298988752242975
 31
0.0
  0
LINE
  5
BDDF
330
BDA7
100
AcDbEntity
  8
0
  6
CONTINUOUS
100
AcDbLine
 10
44.99999999995498
 20
3.551507961324591
 30
0.0
 11
43.57899999995641
 21
4.972507961323163
 31
0.0
  0
LINE
  5
BDE0
330
BDA7
100
AcDbEntity
  8
0
  6
CONTINUOUS
100
AcDbLine
 10
44.99999999995498
 20
4.225027170404777
 30
0.0
 11
43.57899999995641
 21
5.646027170403348
 31
0.0
  0
LINE
  5
BDE1
330
BDA7
100
AcDbEntity
  8
0
  6
CONTINUOUS
100
AcDbLine
 10
44.99999999995498
 20
4.898546379484964
 30
0.0
 11
43.57899999995641
 21
6.319546379483535
 31
0.0
  0
LINE
  5
BDE2
330
BDA7
100
AcDbEntity
  8
0
  6
CONTINUOUS
100
AcDbLine
 10
44.99999999995498
 20
5.572065588565151
 30
0.0
 11
43.57899999995641
 21
6.993065588563722
 31
0.0
  0
LINE
  5
BDE3
330
BDA7
100
AcDbEntity
  8
0
  6
CONTINUOUS
100
AcDbLine
 10
44.99999999995498
 20
6.245584797645336
 30
0.0
 11
43.57899999995641
 21
7.666584797643908
 31
0.0
  0
LINE
  5
BDE4
330
BDA7
100
AcDbEntity
  8
0
  6
CONTINUOUS
100
AcDbLine
 10
44.99999999995498
 20
6.919104006725522
 30
0.0
 11
43.57899999995641
 21
8.340104006724093
 31
0.0
  0
LINE
  5
BDE5
330
BDA7
100
AcDbEntity
  8
0
  6
CONTINUOUS
100
AcDbLine
 10
44.99999999995498
 20
7.592623215805709
 30
0.0
 11
43.82952321576943
 21
8.763099999991255
 31
0.0
  0
LINE
  5
BDE6
330
BDA7
100
AcDbEntity
  8
0
  6
CONTINUOUS
100
AcDbLine
 10
44.99999999995498
 20
8.266142424885896
 30
0.0
 11
44.50304242484962
 21
8.763099999991255
 31
0.0
  0
ENDBLK
  5
BE10
330
BDA7
100
AcDbEntity
  8
0
100
AcDbBlockEnd
  0
BLOCK
  5
BE11
330
BDE7
100
AcDbEntity
  8
0
100
AcDbBlockBegin
  2
*X102
 70
     1
 10
0.0
 20
0.0
 30
0.0
  3
*X102
  1

  0
LINE
  5
BDE8
330
BDE7
100
AcDbEntity
  8
0
  6
CONTINUOUS
100
AcDbLine
 10
0.0
 20
8.548461116714023
 30
0.0
 11
0.2146388832772324
 21
8.763099999991255
 31
0.0
  0
LINE
  5
BDE9
330
BDE7
100
AcDbEntity
  8
0
  6
CONTINUOUS
100
AcDbLine
 10
-0.0000000000000002
 20
7.874941907633837
 30
0.0
 11
0.8881580923574184
 21
8.763099999991255
 31
0.0
  0
LINE
  5
BDEA
330
BDE7
100
AcDbEntity
  8
0
  6
CONTINUOUS
100
AcDbLine
 10
0.0
 20
7.20142269855365
 30
0.0
 11
1.420999999998572
 21
8.622422698552223
 31
0.0
  0
LINE
  5
BDEB
330
BDE7
100
AcDbEntity
  8
0
  6
CONTINUOUS
100
AcDbLine
 10
-0.0000000000000001
 20
6.527903489473465
 30
0.0
 11
1.420999999998571
 21
7.948903489472036
 31
0.0
  0
LINE
  5
BDEC
330
BDE7
100
AcDbEntity
  8
0
  6
CONTINUOUS
100
AcDbLine
 10
-0.0000000000000002
 20
5.854384280393278
 30
0.0
 11
1.420999999998571
 21
7.275384280391849
 31
0.0
  0
LINE
  5
BDED
330
BDE7
100
AcDbEntity
  8
0
  6
CONTINUOUS
100
AcDbLine
 10
-0.0000000000000002
 20
5.180865071313091
 30
0.0
 11
1.420999999998571
 21
6.601865071311663
 31
0.0
  0
LINE
  5
BDEE
330
BDE7
100
AcDbEntity
  8
0
  6
CONTINUOUS
100
AcDbLine
 10
0.0
 20
4.507345862232905
 30
0.0
 11
1.420999999998571
 21
5.928345862231477
 31
0.0
  0
LINE
  5
BDEF
330
BDE7
100
AcDbEntity
  8
0
  6
CONTINUOUS
100
AcDbLine
 10
-0.0000000000000003
 20
3.833826653152718
 30
0.0
 11
1.420999999998571
 21
5.25482665315129
 31
0.0
  0
LINE
  5
BDF0
330
BDE7
100
AcDbEntity
  8
0
  6
CONTINUOUS
100
AcDbLine
 10
-0.0000000000000002
 20
3.160307444072532
 30
0.0
 11
1.420999999998571
 21
4.581307444071103
 31
0.0
  0
LINE
  5
BDF1
330
BDE7
100
AcDbEntity
  8
0
  6
CONTINUOUS
100
AcDbLine
 10
-0.0000000000000001
 20
2.486788234992345
 30
0.0
 11
1.420999999998571
 21
3.907788234990917
 31
0.0
  0
LINE
  5
BDF2
330
BDE7
100
AcDbEntity
  8
0
  6
CONTINUOUS
100
AcDbLine
 10
-0.0000000000000006
 20
1.813269025912159
 30
0.0
 11
1.420999999998571
 21
3.234269025910731
 31
0.0
  0
LINE
  5
BDF3
330
BDE7
100
AcDbEntity
  8
0
  6
CONTINUOUS
100
AcDbLine
 10
0.0
 20
1.139749816831973
 30
0.0
 11
1.420999999998571
 21
2.560749816830544
 31
0.0
  0
LINE
  5
BDF4
330
BDE7
100
AcDbEntity
  8
0
  6
CONTINUOUS
100
AcDbLine
 10
0.0000000000000002
 20
0.466230607751787
 30
0.0
 11
1.420999999998571
 21
1.887230607750358
 31
0.0
  0
LINE
  5
BDF5
330
BDE7
100
AcDbEntity
  8
0
  6
CONTINUOUS
100
AcDbLine
 10
0.2072886013284003
 20
-0.0000000000000009
 30
0.0
 11
1.420999999998571
 21
1.213711398670171
 31
0.0
  0
LINE
  5
BDF6
330
BDE7
100
AcDbEntity
  8
0
  6
CONTINUOUS
100
AcDbLine
 10
0.8808078104085864
 20
-0.0000000000000009
 30
0.0
 11
1.420999999998571
 21
0.5401921895899839
 31
0.0
  0
LINE
  5
BDF7
330
BDE7
100
AcDbEntity
  8
0
  6
CONTINUOUS
100
AcDbLine
 10
0.0581249075061505
 20
-0.0000000000000009
 30
0.0
 11
-0.0000000000000002
 21
0.0581249075061496
 31
0.0
  0
LINE
  5
BDF8
330
BDE7
100
AcDbEntity
  8
0
  6
CONTINUOUS
100
AcDbLine
 10
0.7316441165863372
 20
-0.0000000000000009
 30
0.0
 11
-0.0000000000000002
 21
0.7316441165863363
 31
0.0
  0
LINE
  5
BDF9
330
BDE7
100
AcDbEntity
  8
0
  6
CONTINUOUS
100
AcDbLine
 10
1.405163325666523
 20
-0.0000000000000009
 30
0.0
 11
-0.0000000000000002
 21
1.405163325666523
 31
0.0
  0
LINE
  5
BDFA
330
BDE7
100
AcDbEntity
  8
0
  6
CONTINUOUS
100
AcDbLine
 10
1.420999999998572
 20
0.6576825347481381
 30
0.0
 11
-0.0000000000000001
 21
2.07868253474671
 31
0.0
  0
LINE
  5
BDFB
330
BDE7
100
AcDbEntity
  8
0
  6
CONTINUOUS
100
AcDbLine
 10
1.420999999998571
 20
1.331201743828324
 30
0.0
 11
-0.0000000000000001
 21
2.752201743826896
 31
0.0
  0
LINE
  5
BDFC
330
BDE7
100
AcDbEntity
  8
0
  6
CONTINUOUS
100
AcDbLine
 10
1.420999999998571
 20
2.004720952908511
 30
0.0
 11
-0.0000000000000002
 21
3.425720952907082
 31
0.0
  0
LINE
  5
BDFD
330
BDE7
100
AcDbEntity
  8
0
  6
CONTINUOUS
100
AcDbLine
 10
1.420999999998571
 20
2.678240161988697
 30
0.0
 11
-0.0000000000000001
 21
4.099240161987269
 31
0.0
  0
LINE
  5
BDFE
330
BDE7
100
AcDbEntity
  8
0
  6
CONTINUOUS
100
AcDbLine
 10
1.420999999998572
 20
3.351759371068884
 30
0.0
 11
0.0
 21
4.772759371067455
 31
0.0
  0
LINE
  5
BDFF
330
BDE7
100
AcDbEntity
  8
0
  6
CONTINUOUS
100
AcDbLine
 10
1.420999999998571
 20
4.02527858014907
 30
0.0
 11
-0.0000000000000003
 21
5.446278580147642
 31
0.0
  0
LINE
  5
BE00
330
BDE7
100
AcDbEntity
  8
0
  6
CONTINUOUS
100
AcDbLine
 10
1.420999999998571
 20
4.698797789229257
 30
0.0
 11
0.0
 21
6.119797789227828
 31
0.0
  0
LINE
  5
BE01
330
BDE7
100
AcDbEntity
  8
0
  6
CONTINUOUS
100
AcDbLine
 10
1.420999999998571
 20
5.372316998309444
 30
0.0
 11
-0.0000000000000001
 21
6.793316998308015
 31
0.0
  0
LINE
  5
BE02
330
BDE7
100
AcDbEntity
  8
0
  6
CONTINUOUS
100
AcDbLine
 10
1.420999999998572
 20
6.045836207389629
 30
0.0
 11
-0.0000000000000004
 21
7.466836207388202
 31
0.0
  0
LINE
  5
BE03
330
BDE7
100
AcDbEntity
  8
0
  6
CONTINUOUS
100
AcDbLine
 10
1.420999999998571
 20
6.719355416469816
 30
0.0
 11
0.0
 21
8.140355416468388
 31
0.0
  0
LINE
  5
BE04
330
BDE7
100
AcDbEntity
  8
0
  6
CONTINUOUS
100
AcDbLine
 10
1.420999999998571
 20
7.392874625550003
 30
0.0
 11
0.0507746255573185
 21
8.763099999991255
 31
0.0
  0
LINE
  5
BE05
330
BDE7
100
AcDbEntity
  8
0
  6
CONTINUOUS
100
AcDbLine
 10
1.420999999998571
 20
8.06639383463019
 30
0.0
 11
0.7242938346375052
 21
8.763099999991255
 31
0.0
  0
LINE
  5
BE06
330
BDE7
100
AcDbEntity
  8
0
  6
CONTINUOUS
100
AcDbLine
 10
1.420999999998571
 20
8.739913043710375
 30
0.0
 11
1.397813043717691
 21
8.763099999991255
 31
0.0
  0
ENDBLK
  5
BE12
330
BDE7
100
AcDbEntity
  8
0
100
AcDbBlockEnd
  0
ENDSEC
  0
SECTION
  2
ENTITIES
  0
INSERT
  5
25E2
330
18
100
AcDbEntity
  8
01
100
AcDbBlockReference
  2
関連謬けなし5
 10
245.7433707999039
 20
1375.699660497466
 30
0.0
  0
INSERT
  5
25E8
330
18
100
AcDbEntity
  8
01
100
AcDbBlockReference
  2
関連謬けなし4
 10
245.7433707999039
 20
1375.699660497466
 30
0.0
  0
INSERT
  5
2614
330
18
100
AcDbEntity
  8
01
100
AcDbBlockReference
  2
関連謬けなし3
 10
245.7433707999039
 20
1375.699660497466
 30
0.0
  0
INSERT
  5
2615
330
18
100
AcDbEntity
  8
01
100
AcDbBlockReference
  2
関連謬けなし2
 10
245.7433707999039
 20
1375.699660497466
 30
0.0
  0
INSERT
  5
2616
330
18
100
AcDbEntity
  8
01
100
AcDbBlockReference
  2
関連謬けなし1
 10
245.7433707999039
 20
1375.699660497466
 30
0.0
  0
INSERT
  5
2617
330
18
100
AcDbEntity
  8
01
100
AcDbBlockReference
  2
関連謬けなし
 10
245.7433707999039
 20
1375.699660497466
 30
0.0
  0
INSERT
  5
2971
330
18
100
AcDbEntity
  8
01
100
AcDbBlockReference
  2
関連謬けなし3
 10
467.8028922810059
 20
1415.903742810803
 30
0.0
  0
INSERT
  5
2972
330
18
100
AcDbEntity
  8
01
100
AcDbBlockReference
  2
関連謬けなし2
 10
467.8028922810059
 20
1415.903742810803
 30
0.0
  0
INSERT
  5
2973
330
18
100
AcDbEntity
  8
01
100
AcDbBlockReference
  2
関連謬けなし1
 10
467.8028922810059
 20
1415.903742810803
 30
0.0
  0
INSERT
  5
2974
330
18
100
AcDbEntity
  8
01
100
AcDbBlockReference
  2
関連謬けなし
 10
467.8028922810059
 20
1415.903742810803
 30
0.0
  0
INSERT
  5
68F6
330
18
100
AcDbEntity
  8
01
100
AcDbBlockReference
  2
関連謬けなし5
 10
1254.132686640508
 20
1409.518162145574
 30
0.0
  0
INSERT
  5
6900
330
18
100
AcDbEntity
  8
01
100
AcDbBlockReference
  2
関連謬けなし4
 10
1254.132686640508
 20
1409.518162145574
 30
0.0
  0
INSERT
  5
6907
330
18
100
AcDbEntity
  8
01
100
AcDbBlockReference
  2
関連謬けなし3
 10
1254.132686640508
 20
1409.518162145574
 30
0.0
  0
INSERT
  5
6908
330
18
100
AcDbEntity
  8
01
100
AcDbBlockReference
  2
関連謬けなし2
 10
1254.132686640508
 20
1409.518162145574
 30
0.0
  0
INSERT
  5
6909
330
18
100
AcDbEntity
  8
01
100
AcDbBlockReference
  2
関連謬けなし1
 10
1254.132686640508
 20
1409.518162145574
 30
0.0
  0
INSERT
  5
690A
330
18
100
AcDbEntity
  8
01
100
AcDbBlockReference
  2
関連謬けなし
 10
1254.132686640508
 20
1409.518162145574
 30
0.0
  0
ARC
  5
76AD
330
18
100
AcDbEntity
  8
01
100
AcDbCircle
 10
1057.0961725883
 20
1722.745859226641
 30
0.0
 40
1.0
100
AcDbArc
 50
0.0
 51
90.0
  0
ARC
  5
76B3
330
18
100
AcDbEntity
  8
01
100
AcDbCircle
 10
1057.0961725883
 20
1684.745859226641
 30
0.0
 40
1.0
100
AcDbArc
 50
270.0
 51
0.0
  0
LINE
  5
76B5
330
18
100
AcDbEntity
  8
01
100
AcDbLine
 10
984.0961725882999
 20
1683.745859226641
 30
0.0
 11
1057.0961725883
 21
1683.745859226641
 31
0.0
  0
ARC
  5
76B7
330
18
100
AcDbEntity
  8
01
100
AcDbCircle
 10
984.0961725882999
 20
1684.745859226641
 30
0.0
 40
1.0
100
AcDbArc
 50
180.0
 51
270.0
  0
LINE
  5
76B9
330
18
100
AcDbEntity
  8
01
100
AcDbLine
 10
984.0961725883001
 20
1723.745859226641
 30
0.0
 11
1057.0961725883
 21
1723.745859226641
 31
0.0
  0
ARC
  5
76BB
330
18
100
AcDbEntity
  8
01
100
AcDbCircle
 10
984.0961725883001
 20
1722.745859226641
 30
0.0
 40
1.0
100
AcDbArc
 50
90.0
 51
180.0
  0
LINE
  5
76C1
330
18
100
AcDbEntity
  8
01
100
AcDbLine
 10
983.5961725883
 20
1693.745859095507
 30
0.0
 11
1048.0961725883
 21
1693.745859095507
 31
0.0
  0
ARC
  5
76C2
330
18
100
AcDbEntity
  8
01
100
AcDbCircle
 10
983.5961725883
 20
1693.245859095507
 30
0.0
 40
0.5
100
AcDbArc
 50
90.0
 51
180.0
  0
LINE
  5
76C4
330
18
100
AcDbEntity
  8
01
100
AcDbLine
 10
983.5961725883
 20
1713.745859095507
 30
0.0
 11
1048.0961725883
 21
1713.745859095507
 31
0.0
  0
ARC
  5
76C5
330
18
100
AcDbEntity
  8
01
100
AcDbCircle
 10
983.5961725883
 20
1714.245859095507
 30
0.0
 40
0.5
100
AcDbArc
 50
180.0
 51
270.0
  0
LINE
  5
76C7
330
18
100
AcDbEntity
  8
01
100
AcDbLine
 10
1049.0961725883
 20
1694.745859095507
 30
0.0
 11
1049.0961725883
 21
1712.745859095507
 31
0.0
  0
ARC
  5
76C9
330
18
100
AcDbEntity
  8
01
100
AcDbCircle
 10
1048.0961725883
 20
1694.745859095507
 30
0.0
 40
1.0
100
AcDbArc
 50
270.0
 51
0.0
  0
ARC
  5
76CB
330
18
100
AcDbEntity
  8
01
100
AcDbCircle
 10
1048.0961725883
 20
1712.745859095507
 30
0.0
 40
1.0
100
AcDbArc
 50
0.0
 51
90.0
  0
ARC
  5
770C
330
18
100
AcDbEntity
  8
01
100
AcDbCircle
 10
1057.5961725883
 20
1653.245859226641
 30
0.0
 40
0.5
100
AcDbArc
 50
0.0
 51
90.0
  0
LINE
  5
770E
330
18
100
AcDbEntity
  8
01
100
AcDbLine
 10
983.0961725883
 20
1651.245858833239
 30
0.0
 11
1058.0961725883
 21
1651.245858833239
 31
0.0
  0
LINE
  5
770F
330
18
100
AcDbEntity
  8
01
100
AcDbLine
 10
983.5961725883
 20
1653.745859226641
 30
0.0
 11
1057.5961725883
 21
1653.745859226641
 31
0.0
  0
ARC
  5
7710
330
18
100
AcDbEntity
  8
01
100
AcDbCircle
 10
983.5961725883
 20
1653.245859226641
 30
0.0
 40
0.5
100
AcDbArc
 50
90.0
 51
180.0
  0
LINE
  5
7711
330
18
100
AcDbEntity
  8
01
100
AcDbLine
 10
1055.0961725883
 20
1651.245858964373
 30
0.0
 11
1055.0961725883
 21
1640.245858964373
 31
0.0
  0
LINE
  5
7712
330
18
100
AcDbEntity
  8
01
100
AcDbLine
 10
983.3461725883
 20
1639.445858964373
 30
0.0
 11
983.0961725883
 21
1639.445858964373
 31
0.0
  0
LINE
  5
7716
330
18
100
AcDbEntity
  8
01
100
AcDbLine
 10
994.0961725883
 20
1651.245858964373
 30
0.0
 11
994.0961725883
 21
1645.245858964373
 31
0.0
  0
LINE
  5
7718
330
18
100
AcDbEntity
  8
01
100
AcDbLine
 10
992.0961725883
 20
1651.245858964373
 30
0.0
 11
992.0961725883
 21
1645.245858964373
 31
0.0
  0
LINE
  5
7719
330
18
100
AcDbEntity
  8
01
100
AcDbLine
 10
1044.0961725883
 20
1651.245858964373
 30
0.0
 11
1044.0961725883
 21
1645.245858964373
 31
0.0
  0
LINE
  5
771B
330
18
100
AcDbEntity
  8
01
100
AcDbLine
 10
1042.0961725883
 20
1651.245858964373
 30
0.0
 11
1042.0961725883
 21
1645.245858964372
 31
0.0
  0
LINE
  5
771C
330
18
100
AcDbEntity
  8
01
100
AcDbLine
 10
1055.0961725883
 20
1640.245858964373
 30
0.0
 11
984.5961725883
 21
1640.245858964373
 31
0.0
  0
LINE
  5
771D
330
18
100
AcDbEntity
  8
01
100
AcDbLine
 10
983.0961725883
 20
1653.245859226641
 30
0.0
 11
983.0961725883
 21
1639.445858964373
 31
0.0
  0
LINE
  5
7722
330
18
100
AcDbEntity
  8
01
100
AcDbLine
 10
1058.0961725883
 20
1622.745859226641
 30
0.0
 11
1058.0961725883
 21
1584.745867937014
 31
0.0
  0
ARC
  5
7723
330
18
100
AcDbEntity
  8
01
100
AcDbCircle
 10
1057.0961725883
 20
1622.745859226641
 30
0.0
 40
1.0
100
AcDbArc
 50
0.0
 51
90.0
  0
LINE
  5
7724
330
18
100
AcDbEntity
  8
01
100
AcDbLine
 10
984.0961725882999
 20
1623.745859226641
 30
0.0
 11
1057.0961725883
 21
1623.745859226641
 31
0.0
  0
ARC
  5
7725
330
18
100
AcDbEntity
  8
01
100
AcDbCircle
 10
984.0961725882999
 20
1622.745859226641
 30
0.0
 40
1.0
100
AcDbArc
 50
90.0
 51
180.0
  0
LINE
  5
7726
330
18
100
AcDbEntity
  8
01
100
AcDbLine
 10
1055.0961725883
 20
1592.745867937014
 30
0.0
 11
1055.0961725883
 21
1614.745859226641
 31
0.0
  0
LINE
  5
772B
330
18
100
AcDbEntity
  8
01
100
AcDbLine
 10
983.0961725882999
 20
1622.745859226641
 30
0.0
 11
983.0961725883001
 21
1613.745859226641
 31
0.0
  0
LINE
  5
772D
330
18
100
AcDbEntity
  8
01
100
AcDbLine
 10
984.5961725883
 20
1614.745859226641
 30
0.0
 11
984.5961725883
 21
1620.745859226641
 31
0.0
  0
CIRCLE
  5
772F
330
18
100
AcDbEntity
  8
01
100
AcDbCircle
 10
993.0961725883
 20
1617.245859226641
 30
0.0
 40
1.649999999999999
  0
CIRCLE
  5
7730
330
18
100
AcDbEntity
  8
1DIM
100
AcDbCircle
 10
993.0961725883
 20
1617.245859226641
 30
0.0
 40
2.5
  0
LINE
  5
7732
330
18
100
AcDbEntity
  8
01
100
AcDbLine
 10
994.0961725883
 20
1620.745859226641
 30
0.0
 11
993.0961725883
 21
1622.245859226641
 31
0.0
  0
LINE
  5
7733
330
18
100
AcDbEntity
  8
01
100
AcDbLine
 10
993.0961725883
 20
1622.245859226641
 30
0.0
 11
992.0961725883
 21
1620.745859226641
 31
0.0
  0
LINE
  5
7734
330
18
100
AcDbEntity
  8
01
100
AcDbLine
 10
1044.0961725883
 20
1620.745859226641
 30
0.0
 11
1043.0961725883
 21
1622.245859226641
 31
0.0
  0
LINE
  5
7735
330
18
100
AcDbEntity
  8
01
100
AcDbLine
 10
1043.0961725883
 20
1622.245859226641
 30
0.0
 11
1042.0961725883
 21
1620.745859226641
 31
0.0
  0
CIRCLE
  5
7736
330
18
100
AcDbEntity
  8
01
100
AcDbCircle
 10
1052.0961725883
 20
1603.745863581827
 30
0.0
 40
1.650000000000001
  0
CIRCLE
  5
7737
330
18
100
AcDbEntity
  8
1DIM
100
AcDbCircle
 10
1052.0961725883
 20
1603.745863581827
 30
0.0
 40
2.5
  0
LINE
  5
7741
330
18
100
AcDbEntity
  8
01
100
AcDbLine
 10
983.0961725883001
 20
1613.745859226641
 30
0.0
 11
984.5076104160661
 21
1613.745859226641
 31
0.0
  0
ARC
  5
779D
330
18
100
AcDbEntity
  8
01
100
AcDbCircle
 10
1057.0961725883
 20
1584.745867937014
 30
0.0
 40
1.0
100
AcDbArc
 50
270.0
 51
0.0
  0
LINE
  5
779E
330
18
100
AcDbEntity
  8
01
100
AcDbLine
 10
984.0961725882999
 20
1583.745867937014
 30
0.0
 11
1057.0961725883
 21
1583.745867937014
 31
0.0
  0
ARC
  5
779F
330
18
100
AcDbEntity
  8
01
100
AcDbCircle
 10
984.0961725882999
 20
1584.745867937014
 30
0.0
 40
1.0
100
AcDbArc
 50
180.0
 51
270.0
  0
LINE
  5
77A4
330
18
100
AcDbEntity
  8
01
100
AcDbLine
 10
983.0961725882999
 20
1584.745867937014
 30
0.0
 11
983.0961725883
 21
1593.745867937014
 31
0.0
  0
LINE
  5
77A6
330
18
100
AcDbEntity
  8
01
100
AcDbLine
 10
984.5961725883
 20
1592.745867937014
 30
0.0
 11
984.5961725883
 21
1586.745859226641
 31
0.0
  0
CIRCLE
  5
77A8
330
18
100
AcDbEntity
  8
01
100
AcDbCircle
 10
993.0961725883
 20
1590.245867937014
 30
0.0
 40
1.649999999999999
  0
CIRCLE
  5
77A9
330
18
100
AcDbEntity
  8
1DIM
100
AcDbCircle
 10
993.0961725883
 20
1590.245867937014
 30
0.0
 40
2.5
  0
LINE
  5
77AB
330
18
100
AcDbEntity
  8
01
100
AcDbLine
 10
994.0961725883
 20
1586.745859226641
 30
0.0
 11
993.0961725883
 21
1585.245859226641
 31
0.0
  0
LINE
  5
77AC
330
18
100
AcDbEntity
  8
01
100
AcDbLine
 10
993.0961725883
 20
1585.245859226641
 30
0.0
 11
992.0961725883
 21
1586.745859226641
 31
0.0
  0
LINE
  5
77AD
330
18
100
AcDbEntity
  8
01
100
AcDbLine
 10
1044.0961725883
 20
1586.745859226641
 30
0.0
 11
1043.0961725883
 21
1585.245859226641
 31
0.0
  0
LINE
  5
77AE
330
18
100
AcDbEntity
  8
01
100
AcDbLine
 10
1043.0961725883
 20
1585.245859226641
 30
0.0
 11
1042.0961725883
 21
1586.745859226641
 31
0.0
  0
LINE
  5
77B5
330
18
100
AcDbEntity
  8
01
100
AcDbLine
 10
983.0961725883
 20
1593.745867937014
 30
0.0
 11
984.5076005393
 21
1593.745867937014
 31
0.0
  0
LINE
  5
77BD
330
18
100
AcDbEntity
  8
01
100
AcDbLine
 10
992.0961725883
 20
1645.245858964373
 30
0.0
 11
993.0961725883
 21
1643.245858964373
 31
0.0
  0
LINE
  5
77BE
330
18
100
AcDbEntity
  8
01
100
AcDbLine
 10
994.0961725883
 20
1645.245858964373
 30
0.0
 11
993.0961726210835
 21
1643.245858898806
 31
0.0
  0
LINE
  5
77BF
330
18
100
AcDbEntity
  8
01
100
AcDbLine
 10
1042.0961725883
 20
1645.245858964372
 30
0.0
 11
1043.0961725883
 21
1643.245858898806
 31
0.0
  0
LINE
  5
77C0
330
18
100
AcDbEntity
  8
01
100
AcDbLine
 10
1044.0961725883
 20
1645.245858964373
 30
0.0
 11
1043.0961725883
 21
1643.245858898806
 31
0.0
  0
LINE
  5
7839
330
18
100
AcDbEntity
  8
1CENTER
100
AcDbLine
 10
1052.0961725883
 20
1636.576644066022
 30
0.0
 11
1052.0961725883
 21
1644.915074168704
 31
0.0
  0
LINE
  5
8A07
330
18
100
AcDbEntity
  8
01
100
AcDbLine
 10
984.8461725883
 20
1619.495859226641
 30
0.0
 11
984.8461725883
 21
1614.495859226641
 31
0.0
  0
LINE
  5
8A08
330
18
100
AcDbEntity
  8
01
100
AcDbLine
 10
983.8461725883
 20
1613.495859226641
 30
0.0
 11
983.3461725883
 21
1613.495859226641
 31
0.0
  0
LINE
  5
8A09
330
18
100
AcDbEntity
  8
01
100
AcDbLine
 10
983.3461725883
 20
1613.495859226641
 30
0.0
 11
983.3461725883
 21
1593.995859226641
 31
0.0
  0
ARC
  5
8A0E
330
18
100
AcDbEntity
  8
01
100
AcDbCircle
 10
1052.0961725883
 20
1603.745859226641
 30
0.0
 40
2.5
100
AcDbArc
 50
90.0
 51
270.0
  0
LINE
  5
8A0F
330
18
100
AcDbEntity
  8
01
100
AcDbLine
 10
1054.8461725883
 20
1592.995859226641
 30
0.0
 11
1054.8461725883
 21
1600.245859226641
 31
0.0
  0
ARC
  5
8A10
330
18
100
AcDbEntity
  8
01
100
AcDbCircle
 10
1048.8461725883
 20
1592.995859226641
 30
0.0
 40
6.0
100
AcDbArc
 50
270.0
 51
0.0
  0
LINE
  5
8A11
330
18
100
AcDbEntity
  8
01
100
AcDbLine
 10
1052.0961725883
 20
1601.245859226641
 30
0.0
 11
1053.8461725883
 21
1601.245859226641
 31
0.0
  0
LINE
  5
8A12
330
18
100
AcDbEntity
  8
01
100
AcDbLine
 10
1054.8461725883
 20
1607.245859226641
 30
0.0
 11
1054.8461725883
 21
1614.495859226641
 31
0.0
  0
LINE
  5
8A13
330
18
100
AcDbEntity
  8
01
100
AcDbLine
 10
1053.8461725883
 20
1606.245859226641
 30
0.0
 11
1052.0961725883
 21
1606.245859226641
 31
0.0
  0
ARC
  5
8A14
330
18
100
AcDbEntity
  8
01
100
AcDbCircle
 10
993.0961725883
 20
1617.245859226641
 30
0.0
 40
2.5
100
AcDbArc
 50
179.9999999999948
 51
359.9999999999948
  0
LINE
  5
8A15
330
18
100
AcDbEntity
  8
01
100
AcDbLine
 10
1048.8461725883
 20
1620.495859226641
 30
0.0
 11
996.5961725883001
 21
1620.495859226641
 31
0.0
  0
ARC
  5
8A16
330
18
100
AcDbEntity
  8
01
100
AcDbCircle
 10
1048.8461725883
 20
1614.495859226641
 30
0.0
 40
6.0
100
AcDbArc
 50
0.0
 51
90.0
  0
LINE
  5
8A17
330
18
100
AcDbEntity
  8
01
100
AcDbLine
 10
995.5961725883
 20
1617.245859226641
 30
0.0
 11
995.5961725883001
 21
1619.495859226641
 31
0.0
  0
LINE
  5
8A18
330
18
100
AcDbEntity
  8
01
100
AcDbLine
 10
989.5961725883001
 20
1620.495859226641
 30
0.0
 11
985.8461725883
 21
1620.495859226641
 31
0.0
  0
LINE
  5
8A19
330
18
100
AcDbEntity
  8
01
100
AcDbLine
 10
990.5961725883001
 20
1619.495859226641
 30
0.0
 11
990.5961725883
 21
1617.245859226641
 31
0.0
  0
LINE
  5
8A29
330
18
100
AcDbEntity
  8
01
100
AcDbLine
 10
984.8461725883
 20
1587.995859226641
 30
0.0
 11
984.8461725883
 21
1592.995859226641
 31
0.0
  0
LINE
  5
8A2A
330
18
100
AcDbEntity
  8
01
100
AcDbLine
 10
983.8461725882999
 20
1593.995859226641
 30
0.0
 11
983.3461725883
 21
1593.995859226641
 31
0.0
  0
ARC
  5
8A2F
330
18
100
AcDbEntity
  8
01
100
AcDbCircle
 10
993.0961725883
 20
1590.245859226641
 30
0.0
 40
2.5
100
AcDbArc
 50
0.000000000005211
 51
180.0000000000052
  0
LINE
  5
8A30
330
18
100
AcDbEntity
  8
01
100
AcDbLine
 10
1048.8461725883
 20
1586.995859226641
 30
0.0
 11
996.5961725883001
 21
1586.995859226641
 31
0.0
  0
LINE
  5
8A31
330
18
100
AcDbEntity
  8
01
100
AcDbLine
 10
995.5961725883
 20
1590.245859226641
 30
0.0
 11
995.5961725883001
 21
1587.995859226641
 31
0.0
  0
LINE
  5
8A32
330
18
100
AcDbEntity
  8
01
100
AcDbLine
 10
989.5961725883001
 20
1586.995859226641
 30
0.0
 11
985.8461725883
 21
1586.995859226641
 31
0.0
  0
LINE
  5
8A33
330
18
100
AcDbEntity
  8
01
100
AcDbLine
 10
990.5961725883001
 20
1587.995859226641
 30
0.0
 11
990.5961725883
 21
1590.245859226641
 31
0.0
  0
ARC
  5
8CD4
330
18
100
AcDbEntity
  8
01
100
AcDbCircle
 10
983.5961725883
 20
1614.745859226641
 30
0.0
 40
1.0
100
AcDbArc
 50
270.0
 51
0.0
  0
ARC
  5
8CD5
330
18
100
AcDbEntity
  8
01
100
AcDbCircle
 10
983.5961725883
 20
1592.745867937014
 30
0.0
 40
1.0
100
AcDbArc
 50
0.0
 51
90.0
  0
ARC
  5
8CD8
330
18
100
AcDbEntity
  8
01
100
AcDbCircle
 10
983.8461725883
 20
1614.495859226641
 30
0.0
 40
1.0
100
AcDbArc
 50
270.0
 51
0.0
  0
ARC
  5
8CD9
330
18
100
AcDbEntity
  8
01
100
AcDbCircle
 10
983.8461725883
 20
1592.995859226641
 30
0.0
 40
1.0
100
AcDbArc
 50
0.0
 51
90.00000000000865
  0
ARC
  5
8D54
330
18
100
AcDbEntity
  8
01
100
AcDbCircle
 10
985.8461725883
 20
1619.495859226641
 30
0.0
 40
1.0
100
AcDbArc
 50
90.0
 51
180.0
  0
ARC
  5
8D55
330
18
100
AcDbEntity
  8
01
100
AcDbCircle
 10
989.5961725883001
 20
1619.495859226641
 30
0.0
 40
1.0
100
AcDbArc
 50
0.0
 51
90.0
  0
ARC
  5
8D56
330
18
100
AcDbEntity
  8
01
100
AcDbCircle
 10
996.5961725883001
 20
1619.495859226641
 30
0.0
 40
1.0
100
AcDbArc
 50
89.99999999999974
 51
180.0
  0
ARC
  5
8D57
330
18
100
AcDbEntity
  8
01
100
AcDbCircle
 10
985.8461725883
 20
1587.995859226641
 30
0.0
 40
1.0
100
AcDbArc
 50
180.0
 51
270.0
  0
ARC
  5
8D58
330
18
100
AcDbEntity
  8
01
100
AcDbCircle
 10
989.5961725883001
 20
1587.995859226641
 30
0.0
 40
1.0
100
AcDbArc
 50
270.0
 51
0.0
  0
ARC
  5
8D59
330
18
100
AcDbEntity
  8
01
100
AcDbCircle
 10
996.5961725883001
 20
1587.995859226641
 30
0.0
 40
1.0
100
AcDbArc
 50
180.0
 51
270.0
  0
ARC
  5
8DCE
330
18
100
AcDbEntity
  8
01
100
AcDbCircle
 10
983.8461725883
 20
1714.495859095507
 30
0.0
 40
1.0
100
AcDbArc
 50
270.0
 51
311.4096221092698
  0
LINE
  5
8DCF
330
18
100
AcDbEntity
  8
01
100
AcDbLine
 10
983.8461725883
 20
1713.495859095507
 30
0.0
 11
983.3461725883
 21
1713.495859095507
 31
0.0
  0
LINE
  5
8DD0
330
18
100
AcDbEntity
  8
01
100
AcDbLine
 10
983.3461725883
 20
1713.495859095507
 30
0.0
 11
983.3461725883
 21
1693.995859095506
 31
0.0
  0
ARC
  5
8DD1
330
18
100
AcDbEntity
  8
01
100
AcDbCircle
 10
983.8461725883
 20
1692.995859095507
 30
0.0
 40
1.0
100
AcDbArc
 50
48.59037789074864
 51
90.00000000000865
  0
LINE
  5
8DD2
330
18
100
AcDbEntity
  8
01
100
AcDbLine
 10
983.8461725882999
 20
1693.995859095507
 30
0.0
 11
983.3461725883
 21
1693.995859095506
 31
0.0
  0
LINE
  5
8DD4
330
18
100
AcDbEntity
  8
01
100
AcDbLine
 10
1058.0961725883
 20
1714.745859095507
 30
0.0
 11
983.0961725883
 21
1714.745859095507
 31
0.0
  0
LINE
  5
8DD5
330
18
100
AcDbEntity
  8
01
100
AcDbLine
 10
1058.0961725883
 20
1692.745859095507
 30
0.0
 11
983.0961725883
 21
1692.745859095507
 31
0.0
  0
CIRCLE
  5
8DD7
330
18
100
AcDbEntity
  8
1DIM
100
AcDbCircle
 10
993.0961725883
 20
1617.245859226641
 30
0.0
 40
2.0
  0
CIRCLE
  5
8DD8
330
18
100
AcDbEntity
  8
1DIM
100
AcDbCircle
 10
993.0961725883
 20
1590.245859226641
 30
0.0
 40
2.0
  0
CIRCLE
  5
8DD9
330
18
100
AcDbEntity
  8
1DIM
100
AcDbCircle
 10
1052.0961725883
 20
1603.745863581827
 30
0.0
 40
2.0
  0
ARC
  5
8F53
330
18
100
AcDbEntity
  8
01
100
AcDbCircle
 10
1053.8461725883
 20
1607.245859226641
 30
0.0
 40
1.0
100
AcDbArc
 50
270.0
 51
0.0
  0
ARC
  5
8F54
330
18
100
AcDbEntity
  8
01
100
AcDbCircle
 10
1053.8461725883
 20
1600.245859226641
 30
0.0
 40
1.0
100
AcDbArc
 50
0.0
 51
90.0
  0
LINE
  5
90DA
330
18
100
AcDbEntity
  8
01
100
AcDbLine
 10
983.3461725883
 20
1639.245858964373
 30
0.0
 11
983.3461725883
 21
1640.245858964373
 31
0.0
  0
LINE
  5
90DB
330
18
100
AcDbEntity
  8
01
100
AcDbLine
 10
983.3461725883
 20
1640.245858964373
 30
0.0
 11
1054.8461725883
 21
1640.245858964373
 31
0.0
  0
LINE
  5
90DC
330
18
100
AcDbEntity
  8
01
100
AcDbLine
 10
1054.8461725883
 20
1640.245858964373
 30
0.0
 11
1054.8461725883
 21
1639.245858964373
 31
0.0
  0
LINE
  5
90DE
330
18
100
AcDbEntity
  8
01
100
AcDbLine
 10
983.3461725883
 20
1639.245858964373
 30
0.0
 11
1054.8461725883
 21
1639.245858964373
 31
0.0
  0
LINE
  5
90E0
330
18
100
AcDbEntity
  8
1CENTER
100
AcDbLine
 10
993.0961725883
 20
1636.576644066022
 30
0.0
 11
993.0961725883
 21
1644.915074168704
 31
0.0
  0
LINE
  5
90E1
330
18
100
AcDbEntity
  8
1DIM
100
AcDbLine
 10
993.0961725883
 20
1643.245858964373
 30
0.0
 11
993.0961725883
 21
1651.245858833239
 31
0.0
  0
LINE
  5
90E2
330
18
100
AcDbEntity
  8
1DIM
100
AcDbLine
 10
1043.0961725883
 20
1643.245858898806
 30
0.0
 11
1043.0961725883
 21
1651.245858833239
 31
0.0
  0
LINE
  5
90E3
330
18
100
AcDbEntity
  8
1DIM
100
AcDbLine
 10
992.0961725883
 20
1645.245858964373
 30
0.0
 11
994.0961725883
 21
1645.245858964373
 31
0.0
  0
LINE
  5
90E4
330
18
100
AcDbEntity
  8
1DIM
100
AcDbLine
 10
1042.0961725883
 20
1645.245858964372
 30
0.0
 11
1044.0961725883
 21
1645.245858964373
 31
0.0
  0
LINE
  5
90E5
330
18
100
AcDbEntity
  8
1DIM
100
AcDbLine
 10
993.0961725883
 20
1622.245859226641
 30
0.0
 11
993.0961725883
 21
1620.745859226641
 31
0.0
  0
LINE
  5
90E6
330
18
100
AcDbEntity
  8
1DIM
100
AcDbLine
 10
1043.0961725883
 20
1622.245859226641
 30
0.0
 11
1043.0961725883
 21
1620.745859226641
 31
0.0
  0
LINE
  5
90E7
330
18
100
AcDbEntity
  8
1DIM
100
AcDbLine
 10
993.0961725883
 20
1585.245859226641
 30
0.0
 11
993.0961725883
 21
1586.745859226641
 31
0.0
  0
LINE
  5
90E8
330
18
100
AcDbEntity
  8
1DIM
100
AcDbLine
 10
1043.0961725883
 20
1585.245859226641
 30
0.0
 11
1043.0961725883
 21
1586.745859226641
 31
0.0
  0
LINE
  5
90EF
330
18
100
AcDbEntity
  8
01
100
AcDbLine
 10
1058.0961725883
 20
1653.245859226641
 30
0.0
 11
1058.0961725883
 21
1651.245858833239
 31
0.0
  0
LINE
  5
90F1
330
18
100
AcDbEntity
  8
01
100
AcDbLine
 10
1058.0961725883
 20
1722.745859226641
 30
0.0
 11
1058.0961725883
 21
1684.745859226641
 31
0.0
  0
LINE
  5
90F3
330
18
100
AcDbEntity
  8
01
100
AcDbLine
 10
983.0961725883
 20
1684.745859226641
 30
0.0
 11
983.0961725883
 21
1693.245859095507
 31
0.0
  0
LINE
  5
90F4
330
18
100
AcDbEntity
  8
01
100
AcDbLine
 10
983.0961725883
 20
1714.245859095507
 30
0.0
 11
983.0961725883
 21
1722.745859226641
 31
0.0
  0
LINE
  5
9122
330
18
100
AcDbEntity
  8
1DIM
100
AcDbLine
 10
983.5961725883
 20
1652.245858833239
 30
0.0
 11
1057.5961725883
 21
1652.245858833239
 31
0.0
  0
ARC
  5
9123
330
18
100
AcDbEntity
  8
1DIM
100
AcDbCircle
 10
1057.5961725883
 20
1651.745858833239
 30
0.0
 40
0.5
100
AcDbArc
 50
0.0
 51
90.0
  0
ARC
  5
9124
330
18
100
AcDbEntity
  8
1DIM
100
AcDbCircle
 10
983.5961725883
 20
1651.745858833239
 30
0.0
 40
0.5
100
AcDbArc
 50
90.0
 51
180.0
  0
LINE
  5
919B
330
18
100
AcDbEntity
  8
01
100
AcDbLine
 10
983.0961725882999
 20
1620.745859226641
 30
0.0
 11
1049.0961725883
 21
1620.745859226641
 31
0.0
  0
LINE
  5
919C
330
18
100
AcDbEntity
  8
01
100
AcDbLine
 10
983.0961725882999
 20
1586.745859226641
 30
0.0
 11
1049.0961725883
 21
1586.745859226641
 31
0.0
  0
LINE
  5
919E
330
18
100
AcDbEntity
  8
01
100
AcDbLine
 10
1055.0961725883
 20
1614.745859226641
 30
0.0
 11
1055.0961725883
 21
1592.745859226641
 31
0.0
  0
ARC
  5
91A0
330
18
100
AcDbEntity
  8
01
100
AcDbCircle
 10
1049.0961725883
 20
1614.745859226642
 30
0.0
 40
6.0
100
AcDbArc
 50
359.9999999999935
 51
90.00000000000216
  0
ARC
  5
91A1
330
18
100
AcDbEntity
  8
01
100
AcDbCircle
 10
1049.0961725883
 20
1592.745859226641
 30
0.0
 40
6.0
100
AcDbArc
 50
269.9999999999979
 51
0.0000000000021713
  0
LINE
  5
91E9
330
18
100
AcDbEntity
  8
1CENTER
100
AcDbLine
 10
993.0961725883
 20
1587.245867937014
 30
0.0
 11
993.0961725883
 21
1593.245867937014
 31
0.0
  0
LINE
  5
91EA
330
18
100
AcDbEntity
  8
1CENTER
100
AcDbLine
 10
990.0961725883
 20
1590.245867937014
 30
0.0
 11
996.0961725883
 21
1590.245867937014
 31
0.0
  0
LINE
  5
91EB
330
18
100
AcDbEntity
  8
1CENTER
100
AcDbLine
 10
993.0961725883
 20
1614.245867937014
 30
0.0
 11
993.0961725883
 21
1620.245867937014
 31
0.0
  0
LINE
  5
91EC
330
18
100
AcDbEntity
  8
1CENTER
100
AcDbLine
 10
990.0961725883
 20
1617.245867937014
 30
0.0
 11
996.0961725883
 21
1617.245867937014
 31
0.0
  0
LINE
  5
91ED
330
18
100
AcDbEntity
  8
1CENTER
100
AcDbLine
 10
1052.0961725883
 20
1600.745872292201
 30
0.0
 11
1052.0961725883
 21
1606.745872292201
 31
0.0
  0
LINE
  5
91EE
330
18
100
AcDbEntity
  8
1CENTER
100
AcDbLine
 10
1049.0961725883
 20
1603.745872292201
 30
0.0
 11
1055.0961725883
 21
1603.745872292201
 31
0.0
  0
LINE
  5
91EF
330
18
100
AcDbEntity
  8
1CENTER
100
AcDbLine
 10
993.0961725883
 20
1687.24586780588
 30
0.0
 11
993.0961725883
 21
1693.24586780588
 31
0.0
  0
LINE
  5
91F0
330
18
100
AcDbEntity
  8
1CENTER
100
AcDbLine
 10
990.0961725883
 20
1690.24586780588
 30
0.0
 11
996.0961725883
 21
1690.24586780588
 31
0.0
  0
LINE
  5
91F1
330
18
100
AcDbEntity
  8
1CENTER
100
AcDbLine
 10
993.0961725883
 20
1714.24586780588
 30
0.0
 11
993.0961725883
 21
1720.24586780588
 31
0.0
  0
LINE
  5
91F2
330
18
100
AcDbEntity
  8
1CENTER
100
AcDbLine
 10
990.0961725883
 20
1717.24586780588
 30
0.0
 11
996.0961725883
 21
1717.24586780588
 31
0.0
  0
LINE
  5
91F3
330
18
100
AcDbEntity
  8
1CENTER
100
AcDbLine
 10
1052.0961725883
 20
1700.745872161066
 30
0.0
 11
1052.0961725883
 21
1706.745872161066
 31
0.0
  0
LINE
  5
91F4
330
18
100
AcDbEntity
  8
1CENTER
100
AcDbLine
 10
1049.0961725883
 20
1703.745872161066
 30
0.0
 11
1055.0961725883
 21
1703.745872161066
 31
0.0
  0
LINE
  5
931B
330
18
100
AcDbEntity
  8
1DIM
100
AcDbLine
 10
1158.231568860152
 20
1685.245872161066
 30
0.0
 11
1158.231568860152
 21
1686.745872161066
 31
0.0
  0
LINE
  5
931F
330
18
100
AcDbEntity
  8
1PHANTOM
100
AcDbLine
 10
1148.231568860152
 20
1686.745872161066
 30
0.0
 11
1214.231568860152
 21
1686.745872161066
 31
0.0
  0
LINE
  5
9320
330
18
100
AcDbEntity
  8
1PHANTOM
100
AcDbLine
 10
1148.231568860152
 20
1720.745872161066
 30
0.0
 11
1214.231568860152
 21
1720.745872161066
 31
0.0
  0
LINE
  5
9321
330
18
100
AcDbEntity
  8
1PHANTOM
100
AcDbLine
 10
1220.231568860152
 20
1714.745872161066
 30
0.0
 11
1220.231568860152
 21
1692.745872161066
 31
0.0
  0
ARC
  5
9322
330
18
100
AcDbEntity
  8
1PHANTOM
100
AcDbCircle
 10
1214.231568860152
 20
1714.745872161067
 30
0.0
 40
6.0
100
AcDbArc
 50
0.0000000000065138
 51
90.00000000000217
  0
ARC
  5
9323
330
18
100
AcDbEntity
  8
1PHANTOM
100
AcDbCircle
 10
1214.231568860152
 20
1692.745872161066
 30
0.0
 40
6.0
100
AcDbArc
 50
269.9999999999978
 51
0.0000000000021713
  0
LINE
  5
9328
330
18
100
AcDbEntity
  8
1CENTER
100
AcDbLine
 10
1158.231568860152
 20
1687.24588087144
 30
0.0
 11
1158.231568860152
 21
1693.24588087144
 31
0.0
  0
LINE
  5
9329
330
18
100
AcDbEntity
  8
1CENTER
100
AcDbLine
 10
1155.231568860152
 20
1690.24588087144
 30
0.0
 11
1161.231568860152
 21
1690.24588087144
 31
0.0
  0
LINE
  5
932A
330
18
100
AcDbEntity
  8
1CENTER
100
AcDbLine
 10
1158.231568860152
 20
1714.24588087144
 30
0.0
 11
1158.231568860152
 21
1720.24588087144
 31
0.0
  0
LINE
  5
932B
330
18
100
AcDbEntity
  8
1CENTER
100
AcDbLine
 10
1155.231568860152
 20
1717.24588087144
 30
0.0
 11
1161.231568860152
 21
1717.24588087144
 31
0.0
  0
LINE
  5
932C
330
18
100
AcDbEntity
  8
1CENTER
100
AcDbLine
 10
1217.231568860152
 20
1700.745885226626
 30
0.0
 11
1217.231568860152
 21
1706.745885226626
 31
0.0
  0
LINE
  5
932D
330
18
100
AcDbEntity
  8
1CENTER
100
AcDbLine
 10
1214.231568860152
 20
1703.745885226626
 30
0.0
 11
1220.231568860152
 21
1703.745885226626
 31
0.0
  0
LINE
  5
939D
330
18
100
AcDbEntity
  8
01
100
AcDbLine
 10
1148.231568860152
 20
1725.745872161066
 30
0.0
 11
1148.231568860152
 21
1681.745872161066
 31
0.0
  0
CIRCLE
  5
93B6
330
18
100
AcDbEntity
  8
01
100
AcDbCircle
 10
1158.231568860152
 20
1717.24588087144
 30
0.0
 40
2.25
  0
CIRCLE
  5
93B7
330
18
100
AcDbEntity
  8
01
100
AcDbCircle
 10
1158.231568860152
 20
1690.24588087144
 30
0.0
 40
2.25
  0
CIRCLE
  5
93B8
330
18
100
AcDbEntity
  8
01
100
AcDbCircle
 10
1217.231568860152
 20
1703.745885226626
 30
0.0
 40
2.25
  0
TEXT
  5
9840
330
18
100
AcDbEntity
  8
1TEXT
100
AcDbText
 10
1167.877664795912
 20
1652.309308160297
 30
0.0
 40
3.5
  1
切欠き図(S=1:1)
100
AcDbText
  0
LINE
  5
985A
330
18
100
AcDbEntity
  8
1DIM
100
AcDbLine
 10
983.5280689254854
 20
1746.656091255716
 30
0.0
 11
1053.528068925486
 21
1746.656091255716
 31
0.0
  0
TEXT
  5
985C
330
18
100
AcDbEntity
  8
1TEXT
100
AcDbText
 10
990.1280689254851
 20
1762.156091255716
 30
0.0
 40
4.0
  1
表面処理：
 72
     1
 11
1000.928068925485
 21
1762.156091255716
 31
0.0
100
AcDbText
  0
TEXT
  5
985D
330
18
100
AcDbEntity
  8
1TEXT
100
AcDbText
 10
991.4614022588183
 20
1755.320802596191
 30
0.0
 40
4.0
  1
クローム
 72
     1
 11
1000.928068925485
 21
1755.320802596191
 31
0.0
100
AcDbText
  0
LINE
  5
985E
330
18
100
AcDbEntity
  8
1DIM
100
AcDbLine
 10
983.5280689254854
 20
1767.656091255716
 30
0.0
 11
1053.528068925486
 21
1767.656091255716
 31
0.0
  0
LINE
  5
985F
330
18
100
AcDbEntity
  8
1DIM
100
AcDbLine
 10
983.5280689254854
 20
1760.656091255716
 30
0.0
 11
1053.528068925486
 21
1760.656091255716
 31
0.0
  0
LINE
  5
9860
330
18
100
AcDbEntity
  8
1DIM
100
AcDbLine
 10
983.5280689254854
 20
1753.656091255716
 30
0.0
 11
1053.528068925486
 21
1753.656091255716
 31
0.0
  0
LINE
  5
9861
330
18
100
AcDbEntity
  8
1DIM
100
AcDbLine
 10
983.5280689254854
 20
1753.656091255716
 30
0.0
 11
1053.528068925486
 21
1753.656091255716
 31
0.0
  0
LINE
  5
9862
330
18
100
AcDbEntity
  8
1DIM
100
AcDbLine
 10
1018.528068925485
 20
1767.656091255716
 30
0.0
 11
1018.528068925485
 21
1739.656091255716
 31
0.0
  0
TEXT
  5
9863
330
18
100
AcDbEntity
  8
1TEXT
100
AcDbText
 10
1020.327235592153
 20
1754.941734272066
 30
0.0
 40
4.0
  1
PC-397-XC
 41
0.9
 72
     1
 11
1035.928068925486
 21
1754.941734272066
 31
0.0
100
AcDbText
  0
TEXT
  5
9865
330
18
100
AcDbEntity
  8
1TEXT
100
AcDbText
 10
1029.061402258819
 20
1762.156091255716
 30
0.0
 40
4.0
  1
コード
 72
     1
 11
1035.928068925485
 21
1762.156091255716
 31
0.0
100
AcDbText
  0
LINE
  5
9866
330
18
100
AcDbEntity
  8
1DIM
100
AcDbLine
 10
983.5280689254854
 20
1746.656091255716
 30
0.0
 11
1053.528068925486
 21
1746.656091255716
 31
0.0
  0
TEXT
  5
9867
330
18
100
AcDbEntity
  8
1TEXT
100
AcDbText
 10
984.3947355921517
 20
1748.345177644145
 30
0.0
 40
4.0
  1
サテンニッケル
 72
     1
 11
1000.928068925485
 21
1748.345177644145
 31
0.0
100
AcDbText
  0
TEXT
  5
9868
330
18
100
AcDbEntity
  8
1TEXT
100
AcDbText
 10
1020.327235592153
 20
1747.941734272066
 30
0.0
 40
4.0
  1
PC-397-XN
 41
0.9
 72
     1
 11
1035.928068925486
 21
1747.941734272066
 31
0.0
100
AcDbText
  0
LINE
  5
9869
330
18
100
AcDbEntity
  8
1DIM
100
AcDbLine
 10
983.5280689254854
 20
1739.656091255716
 30
0.0
 11
983.5280689254854
 21
1767.656091255716
 31
0.0
  0
LINE
  5
986A
330
18
100
AcDbEntity
  8
1DIM
100
AcDbLine
 10
1053.528068925486
 20
1739.656091255716
 30
0.0
 11
1053.528068925486
 21
1767.656091255716
 31
0.0
  0
TEXT
  5
987A
330
18
100
AcDbEntity
  8
1TEXT
100
AcDbText
 10
983.8243183889484
 20
1772.678524751992
 30
0.0
 40
8.0
  1
PC-397-X
100
AcDbText
  0
LINE
  5
9AF9
330
18
100
AcDbEntity
  8
1DIM
100
AcDbLine
 10
1148.231568860152
 20
1722.668977723946
 30
0.0
 11
1144.655624904138
 21
1724.733549929558
 31
0.0
  0
LINE
  5
9AFA
330
18
100
AcDbEntity
  8
1DIM
100
AcDbLine
 10
1148.231568860152
 20
1722.668977723946
 30
0.0
 11
1144.655624904138
 21
1720.604405518335
 31
0.0
  0
LINE
  5
9AFB
330
18
100
AcDbEntity
  8
1DIM
100
AcDbLine
 10
1144.655624904138
 20
1720.604405518335
 30
0.0
 11
1144.655624904138
 21
1724.733549929558
 31
0.0
  0
TEXT
  5
9AFD
330
18
100
AcDbEntity
  8
1TEXT
100
AcDbText
 10
1138.355103471587
 20
1721.578136780666
 30
0.0
 40
2.5
  1
戸先
100
AcDbText
  0
TEXT
  5
9C9D
330
18
100
AcDbEntity
  8
1TEXT
100
AcDbText
 10
984.7947355921517
 20
1741.345177644145
 30
0.0
 40
4.0
  1
パールブラック
 72
     1
 11
1000.928068925485
 21
1741.345177644145
 31
0.0
100
AcDbText
  0
LINE
  5
9C9E
330
18
100
AcDbEntity
  8
1DIM
100
AcDbLine
 10
983.5280689254854
 20
1739.656091255716
 30
0.0
 11
1053.528068925486
 21
1739.656091255716
 31
0.0
  0
TEXT
  5
9C9F
330
18
100
AcDbEntity
  8
1TEXT
100
AcDbText
 10
1020.309735592153
 20
1740.941734272066
 30
0.0
 40
4.0
  1
PC-397-GQ
 41
0.9
 72
     1
 11
1035.928068925486
 21
1740.941734272066
 31
0.0
100
AcDbText
  0
LINE
  5
B61F
330
18
100
AcDbEntity
  8
1HIDDEN
100
AcDbLine
 10
1103.734911825043
 20
1713.745859335919
 30
0.0
 11
1103.734913349075
 21
1713.745859335919
 31
0.0
  0
LINE
  5
B628
330
18
100
AcDbEntity
  8
1HIDDEN
100
AcDbLine
 10
996.0961725882994
 20
1714.245854871454
 30
0.0
 11
996.0961725882999
 21
1716.245854871454
 31
0.0
  0
ARC
  5
B629
330
18
100
AcDbEntity
  8
1HIDDEN
100
AcDbCircle
 10
995.5961725882996
 20
1714.245854871454
 30
0.0
 40
0.5
100
AcDbArc
 50
270.0
 51
0.0
  0
LINE
  5
B63A
330
18
100
AcDbEntity
  8
1HIDDEN
100
AcDbLine
 10
1049.0961725883
 20
1691.245863581828
 30
0.0
 11
1049.0961725883
 21
1716.245854871454
 31
0.0
  0
ARC
  5
B63D
330
18
100
AcDbEntity
  8
1HIDDEN
100
AcDbCircle
 10
1046.0961725883
 20
1716.245854871454
 30
0.0
 40
3.0
100
AcDbArc
 50
0.0
 51
90.0
  0
LINE
  5
B63E
330
18
100
AcDbEntity
  8
1HIDDEN
100
AcDbLine
 10
999.0961725883
 20
1719.245854871454
 30
0.0
 11
1046.0961725883
 21
1719.245854871454
 31
0.0
  0
ARC
  5
B63F
330
18
100
AcDbEntity
  8
1HIDDEN
100
AcDbCircle
 10
999.0961725883
 20
1716.245854871454
 30
0.0
 40
3.0
100
AcDbArc
 50
90.0
 51
180.0
  0
LINE
  5
B649
330
18
100
AcDbEntity
  8
1HIDDEN
100
AcDbLine
 10
996.0961725882999
 20
1693.245863581828
 30
0.0
 11
996.0961725883
 21
1691.245863581828
 31
0.0
  0
ARC
  5
B64A
330
18
100
AcDbEntity
  8
1HIDDEN
100
AcDbCircle
 10
995.5961725883
 20
1693.245863581828
 30
0.0
 40
0.5
100
AcDbArc
 50
0.0
 51
90.0
  0
ARC
  5
B659
330
18
100
AcDbEntity
  8
1HIDDEN
100
AcDbCircle
 10
1046.0961725883
 20
1691.245863581828
 30
0.0
 40
3.0
100
AcDbArc
 50
270.0
 51
0.0
  0
LINE
  5
B65A
330
18
100
AcDbEntity
  8
1HIDDEN
100
AcDbLine
 10
999.0961725883
 20
1688.245863581828
 30
0.0
 11
1046.0961725883
 21
1688.245863581828
 31
0.0
  0
ARC
  5
B65B
330
18
100
AcDbEntity
  8
1HIDDEN
100
AcDbCircle
 10
999.0961725883
 20
1691.245863581828
 30
0.0
 40
3.0
100
AcDbArc
 50
180.0
 51
270.0
  0
LINE
  5
B80E
330
18
100
AcDbEntity
  8
01
100
AcDbLine
 10
1105.658476893266
 20
1723.745859226641
 30
0.0
 11
1106.234913349075
 21
1723.745859226641
 31
0.0
  0
LINE
  5
B80F
330
18
100
AcDbEntity
  8
01
100
AcDbLine
 10
1106.234913349075
 20
1723.745859226641
 30
0.0
 11
1106.234913349075
 21
1683.745859226641
 31
0.0
  0
LINE
  5
B810
330
18
100
AcDbEntity
  8
01
100
AcDbLine
 10
1103.734913349075
 20
1692.745859226641
 30
0.0
 11
1103.734913349075
 21
1714.745859226641
 31
0.0
  0
ARC
  5
B811
330
18
100
AcDbEntity
  8
01
100
AcDbCircle
 10
1104.734913349075
 20
1714.663096696343
 30
0.0
 40
1.0
100
AcDbArc
 50
170.5376777919787
 51
180.0
  0
LINE
  5
B812
330
18
100
AcDbEntity
  8
01
100
AcDbLine
 10
1103.734913349075
 20
1714.745859226641
 30
0.0
 11
1105.16527993135
 21
1723.328058720294
 31
0.0
  0
ARC
  5
B813
330
18
100
AcDbEntity
  8
01
100
AcDbCircle
 10
1105.658476893266
 20
1723.245859226641
 30
0.0
 40
0.5
100
AcDbArc
 50
90.0
 51
170.5376777919658
  0
LINE
  5
B814
330
18
100
AcDbEntity
  8
01
100
AcDbLine
 10
1117.234913217941
 20
1686.745859226641
 30
0.0
 11
1117.234913217941
 21
1720.745859226641
 31
0.0
  0
LINE
  5
B815
330
18
100
AcDbEntity
  8
01
100
AcDbLine
 10
1106.234913217941
 20
1720.745859226641
 30
0.0
 11
1118.034910136288
 21
1720.745859226641
 31
0.0
  0
LINE
  5
B816
330
18
100
AcDbEntity
  8
01
100
AcDbLine
 10
1118.034910136288
 20
1720.495859226641
 30
0.0
 11
1118.034910136288
 21
1720.745859226641
 31
0.0
  0
LINE
  5
B817
330
18
100
AcDbEntity
  8
01
100
AcDbLine
 10
1106.234915665778
 20
1722.245854871454
 30
0.0
 11
1112.234915665779
 21
1722.245854871454
 31
0.0
  0
LINE
  5
B818
330
18
100
AcDbEntity
  8
01
100
AcDbLine
 10
1112.234915665779
 20
1722.245854871454
 30
0.0
 11
1114.23491570949
 21
1720.745854871454
 31
0.0
  0
LINE
  5
B819
330
18
100
AcDbEntity
  8
01
100
AcDbLine
 10
1105.658476893266
 20
1683.745867937014
 30
0.0
 11
1106.234913349075
 21
1683.745867937014
 31
0.0
  0
ARC
  5
B81A
330
18
100
AcDbEntity
  8
01
100
AcDbCircle
 10
1104.734913349075
 20
1692.828630467312
 30
0.0
 40
1.0
100
AcDbArc
 50
180.0
 51
189.4623222080213
  0
LINE
  5
B81B
330
18
100
AcDbEntity
  8
01
100
AcDbLine
 10
1103.734913349075
 20
1692.745867937014
 30
0.0
 11
1105.16527993135
 21
1684.163668443362
 31
0.0
  0
ARC
  5
B81C
330
18
100
AcDbEntity
  8
01
100
AcDbCircle
 10
1105.658476893266
 20
1684.245867937014
 30
0.0
 40
0.5
100
AcDbArc
 50
189.4623222080342
 51
270.0
  0
LINE
  5
B81D
330
18
100
AcDbEntity
  8
01
100
AcDbLine
 10
1106.234913217941
 20
1686.745867937014
 30
0.0
 11
1118.034910136288
 21
1686.745867937014
 31
0.0
  0
LINE
  5
B81E
330
18
100
AcDbEntity
  8
01
100
AcDbLine
 10
1118.034910136288
 20
1686.995859226641
 30
0.0
 11
1118.034910136288
 21
1686.745867937014
 31
0.0
  0
LINE
  5
B81F
330
18
100
AcDbEntity
  8
01
100
AcDbLine
 10
1106.234915665778
 20
1685.245872292201
 30
0.0
 11
1112.234915665779
 21
1685.245872292201
 31
0.0
  0
LINE
  5
B820
330
18
100
AcDbEntity
  8
01
100
AcDbLine
 10
1112.234915665779
 20
1685.245872292201
 30
0.0
 11
1114.23491570949
 21
1686.745872292201
 31
0.0
  0
LINE
  5
B821
330
18
100
AcDbEntity
  8
01
100
AcDbLine
 10
1118.234913217941
 20
1706.245859226641
 30
0.0
 11
1118.234913217941
 21
1701.245859226641
 31
0.0
  0
LINE
  5
B822
330
18
100
AcDbEntity
  8
01
100
AcDbLine
 10
1117.234913217941
 20
1706.245859226641
 30
0.0
 11
1117.234913217941
 21
1701.245859226641
 31
0.0
  0
LINE
  5
B823
330
18
100
AcDbEntity
  8
01
100
AcDbLine
 10
1118.234913338147
 20
1686.995859226641
 30
0.0
 11
1118.234913338147
 21
1701.245859226641
 31
0.0
  0
LINE
  5
B824
330
18
100
AcDbEntity
  8
01
100
AcDbLine
 10
1118.234913338147
 20
1706.245859226641
 30
0.0
 11
1118.234913338147
 21
1720.495859226641
 31
0.0
  0
LINE
  5
B825
330
18
100
AcDbEntity
  8
01
100
AcDbLine
 10
1117.234913338147
 20
1686.995859226641
 30
0.0
 11
1117.234913338147
 21
1701.245859226641
 31
0.0
  0
LINE
  5
B826
330
18
100
AcDbEntity
  8
01
100
AcDbLine
 10
1117.234913338147
 20
1706.245859226641
 30
0.0
 11
1117.234913338147
 21
1720.495859226641
 31
0.0
  0
LINE
  5
B827
330
18
100
AcDbEntity
  8
01
100
AcDbLine
 10
1118.234913338147
 20
1701.245859226641
 30
0.0
 11
1117.234913338147
 21
1701.245859226641
 31
0.0
  0
LINE
  5
B828
330
18
100
AcDbEntity
  8
01
100
AcDbLine
 10
1118.234913338147
 20
1706.245859226641
 30
0.0
 11
1117.234913338147
 21
1706.245859226641
 31
0.0
  0
LINE
  5
B829
330
18
100
AcDbEntity
  8
01
100
AcDbLine
 10
1118.234913338147
 20
1720.495859226641
 30
0.0
 11
1117.234913338147
 21
1720.495859226641
 31
0.0
  0
LINE
  5
B82A
330
18
100
AcDbEntity
  8
01
100
AcDbLine
 10
1118.234913338147
 20
1686.995859226641
 30
0.0
 11
1117.234913217941
 21
1686.995859226641
 31
0.0
  0
LINE
  5
B82B
330
18
100
AcDbEntity
  8
1CENTER
100
AcDbLine
 10
1102.221252609862
 20
1703.745858835309
 30
0.0
 11
1120.881555082958
 21
1703.745858835309
 31
0.0
  0
LINE
  5
B82C
330
18
100
AcDbEntity
  8
1DIM
100
AcDbLine
 10
1112.234915665779
 20
1685.245872292201
 30
0.0
 11
1112.234915665779
 21
1686.745867937014
 31
0.0
  0
LINE
  5
B82D
330
18
100
AcDbEntity
  8
1DIM
100
AcDbLine
 10
1112.234915665779
 20
1722.245854871454
 30
0.0
 11
1112.234915665779
 21
1720.745859226641
 31
0.0
  0
LINE
  5
B82E
330
18
100
AcDbEntity
  8
1CENTER
100
AcDbLine
 10
1114.183941985709
 20
1717.245857357062
 30
0.0
 11
1120.881555203164
 21
1717.245857357062
 31
0.0
  0
LINE
  5
B899
330
18
100
AcDbEntity
  8
01
100
AcDbLine
 10
949.3161973439649
 20
1723.745859095506
 30
0.0
 11
948.7397608881564
 21
1723.745859095507
 31
0.0
  0
ARC
  5
B89A
330
18
100
AcDbEntity
  8
01
100
AcDbCircle
 10
949.3161973439649
 20
1723.245859095506
 30
0.0
 40
0.5
100
AcDbArc
 50
9.462322208034184
 51
90.0
  0
LINE
  5
B89B
330
18
100
AcDbEntity
  8
01
100
AcDbLine
 10
951.2397637731082
 20
1714.745841785796
 30
0.0
 11
949.8093943058809
 21
1723.328058589159
 31
0.0
  0
ARC
  5
B89C
330
18
100
AcDbEntity
  8
01
100
AcDbCircle
 10
950.2397637731084
 20
1714.663079255497
 30
0.0
 40
1.0
100
AcDbArc
 50
0.0
 51
9.462322208021334
  0
LINE
  5
B89D
330
18
100
AcDbEntity
  8
01
100
AcDbLine
 10
936.9397608881565
 20
1720.745859095507
 30
0.0
 11
936.9397608881565
 21
1713.745859095507
 31
0.0
  0
LINE
  5
B89E
330
18
100
AcDbEntity
  8
01
100
AcDbLine
 10
948.7397613252703
 20
1722.245859095507
 30
0.0
 11
942.7397613252699
 21
1722.245859095506
 31
0.0
  0
LINE
  5
B89F
330
18
100
AcDbEntity
  8
01
100
AcDbLine
 10
948.7397608881564
 20
1723.745859095507
 30
0.0
 11
948.7397608881564
 21
1720.745859095507
 31
0.0
  0
LINE
  5
B8A0
330
18
100
AcDbEntity
  8
01
100
AcDbLine
 10
951.2397637731082
 20
1714.745841785796
 30
0.0
 11
951.239763773108
 21
1692.745885115591
 31
0.0
  0
LINE
  5
B8A1
330
18
100
AcDbEntity
  8
01
100
AcDbLine
 10
937.739763773108
 20
1693.745859095507
 30
0.0
 11
937.739763773108
 21
1713.745859095507
 31
0.0
  0
LINE
  5
B8A2
330
18
100
AcDbEntity
  8
01
100
AcDbLine
 10
948.7397608881564
 20
1720.745859095507
 30
0.0
 11
936.9397608881565
 21
1720.745859095507
 31
0.0
  0
LINE
  5
B8A3
330
18
100
AcDbEntity
  8
01
100
AcDbLine
 10
950.7397637731082
 20
1713.745859095507
 30
0.0
 11
936.9397608881565
 21
1713.745859095507
 31
0.0
  0
ARC
  5
B8A4
330
18
100
AcDbEntity
  8
01
100
AcDbCircle
 10
950.7397637731082
 20
1714.245859095507
 30
0.0
 40
0.5
100
AcDbArc
 50
270.0
 51
0.0
  0
POINT
  5
B8A5
330
18
100
AcDbEntity
  8
01
100
AcDbPoint
 10
948.7397604113193
 20
1720.745859095507
 30
0.0
 50
180.0
  0
LINE
  5
B8A6
330
18
100
AcDbEntity
  8
01
100
AcDbLine
 10
942.7397613252699
 20
1722.245859095506
 30
0.0
 11
940.7397612815589
 21
1720.745859095507
 31
0.0
  0
LINE
  5
B8A7
330
18
100
AcDbEntity
  8
01
100
AcDbLine
 10
949.3161973439649
 20
1683.74586780588
 30
0.0
 11
948.7397608881564
 21
1683.74586780588
 31
0.0
  0
ARC
  5
B8A8
330
18
100
AcDbEntity
  8
01
100
AcDbCircle
 10
949.3161973439649
 20
1684.24586780588
 30
0.0
 40
0.5
100
AcDbArc
 50
270.0
 51
350.5376777919658
  0
LINE
  5
B8A9
330
18
100
AcDbEntity
  8
01
100
AcDbLine
 10
951.2397637731082
 20
1692.74588511559
 30
0.0
 11
949.8093943058809
 21
1684.163668312227
 31
0.0
  0
ARC
  5
B8AA
330
18
100
AcDbEntity
  8
01
100
AcDbCircle
 10
950.2397637731084
 20
1692.82864764589
 30
0.0
 40
1.0
100
AcDbArc
 50
350.5376777919786
 51
0.0
  0
LINE
  5
B8AB
330
18
100
AcDbEntity
  8
01
100
AcDbLine
 10
936.9397608881565
 20
1686.74586780588
 30
0.0
 11
936.9397608881565
 21
1693.74586780588
 31
0.0
  0
LINE
  5
B8AC
330
18
100
AcDbEntity
  8
01
100
AcDbLine
 10
948.7397613252703
 20
1685.24586780588
 30
0.0
 11
942.7397613252699
 21
1685.24586780588
 31
0.0
  0
LINE
  5
B8AD
330
18
100
AcDbEntity
  8
01
100
AcDbLine
 10
948.7397608881564
 20
1683.74586780588
 30
0.0
 11
948.7397608881564
 21
1686.74586780588
 31
0.0
  0
LINE
  5
B8AE
330
18
100
AcDbEntity
  8
01
100
AcDbLine
 10
948.7397608881564
 20
1686.74586780588
 30
0.0
 11
936.9397608881565
 21
1686.74586780588
 31
0.0
  0
LINE
  5
B8AF
330
18
100
AcDbEntity
  8
01
100
AcDbLine
 10
950.7397637731082
 20
1693.74586780588
 30
0.0
 11
936.9397608881565
 21
1693.74586780588
 31
0.0
  0
ARC
  5
B8B0
330
18
100
AcDbEntity
  8
01
100
AcDbCircle
 10
950.7397637731082
 20
1693.24586780588
 30
0.0
 40
0.5
100
AcDbArc
 50
0.0
 51
90.0
  0
POINT
  5
B8B1
330
18
100
AcDbEntity
  8
01
100
AcDbPoint
 10
948.7397604113193
 20
1686.74586780588
 30
0.0
 50
180.0
  0
LINE
  5
B8B2
330
18
100
AcDbEntity
  8
01
100
AcDbLine
 10
942.7397613252699
 20
1685.24586780588
 30
0.0
 11
940.7397612815589
 21
1686.74586780588
 31
0.0
  0
LINE
  5
B8B3
330
18
100
AcDbEntity
  8
01
100
AcDbLine
 10
936.7397638933144
 20
1686.995859095507
 30
0.0
 11
936.7397638933144
 21
1720.495859095507
 31
0.0
  0
LINE
  5
B8B4
330
18
100
AcDbEntity
  8
01
100
AcDbLine
 10
936.9397608881566
 20
1720.495859095507
 30
0.0
 11
936.7397638933144
 21
1720.495859095507
 31
0.0
  0
LINE
  5
B8B5
330
18
100
AcDbEntity
  8
01
100
AcDbLine
 10
936.9397608881566
 20
1686.995859095507
 30
0.0
 11
936.7397638933144
 21
1686.995859095507
 31
0.0
  0
ARC
  5
B8B8
330
18
100
AcDbEntity
  8
01
100
AcDbCircle
 10
950.7397637731082
 20
1693.24586780588
 30
0.0
 40
0.5
100
AcDbArc
 50
0.0
 51
90.0
  0
LINE
  5
B8B9
330
18
100
AcDbEntity
  8
1DIM
100
AcDbLine
 10
942.7397613252699
 20
1722.245859095506
 30
0.0
 11
942.7397613252699
 21
1720.745859095507
 31
0.0
  0
LINE
  5
B8BA
330
18
100
AcDbEntity
  8
1DIM
100
AcDbLine
 10
942.7397613252699
 20
1685.24586780588
 30
0.0
 11
942.7397613252699
 21
1686.74586780588
 31
0.0
  0
LINE
  5
B8BB
330
18
100
AcDbEntity
  8
1CENTER
100
AcDbLine
 10
951.9534214621062
 20
1703.745859095507
 30
0.0
 11
933.2931189890105
 21
1703.745859095507
 31
0.0
  0
LINE
  5
B8C1
330
18
100
AcDbEntity
  8
01
100
AcDbLine
 10
1251.383611074086
 20
1725.745872161066
 30
0.0
 11
1251.383611074086
 21
1681.745872161066
 31
0.0
  0
LINE
  5
B8C2
330
18
100
AcDbEntity
  8
01
100
AcDbLine
 10
1269.383611074086
 20
1725.745872161066
 30
0.0
 11
1269.383611074086
 21
1681.745872161066
 31
0.0
  0
LINE
  5
B8C3
330
18
100
AcDbEntity
  8
1PHANTOM
100
AcDbLine
 10
1263.383611074086
 20
1720.745872161066
 30
0.0
 11
1263.383611074086
 21
1686.745872161066
 31
0.0
  0
LINE
  5
B8C5
330
18
100
AcDbEntity
  8
1PHANTOM
100
AcDbLine
 10
1263.383611074086
 20
1720.745872161066
 30
0.0
 11
1251.383611074086
 21
1720.745872161066
 31
0.0
  0
LINE
  5
B8C6
330
18
100
AcDbEntity
  8
1PHANTOM
100
AcDbLine
 10
1263.383611074086
 20
1686.745872161066
 30
0.0
 11
1251.383611074086
 21
1686.745872161066
 31
0.0
  0
LINE
  5
B8C7
330
18
100
AcDbEntity
  8
1CENTER
100
AcDbLine
 10
1257.383611074086
 20
1717.24588087144
 30
0.0
 11
1274.541713583169
 21
1717.24588087144
 31
0.0
  0
LINE
  5
B8C8
330
18
100
AcDbEntity
  8
1CENTER
100
AcDbLine
 10
1257.383611074086
 20
1690.24588087144
 30
0.0
 11
1274.541713583169
 21
1690.24588087144
 31
0.0
  0
LINE
  5
B8C9
330
18
100
AcDbEntity
  8
1CENTER
100
AcDbLine
 10
1257.383611074086
 20
1703.745885226626
 30
0.0
 11
1274.541713583169
 21
1703.745885226626
 31
0.0
  0
LINE
  5
B965
330
18
100
AcDbEntity
  8
1CENTER
100
AcDbLine
 10
1114.183941985709
 20
1690.245860313556
 30
0.0
 11
1120.881555203164
 21
1690.245860313556
 31
0.0
  0
LINE
  5
BA63
330
18
100
AcDbEntity
  8
1HIDDEN
100
AcDbLine
 10
937.7397624676329
 20
1719.24585857097
 30
0.0
 11
946.2360334074059
 21
1719.245858898642
 31
0.0
  0
ARC
  5
BA64
330
18
100
AcDbEntity
  8
1HIDDEN
100
AcDbCircle
 10
946.23603353854
 20
1716.245858898642
 30
0.0
 40
3.0
100
AcDbArc
 50
10.30484897324569
 51
90.00000250447738
  0
LINE
  5
BA65
330
18
100
AcDbEntity
  8
1HIDDEN
100
AcDbLine
 10
949.1876432453818
 20
1716.782515342261
 30
0.0
 11
949.665115911754
 21
1714.156416329432
 31
0.0
  0
ARC
  5
BA66
330
18
100
AcDbEntity
  8
1HIDDEN
100
AcDbCircle
 10
950.1570508628942
 20
1714.245859070036
 30
0.0
 40
0.5
100
AcDbArc
 50
190.3048489732379
 51
270.0000025044948
  0
ARC
  5
BA67
330
18
100
AcDbEntity
  8
1HIDDEN
100
AcDbCircle
 10
950.7397637731082
 20
1714.245859095507
 30
0.0
 40
0.5
100
AcDbArc
 50
270.0000025044687
 51
0.0000025044687019
  0
LINE
  5
BA68
330
18
100
AcDbEntity
  8
1HIDDEN
100
AcDbLine
 10
949.9397622154873
 20
1713.745859314064
 30
0.0
 11
949.3570493052733
 21
1713.745859288593
 31
0.0
  0
LINE
  5
BA69
330
18
100
AcDbEntity
  8
1HIDDEN
100
AcDbLine
 10
937.7397624676329
 20
1688.245858662534
 30
0.0
 11
946.2360334074059
 21
1688.245858334862
 31
0.0
  0
ARC
  5
BA6A
330
18
100
AcDbEntity
  8
1HIDDEN
100
AcDbCircle
 10
946.23603353854
 20
1691.245858334862
 30
0.0
 40
3.0
100
AcDbArc
 50
269.9999974955226
 51
349.6951510267543
  0
LINE
  5
BA6B
330
18
100
AcDbEntity
  8
1HIDDEN
100
AcDbLine
 10
949.1876432453818
 20
1690.709201891243
 30
0.0
 11
949.665115911754
 21
1693.335300904071
 31
0.0
  0
ARC
  5
BA6C
330
18
100
AcDbEntity
  8
1HIDDEN
100
AcDbCircle
 10
950.1570508628942
 20
1693.245858163468
 30
0.0
 40
0.5
100
AcDbArc
 50
89.99999749550524
 51
169.6951510267621
  0
ARC
  5
BA6D
330
18
100
AcDbEntity
  8
1HIDDEN
100
AcDbCircle
 10
950.7397637731082
 20
1693.245858137997
 30
0.0
 40
0.5
100
AcDbArc
 50
359.9999974955313
 51
89.9999974955313
  0
LINE
  5
BA6E
330
18
100
AcDbEntity
  8
1HIDDEN
100
AcDbLine
 10
949.9397622154873
 20
1693.745858356554
 30
0.0
 11
949.3570493052733
 21
1693.745858382025
 31
0.0
  0
LINE
  5
BA7F
330
18
100
AcDbEntity
  8
1HIDDEN
100
AcDbLine
 10
937.7397624676329
 20
1719.24585857097
 30
0.0
 11
937.739763773108
 21
1713.745859095507
 31
0.0
  0
LINE
  5
BA80
330
18
100
AcDbEntity
  8
1HIDDEN
100
AcDbLine
 10
937.7397624676329
 20
1688.245858662534
 30
0.0
 11
937.739763773108
 21
1693.745859095507
 31
0.0
  0
LINE
  5
BAFD
330
18
100
AcDbEntity
  8
1DIM
100
AcDbLine
 10
1057.0961725883
 20
1683.745859226641
 30
0.0
 11
1079.0961725883
 21
1683.745859226641
 31
0.0
1001
ACAD
1000
DSTYLE
1002
{
1070
    40
1040
1.0
1070
    41
1040
3.0
1070
   343
1005
42
1070
   344
1005
42
1002
}
  0
LINE
  5
BAFE
330
18
100
AcDbEntity
  8
1DIM
100
AcDbLine
 10
1057.0961725883
 20
1723.745859226641
 30
0.0
 11
1079.0961725883
 21
1723.745859226641
 31
0.0
1001
ACAD
1000
DSTYLE
1002
{
1070
    40
1040
1.0
1070
    41
1040
3.0
1070
   343
1005
42
1070
   344
1005
42
1002
}
  0
LINE
  5
BAFF
330
18
100
AcDbEntity
  8
1DIM
100
AcDbLine
 10
1078.0961725883
 20
1686.745859226641
 30
0.0
 11
1078.0961725883
 21
1720.745859226641
 31
0.0
1001
ACAD
1000
DSTYLE
1002
{
1070
    40
1040
1.0
1070
    41
1040
3.0
1070
   343
1005
42
1070
   344
1005
42
1002
}
  0
LINE
  5
BB03
330
18
100
AcDbEntity
  8
1DIM
100
AcDbLine
 10
1048.0961725883
 20
1693.745859095507
 30
0.0
 11
1069.0961725883
 21
1693.745859095507
 31
0.0
1001
ACAD
1000
DSTYLE
1002
{
1070
    40
1040
1.0
1070
    41
1040
3.0
1070
   343
1005
42
1070
   344
1005
42
1002
}
  0
LINE
  5
BB04
330
18
100
AcDbEntity
  8
1DIM
100
AcDbLine
 10
1048.0961725883
 20
1713.745859095507
 30
0.0
 11
1069.0961725883
 21
1713.745859095507
 31
0.0
1001
ACAD
1000
DSTYLE
1002
{
1070
    40
1040
1.0
1070
    41
1040
3.0
1070
   343
1005
42
1070
   344
1005
42
1002
}
  0
LINE
  5
BB05
330
18
100
AcDbEntity
  8
1DIM
100
AcDbLine
 10
1068.0961725883
 20
1696.745859095507
 30
0.0
 11
1068.0961725883
 21
1710.745859095507
 31
0.0
1001
ACAD
1000
DSTYLE
1002
{
1070
    40
1040
1.0
1070
    41
1040
3.0
1070
   343
1005
42
1070
   344
1005
42
1002
}
  0
LINE
  5
BB09
330
18
100
AcDbEntity
  8
1DIM
100
AcDbLine
 10
983.0961725882999
 20
1684.745859226641
 30
0.0
 11
983.0961725882999
 21
1662.745859226641
 31
0.0
1001
ACAD
1000
DSTYLE
1002
{
1070
    40
1040
1.0
1070
    41
1040
3.0
1070
   343
1005
42
1070
   344
1005
42
1002
}
  0
LINE
  5
BB0A
330
18
100
AcDbEntity
  8
1DIM
100
AcDbLine
 10
1058.0961725883
 20
1684.745859226641
 30
0.0
 11
1058.0961725883
 21
1662.745859226641
 31
0.0
1001
ACAD
1000
DSTYLE
1002
{
1070
    40
1040
1.0
1070
    41
1040
3.0
1070
   343
1005
42
1070
   344
1005
42
1002
}
  0
LINE
  5
BB0B
330
18
100
AcDbEntity
  8
1DIM
100
AcDbLine
 10
986.0961725882999
 20
1663.745859226641
 30
0.0
 11
1055.0961725883
 21
1663.745859226641
 31
0.0
1001
ACAD
1000
DSTYLE
1002
{
1070
    40
1040
1.0
1070
    41
1040
3.0
1070
   343
1005
42
1070
   344
1005
42
1002
}
  0
LINE
  5
BB0F
330
18
100
AcDbEntity
  8
1DIM
100
AcDbLine
 10
983.0961725883
 20
1684.745859226641
 30
0.0
 11
983.0961725883
 21
1672.745859226641
 31
0.0
1001
ACAD
1000
DSTYLE
1002
{
1070
    40
1040
1.0
1070
    41
1040
3.0
1070
   343
1005
42
1070
   344
1005
42
1002
}
  0
LINE
  5
BB10
330
18
100
AcDbEntity
  8
1DIM
100
AcDbLine
 10
1049.0961725883
 20
1694.745859095507
 30
0.0
 11
1049.0961725883
 21
1672.745859226641
 31
0.0
1001
ACAD
1000
DSTYLE
1002
{
1070
    40
1040
1.0
1070
    41
1040
3.0
1070
   343
1005
42
1070
   344
1005
42
1002
}
  0
LINE
  5
BB11
330
18
100
AcDbEntity
  8
1DIM
100
AcDbLine
 10
986.0961725883
 20
1673.745859226641
 30
0.0
 11
1046.0961725883
 21
1673.745859226641
 31
0.0
1001
ACAD
1000
DSTYLE
1002
{
1070
    40
1040
1.0
1070
    41
1040
3.0
1070
   343
1005
42
1070
   344
1005
42
1002
}
  0
LINE
  5
BB15
330
18
100
AcDbEntity
  8
1DIM
100
AcDbLine
 10
1058.0961725883
 20
1651.245858833239
 30
0.0
 11
1079.0961725883
 21
1651.245858833239
 31
0.0
1001
ACAD
1000
DSTYLE
1002
{
1070
    40
1040
1.0
1070
    41
1040
3.0
1070
   343
1005
42
1070
   344
1005
42
1002
}
  0
LINE
  5
BB16
330
18
100
AcDbEntity
  8
1DIM
100
AcDbLine
 10
1054.8461725883
 20
1639.245858964373
 30
0.0
 11
1079.0961725883
 21
1639.245858964373
 31
0.0
1001
ACAD
1000
DSTYLE
1002
{
1070
    40
1040
1.0
1070
    41
1040
3.0
1070
   343
1005
42
1070
   344
1005
42
1002
}
  0
LINE
  5
BB17
330
18
100
AcDbEntity
  8
1DIM
100
AcDbLine
 10
1078.0961725883
 20
1648.245858833239
 30
0.0
 11
1078.0961725883
 21
1642.245858964373
 31
0.0
1001
ACAD
1000
DSTYLE
1002
{
1070
    40
1040
1.0
1070
    41
1040
3.0
1070
   343
1005
42
1070
   344
1005
42
1002
}
  0
LINE
  5
BB1B
330
18
100
AcDbEntity
  8
1DIM
100
AcDbLine
 10
1058.0961725883
 20
1651.245858833239
 30
0.0
 11
1079.0961725883
 21
1651.245858833239
 31
0.0
1001
ACAD
1000
DSTYLE
1002
{
1070
    40
1040
1.0
1070
    41
1040
3.0
1070
   343
1005
42
1070
   344
1005
42
1002
}
  0
LINE
  5
BB1C
330
18
100
AcDbEntity
  8
1DIM
100
AcDbLine
 10
1057.5961725883
 20
1653.745859226641
 30
0.0
 11
1079.0961725883
 21
1653.745859226641
 31
0.0
1001
ACAD
1000
DSTYLE
1002
{
1070
    40
1040
1.0
1070
    41
1040
3.0
1070
   343
1005
42
1070
   344
1005
42
1002
}
  0
LINE
  5
BB1D
330
18
100
AcDbEntity
  8
1DIM
100
AcDbLine
 10
1078.0961725883
 20
1648.245858833239
 30
0.0
 11
1078.0961725883
 21
1645.245858833239
 31
0.0
1001
ACAD
1000
DSTYLE
1002
{
1070
    40
1040
1.0
1070
    41
1040
3.0
1070
   343
1005
42
1070
   344
1005
42
1002
}
  0
LINE
  5
BB1E
330
18
100
AcDbEntity
  8
1DIM
100
AcDbLine
 10
1078.0961725883
 20
1656.745859226641
 30
0.0
 11
1078.0961725883
 21
1668.479192559974
 31
0.0
1001
ACAD
1000
DSTYLE
1002
{
1070
    40
1040
1.0
1070
    41
1040
3.0
1070
   343
1005
42
1070
   344
1005
42
1002
}
  0
LINE
  5
BB1F
330
18
100
AcDbEntity
  8
1DIM
100
AcDbLine
 10
1078.0961725883
 20
1651.245858833239
 30
0.0
 11
1078.0961725883
 21
1653.745859226641
 31
0.0
1001
ACAD
1000
DSTYLE
1002
{
1070
    40
1040
1.0
1070
    41
1040
3.0
1070
   343
1005
42
1070
   344
1005
42
1002
}
  0
LINE
  5
BB23
330
18
100
AcDbEntity
  8
1DIM
100
AcDbLine
 10
1049.0961725883
 20
1586.745859226641
 30
0.0
 11
1079.0961725883
 21
1586.745859226641
 31
0.0
1001
ACAD
1000
DSTYLE
1002
{
1070
    40
1040
1.0
1070
    41
1040
3.0
1070
   343
1005
42
1070
   344
1005
42
1002
}
  0
LINE
  5
BB24
330
18
100
AcDbEntity
  8
1DIM
100
AcDbLine
 10
1049.0961725883
 20
1620.745859226642
 30
0.0
 11
1079.0961725883
 21
1620.745859226642
 31
0.0
1001
ACAD
1000
DSTYLE
1002
{
1070
    40
1040
1.0
1070
    41
1040
3.0
1070
   343
1005
42
1070
   344
1005
42
1002
}
  0
LINE
  5
BB25
330
18
100
AcDbEntity
  8
1DIM
100
AcDbLine
 10
1078.0961725883
 20
1589.745859226641
 30
0.0
 11
1078.0961725883
 21
1617.745859226642
 31
0.0
1001
ACAD
1000
DSTYLE
1002
{
1070
    40
1040
1.0
1070
    41
1040
3.0
1070
   343
1005
42
1070
   344
1005
42
1002
}
  0
LINE
  5
BB29
330
18
100
AcDbEntity
  8
1DIM
100
AcDbLine
 10
983.0961725882999
 20
1584.745867937014
 30
0.0
 11
983.0961725882999
 21
1562.745859226641
 31
0.0
1001
ACAD
1000
DSTYLE
1002
{
1070
    40
1040
1.0
1070
    41
1040
3.0
1070
   343
1005
42
1070
   344
1005
42
1002
}
  0
LINE
  5
BB2A
330
18
100
AcDbEntity
  8
1DIM
100
AcDbLine
 10
1055.0961725883
 20
1592.745859226641
 30
0.0
 11
1055.0961725883
 21
1562.745859226641
 31
0.0
1001
ACAD
1000
DSTYLE
1002
{
1070
    40
1040
1.0
1070
    41
1040
3.0
1070
   343
1005
42
1070
   344
1005
42
1002
}
  0
LINE
  5
BB2B
330
18
100
AcDbEntity
  8
1DIM
100
AcDbLine
 10
986.0961725882999
 20
1563.745859226641
 30
0.0
 11
1052.0961725883
 21
1563.745859226641
 31
0.0
1001
ACAD
1000
DSTYLE
1002
{
1070
    40
1040
1.0
1070
    41
1040
3.0
1070
   343
1005
42
1070
   344
1005
42
1002
}
  0
LINE
  5
BB2F
330
18
100
AcDbEntity
  8
1DIM
100
AcDbLine
 10
993.0961725883
 20
1587.245867937014
 30
0.0
 11
993.0961725883
 21
1572.745859226641
 31
0.0
1001
ACAD
1000
DSTYLE
1002
{
1070
    40
1040
1.0
1070
    41
1040
3.0
1070
   343
1005
42
1070
   344
1005
42
1002
}
  0
LINE
  5
BB30
330
18
100
AcDbEntity
  8
1DIM
100
AcDbLine
 10
1052.0961725883
 20
1600.745863581827
 30
0.0
 11
1052.0961725883
 21
1572.745859226641
 31
0.0
1001
ACAD
1000
DSTYLE
1002
{
1070
    40
1040
1.0
1070
    41
1040
3.0
1070
   343
1005
42
1070
   344
1005
42
1002
}
  0
LINE
  5
BB31
330
18
100
AcDbEntity
  8
1DIM
100
AcDbLine
 10
996.0961725883
 20
1573.745859226641
 30
0.0
 11
1049.0961725883
 21
1573.745859226641
 31
0.0
1001
ACAD
1000
DSTYLE
1002
{
1070
    40
1040
1.0
1070
    41
1040
3.0
1070
   343
1005
42
1070
   344
1005
42
1002
}
  0
LINE
  5
BB35
330
18
100
AcDbEntity
  8
1DIM
100
AcDbLine
 10
993.0961725883
 20
1587.245867937014
 30
0.0
 11
993.0961725883
 21
1572.745859226641
 31
0.0
1001
ACAD
1000
DSTYLE
1002
{
1070
    40
1040
1.0
1070
    41
1040
3.0
1070
   343
1005
42
1070
   344
1005
42
1002
}
  0
LINE
  5
BB36
330
18
100
AcDbEntity
  8
1DIM
100
AcDbLine
 10
983.0961725882999
 20
1584.745867937014
 30
0.0
 11
983.0961725882999
 21
1572.745859226641
 31
0.0
1001
ACAD
1000
DSTYLE
1002
{
1070
    40
1040
1.0
1070
    41
1040
3.0
1070
   343
1005
42
1070
   344
1005
42
1002
}
  0
LINE
  5
BB37
330
18
100
AcDbEntity
  8
1DIM
100
AcDbLine
 10
990.0961725883
 20
1573.745859226641
 30
0.0
 11
986.0961725882999
 21
1573.745859226641
 31
0.0
1001
ACAD
1000
DSTYLE
1002
{
1070
    40
1040
1.0
1070
    41
1040
3.0
1070
   343
1005
42
1070
   344
1005
42
1002
}
  0
LINE
  5
BB3B
330
18
100
AcDbEntity
  8
1DIM
100
AcDbLine
 10
990.0961725883
 20
1590.245867937014
 30
0.0
 11
972.0961725883
 21
1590.245867937014
 31
0.0
1001
ACAD
1000
DSTYLE
1002
{
1070
    40
1040
1.0
1070
    41
1040
3.0
1070
   343
1005
42
1070
   344
1005
42
1002
}
  0
LINE
  5
BB3C
330
18
100
AcDbEntity
  8
1DIM
100
AcDbLine
 10
990.0961725883
 20
1617.245867937014
 30
0.0
 11
972.0961725883
 21
1617.245867937014
 31
0.0
1001
ACAD
1000
DSTYLE
1002
{
1070
    40
1040
1.0
1070
    41
1040
3.0
1070
   343
1005
42
1070
   344
1005
42
1002
}
  0
LINE
  5
BB3D
330
18
100
AcDbEntity
  8
1DIM
100
AcDbLine
 10
973.0961725883
 20
1593.245867937014
 30
0.0
 11
973.0961725883
 21
1614.245867937014
 31
0.0
1001
ACAD
1000
DSTYLE
1002
{
1070
    40
1040
1.0
1070
    41
1040
3.0
1070
   343
1005
42
1070
   344
1005
42
1002
}
  0
LINE
  5
BB41
330
18
100
AcDbEntity
  8
1DIM
100
AcDbLine
 10
1055.0961725883
 20
1603.745859226641
 30
0.0
 11
1069.0961725883
 21
1603.745859226641
 31
0.0
1001
ACAD
1000
DSTYLE
1002
{
1070
    40
1040
1.0
1070
    41
1040
3.0
1070
   343
1005
42
1070
   344
1005
42
1002
}
  0
LINE
  5
BB42
330
18
100
AcDbEntity
  8
1DIM
100
AcDbLine
 10
1049.0961725883
 20
1620.745859226642
 30
0.0
 11
1069.0961725883
 21
1620.745859226642
 31
0.0
1001
ACAD
1000
DSTYLE
1002
{
1070
    40
1040
1.0
1070
    41
1040
3.0
1070
   343
1005
42
1070
   344
1005
42
1002
}
  0
LINE
  5
BB43
330
18
100
AcDbEntity
  8
1DIM
100
AcDbLine
 10
1068.0961725883
 20
1606.745859226641
 30
0.0
 11
1068.0961725883
 21
1617.745859226642
 31
0.0
1001
ACAD
1000
DSTYLE
1002
{
1070
    40
1040
1.0
1070
    41
1040
3.0
1070
   343
1005
42
1070
   344
1005
42
1002
}
  0
LINE
  5
BB48
330
18
100
AcDbEntity
  8
1DIM
100
AcDbLine
 10
995.8584923659765
 20
1620.798265375413
 30
0.0
 11
1002.475700176071
 21
1629.308124467
 31
0.0
1001
ACAD
1000
DSTYLE
1002
{
1070
    40
1040
1.0
1002
}
  0
LINE
  5
BB49
330
18
100
AcDbEntity
  8
1DIM
100
AcDbLine
 10
1002.475700176071
 20
1629.308124467
 30
0.0
 11
1019.009033509404
 21
1629.308124467
 31
0.0
1001
ACAD
1000
DSTYLE
1002
{
1070
    40
1040
1.0
1002
}
  0
TEXT
  5
BB4A
330
18
100
AcDbEntity
  8
1DIM
  6
CONTINUOUS
100
AcDbText
 10
1005.175700176071
 20
1630.008124467
 30
0.0
 40
3.5
  1
M4-8
100
AcDbText
  0
LINE
  5
BB4C
330
18
100
AcDbEntity
  8
1DIM
100
AcDbLine
 10
990.0557225008329
 20
1586.928389487103
 30
0.0
 11
977.9609205853294
 21
1573.731578634652
 31
0.0
1001
ACAD
1000
DSTYLE
1002
{
1070
    40
1040
1.0
1002
}
  0
LINE
  5
BB4D
330
18
100
AcDbEntity
  8
1DIM
100
AcDbLine
 10
977.9609205853294
 20
1573.731578634652
 30
0.0
 11
961.4275872519961
 21
1573.731578634652
 31
0.0
1001
ACAD
1000
DSTYLE
1002
{
1070
    40
1040
1.0
1002
}
  0
TEXT
  5
BB4E
330
18
100
AcDbEntity
  8
1DIM
  6
CONTINUOUS
100
AcDbText
 10
962.427587251996
 20
1574.431578634652
 30
0.0
 40
3.5
  1
M4-8
100
AcDbText
  0
LINE
  5
BB50
330
18
100
AcDbEntity
  8
1DIM
100
AcDbLine
 10
1054.692361980918
 20
1600.070295511768
 30
0.0
 11
1072.724373804491
 21
1574.541324416024
 31
0.0
1001
ACAD
1000
DSTYLE
1002
{
1070
    40
1040
1.0
1002
}
  0
LINE
  5
BB51
330
18
100
AcDbEntity
  8
1DIM
100
AcDbLine
 10
1072.724373804491
 20
1574.541324416024
 30
0.0
 11
1089.257707137824
 21
1574.541324416024
 31
0.0
1001
ACAD
1000
DSTYLE
1002
{
1070
    40
1040
1.0
1002
}
  0
TEXT
  5
BB52
330
18
100
AcDbEntity
  8
1DIM
  6
CONTINUOUS
100
AcDbText
 10
1075.424373804491
 20
1575.241324416024
 30
0.0
 40
3.5
  1
M4-8
100
AcDbText
  0
LINE
  5
BB53
330
18
100
AcDbEntity
  8
1DIM
100
AcDbLine
 10
1148.231568860152
 20
1681.745872161066
 30
0.0
 11
1148.231568860152
 21
1662.745872161066
 31
0.0
1001
ACAD
1000
DSTYLE
1002
{
1070
    40
1040
1.0
1070
    41
1040
3.0
1070
   343
1005
42
1070
   344
1005
42
1002
}
  0
LINE
  5
BB54
330
18
100
AcDbEntity
  8
1DIM
100
AcDbLine
 10
1220.231568860152
 20
1692.745872161066
 30
0.0
 11
1220.231568860152
 21
1662.745872161066
 31
0.0
1001
ACAD
1000
DSTYLE
1002
{
1070
    40
1040
1.0
1070
    41
1040
3.0
1070
   343
1005
42
1070
   344
1005
42
1002
}
  0
LINE
  5
BB55
330
18
100
AcDbEntity
  8
1DIM
100
AcDbLine
 10
1151.231568860152
 20
1663.745872161066
 30
0.0
 11
1217.231568860152
 21
1663.745872161066
 31
0.0
1001
ACAD
1000
DSTYLE
1002
{
1070
    40
1040
1.0
1070
    41
1040
3.0
1070
   343
1005
42
1070
   344
1005
42
1002
}
  0
LINE
  5
BB59
330
18
100
AcDbEntity
  8
1DIM
100
AcDbLine
 10
1158.231568860152
 20
1687.24588087144
 30
0.0
 11
1158.231568860152
 21
1672.745872161066
 31
0.0
1001
ACAD
1000
DSTYLE
1002
{
1070
    40
1040
1.0
1070
    41
1040
3.0
1070
   343
1005
42
1070
   344
1005
42
1002
}
  0
LINE
  5
BB5A
330
18
100
AcDbEntity
  8
1DIM
100
AcDbLine
 10
1217.231568860152
 20
1700.745876516253
 30
0.0
 11
1217.231568860152
 21
1672.745872161066
 31
0.0
1001
ACAD
1000
DSTYLE
1002
{
1070
    40
1040
1.0
1070
    41
1040
3.0
1070
   343
1005
42
1070
   344
1005
42
1002
}
  0
LINE
  5
BB5B
330
18
100
AcDbEntity
  8
1DIM
100
AcDbLine
 10
1161.231568860152
 20
1673.745872161066
 30
0.0
 11
1214.231568860152
 21
1673.745872161066
 31
0.0
1001
ACAD
1000
DSTYLE
1002
{
1070
    40
1040
1.0
1070
    41
1040
3.0
1070
   343
1005
42
1070
   344
1005
42
1002
}
  0
LINE
  5
BB5F
330
18
100
AcDbEntity
  8
1DIM
100
AcDbLine
 10
1158.231568860152
 20
1687.24588087144
 30
0.0
 11
1158.231568860152
 21
1672.745872161066
 31
0.0
1001
ACAD
1000
DSTYLE
1002
{
1070
    40
1040
1.0
1070
    41
1040
3.0
1070
   343
1005
42
1070
   344
1005
42
1002
}
  0
LINE
  5
BB60
330
18
100
AcDbEntity
  8
1DIM
100
AcDbLine
 10
1148.231568860152
 20
1681.745872161066
 30
0.0
 11
1148.231568860152
 21
1672.745872161066
 31
0.0
1001
ACAD
1000
DSTYLE
1002
{
1070
    40
1040
1.0
1070
    41
1040
3.0
1070
   343
1005
42
1070
   344
1005
42
1002
}
  0
LINE
  5
BB61
330
18
100
AcDbEntity
  8
1DIM
100
AcDbLine
 10
1155.231568860152
 20
1673.745872161066
 30
0.0
 11
1151.231568860152
 21
1673.745872161066
 31
0.0
1001
ACAD
1000
DSTYLE
1002
{
1070
    40
1040
1.0
1070
    41
1040
3.0
1070
   343
1005
42
1070
   344
1005
42
1002
}
  0
LINE
  5
BB65
330
18
100
AcDbEntity
  8
1DIM
100
AcDbLine
 10
1161.576893323546
 20
1721.292027709435
 30
0.0
 11
1185.146421443332
 21
1749.799209215572
 31
0.0
1001
ACAD
1000
DSTYLE
1002
{
1070
    41
1040
3.0
1070
    40
1040
1.0
1070
   343
1005
42
1070
   344
1005
42
1002
}
  0
LINE
  5
BB66
330
18
100
AcDbEntity
  8
1DIM
100
AcDbLine
 10
1154.886244396758
 20
1713.199734033445
 30
0.0
 11
1152.974630417675
 21
1710.887650126019
 31
0.0
1001
ACAD
1000
DSTYLE
1002
{
1070
    41
1040
3.0
1070
    40
1040
1.0
1070
   343
1005
42
1070
   344
1005
42
1002
}
  0
LINE
  5
BB68
330
18
100
AcDbEntity
  8
1DIM
100
AcDbLine
 10
1156.79785837584
 20
1715.511817940871
 30
0.0
 11
1159.665279344464
 21
1718.979943802009
 31
0.0
1001
ACAD
1000
DSTYLE
1002
{
1070
    41
1040
3.0
1070
    40
1040
1.0
1070
   343
1005
42
1070
   344
1005
42
1002
}
  0
LINE
  5
BB6B
330
18
100
AcDbEntity
  8
1DIM
100
AcDbLine
 10
1225.155748126637
 20
1682.369613114659
 30
0.0
 11
1219.306961882192
 21
1687.925043843046
 31
0.0
1001
ACAD
1000
DSTYLE
1002
{
1070
   343
1005
42
1070
   344
1005
42
1002
}
  0
LINE
  5
BB6D
330
18
100
AcDbEntity
  8
1DIM
100
AcDbLine
 10
1214.231568860153
 20
1692.745872161067
 30
0.0
 11
1218.581905736186
 21
1688.613733602763
 31
0.0
1001
ACAD
1000
DSTYLE
1002
{
1070
   343
1005
42
1070
   344
1005
42
1002
}
  0
LINE
  5
BB6F
330
18
100
AcDbEntity
  8
1DIM
100
AcDbLine
 10
1049.096172588297
 20
1592.74585922664
 30
0.0
 11
1052.251018473979
 21
1588.866819727277
 31
0.0
1001
ACAD
1000
DSTYLE
1002
{
1070
   343
1005
42
1070
   344
1005
42
1002
}
  0
LINE
  5
BB70
330
18
100
AcDbEntity
  8
1DIM
100
AcDbLine
 10
1052.881987651115
 20
1588.091011827405
 30
0.0
 11
1062.784594648176
 21
1575.915265347172
 31
0.0
1001
ACAD
1000
DSTYLE
1002
{
1070
   343
1005
42
1070
   344
1005
42
1002
}
  0
LINE
  5
BB73
330
18
100
AcDbEntity
  8
1DIM
100
AcDbLine
 10
1214.231568860152
 20
1686.745872161066
 30
0.0
 11
1239.620490110382
 21
1686.745872161066
 31
0.0
1001
ACAD
1000
DSTYLE
1002
{
1070
   343
1005
42
1070
   344
1005
42
1002
}
  0
LINE
  5
BB74
330
18
100
AcDbEntity
  8
1DIM
100
AcDbLine
 10
1214.231568860152
 20
1720.745872161067
 30
0.0
 11
1239.620490110382
 21
1720.745872161067
 31
0.0
1001
ACAD
1000
DSTYLE
1002
{
1070
   343
1005
42
1070
   344
1005
42
1002
}
  0
LINE
  5
BB75
330
18
100
AcDbEntity
  8
1DIM
100
AcDbLine
 10
1238.620490110382
 20
1687.745872161066
 30
0.0
 11
1238.620490110382
 21
1719.745872161067
 31
0.0
1001
ACAD
1000
DSTYLE
1002
{
1070
   343
1005
42
1070
   344
1005
42
1002
}
  0
LINE
  5
BB79
330
18
100
AcDbEntity
  8
1DIM
100
AcDbLine
 10
1155.231568860152
 20
1690.24588087144
 30
0.0
 11
1135.413672456469
 21
1690.24588087144
 31
0.0
1001
ACAD
1000
DSTYLE
1002
{
1070
   343
1005
42
1070
   344
1005
42
1002
}
  0
LINE
  5
BB7A
330
18
100
AcDbEntity
  8
1DIM
100
AcDbLine
 10
1155.231568860152
 20
1717.24588087144
 30
0.0
 11
1135.413672456469
 21
1717.24588087144
 31
0.0
1001
ACAD
1000
DSTYLE
1002
{
1070
   343
1005
42
1070
   344
1005
42
1002
}
  0
LINE
  5
BB7B
330
18
100
AcDbEntity
  8
1DIM
100
AcDbLine
 10
1136.413672456469
 20
1691.24588087144
 30
0.0
 11
1136.413672456469
 21
1716.24588087144
 31
0.0
1001
ACAD
1000
DSTYLE
1002
{
1070
   343
1005
42
1070
   344
1005
42
1002
}
  0
TEXT
  5
BB7F
330
18
100
AcDbEntity
  8
1TEXT
  6
CONTINUOUS
100
AcDbText
 10
1066.466324653929
 20
1742.344905160821
 30
0.0
 40
3.5
  1
材質：亜鉛ダイキャスト
100
AcDbText
  0
TEXT
  5
BB80
330
18
100
AcDbEntity
  8
1TEXT
  6
CONTINUOUS
100
AcDbText
 10
1066.582991320596
 20
1736.511571827488
 30
0.0
 40
3.5
  1
仕上げ：各種メッキ
100
AcDbText
  0
LINE
  5
BB82
330
18
100
AcDbEntity
  8
1DIM
100
AcDbLine
 10
1056.149910526702
 20
1723.636837550657
 30
0.0
 11
1063.999657987262
 21
1735.811571827488
 31
0.0
1001
ACAD
1000
DSTYLE
1002
{
1070
    45
1040
0.5
1002
}
  0
LINE
  5
BB83
330
18
100
AcDbEntity
  8
1DIM
100
AcDbLine
 10
1063.999657987262
 20
1735.811571827488
 30
0.0
 11
1111.266324653929
 21
1735.811571827488
 31
0.0
1001
ACAD
1000
DSTYLE
1002
{
1070
    45
1040
0.5
1002
}
  0
TEXT
  5
BB84
330
18
100
AcDbEntity
  8
1TEXT
  6
CONTINUOUS
100
AcDbText
 10
947.1152642782466
 20
1674.602937756039
 30
0.0
 40
3.5
  1
材質：真鍮
100
AcDbText
1001
ACADANNOTATIVE
1000
AnnotativeData
1002
{
1070
     1
1070
     0
1002
}
  0
TEXT
  5
BB85
330
18
100
AcDbEntity
  8
1TEXT
  6
CONTINUOUS
100
AcDbText
 10
930.54859761158
 20
1668.769604422705
 30
0.0
 40
3.5
  1
仕上げ：各種メッキ
100
AcDbText
1001
ACADANNOTATIVE
1000
AnnotativeData
1002
{
1070
     1
1070
     0
1002
}
  0
LINE
  5
BB87
330
18
100
AcDbEntity
  8
1DIM
100
AcDbLine
 10
989.2592490920773
 20
1700.541985420785
 30
0.0
 11
970.1152642782467
 21
1668.069604422705
 31
0.0
1001
ACAD
1000
DSTYLE
1002
{
1070
    45
1040
0.5
1002
}
  0
LINE
  5
BB88
330
18
100
AcDbEntity
  8
1DIM
100
AcDbLine
 10
970.1152642782467
 20
1668.069604422705
 30
0.0
 11
930.6652642782467
 21
1668.069604422705
 31
0.0
1001
ACAD
1000
DSTYLE
1002
{
1070
    45
1040
0.5
1002
}
  0
LINE
  5
BB89
330
18
100
AcDbEntity
  8
1HATCH
  6
CONTINUOUS
100
AcDbLine
 10
1251.383611074086
 20
1724.24119848741
 30
0.0
 11
1252.888284747743
 21
1725.745872161066
 31
0.0
  0
LINE
  5
BB8A
330
18
100
AcDbEntity
  8
1HATCH
  6
CONTINUOUS
100
AcDbLine
 10
1251.383611074086
 20
1721.996134457142
 30
0.0
 11
1255.13334877801
 21
1725.745872161066
 31
0.0
  0
LINE
  5
BB8B
330
18
100
AcDbEntity
  8
1HATCH
  6
CONTINUOUS
100
AcDbLine
 10
1252.378412808278
 20
1720.745872161066
 30
0.0
 11
1257.378412808277
 21
1725.745872161066
 31
0.0
  0
LINE
  5
BB8C
330
18
100
AcDbEntity
  8
1HATCH
  6
CONTINUOUS
100
AcDbLine
 10
1254.623476838545
 20
1720.745872161066
 30
0.0
 11
1259.623476838545
 21
1725.745872161066
 31
0.0
  0
LINE
  5
BB8D
330
18
100
AcDbEntity
  8
1HATCH
  6
CONTINUOUS
100
AcDbLine
 10
1256.868540868812
 20
1720.745872161066
 30
0.0
 11
1261.868540868812
 21
1725.745872161066
 31
0.0
  0
LINE
  5
BB8E
330
18
100
AcDbEntity
  8
1HATCH
  6
CONTINUOUS
100
AcDbLine
 10
1259.11360489908
 20
1720.745872161067
 30
0.0
 11
1264.113604899079
 21
1725.745872161066
 31
0.0
  0
LINE
  5
BB8F
330
18
100
AcDbEntity
  8
1HATCH
  6
CONTINUOUS
100
AcDbLine
 10
1261.358668929347
 20
1720.745872161067
 30
0.0
 11
1266.358668929346
 21
1725.745872161066
 31
0.0
  0
LINE
  5
BB90
330
18
100
AcDbEntity
  8
1HATCH
  6
CONTINUOUS
100
AcDbLine
 10
1263.383611074086
 20
1720.525750275538
 30
0.0
 11
1268.603732959614
 21
1725.745872161066
 31
0.0
  0
LINE
  5
BB91
330
18
100
AcDbEntity
  8
1HATCH
  6
CONTINUOUS
100
AcDbLine
 10
1263.383611074086
 20
1718.280686245271
 30
0.0
 11
1269.383611074086
 21
1724.280686245271
 31
0.0
  0
LINE
  5
BB92
330
18
100
AcDbEntity
  8
1HATCH
  6
CONTINUOUS
100
AcDbLine
 10
1263.383611074086
 20
1716.035622215004
 30
0.0
 11
1264.593869730522
 21
1717.24588087144
 31
0.0
  0
LINE
  5
BB93
330
18
100
AcDbEntity
  8
1HATCH
  6
CONTINUOUS
100
AcDbLine
 10
1263.383611074086
 20
1713.790558184737
 30
0.0
 11
1266.838933760789
 21
1717.24588087144
 31
0.0
  0
LINE
  5
BB94
330
18
100
AcDbEntity
  8
1HATCH
  6
CONTINUOUS
100
AcDbLine
 10
1263.383611074086
 20
1711.545494154469
 30
0.0
 11
1269.083997791056
 21
1717.24588087144
 31
0.0
  0
LINE
  5
BB95
330
18
100
AcDbEntity
  8
1HATCH
  6
CONTINUOUS
100
AcDbLine
 10
1264.593869730522
 20
1717.24588087144
 30
0.0
 11
1269.383611074086
 21
1722.035622215004
 31
0.0
  0
LINE
  5
BB96
330
18
100
AcDbEntity
  8
1HATCH
  6
CONTINUOUS
100
AcDbLine
 10
1266.838933760789
 20
1717.24588087144
 30
0.0
 11
1269.383611074086
 21
1719.790558184736
 31
0.0
  0
LINE
  5
BB97
330
18
100
AcDbEntity
  8
1HATCH
  6
CONTINUOUS
100
AcDbLine
 10
1269.083997791056
 20
1717.24588087144
 30
0.0
 11
1269.383611074086
 21
1717.545494154469
 31
0.0
  0
LINE
  5
BB98
330
18
100
AcDbEntity
  8
1HATCH
  6
CONTINUOUS
100
AcDbLine
 10
1263.383611074086
 20
1709.300430124202
 30
0.0
 11
1269.383611074086
 21
1715.300430124202
 31
0.0
  0
LINE
  5
BB99
330
18
100
AcDbEntity
  8
1HATCH
  6
CONTINUOUS
100
AcDbLine
 10
1263.383611074086
 20
1707.055366093935
 30
0.0
 11
1269.383611074086
 21
1713.055366093935
 31
0.0
  0
LINE
  5
BB9A
330
18
100
AcDbEntity
  8
1HATCH
  6
CONTINUOUS
100
AcDbLine
 10
1263.383611074086
 20
1704.810302063668
 30
0.0
 11
1269.383611074086
 21
1710.810302063667
 31
0.0
  0
LINE
  5
BB9B
330
18
100
AcDbEntity
  8
1HATCH
  6
CONTINUOUS
100
AcDbLine
 10
1263.383611074086
 20
1702.5652380334
 30
0.0
 11
1264.564258267312
 21
1703.745885226626
 31
0.0
  0
LINE
  5
BB9C
330
18
100
AcDbEntity
  8
1HATCH
  6
CONTINUOUS
100
AcDbLine
 10
1263.383611074086
 20
1700.320174003133
 30
0.0
 11
1266.809322297579
 21
1703.745885226626
 31
0.0
  0
LINE
  5
BB9D
330
18
100
AcDbEntity
  8
1HATCH
  6
CONTINUOUS
100
AcDbLine
 10
1264.564258267312
 20
1703.745885226626
 30
0.0
 11
1269.383611074086
 21
1708.5652380334
 31
0.0
  0
LINE
  5
BB9E
330
18
100
AcDbEntity
  8
1HATCH
  6
CONTINUOUS
100
AcDbLine
 10
1266.809322297579
 20
1703.745885226626
 30
0.0
 11
1269.383611074086
 21
1706.320174003133
 31
0.0
  0
LINE
  5
BB9F
330
18
100
AcDbEntity
  8
1HATCH
  6
CONTINUOUS
100
AcDbLine
 10
1251.383611074086
 20
1686.075109972866
 30
0.0
 11
1252.054373262287
 21
1686.745872161066
 31
0.0
  0
LINE
  5
BBA0
330
18
100
AcDbEntity
  8
1HATCH
  6
CONTINUOUS
100
AcDbLine
 10
1263.383611074086
 20
1698.075109972865
 30
0.0
 11
1269.054386327846
 21
1703.745885226626
 31
0.0
  0
LINE
  5
BBA1
330
18
100
AcDbEntity
  8
1HATCH
  6
CONTINUOUS
100
AcDbLine
 10
1269.054386327847
 20
1703.745885226626
 30
0.0
 11
1269.383611074086
 21
1704.075109972865
 31
0.0
  0
LINE
  5
BBA2
330
18
100
AcDbEntity
  8
1HATCH
  6
CONTINUOUS
100
AcDbLine
 10
1251.383611074086
 20
1683.830045942598
 30
0.0
 11
1254.299437292554
 21
1686.745872161066
 31
0.0
  0
LINE
  5
BBA3
330
18
100
AcDbEntity
  8
1HATCH
  6
CONTINUOUS
100
AcDbLine
 10
1263.383611074086
 20
1695.830045942598
 30
0.0
 11
1269.383611074086
 21
1701.830045942598
 31
0.0
  0
LINE
  5
BBA4
330
18
100
AcDbEntity
  8
1HATCH
  6
CONTINUOUS
100
AcDbLine
 10
1251.544501322821
 20
1681.745872161066
 30
0.0
 11
1256.544501322821
 21
1686.745872161066
 31
0.0
  0
LINE
  5
BBA5
330
18
100
AcDbEntity
  8
1HATCH
  6
CONTINUOUS
100
AcDbLine
 10
1253.789565353088
 20
1681.745872161066
 30
0.0
 11
1258.789565353089
 21
1686.745872161066
 31
0.0
  0
LINE
  5
BBA6
330
18
100
AcDbEntity
  8
1HATCH
  6
CONTINUOUS
100
AcDbLine
 10
1263.383611074086
 20
1693.584981912331
 30
0.0
 11
1269.383611074086
 21
1699.584981912331
 31
0.0
  0
LINE
  5
BBA7
330
18
100
AcDbEntity
  8
1HATCH
  6
CONTINUOUS
100
AcDbLine
 10
1263.383611074086
 20
1691.339917882064
 30
0.0
 11
1269.383611074086
 21
1697.339917882064
 31
0.0
  0
LINE
  5
BBA8
330
18
100
AcDbEntity
  8
1HATCH
  6
CONTINUOUS
100
AcDbLine
 10
1256.034629383356
 20
1681.745872161066
 30
0.0
 11
1261.034629383356
 21
1686.745872161066
 31
0.0
  0
LINE
  5
BBA9
330
18
100
AcDbEntity
  8
1HATCH
  6
CONTINUOUS
100
AcDbLine
 10
1258.279693413623
 20
1681.745872161066
 30
0.0
 11
1263.279693413623
 21
1686.745872161066
 31
0.0
  0
LINE
  5
BBAA
330
18
100
AcDbEntity
  8
1HATCH
  6
CONTINUOUS
100
AcDbLine
 10
1263.383611074086
 20
1689.094853851796
 30
0.0
 11
1264.534638093729
 21
1690.24588087144
 31
0.0
  0
LINE
  5
BBAB
330
18
100
AcDbEntity
  8
1HATCH
  6
CONTINUOUS
100
AcDbLine
 10
1263.383611074086
 20
1686.849789821529
 30
0.0
 11
1266.779702123996
 21
1690.24588087144
 31
0.0
  0
LINE
  5
BBAC
330
18
100
AcDbEntity
  8
1HATCH
  6
CONTINUOUS
100
AcDbLine
 10
1264.534638093729
 20
1690.24588087144
 30
0.0
 11
1269.383611074086
 21
1695.094853851796
 31
0.0
  0
LINE
  5
BBAD
330
18
100
AcDbEntity
  8
1HATCH
  6
CONTINUOUS
100
AcDbLine
 10
1266.779702123997
 20
1690.24588087144
 30
0.0
 11
1269.383611074086
 21
1692.849789821529
 31
0.0
  0
LINE
  5
BBAE
330
18
100
AcDbEntity
  8
1HATCH
  6
CONTINUOUS
100
AcDbLine
 10
1260.52475744389
 20
1681.745872161066
 30
0.0
 11
1269.024766154263
 21
1690.245880871439
 31
0.0
  0
LINE
  5
BBAF
330
18
100
AcDbEntity
  8
1HATCH
  6
CONTINUOUS
100
AcDbLine
 10
1269.024766154264
 20
1690.24588087144
 30
0.0
 11
1269.383611074086
 21
1690.604725791262
 31
0.0
  0
LINE
  5
BBB0
330
18
100
AcDbEntity
  8
1HATCH
  6
CONTINUOUS
100
AcDbLine
 10
1262.769821474158
 20
1681.745872161066
 30
0.0
 11
1269.383611074086
 21
1688.359661760994
 31
0.0
  0
LINE
  5
BBB1
330
18
100
AcDbEntity
  8
1HATCH
  6
CONTINUOUS
100
AcDbLine
 10
1265.014885504425
 20
1681.745872161066
 30
0.0
 11
1269.383611074086
 21
1686.114597730727
 31
0.0
  0
LINE
  5
BBB2
330
18
100
AcDbEntity
  8
1HATCH
  6
CONTINUOUS
100
AcDbLine
 10
1267.259949534692
 20
1681.745872161066
 30
0.0
 11
1269.383611074086
 21
1683.86953370046
 31
0.0
  0
LINE
  5
BBB3
330
18
100
AcDbEntity
  8
1DIM
100
AcDbLine
 10
1251.383611074086
 20
1681.745872161066
 30
0.0
 11
1251.383611074086
 21
1672.745872161066
 31
0.0
1001
ACAD
1000
DSTYLE
1002
{
1070
    40
1040
1.0
1070
    41
1040
3.0
1002
}
  0
LINE
  5
BBB4
330
18
100
AcDbEntity
  8
1DIM
100
AcDbLine
 10
1263.383611063158
 20
1686.995872161066
 30
0.0
 11
1263.383611063158
 21
1672.745872161066
 31
0.0
1001
ACAD
1000
DSTYLE
1002
{
1070
    40
1040
1.0
1070
    41
1040
3.0
1002
}
  0
LINE
  5
BBB5
330
18
100
AcDbEntity
  8
1DIM
100
AcDbLine
 10
1254.383611074086
 20
1673.745872161066
 30
0.0
 11
1260.383611063158
 21
1673.745872161066
 31
0.0
1001
ACAD
1000
DSTYLE
1002
{
1070
    40
1040
1.0
1070
    41
1040
3.0
1002
}
  0
LINE
  5
BBB9
330
18
100
AcDbEntity
  8
1DIM
100
AcDbLine
 10
1251.383611074086
 20
1681.745872161066
 30
0.0
 11
1251.383611074086
 21
1662.745872161066
 31
0.0
1001
ACAD
1000
DSTYLE
1002
{
1070
    40
1040
1.0
1070
    41
1040
3.0
1002
}
  0
LINE
  5
BBBA
330
18
100
AcDbEntity
  8
1DIM
100
AcDbLine
 10
1269.383611074086
 20
1681.745872161066
 30
0.0
 11
1269.383611074086
 21
1662.745872161066
 31
0.0
1001
ACAD
1000
DSTYLE
1002
{
1070
    40
1040
1.0
1070
    41
1040
3.0
1002
}
  0
LINE
  5
BBBB
330
18
100
AcDbEntity
  8
1DIM
100
AcDbLine
 10
1269.383611074086
 20
1663.745872161066
 30
0.0
 11
1289.250277740753
 21
1663.745872161066
 31
0.0
1001
ACAD
1000
DSTYLE
1002
{
1070
    40
1040
1.0
1070
    41
1040
3.0
1002
}
  0
LINE
  5
BBBC
330
18
100
AcDbEntity
  8
1DIM
100
AcDbLine
 10
1254.383611074086
 20
1663.745872161066
 30
0.0
 11
1266.383611074086
 21
1663.745872161066
 31
0.0
1001
ACAD
1000
DSTYLE
1002
{
1070
    40
1040
1.0
1070
    41
1040
3.0
1002
}
  0
LINE
  5
BBC0
330
18
100
AcDbEntity
  8
1DIM
100
AcDbLine
 10
950.4484073398568
 20
1713.745859082771
 30
0.0
 11
965.6337668164623
 21
1713.745859082771
 31
0.0
1001
ACAD
1000
DSTYLE
1002
{
1070
   343
1005
42
1070
   344
1005
42
1002
}
  0
LINE
  5
BBC1
330
18
100
AcDbEntity
  8
1DIM
100
AcDbLine
 10
944.9484075736451
 20
1719.245858848983
 30
0.0
 11
965.6337668164623
 21
1719.245858848983
 31
0.0
1001
ACAD
1000
DSTYLE
1002
{
1070
   343
1005
42
1070
   344
1005
42
1002
}
  0
LINE
  5
BBC2
330
18
100
AcDbEntity
  8
1DIM
100
AcDbLine
 10
964.6337668164623
 20
1719.245858848983
 30
0.0
 11
964.6337668164623
 21
1728.979192182316
 31
0.0
1001
ACAD
1000
DSTYLE
1002
{
1070
   343
1005
42
1070
   344
1005
42
1002
}
  0
LINE
  5
BBC3
330
18
100
AcDbEntity
  8
1DIM
100
AcDbLine
 10
964.6337668164623
 20
1714.745859082771
 30
0.0
 11
964.6337668164623
 21
1718.245858848983
 31
0.0
1001
ACAD
1000
DSTYLE
1002
{
1070
   343
1005
42
1070
   344
1005
42
1002
}
  0
LINE
  5
BBC7
330
18
100
AcDbEntity
  8
0
  6
BYBLOCK
100
AcDbLine
 10
1078.9000201583
 20
1686.745859226641
 30
0.0
 11
1078.0961725883
 21
1683.745859226641
 31
0.0
  0
LINE
  5
BBC8
330
18
100
AcDbEntity
  8
0
  6
BYBLOCK
100
AcDbLine
 10
1078.0961725883
 20
1683.745859226641
 30
0.0
 11
1077.2923250183
 21
1686.745859226641
 31
0.0
  0
LINE
  5
BBC9
330
18
100
AcDbEntity
  8
0
  6
BYBLOCK
100
AcDbLine
 10
1078.0961725883
 20
1683.745859226641
 30
0.0
 11
1078.0961725883
 21
1686.745859226641
 31
0.0
  0
LINE
  5
BBCA
330
18
100
AcDbEntity
  8
0
  6
BYBLOCK
100
AcDbLine
 10
1077.2923250183
 20
1720.745859226641
 30
0.0
 11
1078.0961725883
 21
1723.745859226641
 31
0.0
  0
LINE
  5
BBCB
330
18
100
AcDbEntity
  8
0
  6
BYBLOCK
100
AcDbLine
 10
1078.0961725883
 20
1723.745859226641
 30
0.0
 11
1078.9000201583
 21
1720.745859226641
 31
0.0
  0
LINE
  5
BBCC
330
18
100
AcDbEntity
  8
0
  6
BYBLOCK
100
AcDbLine
 10
1078.0961725883
 20
1723.745859226641
 30
0.0
 11
1078.0961725883
 21
1720.745859226641
 31
0.0
  0
TEXT
  5
BBCD
330
18
100
AcDbEntity
  8
1DIM
  6
CONTINUOUS
100
AcDbText
 10
1077.3961725883
 20
1701.047942559974
 30
0.0
 40
3.5
  1
40
 50
90.0
100
AcDbText
1001
ACAD
1000
DSTYLE
1002
{
1070
    40
1040
1.0
1070
    41
1040
3.0
1070
   343
1005
42
1070
   344
1005
42
1002
}
  0
LINE
  5
BBCE
330
18
100
AcDbEntity
  8
0
  6
BYBLOCK
100
AcDbLine
 10
1068.9000201583
 20
1696.745859095507
 30
0.0
 11
1068.0961725883
 21
1693.745859095507
 31
0.0
  0
LINE
  5
BBCF
330
18
100
AcDbEntity
  8
0
  6
BYBLOCK
100
AcDbLine
 10
1068.0961725883
 20
1693.745859095507
 30
0.0
 11
1067.2923250183
 21
1696.745859095507
 31
0.0
  0
LINE
  5
BBD0
330
18
100
AcDbEntity
  8
0
  6
BYBLOCK
100
AcDbLine
 10
1068.0961725883
 20
1693.745859095507
 30
0.0
 11
1068.0961725883
 21
1696.745859095507
 31
0.0
  0
LINE
  5
BBD1
330
18
100
AcDbEntity
  8
0
  6
BYBLOCK
100
AcDbLine
 10
1067.2923250183
 20
1710.745859095507
 30
0.0
 11
1068.0961725883
 21
1713.745859095507
 31
0.0
  0
LINE
  5
BBD2
330
18
100
AcDbEntity
  8
0
  6
BYBLOCK
100
AcDbLine
 10
1068.0961725883
 20
1713.745859095507
 30
0.0
 11
1068.9000201583
 21
1710.745859095507
 31
0.0
  0
LINE
  5
BBD3
330
18
100
AcDbEntity
  8
0
  6
BYBLOCK
100
AcDbLine
 10
1068.0961725883
 20
1713.745859095507
 30
0.0
 11
1068.0961725883
 21
1710.745859095507
 31
0.0
  0
TEXT
  5
BBD4
330
18
100
AcDbEntity
  8
1DIM
  6
CONTINUOUS
100
AcDbText
 10
1067.3961725883
 20
1701.04794242884
 30
0.0
 40
3.5
  1
20
 50
90.0
100
AcDbText
1001
ACAD
1000
DSTYLE
1002
{
1070
    40
1040
1.0
1070
    41
1040
3.0
1070
   343
1005
42
1070
   344
1005
42
1002
}
  0
LINE
  5
BBD5
330
18
100
AcDbEntity
  8
0
  6
BYBLOCK
100
AcDbLine
 10
986.0961725882999
 20
1662.942011656641
 30
0.0
 11
983.0961725882999
 21
1663.745859226641
 31
0.0
  0
LINE
  5
BBD6
330
18
100
AcDbEntity
  8
0
  6
BYBLOCK
100
AcDbLine
 10
983.0961725882999
 20
1663.745859226641
 30
0.0
 11
986.0961725882999
 21
1664.549706796641
 31
0.0
  0
LINE
  5
BBD7
330
18
100
AcDbEntity
  8
0
  6
BYBLOCK
100
AcDbLine
 10
983.0961725882999
 20
1663.745859226641
 30
0.0
 11
986.0961725882999
 21
1663.745859226641
 31
0.0
  0
LINE
  5
BBD8
330
18
100
AcDbEntity
  8
0
  6
BYBLOCK
100
AcDbLine
 10
1055.0961725883
 20
1664.549706796641
 30
0.0
 11
1058.0961725883
 21
1663.745859226641
 31
0.0
  0
LINE
  5
BBD9
330
18
100
AcDbEntity
  8
0
  6
BYBLOCK
100
AcDbLine
 10
1058.0961725883
 20
1663.745859226641
 30
0.0
 11
1055.0961725883
 21
1662.942011656641
 31
0.0
  0
LINE
  5
BBDA
330
18
100
AcDbEntity
  8
0
  6
BYBLOCK
100
AcDbLine
 10
1058.0961725883
 20
1663.745859226641
 30
0.0
 11
1055.0961725883
 21
1663.745859226641
 31
0.0
  0
TEXT
  5
BBDB
330
18
100
AcDbEntity
  8
1DIM
  6
CONTINUOUS
100
AcDbText
 10
1017.679505921633
 20
1664.445859226641
 30
0.0
 40
3.5
  1
75
100
AcDbText
1001
ACAD
1000
DSTYLE
1002
{
1070
    40
1040
1.0
1070
    41
1040
3.0
1070
   343
1005
42
1070
   344
1005
42
1002
}
  0
LINE
  5
BBDC
330
18
100
AcDbEntity
  8
0
  6
BYBLOCK
100
AcDbLine
 10
986.0961725883
 20
1672.942011656641
 30
0.0
 11
983.0961725883
 21
1673.745859226641
 31
0.0
  0
LINE
  5
BBDD
330
18
100
AcDbEntity
  8
0
  6
BYBLOCK
100
AcDbLine
 10
983.0961725883
 20
1673.745859226641
 30
0.0
 11
986.0961725883
 21
1674.549706796641
 31
0.0
  0
LINE
  5
BBDE
330
18
100
AcDbEntity
  8
0
  6
BYBLOCK
100
AcDbLine
 10
983.0961725883
 20
1673.745859226641
 30
0.0
 11
986.0961725883
 21
1673.745859226641
 31
0.0
  0
LINE
  5
BBDF
330
18
100
AcDbEntity
  8
0
  6
BYBLOCK
100
AcDbLine
 10
1046.0961725883
 20
1674.549706796641
 30
0.0
 11
1049.0961725883
 21
1673.745859226641
 31
0.0
  0
LINE
  5
BBE0
330
18
100
AcDbEntity
  8
0
  6
BYBLOCK
100
AcDbLine
 10
1049.0961725883
 20
1673.745859226641
 30
0.0
 11
1046.0961725883
 21
1672.942011656641
 31
0.0
  0
LINE
  5
BBE1
330
18
100
AcDbEntity
  8
0
  6
BYBLOCK
100
AcDbLine
 10
1049.0961725883
 20
1673.745859226641
 30
0.0
 11
1046.0961725883
 21
1673.745859226641
 31
0.0
  0
TEXT
  5
BBE2
330
18
100
AcDbEntity
  8
1DIM
  6
CONTINUOUS
100
AcDbText
 10
1013.167353143856
 20
1674.445859226641
 30
0.0
 40
3.5
  1
66
100
AcDbText
1001
ACAD
1000
DSTYLE
1002
{
1070
    40
1040
1.0
1070
    41
1040
3.0
1070
   343
1005
42
1070
   344
1005
42
1002
}
  0
LINE
  5
BBE3
330
18
100
AcDbEntity
  8
0
  6
BYBLOCK
100
AcDbLine
 10
1077.2923250183
 20
1648.245858833239
 30
0.0
 11
1078.0961725883
 21
1651.245858833239
 31
0.0
  0
LINE
  5
BBE4
330
18
100
AcDbEntity
  8
0
  6
BYBLOCK
100
AcDbLine
 10
1078.0961725883
 20
1651.245858833239
 30
0.0
 11
1078.9000201583
 21
1648.245858833239
 31
0.0
  0
LINE
  5
BBE5
330
18
100
AcDbEntity
  8
0
  6
BYBLOCK
100
AcDbLine
 10
1078.0961725883
 20
1651.245858833239
 30
0.0
 11
1078.0961725883
 21
1648.245858833239
 31
0.0
  0
LINE
  5
BBE6
330
18
100
AcDbEntity
  8
0
  6
BYBLOCK
100
AcDbLine
 10
1078.9000201583
 20
1642.245858964373
 30
0.0
 11
1078.0961725883
 21
1639.245858964373
 31
0.0
  0
LINE
  5
BBE7
330
18
100
AcDbEntity
  8
0
  6
BYBLOCK
100
AcDbLine
 10
1078.0961725883
 20
1639.245858964373
 30
0.0
 11
1077.2923250183
 21
1642.245858964373
 31
0.0
  0
LINE
  5
BBE8
330
18
100
AcDbEntity
  8
0
  6
BYBLOCK
100
AcDbLine
 10
1078.0961725883
 20
1639.245858964373
 30
0.0
 11
1078.0961725883
 21
1642.245858964373
 31
0.0
  0
TEXT
  5
BBE9
330
18
100
AcDbEntity
  8
1DIM
  6
CONTINUOUS
100
AcDbText
 10
1077.3961725883
 20
1642.912525565473
 30
0.0
 40
3.5
  1
12
 50
90.0
100
AcDbText
1001
ACAD
1000
DSTYLE
1002
{
1070
    40
1040
1.0
1070
    41
1040
3.0
1070
   343
1005
42
1070
   344
1005
42
1002
}
  0
LINE
  5
BBEA
330
18
100
AcDbEntity
  8
0
  6
BYBLOCK
100
AcDbLine
 10
1077.2923250183
 20
1648.245858833239
 30
0.0
 11
1078.0961725883
 21
1651.245858833239
 31
0.0
  0
LINE
  5
BBEB
330
18
100
AcDbEntity
  8
0
  6
BYBLOCK
100
AcDbLine
 10
1078.0961725883
 20
1651.245858833239
 30
0.0
 11
1078.9000201583
 21
1648.245858833239
 31
0.0
  0
LINE
  5
BBEC
330
18
100
AcDbEntity
  8
0
  6
BYBLOCK
100
AcDbLine
 10
1078.0961725883
 20
1651.245858833239
 30
0.0
 11
1078.0961725883
 21
1648.245858833239
 31
0.0
  0
LINE
  5
BBED
330
18
100
AcDbEntity
  8
0
  6
BYBLOCK
100
AcDbLine
 10
1078.9000201583
 20
1656.745859226641
 30
0.0
 11
1078.0961725883
 21
1653.745859226641
 31
0.0
  0
LINE
  5
BBEE
330
18
100
AcDbEntity
  8
0
  6
BYBLOCK
100
AcDbLine
 10
1078.0961725883
 20
1653.745859226641
 30
0.0
 11
1077.2923250183
 21
1656.745859226641
 31
0.0
  0
LINE
  5
BBEF
330
18
100
AcDbEntity
  8
0
  6
BYBLOCK
100
AcDbLine
 10
1078.0961725883
 20
1653.745859226641
 30
0.0
 11
1078.0961725883
 21
1656.745859226641
 31
0.0
  0
TEXT
  5
BBF0
330
18
100
AcDbEntity
  8
1DIM
  6
CONTINUOUS
100
AcDbText
 10
1077.396172588299
 20
1660.612525893308
 30
0.0
 40
3.5
  1
2.5
 50
90.0
100
AcDbText
1001
ACAD
1000
DSTYLE
1002
{
1070
    40
1040
1.0
1070
    41
1040
3.0
1070
   343
1005
42
1070
   344
1005
42
1002
}
  0
LINE
  5
BBF1
330
18
100
AcDbEntity
  8
0
  6
BYBLOCK
100
AcDbLine
 10
1078.9000201583
 20
1589.745859226641
 30
0.0
 11
1078.0961725883
 21
1586.745859226641
 31
0.0
  0
LINE
  5
BBF2
330
18
100
AcDbEntity
  8
0
  6
BYBLOCK
100
AcDbLine
 10
1078.0961725883
 20
1586.745859226641
 30
0.0
 11
1077.2923250183
 21
1589.745859226641
 31
0.0
  0
LINE
  5
BBF3
330
18
100
AcDbEntity
  8
0
  6
BYBLOCK
100
AcDbLine
 10
1078.0961725883
 20
1586.745859226641
 30
0.0
 11
1078.0961725883
 21
1589.745859226641
 31
0.0
  0
LINE
  5
BBF4
330
18
100
AcDbEntity
  8
0
  6
BYBLOCK
100
AcDbLine
 10
1077.2923250183
 20
1617.745859226642
 30
0.0
 11
1078.0961725883
 21
1620.745859226642
 31
0.0
  0
LINE
  5
BBF5
330
18
100
AcDbEntity
  8
0
  6
BYBLOCK
100
AcDbLine
 10
1078.0961725883
 20
1620.745859226642
 30
0.0
 11
1078.9000201583
 21
1617.745859226642
 31
0.0
  0
LINE
  5
BBF6
330
18
100
AcDbEntity
  8
0
  6
BYBLOCK
100
AcDbLine
 10
1078.0961725883
 20
1620.745859226642
 30
0.0
 11
1078.0961725883
 21
1617.745859226642
 31
0.0
  0
TEXT
  5
BBF7
330
18
100
AcDbEntity
  8
1DIM
  6
CONTINUOUS
100
AcDbText
 10
1077.3961725883
 20
1600.829192559975
 30
0.0
 40
3.5
  1
34
 50
90.0
100
AcDbText
1001
ACAD
1000
DSTYLE
1002
{
1070
    40
1040
1.0
1070
    41
1040
3.0
1070
   343
1005
42
1070
   344
1005
42
1002
}
  0
LINE
  5
BBF8
330
18
100
AcDbEntity
  8
0
  6
BYBLOCK
100
AcDbLine
 10
986.0961725882999
 20
1562.942011656641
 30
0.0
 11
983.0961725882999
 21
1563.745859226641
 31
0.0
  0
LINE
  5
BBF9
330
18
100
AcDbEntity
  8
0
  6
BYBLOCK
100
AcDbLine
 10
983.0961725882999
 20
1563.745859226641
 30
0.0
 11
986.0961725882999
 21
1564.549706796641
 31
0.0
  0
LINE
  5
BBFA
330
18
100
AcDbEntity
  8
0
  6
BYBLOCK
100
AcDbLine
 10
983.0961725882999
 20
1563.745859226641
 30
0.0
 11
986.0961725882999
 21
1563.745859226641
 31
0.0
  0
LINE
  5
BBFB
330
18
100
AcDbEntity
  8
0
  6
BYBLOCK
100
AcDbLine
 10
1052.0961725883
 20
1564.549706796641
 30
0.0
 11
1055.0961725883
 21
1563.745859226641
 31
0.0
  0
LINE
  5
BBFC
330
18
100
AcDbEntity
  8
0
  6
BYBLOCK
100
AcDbLine
 10
1055.0961725883
 20
1563.745859226641
 30
0.0
 11
1052.0961725883
 21
1562.942011656641
 31
0.0
  0
LINE
  5
BBFD
330
18
100
AcDbEntity
  8
0
  6
BYBLOCK
100
AcDbLine
 10
1055.0961725883
 20
1563.745859226641
 30
0.0
 11
1052.0961725883
 21
1563.745859226641
 31
0.0
  0
TEXT
  5
BBFE
330
18
100
AcDbEntity
  8
1DIM
  6
CONTINUOUS
100
AcDbText
 10
1016.179505921633
 20
1564.445859226641
 30
0.0
 40
3.5
  1
72
100
AcDbText
1001
ACAD
1000
DSTYLE
1002
{
1070
    40
1040
1.0
1070
    41
1040
3.0
1070
   343
1005
42
1070
   344
1005
42
1002
}
  0
LINE
  5
BBFF
330
18
100
AcDbEntity
  8
0
  6
BYBLOCK
100
AcDbLine
 10
996.0961725883
 20
1572.942011656641
 30
0.0
 11
993.0961725883
 21
1573.745859226641
 31
0.0
  0
LINE
  5
BC00
330
18
100
AcDbEntity
  8
0
  6
BYBLOCK
100
AcDbLine
 10
993.0961725883
 20
1573.745859226641
 30
0.0
 11
996.0961725883
 21
1574.549706796641
 31
0.0
  0
LINE
  5
BC01
330
18
100
AcDbEntity
  8
0
  6
BYBLOCK
100
AcDbLine
 10
993.0961725883
 20
1573.745859226641
 30
0.0
 11
996.0961725883
 21
1573.745859226641
 31
0.0
  0
LINE
  5
BC02
330
18
100
AcDbEntity
  8
0
  6
BYBLOCK
100
AcDbLine
 10
1049.0961725883
 20
1574.549706796641
 30
0.0
 11
1052.0961725883
 21
1573.745859226641
 31
0.0
  0
LINE
  5
BC03
330
18
100
AcDbEntity
  8
0
  6
BYBLOCK
100
AcDbLine
 10
1052.0961725883
 20
1573.745859226641
 30
0.0
 11
1049.0961725883
 21
1572.942011656641
 31
0.0
  0
LINE
  5
BC04
330
18
100
AcDbEntity
  8
0
  6
BYBLOCK
100
AcDbLine
 10
1052.0961725883
 20
1573.745859226641
 30
0.0
 11
1049.0961725883
 21
1573.745859226641
 31
0.0
  0
TEXT
  5
BC05
330
18
100
AcDbEntity
  8
1DIM
  6
CONTINUOUS
100
AcDbText
 10
1019.66654295867
 20
1574.445859226641
 30
0.0
 40
3.5
  1
59
100
AcDbText
1001
ACAD
1000
DSTYLE
1002
{
1070
    40
1040
1.0
1070
    41
1040
3.0
1070
   343
1005
42
1070
   344
1005
42
1002
}
  0
LINE
  5
BC06
330
18
100
AcDbEntity
  8
0
  6
BYBLOCK
100
AcDbLine
 10
990.0961725883
 20
1574.549706796641
 30
0.0
 11
993.0961725883
 21
1573.745859226641
 31
0.0
  0
LINE
  5
BC07
330
18
100
AcDbEntity
  8
0
  6
BYBLOCK
100
AcDbLine
 10
993.0961725883
 20
1573.745859226641
 30
0.0
 11
990.0961725883
 21
1572.942011656641
 31
0.0
  0
LINE
  5
BC08
330
18
100
AcDbEntity
  8
0
  6
BYBLOCK
100
AcDbLine
 10
993.0961725883
 20
1573.745859226641
 30
0.0
 11
990.0961725883
 21
1573.745859226641
 31
0.0
  0
LINE
  5
BC09
330
18
100
AcDbEntity
  8
0
  6
BYBLOCK
100
AcDbLine
 10
986.0961725882999
 20
1572.942011656641
 30
0.0
 11
983.0961725882999
 21
1573.745859226641
 31
0.0
  0
LINE
  5
BC0A
330
18
100
AcDbEntity
  8
0
  6
BYBLOCK
100
AcDbLine
 10
983.0961725882999
 20
1573.745859226641
 30
0.0
 11
986.0961725882999
 21
1574.549706796641
 31
0.0
  0
LINE
  5
BC0B
330
18
100
AcDbEntity
  8
0
  6
BYBLOCK
100
AcDbLine
 10
983.0961725882999
 20
1573.745859226641
 30
0.0
 11
986.0961725882999
 21
1573.745859226641
 31
0.0
  0
TEXT
  5
BC0C
330
18
100
AcDbEntity
  8
1DIM
  6
CONTINUOUS
100
AcDbText
 10
985.9815892549665
 20
1574.445859226641
 30
0.0
 40
3.5
  1
10
100
AcDbText
1001
ACAD
1000
DSTYLE
1002
{
1070
    40
1040
1.0
1070
    41
1040
3.0
1070
   343
1005
42
1070
   344
1005
42
1002
}
  0
LINE
  5
BC0D
330
18
100
AcDbEntity
  8
0
  6
BYBLOCK
100
AcDbLine
 10
973.9000201583
 20
1593.245867937014
 30
0.0
 11
973.0961725883
 21
1590.245867937014
 31
0.0
  0
LINE
  5
BC0E
330
18
100
AcDbEntity
  8
0
  6
BYBLOCK
100
AcDbLine
 10
973.0961725883
 20
1590.245867937014
 30
0.0
 11
972.2923250183
 21
1593.245867937014
 31
0.0
  0
LINE
  5
BC0F
330
18
100
AcDbEntity
  8
0
  6
BYBLOCK
100
AcDbLine
 10
973.0961725883
 20
1590.245867937014
 30
0.0
 11
973.0961725883
 21
1593.245867937014
 31
0.0
  0
LINE
  5
BC10
330
18
100
AcDbEntity
  8
0
  6
BYBLOCK
100
AcDbLine
 10
972.2923250183
 20
1614.245867937014
 30
0.0
 11
973.0961725883
 21
1617.245867937014
 31
0.0
  0
LINE
  5
BC11
330
18
100
AcDbEntity
  8
0
  6
BYBLOCK
100
AcDbLine
 10
973.0961725883
 20
1617.245867937014
 30
0.0
 11
973.9000201583
 21
1614.245867937014
 31
0.0
  0
LINE
  5
BC12
330
18
100
AcDbEntity
  8
0
  6
BYBLOCK
100
AcDbLine
 10
973.0961725883
 20
1617.245867937014
 30
0.0
 11
973.0961725883
 21
1614.245867937014
 31
0.0
  0
TEXT
  5
BC13
330
18
100
AcDbEntity
  8
1DIM
  6
CONTINUOUS
100
AcDbText
 10
972.3961725882998
 20
1600.829201270348
 30
0.0
 40
3.5
  1
27
 50
90.0
100
AcDbText
1001
ACAD
1000
DSTYLE
1002
{
1070
    40
1040
1.0
1070
    41
1040
3.0
1070
   343
1005
42
1070
   344
1005
42
1002
}
  0
LINE
  5
BC14
330
18
100
AcDbEntity
  8
0
  6
BYBLOCK
100
AcDbLine
 10
1068.9000201583
 20
1606.745859226641
 30
0.0
 11
1068.0961725883
 21
1603.745859226641
 31
0.0
  0
LINE
  5
BC15
330
18
100
AcDbEntity
  8
0
  6
BYBLOCK
100
AcDbLine
 10
1068.0961725883
 20
1603.745859226641
 30
0.0
 11
1067.2923250183
 21
1606.745859226641
 31
0.0
  0
LINE
  5
BC16
330
18
100
AcDbEntity
  8
0
  6
BYBLOCK
100
AcDbLine
 10
1068.0961725883
 20
1603.745859226641
 30
0.0
 11
1068.0961725883
 21
1606.745859226641
 31
0.0
  0
LINE
  5
BC17
330
18
100
AcDbEntity
  8
0
  6
BYBLOCK
100
AcDbLine
 10
1067.2923250183
 20
1617.745859226642
 30
0.0
 11
1068.0961725883
 21
1620.745859226642
 31
0.0
  0
LINE
  5
BC18
330
18
100
AcDbEntity
  8
0
  6
BYBLOCK
100
AcDbLine
 10
1068.0961725883
 20
1620.745859226642
 30
0.0
 11
1068.9000201583
 21
1617.745859226642
 31
0.0
  0
LINE
  5
BC19
330
18
100
AcDbEntity
  8
0
  6
BYBLOCK
100
AcDbLine
 10
1068.0961725883
 20
1620.745859226642
 30
0.0
 11
1068.0961725883
 21
1617.745859226642
 31
0.0
  0
TEXT
  5
BC1A
330
18
100
AcDbEntity
  8
1DIM
  6
CONTINUOUS
100
AcDbText
 10
1067.3961725883
 20
1609.912525893308
 30
0.0
 40
3.5
  1
17
 50
90.0
100
AcDbText
1001
ACAD
1000
DSTYLE
1002
{
1070
    40
1040
1.0
1070
    41
1040
3.0
1070
   343
1005
42
1070
   344
1005
42
1002
}
  0
LINE
  5
BC1B
330
18
100
AcDbEntity
  8
0
  6
BYBLOCK
100
AcDbLine
 10
996.2815427973815
 20
1620.469304274104
 30
0.0
 11
994.6307928110369
 21
1619.219419656921
 31
0.0
  0
LINE
  5
BC1C
330
18
100
AcDbEntity
  8
0
  6
BYBLOCK
100
AcDbLine
 10
994.6307928110369
 20
1619.219419656921
 30
0.0
 11
995.4354419345716
 21
1621.127226476723
 31
0.0
  0
LINE
  5
BC1D
330
18
100
AcDbEntity
  8
0
  6
BYBLOCK
100
AcDbLine
 10
994.6307928110369
 20
1619.219419656921
 30
0.0
 11
995.8584923659765
 21
1620.798265375413
 31
0.0
  0
LINE
  5
BC1E
330
18
100
AcDbEntity
  8
0
  6
BYBLOCK
100
AcDbLine
 10
989.6606488726125
 20
1587.29047221518
 30
0.0
 11
991.4070336508182
 21
1588.40282435373
 31
0.0
  0
LINE
  5
BC1F
330
18
100
AcDbEntity
  8
0
  6
BYBLOCK
100
AcDbLine
 10
991.4070336508182
 20
1588.40282435373
 30
0.0
 11
990.4507961290533
 21
1586.566306759027
 31
0.0
  0
LINE
  5
BC20
330
18
100
AcDbEntity
  8
0
  6
BYBLOCK
100
AcDbLine
 10
991.4070336508182
 20
1588.40282435373
 30
0.0
 11
990.0557225008329
 21
1586.928389487103
 31
0.0
  0
LINE
  5
BC21
330
18
100
AcDbEntity
  8
0
  6
BYBLOCK
100
AcDbLine
 10
1054.254643641357
 20
1599.761119625096
 30
0.0
 11
1053.538501852914
 21
1601.703882609233
 31
0.0
  0
LINE
  5
BC22
330
18
100
AcDbEntity
  8
0
  6
BYBLOCK
100
AcDbLine
 10
1053.538501852914
 20
1601.703882609233
 30
0.0
 11
1055.130080320478
 21
1600.37947139844
 31
0.0
  0
LINE
  5
BC23
330
18
100
AcDbEntity
  8
0
  6
BYBLOCK
100
AcDbLine
 10
1053.538501852914
 20
1601.703882609233
 30
0.0
 11
1054.692361980918
 21
1600.070295511768
 31
0.0
  0
LINE
  5
BC24
330
18
100
AcDbEntity
  8
0
  6
BYBLOCK
100
AcDbLine
 10
1151.231568860152
 20
1662.942024591066
 30
0.0
 11
1148.231568860152
 21
1663.745872161066
 31
0.0
  0
LINE
  5
BC25
330
18
100
AcDbEntity
  8
0
  6
BYBLOCK
100
AcDbLine
 10
1148.231568860152
 20
1663.745872161066
 30
0.0
 11
1151.231568860152
 21
1664.549719731066
 31
0.0
  0
LINE
  5
BC26
330
18
100
AcDbEntity
  8
0
  6
BYBLOCK
100
AcDbLine
 10
1148.231568860152
 20
1663.745872161066
 30
0.0
 11
1151.231568860152
 21
1663.745872161066
 31
0.0
  0
LINE
  5
BC27
330
18
100
AcDbEntity
  8
0
  6
BYBLOCK
100
AcDbLine
 10
1217.231568860152
 20
1664.549719731066
 30
0.0
 11
1220.231568860152
 21
1663.745872161066
 31
0.0
  0
LINE
  5
BC28
330
18
100
AcDbEntity
  8
0
  6
BYBLOCK
100
AcDbLine
 10
1220.231568860152
 20
1663.745872161066
 30
0.0
 11
1217.231568860152
 21
1662.942024591066
 31
0.0
  0
LINE
  5
BC29
330
18
100
AcDbEntity
  8
0
  6
BYBLOCK
100
AcDbLine
 10
1220.231568860152
 20
1663.745872161066
 30
0.0
 11
1217.231568860152
 21
1663.745872161066
 31
0.0
  0
TEXT
  5
BC2A
330
18
100
AcDbEntity
  8
1DIM
  6
CONTINUOUS
100
AcDbText
 10
1181.314902193485
 20
1664.445872161067
 30
0.0
 40
3.5
  1
72
100
AcDbText
1001
ACAD
1000
DSTYLE
1002
{
1070
    40
1040
1.0
1070
    41
1040
3.0
1070
   343
1005
42
1070
   344
1005
42
1002
}
  0
LINE
  5
BC2B
330
18
100
AcDbEntity
  8
0
  6
BYBLOCK
100
AcDbLine
 10
1161.231568860152
 20
1672.942024591066
 30
0.0
 11
1158.231568860152
 21
1673.745872161066
 31
0.0
  0
LINE
  5
BC2C
330
18
100
AcDbEntity
  8
0
  6
BYBLOCK
100
AcDbLine
 10
1158.231568860152
 20
1673.745872161066
 30
0.0
 11
1161.231568860152
 21
1674.549719731066
 31
0.0
  0
LINE
  5
BC2D
330
18
100
AcDbEntity
  8
0
  6
BYBLOCK
100
AcDbLine
 10
1158.231568860152
 20
1673.745872161066
 30
0.0
 11
1161.231568860152
 21
1673.745872161066
 31
0.0
  0
LINE
  5
BC2E
330
18
100
AcDbEntity
  8
0
  6
BYBLOCK
100
AcDbLine
 10
1214.231568860152
 20
1674.549719731066
 30
0.0
 11
1217.231568860152
 21
1673.745872161066
 31
0.0
  0
LINE
  5
BC2F
330
18
100
AcDbEntity
  8
0
  6
BYBLOCK
100
AcDbLine
 10
1217.231568860152
 20
1673.745872161066
 30
0.0
 11
1214.231568860152
 21
1672.942024591066
 31
0.0
  0
LINE
  5
BC30
330
18
100
AcDbEntity
  8
0
  6
BYBLOCK
100
AcDbLine
 10
1217.231568860152
 20
1673.745872161066
 30
0.0
 11
1214.231568860152
 21
1673.745872161066
 31
0.0
  0
TEXT
  5
BC31
330
18
100
AcDbEntity
  8
1DIM
  6
CONTINUOUS
100
AcDbText
 10
1184.801939230522
 20
1674.445872161067
 30
0.0
 40
3.5
  1
59
100
AcDbText
1001
ACAD
1000
DSTYLE
1002
{
1070
    40
1040
1.0
1070
    41
1040
3.0
1070
   343
1005
42
1070
   344
1005
42
1002
}
  0
LINE
  5
BC32
330
18
100
AcDbEntity
  8
0
  6
BYBLOCK
100
AcDbLine
 10
1155.231568860152
 20
1674.549719731066
 30
0.0
 11
1158.231568860152
 21
1673.745872161066
 31
0.0
  0
LINE
  5
BC33
330
18
100
AcDbEntity
  8
0
  6
BYBLOCK
100
AcDbLine
 10
1158.231568860152
 20
1673.745872161066
 30
0.0
 11
1155.231568860152
 21
1672.942024591066
 31
0.0
  0
LINE
  5
BC34
330
18
100
AcDbEntity
  8
0
  6
BYBLOCK
100
AcDbLine
 10
1158.231568860152
 20
1673.745872161066
 30
0.0
 11
1155.231568860152
 21
1673.745872161066
 31
0.0
  0
LINE
  5
BC35
330
18
100
AcDbEntity
  8
0
  6
BYBLOCK
100
AcDbLine
 10
1151.231568860152
 20
1672.942024591066
 30
0.0
 11
1148.231568860152
 21
1673.745872161066
 31
0.0
  0
LINE
  5
BC36
330
18
100
AcDbEntity
  8
0
  6
BYBLOCK
100
AcDbLine
 10
1148.231568860152
 20
1673.745872161066
 30
0.0
 11
1151.231568860152
 21
1674.549719731066
 31
0.0
  0
LINE
  5
BC37
330
18
100
AcDbEntity
  8
0
  6
BYBLOCK
100
AcDbLine
 10
1148.231568860152
 20
1673.745872161066
 30
0.0
 11
1151.231568860152
 21
1673.745872161066
 31
0.0
  0
TEXT
  5
BC38
330
18
100
AcDbEntity
  8
1DIM
  6
CONTINUOUS
100
AcDbText
 10
1151.116985526818
 20
1674.445872161067
 30
0.0
 40
3.5
  1
10
100
AcDbText
1001
ACAD
1000
DSTYLE
1002
{
1070
    40
1040
1.0
1070
    41
1040
3.0
1070
   343
1005
42
1070
   344
1005
42
1002
}
  0
TEXT
  5
BC39
330
18
100
AcDbEntity
  8
1DIM
  6
CONTINUOUS
100
AcDbText
 10
1166.088396027523
 20
1727.847207226476
 30
0.0
 40
3.5
  1
3-
 50
50.41630758126231
100
AcDbText
1001
ACAD
1000
DSTYLE
1002
{
1070
    41
1040
3.0
1070
    40
1040
1.0
1070
   343
1005
42
1070
   344
1005
42
1002
}
  0
TEXT
  5
BC3A
330
18
100
AcDbEntity
  8
1DIM
  6
CONTINUOUS
100
AcDbText
 10
1170.548828645381
 20
1733.242069677136
 30
0.0
 40
3.5
  1
\U+22054.5 貫通
 50
50.41630758126231
100
AcDbText
1001
ACAD
1000
DSTYLE
1002
{
1070
    41
1040
3.0
1070
    40
1040
1.0
1070
   343
1005
42
1070
   344
1005
42
1002
}
  0
LINE
  5
BC3B
330
18
100
AcDbEntity
  8
0
  6
BYBLOCK
100
AcDbLine
 10
1154.266723386551
 20
1713.711949450733
 30
0.0
 11
1156.79785837584
 21
1715.511817940871
 31
0.0
  0
LINE
  5
BC3C
330
18
100
AcDbEntity
  8
0
  6
BYBLOCK
100
AcDbLine
 10
1156.79785837584
 20
1715.511817940871
 30
0.0
 11
1155.505765406964
 21
1712.687518616157
 31
0.0
  0
LINE
  5
BC3D
330
18
100
AcDbEntity
  8
0
  6
BYBLOCK
100
AcDbLine
 10
1156.79785837584
 20
1715.511817940871
 30
0.0
 11
1154.886244396758
 21
1713.199734033445
 31
0.0
  0
LINE
  5
BC3E
330
18
100
AcDbEntity
  8
0
  6
BYBLOCK
100
AcDbLine
 10
1162.196414333753
 20
1720.779812292147
 30
0.0
 11
1159.665279344464
 21
1718.979943802009
 31
0.0
  0
LINE
  5
BC3F
330
18
100
AcDbEntity
  8
0
  6
BYBLOCK
100
AcDbLine
 10
1159.665279344464
 20
1718.979943802009
 30
0.0
 11
1160.957372313339
 21
1721.804243126723
 31
0.0
  0
LINE
  5
BC40
330
18
100
AcDbEntity
  8
0
  6
BYBLOCK
100
AcDbLine
 10
1159.665279344464
 20
1718.979943802009
 30
0.0
 11
1161.576893323546
 21
1721.292027709435
 31
0.0
  0
TEXT
  5
BC41
330
18
100
AcDbEntity
  8
1DIM
  6
CONTINUOUS
100
AcDbText
 10
1220.236162670697
 20
1688.007891126758
 30
0.0
 40
3.5
  1
R6
 50
316.4735187182766
100
AcDbText
1001
ACAD
1000
DSTYLE
1002
{
1070
   343
1005
42
1070
   344
1005
42
1002
}
  0
LINE
  5
BC42
330
18
100
AcDbEntity
  8
0
  6
BYBLOCK
100
AcDbLine
 10
1218.041383453458
 20
1689.496701569507
 30
0.0
 11
1218.581905736186
 21
1688.613733602763
 31
0.0
  0
LINE
  5
BC43
330
18
100
AcDbEntity
  8
0
  6
BYBLOCK
100
AcDbLine
 10
1218.581905736186
 20
1688.613733602763
 30
0.0
 11
1217.672315726903
 21
1689.108145155454
 31
0.0
  0
LINE
  5
BC44
330
18
100
AcDbEntity
  8
0
  6
BYBLOCK
100
AcDbLine
 10
1218.581905736186
 20
1688.613733602763
 30
0.0
 11
1217.856849590181
 21
1689.302423362481
 31
0.0
  0
LINE
  5
BC45
330
18
100
AcDbEntity
  8
0
  6
BYBLOCK
100
AcDbLine
 10
1052.458895572345
 20
1589.035887407206
 30
0.0
 11
1052.881987651115
 21
1588.091011827405
 31
0.0
  0
LINE
  5
BC46
330
18
100
AcDbEntity
  8
0
  6
BYBLOCK
100
AcDbLine
 10
1052.881987651115
 20
1588.091011827405
 30
0.0
 11
1052.043141375612
 21
1588.697752047349
 31
0.0
  0
LINE
  5
BC47
330
18
100
AcDbEntity
  8
0
  6
BYBLOCK
100
AcDbLine
 10
1052.881987651115
 20
1588.091011827405
 30
0.0
 11
1052.251018473979
 21
1588.866819727277
 31
0.0
  0
TEXT
  5
BC48
330
18
100
AcDbEntity
  8
1DIM
  6
CONTINUOUS
100
AcDbText
 10
1059.257908985559
 20
1581.360904725344
 30
0.0
 40
3.5
  1
R6
 50
309.1216629172557
100
AcDbText
1001
ACAD
1000
DSTYLE
1002
{
1070
   343
1005
42
1070
   344
1005
42
1002
}
  0
LINE
  5
BC49
330
18
100
AcDbEntity
  8
0
  6
BYBLOCK
100
AcDbLine
 10
1238.888439300383
 20
1687.745872161066
 30
0.0
 11
1238.620490110382
 21
1686.745872161066
 31
0.0
  0
LINE
  5
BC4A
330
18
100
AcDbEntity
  8
0
  6
BYBLOCK
100
AcDbLine
 10
1238.620490110382
 20
1686.745872161066
 30
0.0
 11
1238.352540920382
 21
1687.745872161066
 31
0.0
  0
LINE
  5
BC4B
330
18
100
AcDbEntity
  8
0
  6
BYBLOCK
100
AcDbLine
 10
1238.620490110382
 20
1686.745872161066
 30
0.0
 11
1238.620490110382
 21
1687.745872161066
 31
0.0
  0
LINE
  5
BC4C
330
18
100
AcDbEntity
  8
0
  6
BYBLOCK
100
AcDbLine
 10
1238.352540920382
 20
1719.745872161067
 30
0.0
 11
1238.620490110382
 21
1720.745872161067
 31
0.0
  0
LINE
  5
BC4D
330
18
100
AcDbEntity
  8
0
  6
BYBLOCK
100
AcDbLine
 10
1238.620490110382
 20
1720.745872161067
 30
0.0
 11
1238.888439300383
 21
1719.745872161067
 31
0.0
  0
LINE
  5
BC4E
330
18
100
AcDbEntity
  8
0
  6
BYBLOCK
100
AcDbLine
 10
1238.620490110382
 20
1720.745872161067
 30
0.0
 11
1238.620490110382
 21
1719.745872161067
 31
0.0
  0
TEXT
  5
BC4F
330
18
100
AcDbEntity
  8
1DIM
  6
CONTINUOUS
100
AcDbText
 10
1237.920490110382
 20
1700.8292054944
 30
0.0
 40
3.5
  1
34
 50
90.0
100
AcDbText
1001
ACAD
1000
DSTYLE
1002
{
1070
   343
1005
42
1070
   344
1005
42
1002
}
  0
LINE
  5
BC50
330
18
100
AcDbEntity
  8
0
  6
BYBLOCK
100
AcDbLine
 10
1136.681621646469
 20
1691.24588087144
 30
0.0
 11
1136.413672456469
 21
1690.24588087144
 31
0.0
  0
LINE
  5
BC51
330
18
100
AcDbEntity
  8
0
  6
BYBLOCK
100
AcDbLine
 10
1136.413672456469
 20
1690.24588087144
 30
0.0
 11
1136.145723266469
 21
1691.24588087144
 31
0.0
  0
LINE
  5
BC52
330
18
100
AcDbEntity
  8
0
  6
BYBLOCK
100
AcDbLine
 10
1136.413672456469
 20
1690.24588087144
 30
0.0
 11
1136.413672456469
 21
1691.24588087144
 31
0.0
  0
LINE
  5
BC53
330
18
100
AcDbEntity
  8
0
  6
BYBLOCK
100
AcDbLine
 10
1136.145723266469
 20
1716.24588087144
 30
0.0
 11
1136.413672456469
 21
1717.24588087144
 31
0.0
  0
LINE
  5
BC54
330
18
100
AcDbEntity
  8
0
  6
BYBLOCK
100
AcDbLine
 10
1136.413672456469
 20
1717.24588087144
 30
0.0
 11
1136.681621646469
 21
1716.24588087144
 31
0.0
  0
LINE
  5
BC55
330
18
100
AcDbEntity
  8
0
  6
BYBLOCK
100
AcDbLine
 10
1136.413672456469
 20
1717.24588087144
 30
0.0
 11
1136.413672456469
 21
1716.24588087144
 31
0.0
  0
TEXT
  5
BC56
330
18
100
AcDbEntity
  8
1DIM
  6
CONTINUOUS
100
AcDbText
 10
1135.713672456469
 20
1700.829214204773
 30
0.0
 40
3.5
  1
27
 50
90.0
100
AcDbText
1001
ACAD
1000
DSTYLE
1002
{
1070
   343
1005
42
1070
   344
1005
42
1002
}
  0
LINE
  5
BC57
330
18
100
AcDbEntity
  8
0
  6
BYBLOCK
100
AcDbLine
 10
1056.600307032953
 20
1723.346441164929
 30
0.0
 11
1055.066136450999
 21
1721.955934890526
 31
0.0
  0
LINE
  5
BC58
330
18
100
AcDbEntity
  8
0
  6
BYBLOCK
100
AcDbLine
 10
1055.066136450999
 20
1721.955934890526
 30
0.0
 11
1055.699514020451
 21
1723.927233936384
 31
0.0
  0
LINE
  5
BC59
330
18
100
AcDbEntity
  8
0
  6
BYBLOCK
100
AcDbLine
 10
1055.066136450999
 20
1721.955934890526
 30
0.0
 11
1056.149910526702
 21
1723.636837550657
 31
0.0
  0
LINE
  5
BC5A
330
18
100
AcDbEntity
  8
0
  6
BYBLOCK
100
AcDbLine
 10
988.7976047320237
 20
1700.814146326349
 30
0.0
 11
990.2749674286916
 21
1702.264865643164
 31
0.0
  0
LINE
  5
BC5B
330
18
100
AcDbEntity
  8
0
  6
BYBLOCK
100
AcDbLine
 10
990.2749674286916
 20
1702.264865643164
 30
0.0
 11
989.7208934521308
 21
1700.269824515221
 31
0.0
  0
LINE
  5
BC5C
330
18
100
AcDbEntity
  8
0
  6
BYBLOCK
100
AcDbLine
 10
990.2749674286916
 20
1702.264865643164
 30
0.0
 11
989.2592490920773
 21
1700.541985420785
 31
0.0
  0
LINE
  5
BC5D
330
18
100
AcDbEntity
  8
0
  6
BYBLOCK
100
AcDbLine
 10
1254.383611074086
 20
1672.942024591066
 30
0.0
 11
1251.383611074086
 21
1673.745872161066
 31
0.0
  0
LINE
  5
BC5E
330
18
100
AcDbEntity
  8
0
  6
BYBLOCK
100
AcDbLine
 10
1251.383611074086
 20
1673.745872161066
 30
0.0
 11
1254.383611074086
 21
1674.549719731066
 31
0.0
  0
LINE
  5
BC5F
330
18
100
AcDbEntity
  8
0
  6
BYBLOCK
100
AcDbLine
 10
1251.383611074086
 20
1673.745872161066
 30
0.0
 11
1254.383611074086
 21
1673.745872161066
 31
0.0
  0
LINE
  5
BC60
330
18
100
AcDbEntity
  8
0
  6
BYBLOCK
100
AcDbLine
 10
1260.383611063158
 20
1674.549719731066
 30
0.0
 11
1263.383611063158
 21
1673.745872161066
 31
0.0
  0
LINE
  5
BC61
330
18
100
AcDbEntity
  8
0
  6
BYBLOCK
100
AcDbLine
 10
1263.383611063158
 20
1673.745872161066
 30
0.0
 11
1260.383611063158
 21
1672.942024591066
 31
0.0
  0
LINE
  5
BC62
330
18
100
AcDbEntity
  8
0
  6
BYBLOCK
100
AcDbLine
 10
1263.383611063158
 20
1673.745872161066
 30
0.0
 11
1260.383611063158
 21
1673.745872161066
 31
0.0
  0
TEXT
  5
BC63
330
18
100
AcDbEntity
  8
1DIM
  6
CONTINUOUS
100
AcDbText
 10
1255.050277735289
 20
1674.445872161067
 30
0.0
 40
3.5
  1
12
100
AcDbText
1001
ACAD
1000
DSTYLE
1002
{
1070
    40
1040
1.0
1070
    41
1040
3.0
1002
}
  0
LINE
  5
BC64
330
18
100
AcDbEntity
  8
0
  6
BYBLOCK
100
AcDbLine
 10
1254.383611074086
 20
1662.942024591066
 30
0.0
 11
1251.383611074086
 21
1663.745872161066
 31
0.0
  0
LINE
  5
BC65
330
18
100
AcDbEntity
  8
0
  6
BYBLOCK
100
AcDbLine
 10
1251.383611074086
 20
1663.745872161066
 30
0.0
 11
1254.383611074086
 21
1664.549719731066
 31
0.0
  0
LINE
  5
BC66
330
18
100
AcDbEntity
  8
0
  6
BYBLOCK
100
AcDbLine
 10
1251.383611074086
 20
1663.745872161066
 30
0.0
 11
1254.383611074086
 21
1663.745872161066
 31
0.0
  0
LINE
  5
BC67
330
18
100
AcDbEntity
  8
0
  6
BYBLOCK
100
AcDbLine
 10
1266.383611074086
 20
1664.549719731066
 30
0.0
 11
1269.383611074086
 21
1663.745872161066
 31
0.0
  0
LINE
  5
BC68
330
18
100
AcDbEntity
  8
0
  6
BYBLOCK
100
AcDbLine
 10
1269.383611074086
 20
1663.745872161066
 30
0.0
 11
1266.383611074086
 21
1662.942024591066
 31
0.0
  0
LINE
  5
BC69
330
18
100
AcDbEntity
  8
0
  6
BYBLOCK
100
AcDbLine
 10
1269.383611074086
 20
1663.745872161066
 30
0.0
 11
1266.383611074086
 21
1663.745872161066
 31
0.0
  0
TEXT
  5
BC6A
330
18
100
AcDbEntity
  8
1DIM
  6
CONTINUOUS
100
AcDbText
 10
1275.041944407419
 20
1670.2792054944
 30
0.0
 40
3.5
  1
扉厚さ
100
AcDbText
1001
ACAD
1000
DSTYLE
1002
{
1070
    40
1040
1.0
1070
    41
1040
3.0
1002
}
  0
TEXT
  5
BC6B
330
18
100
AcDbEntity
  8
1DIM
  6
CONTINUOUS
100
AcDbText
 10
1273.000277740753
 20
1664.445872161067
 30
0.0
 40
3.5
  1
18 以上
100
AcDbText
1001
ACAD
1000
DSTYLE
1002
{
1070
    40
1040
1.0
1070
    41
1040
3.0
1002
}
  0
LINE
  5
BC6C
330
18
100
AcDbEntity
  8
0
  6
BYBLOCK
100
AcDbLine
 10
964.9017160064623
 20
1714.745859082771
 30
0.0
 11
964.6337668164623
 21
1713.745859082771
 31
0.0
  0
LINE
  5
BC6D
330
18
100
AcDbEntity
  8
0
  6
BYBLOCK
100
AcDbLine
 10
964.6337668164623
 20
1713.745859082771
 30
0.0
 11
964.3658176264623
 21
1714.745859082771
 31
0.0
  0
LINE
  5
BC6E
330
18
100
AcDbEntity
  8
0
  6
BYBLOCK
100
AcDbLine
 10
964.6337668164623
 20
1713.745859082771
 30
0.0
 11
964.6337668164623
 21
1714.745859082771
 31
0.0
  0
LINE
  5
BC6F
330
18
100
AcDbEntity
  8
0
  6
BYBLOCK
100
AcDbLine
 10
964.3658176264623
 20
1718.245858848983
 30
0.0
 11
964.6337668164623
 21
1719.245858848983
 31
0.0
  0
LINE
  5
BC70
330
18
100
AcDbEntity
  8
0
  6
BYBLOCK
100
AcDbLine
 10
964.6337668164623
 20
1719.245858848983
 30
0.0
 11
964.9017160064623
 21
1718.245858848983
 31
0.0
  0
LINE
  5
BC71
330
18
100
AcDbEntity
  8
0
  6
BYBLOCK
100
AcDbLine
 10
964.6337668164623
 20
1719.245858848983
 30
0.0
 11
964.6337668164623
 21
1718.245858848983
 31
0.0
  0
TEXT
  5
BC72
330
18
100
AcDbEntity
  8
1DIM
  6
CONTINUOUS
100
AcDbText
 10
963.9337668164624
 20
1721.100372737872
 30
0.0
 40
3.5
  1
5.5
 50
90.0
100
AcDbText
1001
ACAD
1000
DSTYLE
1002
{
1070
   343
1005
42
1070
   344
1005
42
1002
}
  0
VIEWPORT
  5
57
330
15
100
AcDbEntity
 67
     1
  8
0
100
AcDbViewport
 68
     1
 10
0.0
 20
0.0
 30
0.0
 40
634.7234042553191
 41
297.0
 68
     1
 69
     1
1001
ACAD
1000
MVIEW
1002
{
1070
    16
1010
0.0
1020
0.0
1030
0.0
1010
0.0
1020
0.0
1030
1.0
1040
0.0
1040
297.0
1040
6.201614962323191
1040
10.41556075993131
1040
50.0
1040
0.0
1040
0.0
1070
    16
1070
  1000
1070
     0
1070
     1
1070
     0
1070
     0
1070
     0
1070
     0
1040
0.0
1040
0.0
1040
0.0
1040
10.0
1040
10.0
1040
10.0
1040
10.0
1070
     0
1002
{
1002
}
1002
}
  0
ENDSEC
  0
SECTION
  2
OBJECTS
  0
DICTIONARY
  5
C
330
0
100
AcDbDictionary
  3
ACAD_CIP_PREVIOUS_PRODUCT_INFO
350
9B6D
  3
ACAD_COLOR
350
2D0
  3
ACAD_GROUP
350
D
  3
ACAD_LAYOUT
350
2D1
  3
ACAD_MATERIAL
350
2CF
  3
ACAD_MLEADERSTYLE
350
9B4C
  3
ACAD_MLINESTYLE
350
1B
  3
ACAD_PLOTSETTINGS
350
2D2
  3
ACAD_SCALELIST
350
9B3A
  3
ACAD_VISUALSTYLE
350
9B21
  3
ACDBHEADERROUNDTRIPXREC
350
BC73
  3
ACDBVARIABLEDICTIONARY
350
37
  3
AEC_PROPERTY_SET_DEFS
350
9C9B
  3
CONTENTDICTIONARY
350
D8
  3
DRAWINGVARIABLESDICT
350
20
  3
DWGPROPS
350
BC76
1001
ACAD
1000
TREAT_AS_HARD
1070
     0
  0
DICTIONARY
  5
9B72
330
2
100
AcDbDictionary
  3
ACAD_LAYERSTATES
360
9B73
1001
ACAD
1000
TREAT_AS_HARD
1070
     1
  0
DICTIONARY
  5
9B7B
330
E
100
AcDbDictionary
  3
ADSK_XREC_LAYER_RECONCILED
360
9B7C
1001
ACAD
1000
TREAT_AS_HARD
1070
     1
  0
DICTIONARY
  5
9B7D
330
29
100
AcDbDictionary
  3
ADSK_XREC_LAYER_RECONCILED
360
9B7E
1001
ACAD
1000
TREAT_AS_HARD
1070
     1
  0
DICTIONARY
  5
9B7F
330
31
100
AcDbDictionary
  3
ADSK_XREC_LAYER_RECONCILED
360
9B80
1001
ACAD
1000
TREAT_AS_HARD
1070
     1
  0
DICTIONARY
  5
9B89
330
101
100
AcDbDictionary
  3
ADSK_XREC_LAYER_RECONCILED
360
9B8A
1001
ACAD
1000
TREAT_AS_HARD
1070
     1
  0
DICTIONARY
  5
9B8B
330
102
100
AcDbDictionary
  3
ADSK_XREC_LAYER_RECONCILED
360
9B8C
1001
ACAD
1000
TREAT_AS_HARD
1070
     1
  0
DICTIONARY
  5
9B8D
330
103
100
AcDbDictionary
  3
ADSK_XREC_LAYER_RECONCILED
360
9B8E
1001
ACAD
1000
TREAT_AS_HARD
1070
     1
  0
DICTIONARY
  5
9B91
330
25F
100
AcDbDictionary
  3
ADSK_XREC_LAYER_RECONCILED
360
9B92
1001
ACAD
1000
TREAT_AS_HARD
1070
     1
  0
DICTIONARY
  5
9BAD
330
26D
100
AcDbDictionary
  3
ADSK_XREC_LAYER_RECONCILED
360
9BAE
1001
ACAD
1000
TREAT_AS_HARD
1070
     1
  0
DICTIONARY
  5
510
330
18
100
AcDbDictionary
  3
ACAD_SORTENTS
360
511
1001
ACAD
1000
TREAT_AS_HARD
1070
     1
  0
XRECORD
  5
9B6D
102
{ACAD_REACTORS
330
C
102
}
330
C
100
AcDbXrecord
300
ACDLT
300
2012
300
ACDLT_F_S
  0
DICTIONARY
  5
2D0
102
{ACAD_REACTORS
330
C
102
}
330
C
100
AcDbDictionary
1001
ACAD
1000
TREAT_AS_HARD
1070
     0
  0
DICTIONARY
  5
D
102
{ACAD_REACTORS
330
C
102
}
330
C
100
AcDbDictionary
1001
ACAD
1000
TREAT_AS_HARD
1070
     0
  0
DICTIONARY
  5
2D1
102
{ACAD_REACTORS
330
C
102
}
330
C
100
AcDbDictionary
1001
ACAD
1000
TREAT_AS_HARD
1070
     0
  0
DICTIONARY
  5
2CF
102
{ACAD_REACTORS
330
C
102
}
330
C
100
AcDbDictionary
  3
BYBLOCK
350
9B11
  3
BYLAYER
350
9B09
  3
GLOBAL
350
9B19
1001
ACAD
1000
TREAT_AS_HARD
1070
     0
  0
DICTIONARY
  5
9B4C
102
{ACAD_REACTORS
330
C
102
}
330
C
100
AcDbDictionary
  3
STANDARD
350
9B4D
1001
ACAD
1000
TREAT_AS_HARD
1070
     0
  0
DICTIONARY
  5
1B
102
{ACAD_REACTORS
330
C
102
}
330
C
100
AcDbDictionary
  3
STANDARD
350
1C
1001
ACAD
1000
TREAT_AS_HARD
1070
     0
  0
DICTIONARY
  5
2D2
102
{ACAD_REACTORS
330
C
102
}
330
C
100
AcDbDictionary
1001
ACAD
1000
TREAT_AS_HARD
1070
     0
  0
DICTIONARY
  5
9B3A
102
{ACAD_REACTORS
330
C
102
}
330
C
100
AcDbDictionary
  3
*A1
350
9B5D
  3
*A10
350
9B68
  3
*A11
350
9B69
  3
*A12
350
9B6A
  3
*A13
350
9B6B
  3
*A14
350
9B6C
  3
*A15
350
9B5E
  3
*A16
350
9B5F
  3
*A2
350
9B60
  3
*A3
350
9B61
  3
*A4
350
9B62
  3
*A5
350
9B63
  3
*A6
350
9B64
  3
*A7
350
9B65
  3
*A8
350
9B66
  3
*A9
350
9B67
  3
A0
350
9B3B
  3
A1
350
9B3C
  3
A2
350
9B3D
  3
A3
350
9B3E
  3
A4
350
9B3F
  3
A5
350
9B40
  3
A6
350
9B41
  3
A7
350
9B42
  3
A8
350
9B43
  3
A9
350
9B44
  3
B0
350
9B45
  3
B1
350
9B46
  3
B2
350
9B47
  3
B3
350
9B48
  3
B4
350
9B49
  3
B5
350
9B4A
  3
B6
350
9B4B
1001
ACAD
1000
TREAT_AS_HARD
1070
     0
  0
DICTIONARY
  5
9B21
102
{ACAD_REACTORS
330
C
102
}
330
C
100
AcDbDictionary
  3
2DWIREFRAME
350
9B27
  3
3D_HIDDEN
350
9D62
  3
3DWIREFRAME
350
9D61
  3
BASIC
350
9B26
  3
BRIGHTEN
350
9B2D
  3
COLORCHANGE
350
9B31
  3
CONCEPTUAL
350
9B2A
  3
DIM
350
9B2C
  3
EDGECOLOROFF
350
9B39
  3
FACEPATTERN
350
9B30
  3
FLAT
350
9B22
  3
FLATWITHEDGES
350
9B23
  3
GOURAUD
350
9B24
  3
GOURAUDWITHEDGES
350
9B25
  3
HIDDEN
350
9B29
  3
JITTEROFF
350
9B37
  3
LINEPATTERN
350
9B2F
  3
MODELING
350
9D9D
  3
OVERHANGOFF
350
9B38
  3
REALISTIC
350
9B2B
  3
SHADED
350
9B36
  3
SHADED_WITH_EDGES
350
9B35
  3
SHADES_OF_GRAY
350
9B32
  3
SKETCHY
350
9B33
  3
THICKEN
350
9B2E
  3
WIREFRAME
350
9B28
  3
X-RAY
350
9B34
1001
ACAD
1000
TREAT_AS_HARD
1070
     0
  0
DICTIONARY
  5
BC73
102
{ACAD_REACTORS
330
C
102
}
330
C
100
AcDbDictionary
  3
COLORDICT
350
BC74
  3
MATERIALDICT
350
BC75
1001
ACAD
1000
TREAT_AS_HARD
1070
     0
  0
DICTIONARY
  5
37
102
{ACAD_REACTORS
330
C
102
}
330
C
100
AcDbDictionary
  3
CANNOSCALE
350
9C75
  3
CMLEADERSTYLE
350
9C74
  3
CTABLESTYLE
350
4FB
  3
DIMADEC
350
38
  3
DIMASSOC
350
408
  3
HIDETEXT
350
56F
  3
INTERSECTIONCOLOR
350
573
  3
INTERSECTIONDISPLAY
350
572
  3
MSLTSCALE
350
B70B
  3
OBSCOLOR
350
570
  3
OBSLTYPE
350
571
  3
PROJECTNAME
350
409
  3
XCLIPFRAME
350
9D9C
1001
ACAD
1000
TREAT_AS_HARD
1070
     0
  0
DICTIONARY
  5
9C9B
102
{ACAD_REACTORS
330
C
102
}
330
C
100
AcDbDictionary
1001
ACAD
1000
TREAT_AS_HARD
1070
     0
  0
DICTIONARY
  5
D8
102
{ACAD_REACTORS
330
C
102
}
330
C
100
AcDbDictionary
1001
CONTENTTABDATA
1070
    11
1000
Child
1000
D:\ACLT\TABset\CHILDREN.dwg
1070
     0
1070
     0
1070
     1
1000
PK
1000
D:\ACLT\TABset\PK.dwg
1070
     0
1070
     0
1070
     1
1000
Lev1
1000
D:\ACLT\TABset\Lever01.dwg
1070
     0
1070
     0
1070
     1
1000
Lev2
1000
D:\ACLT\TABset\Lever02.dwg
1070
     0
1070
     0
1070
     1
1000
L3
1000
D:\Aclt\TABset\Lever03.dwg
1070
     0
1070
     0
1070
     1
1000
Form
1000
D:\ACLT\FORMAT
1070
     1
1070
     0
1070
     1
1000
Jnt
1000
D:\ACLT\TABset\JOINTPARTS.dwg
1070
     0
1070
     0
1070
     1
1000
ISO
1000
D:\ACLT\TABset\Isome01.dwg
1070
     0
1070
     0
1070
     1
1000
R
1000
D:\ACLT\TABset\REGION.dwg
1070
     0
1070
     0
1070
     1
1000
std
1000
D:\ACLT\TABset\std_sym_all.dwg
1070
     0
1070
     0
1070
     1
1000
丸
1000
D:\Aclt\TABset\MARU.dwg
1070
     0
1070
     0
1070
     1
1001
CONTENTCURRENTTAB
1070
     0
1001
ACAD
1000
TREAT_AS_HARD
1070
     0
  0
DICTIONARY
  5
20
102
{ACAD_REACTORS
330
C
102
}
330
C
100
AcDbDictionary
1001
DRAWINGVARIABLESXDATA
1000
POLARANG
1000
0.261799387799149410000000
1000
POLARMODE
1000
1
1000
POLARSTYLE
1000
1
1001
ACAD
1000
TREAT_AS_HARD
1070
     0
  0
XRECORD
  5
BC76
102
{ACAD_REACTORS
330
C
102
}
330
C
100
AcDbXrecord
  1
DWGPROPS COOKIE
  2

  3

  4

  6

  7

  8
3684
  9

300
=
301
=
302
=
303
=
304
=
305
=
306
=
307
=
308
=
309
=
 40
0.0
 41
2453931.177584271
 42
2459391.081359028
  1

 90
        0
  0
DICTIONARY
  5
9B73
102
{ACAD_REACTORS
330
9B72
102
}
330
9B72
100
AcDbDictionary
1001
ACAD
1000
TREAT_AS_HARD
1070
     0
  0
ACAD_PROXY_OBJECT
  5
9B7C
102
{ACAD_REACTORS
330
9B7B
102
}
330
9B7B
100
AcDbZombieObject
 90
      499
 91
      515
 93
       34
310
40C8804040
  0
ACAD_PROXY_OBJECT
  5
9B7E
102
{ACAD_REACTORS
330
9B7D
102
}
330
9B7D
100
AcDbZombieObject
 90
      499
 91
      515
 93
       34
310
40C8804040
  0
ACAD_PROXY_OBJECT
  5
9B80
102
{ACAD_REACTORS
330
9B7F
102
}
330
9B7F
100
AcDbZombieObject
 90
      499
 91
      515
 93
       34
310
40C8804040
  0
ACAD_PROXY_OBJECT
  5
9B8A
102
{ACAD_REACTORS
330
9B89
102
}
330
9B89
100
AcDbZombieObject
 90
      499
 91
      515
 93
       34
310
40C8804040
  0
ACAD_PROXY_OBJECT
  5
9B8C
102
{ACAD_REACTORS
330
9B8B
102
}
330
9B8B
100
AcDbZombieObject
 90
      499
 91
      515
 93
       34
310
40C8804040
  0
ACAD_PROXY_OBJECT
  5
9B8E
102
{ACAD_REACTORS
330
9B8D
102
}
330
9B8D
100
AcDbZombieObject
 90
      499
 91
      515
 93
       34
310
40C8804040
  0
ACAD_PROXY_OBJECT
  5
9B92
102
{ACAD_REACTORS
330
9B91
102
}
330
9B91
100
AcDbZombieObject
 90
      499
 91
      515
 93
       34
310
40C8804040
  0
ACAD_PROXY_OBJECT
  5
9BAE
102
{ACAD_REACTORS
330
9BAD
102
}
330
9BAD
100
AcDbZombieObject
 90
      499
 91
      515
 93
       34
310
40C8804040
  0
SORTENTSTABLE
  5
511
102
{ACAD_REACTORS
330
510
102
}
330
510
100
AcDbSortentsTable
330
18
331
0
  5
670E
331
68F6
  5
6A27
331
6900
  5
6A28
331
6907
  5
6A2D
331
6908
  5
6A2E
331
6909
  5
6A2F
331
690A
  5
6A31
331
770F
  5
7711
331
7710
  5
7712
331
7711
  5
7716
331
7712
  5
7718
331
7716
  5
7719
331
7718
  5
771B
331
7719
  5
771C
331
771B
  5
771D
331
771C
  5
7722
331
771D
  5
7723
331
7722
  5
7724
331
7723
  5
7725
331
7724
  5
7726
331
7725
  5
7727
331
7726
  5
7728
331
772B
  5
772E
331
772D
  5
7731
331
772F
  5
7734
331
7730
  5
7735
331
7732
  5
7736
331
7733
  5
7737
331
7734
  5
7738
331
7735
  5
7739
331
7736
  5
773B
331
7737
  5
773C
331
7741
  5
774B
331
779D
  5
77A2
331
779E
  5
77A3
331
779F
  5
77A4
331
77A4
  5
77AA
331
77A6
  5
77AC
331
77A8
  5
77AF
331
77A9
  5
77B0
331
77AB
  5
77B1
331
77AC
  5
77B2
331
77AD
  5
77B4
331
77AE
  5
77B5
331
77B5
  5
77BE
331
77BD
  5
77D6
331
77BE
  5
77D7
331
77BF
  5
783D
331
77C0
  5
7841
331
7839
  5
7844
331
8A07
  5
8A14
331
8A08
  5
8A18
331
8A09
  5
8A19
331
8A0E
  5
8A1A
331
8A0F
  5
8A1B
331
8A10
  5
8A1D
331
8A11
  5
8A1E
331
8A12
  5
8A1F
331
8A13
  5
8A21
331
8A14
  5
8A22
331
8A15
  5
8A23
331
8A16
  5
8A25
331
8A17
  5
8A26
331
8A18
  5
8A34
331
8A19
  5
8A3E
331
8A29
  5
8A40
331
8A2A
  5
8A4C
331
8A2F
  5
8A77
331
8A30
  5
8A78
331
8A31
  5
8A7A
331
8A32
  5
8A7C
331
8A33
  5
8A88
331
8CD4
  5
7732
331
8CD5
  5
77AD
331
8CD8
  5
8A15
331
8CD9
  5
8A4B
331
8D54
  5
8A35
331
8D55
  5
8A3F
331
8D56
  5
8A24
331
8D57
  5
8A7D
331
8D58
  5
8A89
331
8D59
  5
8A79
331
8DCE
  5
8DD8
331
8DCF
  5
8DD9
331
8DD0
  5
8DE1
331
8DD1
  5
8DE2
331
8DD2
  5
8DE3
331
8DD4
  5
8DE6
331
8DD5
  5
8DE5
331
8DD7
  5
8DE8
331
8DD8
  5
8DED
331
8DD9
  5
8E91
331
8F53
  5
8A20
331
8F54
  5
8A1C
331
90DA
  5
8D6A
331
90DB
  5
8D6C
331
90DC
  5
8D72
331
90DE
  5
90E1
331
90E0
  5
90E2
331
90E1
  5
90E3
331
90E2
  5
90E4
331
90E3
  5
90E5
331
90E4
  5
90E6
331
90E5
  5
90E7
331
90E6
  5
90E8
331
90E7
  5
90E9
331
90E8
  5
90EB
331
90EF
  5
90F2
331
90F1
  5
9122
331
90F4
  5
9121
331
9122
  5
7710
331
0
  5
916B
331
0
  5
9178
331
0
  5
918F
331
0
  5
9190
331
0
  5
9191
331
0
  5
9192
331
919B
  5
9131
331
919C
  5
9130
331
919E
  5
B899
331
91A0
  5
B89A
331
91A1
  5
B89B
331
0
  5
91C5
331
0
  5
91D2
331
0
  5
91DF
331
0
  5
91E0
331
91E9
  5
BA6D
331
91EA
  5
BA6E
331
91EB
  5
BA80
331
91EC
  5
BAFF
331
91ED
  5
BB01
331
91EE
  5
BB03
331
91EF
  5
BB04
331
91F0
  5
BB07
331
91F1
  5
BB08
331
91F2
  5
BB09
331
91F3
  5
BB0D
331
91F4
  5
BB0E
331
931B
  5
BB3A
331
931F
  5
BB3B
331
9320
  5
BB3C
331
9321
  5
BB3D
331
9322
  5
BB3E
331
9323
  5
BB3F
331
9328
  5
BB5E
331
9329
  5
BB5F
331
932A
  5
BB60
331
932B
  5
BB61
331
932C
  5
BB62
331
932D
  5
BB63
331
939D
  5
BB64
331
93B6
  5
BB65
331
93B7
  5
BB66
331
93B8
  5
BB67
331
9840
  5
BB68
331
985A
  5
BB69
331
985C
  5
BB6A
331
985D
  5
BB6B
331
985E
  5
BB6C
331
985F
  5
BB6D
331
9860
  5
BB6E
331
9861
  5
BB6F
331
9862
  5
BB70
331
9863
  5
BB71
331
9865
  5
BB72
331
9866
  5
BB73
331
9867
  5
BB74
331
9868
  5
BB75
331
9869
  5
BB76
331
986A
  5
BB77
331
987A
  5
BB78
331
0
  5
BB79
331
9AF9
  5
BBA8
331
9AFA
  5
BBA9
331
9AFB
  5
BBAA
331
9AFD
  5
BBAB
331
9C9D
  5
BBAC
331
9C9E
  5
BBAD
331
9C9F
  5
BBB1
331
B61F
  5
BBB2
331
B628
  5
BBB3
331
B629
  5
BBB4
331
B63A
  5
BBB5
331
B63D
  5
BBB6
331
B63E
  5
BBB7
331
B63F
  5
BBB8
331
B649
  5
BBB9
331
B64A
  5
BBBA
331
B659
  5
BBBB
331
B65A
  5
BBBC
331
B65B
  5
BBBD
331
B80E
  5
BBCF
331
B80F
  5
BBD0
331
B810
  5
BBD1
331
B811
  5
BBD2
331
B812
  5
BBD3
331
B813
  5
BBD4
331
B814
  5
BBD5
331
B815
  5
BBD6
331
B816
  5
BBD7
331
B817
  5
BBD8
331
B818
  5
BBD9
331
B819
  5
BBDA
331
B81A
  5
BBDB
331
B81B
  5
BBDC
331
B81C
  5
BBDD
331
B81D
  5
BBDE
331
B81E
  5
BBDF
331
B81F
  5
BBE0
331
B820
  5
BBE1
331
B821
  5
BBE2
331
B822
  5
BBE3
331
B823
  5
BBE4
331
B824
  5
BBE5
331
B825
  5
BBE6
331
B826
  5
BBE7
331
B827
  5
BBE8
331
B828
  5
BBE9
331
B829
  5
BBEA
331
B82A
  5
BBEB
331
B82B
  5
BBEC
331
B82C
  5
BBED
331
B82D
  5
BBEE
331
B82E
  5
BBEF
331
B899
  5
BBF0
331
B89A
  5
BBF1
331
B89B
  5
BBF2
331
B89C
  5
BBF3
331
B89D
  5
BBF4
331
B89E
  5
BBF5
331
B89F
  5
BBF6
331
B8A0
  5
BBF7
331
B8A1
  5
BBF8
331
B8A2
  5
BBF9
331
B8A3
  5
BBFA
331
B8A4
  5
BBFB
331
B8A5
  5
BBFC
331
B8A6
  5
BBFD
331
B8A7
  5
BBFE
331
B8A8
  5
BBFF
331
B8A9
  5
BC00
331
B8AA
  5
BC01
331
B8AB
  5
BC02
331
B8AC
  5
BC03
331
B8AD
  5
BC04
331
B8AE
  5
BC05
331
B8AF
  5
BC06
331
B8B0
  5
BC07
331
B8B1
  5
BC08
331
B8B2
  5
BC09
331
B8B3
  5
BC0A
331
B8B4
  5
BC0B
331
B8B5
  5
BC0C
331
B8B8
  5
BC0D
331
B8B9
  5
BC0E
331
B8BA
  5
BC0F
331
B8BB
  5
BC10
331
B8C1
  5
BC3B
331
B8C2
  5
BC3C
331
B8C3
  5
BC3D
331
B8C5
  5
BC48
331
B8C6
  5
BC49
331
B8C7
  5
BC4A
331
B8C8
  5
BC4B
331
B8C9
  5
BC4C
331
B965
  5
BC59
331
BA63
  5
BC5A
331
BA64
  5
BC5B
331
BA65
  5
BC5C
331
BA66
  5
BC5D
331
BA67
  5
BC5E
331
BA68
  5
BC5F
331
BA69
  5
BC60
331
BA6A
  5
BC61
331
BA6B
  5
BC62
331
BA6C
  5
BC63
331
BA6D
  5
BC64
331
BA6E
  5
BC65
331
BA7F
  5
BC71
331
BA80
  5
BC72
331
BAFD
  5
91A1
331
BAFE
  5
91A2
331
BAFF
  5
91B8
331
0
  5
91E9
331
0
  5
91EA
331
0
  5
91EB
331
BB03
  5
9322
331
BB04
  5
9323
331
BB05
  5
932B
331
0
  5
91EF
331
0
  5
91F0
331
0
  5
91F1
331
BB09
  5
9861
331
BB0A
  5
9862
331
BB0B
  5
9863
331
0
  5
931B
331
0
  5
931F
331
0
  5
9320
331
BB0F
  5
9C9E
331
BB10
  5
9C9F
331
BB11
  5
B63A
331
0
  5
9328
331
0
  5
9329
331
0
  5
932A
331
BB15
  5
B810
331
BB16
  5
B811
331
BB17
  5
B812
331
0
  5
939D
331
0
  5
93B6
331
0
  5
93B7
331
BB1B
  5
B81D
331
BB1C
  5
B81E
331
BB1D
  5
B81F
331
BB1E
  5
B824
331
BB1F
  5
B825
331
0
  5
985E
331
0
  5
985F
331
0
  5
9860
331
BB23
  5
B89C
331
BB24
  5
B89D
331
BB25
  5
B89E
331
0
  5
9868
331
0
  5
9869
331
0
  5
986A
331
BB29
  5
B8AC
331
BB2A
  5
B8AD
331
BB2B
  5
B8B1
331
0
  5
9AFA
331
0
  5
9AFB
331
0
  5
9AFD
331
BB2F
  5
B8BB
331
BB30
  5
B8C1
331
BB31
  5
B8C2
331
0
  5
B61F
331
0
  5
B628
331
0
  5
B629
331
BB35
  5
BA63
331
BB36
  5
BA64
331
BB37
  5
BA65
331
0
  5
B63F
331
0
  5
B649
331
0
  5
B64A
331
BB3B
  5
BB0F
331
BB3C
  5
BB13
331
BB3D
  5
BB14
331
0
  5
B81A
331
0
  5
B81B
331
0
  5
B81C
331
BB41
  5
BB1C
331
BB42
  5
BB1D
331
BB43
  5
BB1E
331
0
  5
B820
331
0
  5
B821
331
0
  5
B822
331
0
  5
B823
331
BB48
  5
BB2A
331
BB49
  5
BB2B
331
BB4A
  5
BB2C
331
0
  5
B827
331
BB4C
  5
BB31
331
BB4D
  5
BB32
331
BB4E
  5
BB33
331
0
  5
B82B
331
BB50
  5
BB37
331
BB51
  5
BB38
331
BB52
  5
BB39
331
BB53
  5
BB40
331
BB54
  5
BB41
331
BB55
  5
BB42
331
0
  5
B8A2
331
0
  5
B8A3
331
0
  5
B8A4
331
BB59
  5
BB4A
331
BB5A
  5
BB4B
331
BB5B
  5
BB4C
331
0
  5
B8A8
331
0
  5
B8A9
331
0
  5
B8AA
331
BB5F
  5
BB54
331
BB60
  5
BB55
331
BB61
  5
BB56
331
0
  5
B8AE
331
0
  5
B8AF
331
0
  5
B8B0
331
BB65
  5
BB7A
331
BB66
  5
BB7B
331
0
  5
BA7F
331
BB68
  5
BB7E
331
0
  5
BAFD
331
0
  5
BAFE
331
BB6B
  5
BB85
331
0
  5
BB00
331
BB6D
  5
BB87
331
0
  5
BB02
331
BB6F
  5
BB8B
331
BB70
  5
BB8C
331
0
  5
BB05
331
0
  5
BB06
331
BB73
  5
BB91
331
BB74
  5
BB92
331
BB75
  5
BB93
331
0
  5
BB0A
331
0
  5
BB0B
331
0
  5
BB0C
331
BB79
  5
BB9B
331
BB7A
  5
BB9C
331
BB7B
  5
BB9D
331
0
  5
BB10
331
0
  5
BB11
331
0
  5
BB12
331
BB7F
  5
BBBE
331
BB80
  5
BBBF
331
0
  5
BB28
331
BB82
  5
BBC6
331
BB83
  5
BBC7
331
BB84
  5
BBC8
331
BB85
  5
BBC9
331
0
  5
BB2D
331
BB87
  5
BBCD
331
BB88
  5
BBCE
331
BB89
  5
BC11
331
BB8A
  5
BC12
331
BB8B
  5
BC13
331
BB8C
  5
BC14
331
BB8D
  5
BC15
331
BB8E
  5
BC16
331
BB8F
  5
BC17
331
BB90
  5
BC18
331
BB91
  5
BC19
331
BB92
  5
BC1A
331
BB93
  5
BC1B
331
BB94
  5
BC1C
331
BB95
  5
BC1D
331
BB96
  5
BC1E
331
BB97
  5
BC1F
331
BB98
  5
BC20
331
BB99
  5
BC21
331
BB9A
  5
BC22
331
BB9B
  5
BC23
331
BB9C
  5
BC24
331
BB9D
  5
BC25
331
BB9E
  5
BC26
331
BB9F
  5
BC27
331
BBA0
  5
BC28
331
BBA1
  5
BC29
331
BBA2
  5
BC2A
331
BBA3
  5
BC2B
331
BBA4
  5
BC2C
331
BBA5
  5
BC2D
331
BBA6
  5
BC2E
331
BBA7
  5
BC2F
331
BBA8
  5
BC30
331
BBA9
  5
BC31
331
BBAA
  5
BC32
331
BBAB
  5
BC33
331
BBAC
  5
BC34
331
BBAD
  5
BC35
331
BBAE
  5
BC36
331
BBAF
  5
BC37
331
BBB0
  5
BC38
331
BBB1
  5
BC39
331
BBB2
  5
BC3A
331
BBB3
  5
BC3E
331
BBB4
  5
BC3F
331
BBB5
  5
BC40
331
0
  5
BBA2
331
0
  5
BBA3
331
0
  5
BBA4
331
BBB9
  5
BC4D
331
BBBA
  5
BC4E
331
BBBB
  5
BC4F
331
BBBC
  5
BC50
331
0
  5
BBAE
331
0
  5
BBAF
331
0
  5
BBB0
331
BBC0
  5
BC66
331
BBC1
  5
BC67
331
BBC2
  5
BC68
331
BBC3
  5
BC69
331
0
  5
BBC2
331
0
  5
BBC3
331
0
  5
BBC4
331
BBC7
  5
91EC
331
BBC8
  5
91ED
331
BBC9
  5
91EE
331
BBCA
  5
91F2
331
BBCB
  5
91F3
331
BBCC
  5
91F4
331
BBCD
  5
9321
331
BBCE
  5
932C
331
BBCF
  5
932D
331
BBD0
  5
93B8
331
BBD1
  5
9840
331
BBD2
  5
985A
331
BBD3
  5
985C
331
BBD4
  5
985D
331
BBD5
  5
9865
331
BBD6
  5
9866
331
BBD7
  5
9867
331
BBD8
  5
987A
331
BBD9
  5
9887
331
BBDA
  5
9AF9
331
BBDB
  5
9C9D
331
BBDC
  5
B63D
331
BBDD
  5
B63E
331
BBDE
  5
B659
331
BBDF
  5
B65A
331
BBE0
  5
B65B
331
BBE1
  5
B80E
331
BBE2
  5
B80F
331
BBE3
  5
B813
331
BBE4
  5
B814
331
BBE5
  5
B815
331
BBE6
  5
B816
331
BBE7
  5
B817
331
BBE8
  5
B818
331
BBE9
  5
B819
331
BBEA
  5
B826
331
BBEB
  5
B828
331
BBEC
  5
B829
331
BBED
  5
B82A
331
BBEE
  5
B82C
331
BBEF
  5
B82D
331
BBF0
  5
B82E
331
BBF1
  5
B89F
331
BBF2
  5
B8A0
331
BBF3
  5
B8A1
331
BBF4
  5
B8A5
331
BBF5
  5
B8A6
331
BBF6
  5
B8A7
331
BBF7
  5
B8AB
331
BBF8
  5
B8B2
331
BBF9
  5
B8B3
331
BBFA
  5
B8B4
331
BBFB
  5
B8B5
331
BBFC
  5
B8B8
331
BBFD
  5
B8B9
331
BBFE
  5
B8BA
331
BBFF
  5
B8C3
331
BC00
  5
B8C5
331
BC01
  5
B8C6
331
BC02
  5
B8C7
331
BC03
  5
B8C8
331
BC04
  5
B8C9
331
BC05
  5
B965
331
BC06
  5
BA66
331
BC07
  5
BA67
331
BC08
  5
BA68
331
BC09
  5
BA69
331
BC0A
  5
BA6A
331
BC0B
  5
BA6B
331
BC0C
  5
BA6C
331
BC0D
  5
BB15
331
BC0E
  5
BB16
331
BC0F
  5
BB17
331
BC10
  5
BB18
331
BC11
  5
BB19
331
BC12
  5
BB1A
331
BC13
  5
BB1B
331
BC14
  5
BB1F
331
BC15
  5
BB20
331
BC16
  5
BB21
331
BC17
  5
BB22
331
BC18
  5
BB23
331
BC19
  5
BB24
331
BC1A
  5
BB25
331
BC1B
  5
BB26
331
BC1C
  5
BB27
331
BC1D
  5
BB29
331
BC1E
  5
BB2E
331
BC1F
  5
BB2F
331
BC20
  5
BB30
331
BC21
  5
BB34
331
BC22
  5
BB35
331
BC23
  5
BB36
331
BC24
  5
BB43
331
BC25
  5
BB44
331
BC26
  5
BB45
331
BC27
  5
BB46
331
BC28
  5
BB47
331
BC29
  5
BB48
331
BC2A
  5
BB49
331
BC2B
  5
BB4D
331
BC2C
  5
BB4E
331
BC2D
  5
BB4F
331
BC2E
  5
BB50
331
BC2F
  5
BB51
331
BC30
  5
BB52
331
BC31
  5
BB53
331
BC32
  5
BB57
331
BC33
  5
BB58
331
BC34
  5
BB59
331
BC35
  5
BB5A
331
BC36
  5
BB5B
331
BC37
  5
BB5C
331
BC38
  5
BB5D
331
BC39
  5
BB7C
331
BC3A
  5
BB7D
331
BC3B
  5
BB7F
331
BC3C
  5
BB80
331
BC3D
  5
BB81
331
BC3E
  5
BB82
331
BC3F
  5
BB83
331
BC40
  5
BB84
331
BC41
  5
BB86
331
BC42
  5
BB88
331
BC43
  5
BB89
331
BC44
  5
BB8A
331
BC45
  5
BB8D
331
BC46
  5
BB8E
331
BC47
  5
BB8F
331
BC48
  5
BB90
331
BC49
  5
BB94
331
BC4A
  5
BB95
331
BC4B
  5
BB96
331
BC4C
  5
BB97
331
BC4D
  5
BB98
331
BC4E
  5
BB99
331
BC4F
  5
BB9A
331
BC50
  5
BB9E
331
BC51
  5
BB9F
331
BC52
  5
BBA0
331
BC53
  5
BBA1
331
BC54
  5
BBA5
331
BC55
  5
BBA6
331
BC56
  5
BBA7
331
BC57
  5
BBC0
331
BC58
  5
BBC1
331
BC59
  5
BBC5
331
BC5A
  5
BBCA
331
BC5B
  5
BBCB
331
BC5C
  5
BBCC
331
BC5D
  5
BC41
331
BC5E
  5
BC42
331
BC5F
  5
BC43
331
BC60
  5
BC44
331
BC61
  5
BC45
331
BC62
  5
BC46
331
BC63
  5
BC47
331
BC64
  5
BC51
331
BC65
  5
BC52
331
BC66
  5
BC53
331
BC67
  5
BC54
331
BC68
  5
BC55
331
BC69
  5
BC56
331
BC6A
  5
BC57
331
BC6B
  5
BC58
331
BC6C
  5
BC6A
331
BC6D
  5
BC6B
331
BC6E
  5
BC6C
331
BC6F
  5
BC6D
331
BC70
  5
BC6E
331
BC71
  5
BC6F
331
BC72
  5
BC70
  0
MATERIAL
  5
9B11
102
{ACAD_REACTORS
330
2CF
102
}
102
{ACAD_XDICTIONARY
360
BE13
102
}
330
2CF
100
AcDbMaterial
  1
BYBLOCK
 72
     0
 73
     2
 43
0.0208333333333333
 43
0.0
 43
0.0
 43
0.0
 43
0.0
 43
0.0208333333333333
 43
0.0
 43
0.0
 43
0.0
 43
0.0
 43
1.0
 43
0.0
 43
0.0
 43
0.0
 43
0.0
 43
1.0
 77
     0
 78
     2
 47
0.0208333333333333
 47
0.0
 47
0.0
 47
0.0
 47
0.0
 47
0.0208333333333333
 47
0.0
 47
0.0
 47
0.0
 47
0.0
 47
1.0
 47
0.0
 47
0.0
 47
0.0
 47
0.0
 47
1.0
171
     0
172
     2
 49
0.0208333333333333
 49
0.0
 49
0.0
 49
0.0
 49
0.0
 49
0.0208333333333333
 49
0.0
 49
0.0
 49
0.0
 49
0.0
 49
1.0
 49
0.0
 49
0.0
 49
0.0
 49
0.0
 49
1.0
175
     0
176
     2
142
0.0208333333333333
142
0.0
142
0.0
142
0.0
142
0.0
142
0.0208333333333333
142
0.0
142
0.0
142
0.0
142
0.0
142
1.0
142
0.0
142
0.0
142
0.0
142
0.0
142
1.0
179
     0
270
     2
144
0.0208333333333333
144
0.0
144
0.0
144
0.0
144
0.0
144
0.0208333333333333
144
0.0
144
0.0
144
0.0
144
0.0
144
1.0
144
0.0
144
0.0
144
0.0
144
0.0
144
1.0
274
     2
147
0.0208333333333333
147
0.0
147
0.0
147
0.0
147
0.0
147
0.0208333333333333
147
0.0
147
0.0
147
0.0
147
0.0
147
1.0
147
0.0
147
0.0
147
0.0
147
0.0
147
1.0
  0
MATERIAL
  5
9B09
102
{ACAD_REACTORS
330
2CF
102
}
102
{ACAD_XDICTIONARY
360
BE15
102
}
330
2CF
100
AcDbMaterial
  1
BYLAYER
 72
     0
 73
     2
 43
0.0208333333333333
 43
0.0
 43
0.0
 43
0.0
 43
0.0
 43
0.0208333333333333
 43
0.0
 43
0.0
 43
0.0
 43
0.0
 43
1.0
 43
0.0
 43
0.0
 43
0.0
 43
0.0
 43
1.0
 77
     0
 78
     2
 47
0.0208333333333333
 47
0.0
 47
0.0
 47
0.0
 47
0.0
 47
0.0208333333333333
 47
0.0
 47
0.0
 47
0.0
 47
0.0
 47
1.0
 47
0.0
 47
0.0
 47
0.0
 47
0.0
 47
1.0
171
     0
172
     2
 49
0.0208333333333333
 49
0.0
 49
0.0
 49
0.0
 49
0.0
 49
0.0208333333333333
 49
0.0
 49
0.0
 49
0.0
 49
0.0
 49
1.0
 49
0.0
 49
0.0
 49
0.0
 49
0.0
 49
1.0
175
     0
176
     2
142
0.0208333333333333
142
0.0
142
0.0
142
0.0
142
0.0
142
0.0208333333333333
142
0.0
142
0.0
142
0.0
142
0.0
142
1.0
142
0.0
142
0.0
142
0.0
142
0.0
142
1.0
179
     0
270
     2
144
0.0208333333333333
144
0.0
144
0.0
144
0.0
144
0.0
144
0.0208333333333333
144
0.0
144
0.0
144
0.0
144
0.0
144
1.0
144
0.0
144
0.0
144
0.0
144
0.0
144
1.0
274
     2
147
0.0208333333333333
147
0.0
147
0.0
147
0.0
147
0.0
147
0.0208333333333333
147
0.0
147
0.0
147
0.0
147
0.0
147
1.0
147
0.0
147
0.0
147
0.0
147
0.0
147
1.0
  0
MATERIAL
  5
9B19
102
{ACAD_REACTORS
330
2CF
102
}
102
{ACAD_XDICTIONARY
360
BE17
102
}
330
2CF
100
AcDbMaterial
  1
GLOBAL
 72
     0
 73
     2
 43
0.0208333333333333
 43
0.0
 43
0.0
 43
0.0
 43
0.0
 43
0.0208333333333333
 43
0.0
 43
0.0
 43
0.0
 43
0.0
 43
1.0
 43
0.0
 43
0.0
 43
0.0
 43
0.0
 43
1.0
 77
     0
 78
     2
 47
0.0208333333333333
 47
0.0
 47
0.0
 47
0.0
 47
0.0
 47
0.0208333333333333
 47
0.0
 47
0.0
 47
0.0
 47
0.0
 47
1.0
 47
0.0
 47
0.0
 47
0.0
 47
0.0
 47
1.0
171
     0
172
     2
 49
0.0208333333333333
 49
0.0
 49
0.0
 49
0.0
 49
0.0
 49
0.0208333333333333
 49
0.0
 49
0.0
 49
0.0
 49
0.0
 49
1.0
 49
0.0
 49
0.0
 49
0.0
 49
0.0
 49
1.0
175
     0
176
     2
142
0.0208333333333333
142
0.0
142
0.0
142
0.0
142
0.0
142
0.0208333333333333
142
0.0
142
0.0
142
0.0
142
0.0
142
1.0
142
0.0
142
0.0
142
0.0
142
0.0
142
1.0
179
     0
270
     2
144
0.0208333333333333
144
0.0
144
0.0
144
0.0
144
0.0
144
0.0208333333333333
144
0.0
144
0.0
144
0.0
144
0.0
144
1.0
144
0.0
144
0.0
144
0.0
144
0.0
144
1.0
274
     2
147
0.0208333333333333
147
0.0
147
0.0
147
0.0
147
0.0
147
0.0208333333333333
147
0.0
147
0.0
147
0.0
147
0.0
147
1.0
147
0.0
147
0.0
147
0.0
147
0.0
147
1.0
  0
ACAD_PROXY_OBJECT
  5
9B4D
102
{ACAD_REACTORS
330
9B4C
102
}
330
9B4C
100
AcDbZombieObject
 90
      499
 91
      512
 93
      610
310
40901902A4063FBFFFFFE000000000000002040AD7A3703D0AD73F4214DD185B99185C990000000000000104090141901A00000000000004100000000000000041025764000000000000300FC0
340
12
340
0
340
F
340
0
 94
        0
1001
ACAD_MLEADERVER
1070
     2
  0
MLINESTYLE
  5
1C
102
{ACAD_REACTORS
330
1B
102
}
330
1B
100
AcDbMlineStyle
  2
STANDARD
 70
     0
  3

 62
   256
 51
90.0
 52
90.0
 71
     2
 49
0.5
 62
   256
  6
BYLAYER
 49
-0.5
 62
   256
  6
BYLAYER
  0
ACAD_PROXY_OBJECT
  5
9B5D
102
{ACAD_REACTORS
330
9B3A
102
}
330
9B3A
100
AcDbZombieObject
 90
      499
 91
      511
 93
      297
310
913312F31323822203D2031272D30225F58524546000000000000200FC000000000000284000
  0
ACAD_PROXY_OBJECT
  5
9B68
102
{ACAD_REACTORS
330
9B3A
102
}
330
9B3A
100
AcDbZombieObject
 90
      499
 91
      511
 93
      201
310
90F3122203D2031272D30225F585245464000000000000284000
  0
ACAD_PROXY_OBJECT
  5
9B69
102
{ACAD_REACTORS
330
9B3A
102
}
330
9B3A
100
AcDbZombieObject
 90
      499
 91
      511
 93
      297
310
913312D312F3222203D2031272D30225F585245460000000000003E0FC000000000000284000
  0
ACAD_PROXY_OBJECT
  5
9B6A
102
{ACAD_REACTORS
330
9B3A
102
}
330
9B3A
100
AcDbZombieObject
 90
      499
 91
      511
 93
      265
310
90F3322203D2031272D30225F5852454600000000000002100000000000000284000
  0
ACAD_PROXY_OBJECT
  5
9B6B
102
{ACAD_REACTORS
330
9B3A
102
}
330
9B3A
100
AcDbZombieObject
 90
      499
 91
      511
 93
      265
310
90F3622203D2031272D30225F5852454600000000000006100000000000000284000
  0
ACAD_PROXY_OBJECT
  5
9B6C
102
{ACAD_REACTORS
330
9B3A
102
}
330
9B3A
100
AcDbZombieObject
 90
      499
 91
      511
 93
      289
310
91231272D3022203D2031272D30225F585245460000000000000A100000000000000284000
  0
ACAD_PROXY_OBJECT
  5
9B5E
102
{ACAD_REACTORS
330
9B3A
102
}
330
9B3A
100
AcDbZombieObject
 90
      499
 91
      511
 93
      289
310
912312F363422203D2031272D30225F58524546000000000000240FC000000000000284000
  0
ACAD_PROXY_OBJECT
  5
9B5F
102
{ACAD_REACTORS
330
9B3A
102
}
330
9B3A
100
AcDbZombieObject
 90
      499
 91
      511
 93
      289
310
912312F333222203D2031272D30225F58524546000000000000280FC000000000000284000
  0
ACAD_PROXY_OBJECT
  5
9B60
102
{ACAD_REACTORS
330
9B3A
102
}
330
9B3A
100
AcDbZombieObject
 90
      499
 91
      511
 93
      289
310
912312F313622203D2031272D30225F585245460000000000002C0FC000000000000284000
  0
ACAD_PROXY_OBJECT
  5
9B61
102
{ACAD_REACTORS
330
9B3A
102
}
330
9B3A
100
AcDbZombieObject
 90
      499
 91
      511
 93
      289
310
912332F333222203D2031272D30225F585245460000000000002E0FC000000000000284000
  0
ACAD_PROXY_OBJECT
  5
9B62
102
{ACAD_REACTORS
330
9B3A
102
}
330
9B3A
100
AcDbZombieObject
 90
      499
 91
      511
 93
      281
310
911312F3822203D2031272D30225F58524546000000000000300FC000000000000284000
  0
ACAD_PROXY_OBJECT
  5
9B63
102
{ACAD_REACTORS
330
9B3A
102
}
330
9B3A
100
AcDbZombieObject
 90
      499
 91
      511
 93
      289
310
912332F313622203D2031272D30225F58524546000000000000320FC000000000000284000
  0
ACAD_PROXY_OBJECT
  5
9B64
102
{ACAD_REACTORS
330
9B3A
102
}
330
9B3A
100
AcDbZombieObject
 90
      499
 91
      511
 93
      281
310
911312F3422203D2031272D30225F58524546000000000000340FC000000000000284000
  0
ACAD_PROXY_OBJECT
  5
9B65
102
{ACAD_REACTORS
330
9B3A
102
}
330
9B3A
100
AcDbZombieObject
 90
      499
 91
      511
 93
      281
310
911332F3822203D2031272D30225F58524546000000000000360FC000000000000284000
  0
ACAD_PROXY_OBJECT
  5
9B66
102
{ACAD_REACTORS
330
9B3A
102
}
330
9B3A
100
AcDbZombieObject
 90
      499
 91
      511
 93
      281
310
911312F3222203D2031272D30225F58524546000000000000380FC000000000000284000
  0
ACAD_PROXY_OBJECT
  5
9B67
102
{ACAD_REACTORS
330
9B3A
102
}
330
9B3A
100
AcDbZombieObject
 90
      499
 91
      511
 93
      281
310
911332F3422203D2031272D30225F585245460000000000003A0FC000000000000284000
  0
ACAD_PROXY_OBJECT
  5
9B3B
102
{ACAD_REACTORS
330
9B3A
102
}
330
9B3A
100
AcDbZombieObject
 90
      499
 91
      511
 93
       41
310
903313A31580
  0
ACAD_PROXY_OBJECT
  5
9B3C
102
{ACAD_REACTORS
330
9B3A
102
}
330
9B3A
100
AcDbZombieObject
 90
      499
 91
      511
 93
      105
310
903313A324000000000000004000
  0
ACAD_PROXY_OBJECT
  5
9B3D
102
{ACAD_REACTORS
330
9B3A
102
}
330
9B3A
100
AcDbZombieObject
 90
      499
 91
      511
 93
      105
310
903313A344000000000000104000
  0
ACAD_PROXY_OBJECT
  5
9B3E
102
{ACAD_REACTORS
330
9B3A
102
}
330
9B3A
100
AcDbZombieObject
 90
      499
 91
      511
 93
      105
310
903313A354000000000000144000
  0
ACAD_PROXY_OBJECT
  5
9B3F
102
{ACAD_REACTORS
330
9B3A
102
}
330
9B3A
100
AcDbZombieObject
 90
      499
 91
      511
 93
      105
310
903313A384000000000000204000
  0
ACAD_PROXY_OBJECT
  5
9B40
102
{ACAD_REACTORS
330
9B3A
102
}
330
9B3A
100
AcDbZombieObject
 90
      499
 91
      511
 93
      113
310
904313A31304000000000000244000
  0
ACAD_PROXY_OBJECT
  5
9B41
102
{ACAD_REACTORS
330
9B3A
102
}
330
9B3A
100
AcDbZombieObject
 90
      499
 91
      511
 93
      113
310
904313A31364000000000000304000
  0
ACAD_PROXY_OBJECT
  5
9B42
102
{ACAD_REACTORS
330
9B3A
102
}
330
9B3A
100
AcDbZombieObject
 90
      499
 91
      511
 93
      113
310
904313A32304000000000000344000
  0
ACAD_PROXY_OBJECT
  5
9B43
102
{ACAD_REACTORS
330
9B3A
102
}
330
9B3A
100
AcDbZombieObject
 90
      499
 91
      511
 93
      113
310
904313A333040000000000003E4000
  0
ACAD_PROXY_OBJECT
  5
9B44
102
{ACAD_REACTORS
330
9B3A
102
}
330
9B3A
100
AcDbZombieObject
 90
      499
 91
      511
 93
      113
310
904313A34304000000000000444000
  0
ACAD_PROXY_OBJECT
  5
9B45
102
{ACAD_REACTORS
330
9B3A
102
}
330
9B3A
100
AcDbZombieObject
 90
      499
 91
      511
 93
      113
310
904313A35304000000000000494000
  0
ACAD_PROXY_OBJECT
  5
9B46
102
{ACAD_REACTORS
330
9B3A
102
}
330
9B3A
100
AcDbZombieObject
 90
      499
 91
      511
 93
      121
310
905313A3130304000000000000594000
  0
ACAD_PROXY_OBJECT
  5
9B47
102
{ACAD_REACTORS
330
9B3A
102
}
330
9B3A
100
AcDbZombieObject
 90
      499
 91
      511
 93
      105
310
903323A310000000000000010100
  0
ACAD_PROXY_OBJECT
  5
9B48
102
{ACAD_REACTORS
330
9B3A
102
}
330
9B3A
100
AcDbZombieObject
 90
      499
 91
      511
 93
      105
310
903343A310000000000000410100
  0
ACAD_PROXY_OBJECT
  5
9B49
102
{ACAD_REACTORS
330
9B3A
102
}
330
9B3A
100
AcDbZombieObject
 90
      499
 91
      511
 93
      105
310
903383A310000000000000810100
  0
ACAD_PROXY_OBJECT
  5
9B4A
102
{ACAD_REACTORS
330
9B3A
102
}
330
9B3A
100
AcDbZombieObject
 90
      499
 91
      511
 93
      113
310
90431303A310000000000000910100
  0
ACAD_PROXY_OBJECT
  5
9B4B
102
{ACAD_REACTORS
330
9B3A
102
}
330
9B3A
100
AcDbZombieObject
 90
      499
 91
      511
 93
      121
310
9053130303A310000000000001650100
  0
ACAD_PROXY_OBJECT
  5
9B27
102
{ACAD_REACTORS
330
9B21
102
}
330
9B21
100
AcDbZombieObject
 90
      499
 91
      510
 93
      436
310
42CC9915DA5C99599C985B595049028333333333333E3BF0000000000000FB0107901411070040501600405405064090741402480A0340
1001
ACAD
1000
AcDbSavedByObjectVersion
1070
     0
  0
ACAD_PROXY_OBJECT
  5
9D62
102
{ACAD_REACTORS
330
9B21
102
}
330
9B21
100
AcDbZombieObject
 90
      499
 91
      510
 93
      500
310
424CD108121A5919195B90640502408333333333333E3BF0000000000000FB01079024090700405020000000000181990200405405064090740C02480A0340
1001
ACAD
1000
AcDbSavedByObjectVersion
1070
     0
  0
ACAD_PROXY_OBJECT
  5
9D61
102
{ACAD_REACTORS
330
9B21
102
}
330
9B21
100
AcDbZombieObject
 90
      499
 91
      510
 93
      436
310
42CCD915DA5C99599C985B595059028333333333333E3BF0000000000000FB0107901411070040501600405405064090741402480A0340
1001
ACAD
1000
AcDbSavedByObjectVersion
1070
     0
  0
ACAD_PROXY_OBJECT
  5
9B26
102
{ACAD_REACTORS
330
9B21
102
}
330
9B21
100
AcDbZombieObject
 90
      499
 91
      510
 93
      388
310
4150985CDA58D07406404333333333333E3BF0000000000000FB0107A41107004050150841D405064090741402480A0350
1001
ACAD
1000
AcDbSavedByObjectVersion
1070
     0
  0
ACAD_PROXY_OBJECT
  5
9B2D
102
{ACAD_REACTORS
330
9B21
102
}
330
9B21
100
AcDbZombieObject
 90
      499
 91
      510
 93
      428
310
42109C9A59DA1D195B90C409028333333333333E3BF0000000000000FB010790141107004050150841D405064090741402480A029950
1001
ACAD
1000
AcDbSavedByObjectVersion
1070
     0
  0
ACAD_PROXY_OBJECT
  5
9B31
102
{ACAD_REACTORS
330
9B21
102
}
330
9B21
100
AcDbZombieObject
 90
      499
 91
      510
 93
      452
310
42D0DBDB1BDC90DA185B99D95104090240C333333333333E3BF0000000000000FB0108901411070040501508421405064090741402480A0350
1001
ACAD
1000
AcDbSavedByObjectVersion
1070
     0
  0
ACAD_PROXY_OBJECT
  5
9B2A
102
{ACAD_REACTORS
330
9B21
102
}
330
9B21
100
AcDbZombieObject
 90
      499
 91
      510
 93
      500
310
4290DBDB98D95C1D1D585B10940D028333333333333E3BF0000000000000FB0107902409070040501000000000018199010841D405064090740C02480A0340
1001
ACAD
1000
AcDbSavedByObjectVersion
1070
     0
  0
ACAD_PROXY_OBJECT
  5
9B2C
102
{ACAD_REACTORS
330
9B21
102
}
330
9B21
100
AcDbZombieObject
 90
      499
 91
      510
 93
      412
310
40D11A5B50B409028333333333333E3BF0000000000000FB010790141107004050150841D405064090741402480A02677FFFFFD0
1001
ACAD
1000
AcDbSavedByObjectVersion
1070
     0
  0
ACAD_PROXY_OBJECT
  5
9B39
102
{ACAD_REACTORS
330
9B21
102
}
330
9B21
100
AcDbZombieObject
 90
      499
 91
      510
 93
      452
310
43115919D950DBDB1BDC93D999916409028333333333333E3BF0000000000000FB010790141107004050150841D405064090741402480A0350
1001
ACAD
1000
AcDbSavedByObjectVersion
1070
     0
  0
ACAD_PROXY_OBJECT
  5
9B30
102
{ACAD_REACTORS
330
9B21
102
}
330
9B21
100
AcDbZombieObject
 90
      499
 91
      510
 93
      444
310
42D19858D95C185D1D195C9B90F409028333333333333E3BF0000000000000FB010790141107004050150841D405064090741402480A0350
1001
ACAD
1000
AcDbSavedByObjectVersion
1070
     0
  0
ACAD_PROXY_OBJECT
  5
9B22
102
{ACAD_REACTORS
330
9B21
102
}
330
9B21
100
AcDbZombieObject
 90
      499
 91
      510
 93
      380
310
41119B185D240901404333333333333E3BF0000000000000F9010740A907004050150841D405064090741402480A1B50
1001
ACAD
1000
AcDbSavedByObjectVersion
1070
     0
  0
ACAD_PROXY_OBJECT
  5
9B23
102
{ACAD_REACTORS
330
9B21
102
}
330
9B21
100
AcDbZombieObject
 90
      499
 91
      510
 93
      468
310
43519B185D15DA5D1A115919D95CD0140901404333333333333E3BF0000000000000F90107409019070040501600405405064090741402480A1B50
1001
ACAD
1000
AcDbSavedByObjectVersion
1070
     0
  0
ACAD_PROXY_OBJECT
  5
9B24
102
{ACAD_REACTORS
330
9B21
102
}
330
9B21
100
AcDbZombieObject
 90
      499
 91
      510
 93
      404
310
41D1DBDD5C985D5910240902404333333333333E3BF0000000000000F9010740A9070040501641D405064090741402480A1B50
1001
ACAD
1000
AcDbSavedByObjectVersion
1070
     0
  0
ACAD_PROXY_OBJECT
  5
9B25
102
{ACAD_REACTORS
330
9B21
102
}
330
9B21
100
AcDbZombieObject
 90
      499
 91
      510
 93
      492
310
4411DBDD5C985D5915DA5D1A115919D95CD0340902404333333333333E3BF0000000000000F90107409019070040501600405405064090741402480A1B50
1001
ACAD
1000
AcDbSavedByObjectVersion
1070
     0
  0
ACAD_PROXY_OBJECT
  5
9B29
102
{ACAD_REACTORS
330
9B21
102
}
330
9B21
100
AcDbZombieObject
 90
      499
 91
      510
 93
      476
310
41921A5919195B90640502408333333333333E3BF0000000000000FB01079024090700405020000000000001110200405405064090740C02480A0340
1001
ACAD
1000
AcDbSavedByObjectVersion
1070
     0
  0
ACAD_PROXY_OBJECT
  5
9B37
102
{ACAD_REACTORS
330
9B21
102
}
330
9B21
100
AcDbZombieObject
 90
      499
 91
      510
 93
      428
310
42529A5D1D195C93D999914409028333333333333E3BF0000000000000FB010790141107004050150A41D405064090741402480A0350
1001
ACAD
1000
AcDbSavedByObjectVersion
1070
     0
  0
ACAD_PROXY_OBJECT
  5
9B2F
102
{ACAD_REACTORS
330
9B21
102
}
330
9B21
100
AcDbZombieObject
 90
      499
 91
      510
 93
      444
310
42D31A5B995C185D1D195C9B90E409028333333333333E3BF0000000000000FB010790141107004050750841D405064090741402483A0350
1001
ACAD
1000
AcDbSavedByObjectVersion
1070
     0
  0
ACAD_PROXY_OBJECT
  5
9D9D
102
{ACAD_REACTORS
330
9B21
102
}
330
9B21
100
AcDbZombieObject
 90
      499
 91
      510
 93
      484
310
42135BD9195B1A5B99D0A409038333333333333E33F0000000000000F901074090290700405010000000000201990108421405064090741402480A1B40
1001
ACAD
1000
AcDbSavedByObjectVersion
1070
     0
  0
ACAD_PROXY_OBJECT
  5
9B38
102
{ACAD_REACTORS
330
9B21
102
}
330
9B21
100
AcDbZombieObject
 90
      499
 91
      510
 93
      444
310
42D3DD995C9A185B99D3D999915409028333333333333E3BF0000000000000FB010790141107004050150941D405064090741402480A0350
1001
ACAD
1000
AcDbSavedByObjectVersion
1070
     0
  0
ACAD_PROXY_OBJECT
  5
9B2B
102
{ACAD_REACTORS
330
9B21
102
}
330
9B21
100
AcDbZombieObject
 90
      499
 91
      510
 93
      428
310
425499585B1A5CDD1A58D08409028333333333333E3BF0000000000000F9010740A907004050150800405405064090740C02480A1B40
1001
ACAD
1000
AcDbSavedByObjectVersion
1070
     0
  0
ACAD_PROXY_OBJECT
  5
9B36
102
{ACAD_REACTORS
330
9B21
102
}
330
9B21
100
AcDbZombieObject
 90
      499
 91
      510
 93
      420
310
4194DA1859195911B40902404333333333333E3BF0000000000000F9010740A41107004050150800405405064090840C02480A0B40
1001
ACAD
1000
AcDbSavedByObjectVersion
1070
     0
  0
ACAD_PROXY_OBJECT
  5
9B35
102
{ACAD_REACTORS
330
9B21
102
}
330
9B21
100
AcDbZombieObject
 90
      499
 91
      510
 93
      516
310
4454DA18591959081DDA5D1A08195919D95CD1A40902404333333333333E3BF0000000000000F901074090142907004050250800405405064090740C02480A0B40
1001
ACAD
1000
AcDbSavedByObjectVersion
1070
     0
  0
ACAD_PROXY_OBJECT
  5
9B32
102
{ACAD_REACTORS
330
9B21
102
}
330
9B21
100
AcDbZombieObject
 90
      499
 91
      510
 93
      532
310
4394DA1859195CC81BD98811DC985E5174090240C333333333333E3BF0000000000000FB01079024090741D01000000000000111010841D405064090740C02480A0340
1001
ACAD
1000
AcDbSavedByObjectVersion
1070
     0
  0
ACAD_PROXY_OBJECT
  5
9B33
102
{ACAD_REACTORS
330
9B21
102
}
330
9B21
100
AcDbZombieObject
 90
      499
 91
      510
 93
      476
310
41D4DAD95D18DA1E51840502408333333333333E3BF0000000000000FB01079024090741D01000000000000111010B41D405064090741802480A0340
1001
ACAD
1000
AcDbSavedByObjectVersion
1070
     0
  0
ACAD_PROXY_OBJECT
  5
9B2E
102
{ACAD_REACTORS
330
9B21
102
}
330
9B21
100
AcDbZombieObject
 90
      499
 91
      510
 93
      412
310
41D51A1A58DAD95B90D409028333333333333E3BF0000000000000FB010790141107004050150C41D405064090741402480A0350
1001
ACAD
1000
AcDbSavedByObjectVersion
1070
     0
  0
ACAD_PROXY_OBJECT
  5
9B28
102
{ACAD_REACTORS
330
9B21
102
}
330
9B21
100
AcDbZombieObject
 90
      499
 91
      510
 93
      420
310
4255DA5C99599C985B595059028333333333333E3BF0000000000000FB0107901411070040501600405405064090740C02480A0340
1001
ACAD
1000
AcDbSavedByObjectVersion
1070
     0
  0
ACAD_PROXY_OBJECT
  5
9B34
102
{ACAD_REACTORS
330
9B21
102
}
330
9B21
100
AcDbZombieObject
 90
      499
 91
      510
 93
      404
310
41560B54985E51940902404000000000000E03F0000000000000FB010740501907004050150841D405064090740C02480A1B40
1001
ACAD
1000
AcDbSavedByObjectVersion
1070
     0
  0
XRECORD
  5
BC74
102
{ACAD_REACTORS
330
BC73
102
}
330
BC73
100
AcDbXrecord
340
2D0
  0
XRECORD
  5
BC75
102
{ACAD_REACTORS
330
BC73
102
}
330
BC73
100
AcDbXrecord
340
2CF
  0
DICTIONARYVAR
  5
9C75
102
{ACAD_REACTORS
330
37
102
}
330
37
100
DictionaryVariables
280
     0
  1
1:1
  0
DICTIONARYVAR
  5
9C74
102
{ACAD_REACTORS
330
37
102
}
330
37
100
DictionaryVariables
280
     0
  1
Standard
  0
DICTIONARYVAR
  5
4FB
102
{ACAD_REACTORS
330
37
102
}
330
37
100
DictionaryVariables
280
     0
  1
Standard
  0
DICTIONARYVAR
  5
38
102
{ACAD_REACTORS
330
37
102
}
330
37
100
DictionaryVariables
280
     0
  1
-1
  0
DICTIONARYVAR
  5
408
102
{ACAD_REACTORS
330
37
102
}
330
37
100
DictionaryVariables
280
     0
  1
2
  0
DICTIONARYVAR
  5
56F
102
{ACAD_REACTORS
330
37
102
}
330
37
100
DictionaryVariables
280
     0
  1
1
  0
DICTIONARYVAR
  5
573
102
{ACAD_REACTORS
330
37
102
}
330
37
100
DictionaryVariables
280
     0
  1
8
  0
DICTIONARYVAR
  5
572
102
{ACAD_REACTORS
330
37
102
}
330
37
100
DictionaryVariables
280
     0
  1
1
  0
DICTIONARYVAR
  5
B70B
102
{ACAD_REACTORS
330
37
102
}
330
37
100
DictionaryVariables
280
     0
  1
0
  0
DICTIONARYVAR
  5
570
102
{ACAD_REACTORS
330
37
102
}
330
37
100
DictionaryVariables
280
     0
  1
8
  0
DICTIONARYVAR
  5
571
102
{ACAD_REACTORS
330
37
102
}
330
37
100
DictionaryVariables
280
     0
  1
2
  0
DICTIONARYVAR
  5
409
102
{ACAD_REACTORS
330
37
102
}
330
37
100
DictionaryVariables
280
     0
  1

  0
DICTIONARYVAR
  5
9D9C
102
{ACAD_REACTORS
330
37
102
}
330
37
100
DictionaryVariables
280
     0
  1
2
  0
DICTIONARY
  5
BE13
330
9B11
100
AcDbDictionary
  3
ACAD_XREC_ROUNDTRIP
360
BE14
1001
ACAD
1000
TREAT_AS_HARD
1070
     1
  0
DICTIONARY
  5
BE15
330
9B09
100
AcDbDictionary
  3
ACAD_XREC_ROUNDTRIP
360
BE16
1001
ACAD
1000
TREAT_AS_HARD
1070
     1
  0
DICTIONARY
  5
BE17
330
9B19
100
AcDbDictionary
  3
ACAD_XREC_ROUNDTRIP
360
BE18
1001
ACAD
1000
TREAT_AS_HARD
1070
     1
  0
XRECORD
  5
BE14
102
{ACAD_REACTORS
330
BE13
102
}
330
BE13
100
AcDbXrecord
102
MATERIAL
148
0.0
149
0.0
149
0.0
 93
        0
 94
      127
282
     0
 72
     0
 77
     0
171
     0
175
     0
179
     0
273
     0
  0
XRECORD
  5
BE16
102
{ACAD_REACTORS
330
BE15
102
}
330
BE15
100
AcDbXrecord
102
MATERIAL
148
0.0
149
0.0
149
0.0
 93
        0
 94
      127
282
     0
 72
     0
 77
     0
171
     0
175
     0
179
     0
273
     0
  0
XRECORD
  5
BE18
102
{ACAD_REACTORS
330
BE17
102
}
330
BE17
100
AcDbXrecord
102
MATERIAL
148
0.0
149
0.0
149
0.0
 93
        0
 94
      127
282
     0
 72
     0
 77
     0
171
     0
175
     0
179
     0
273
     0
  0
ENDSEC
  0
EOF
