  0
SECTION
  2
HEADER
  9
$ACADVER
  1
AC1009
  9
$DWGCODEPAGE
  3
ansi_932
  9
$INSBASE
 10
0.0
 20
0.0
 30
0.0
  9
$EXTMIN
 10
-706.8745949750715
 20
-820.3890233541739
 30
0.0
  9
$EXTMAX
 10
-359.7276315785857
 20
-590.8674103830593
 30
0.0
  9
$LIMMIN
 10
0.0
 20
0.0
  9
$LIMMAX
 10
420.0
 20
297.0
  9
$ORTHOMODE
 70
     0
  9
$REGENMODE
 70
     1
  9
$FILLMODE
 70
     1
  9
$QTEXTMODE
 70
     0
  9
$MIRRTEXT
 70
     1
  9
$DRAGMODE
 70
     2
  9
$LTSCALE
 40
0.5
  9
$OSMODE
 70
 14591
  9
$ATTMODE
 70
     1
  9
$TEXTSIZE
 40
4.0
  9
$TRACEWID
 40
1.0
  9
$TEXTSTYLE
  7
STANDARD
  9
$CLAYER
  8
1TEXT
  9
$CELTYPE
  6
BYLAYER
  9
$CECOLOR
 62
   256
  9
$DIMSCALE
 40
1.0
  9
$DIMASZ
 40
2.0
  9
$DIMEXO
 40
0.0
  9
$DIMDLI
 40
7.0
  9
$DIMRND
 40
0.0
  9
$DIMDLE
 40
0.0
  9
$DIMEXE
 40
1.0
  9
$DIMTP
 40
0.0
  9
$DIMTM
 40
0.0
  9
$DIMTXT
 40
3.5
  9
$DIMCEN
 40
0.0
  9
$DIMTSZ
 40
0.0
  9
$DIMTOL
 70
     0
  9
$DIMLIM
 70
     0
  9
$DIMTIH
 70
     0
  9
$DIMTOH
 70
     0
  9
$DIMSE1
 70
     0
  9
$DIMSE2
 70
     0
  9
$DIMTAD
 70
     1
  9
$DIMZIN
 70
     8
  9
$DIMBLK
  1

  9
$DIMASO
 70
     1
  9
$DIMSHO
 70
     1
  9
$DIMPOST
  1
 
  9
$DIMAPOST
  1

  9
$DIMALT
 70
     0
  9
$DIMALTD
 70
     2
  9
$DIMALTF
 40
25.4
  9
$DIMLFAC
 40
1.0
  9
$DIMTOFL
 70
     1
  9
$DIMTVP
 40
0.0
  9
$DIMTIX
 70
     0
  9
$DIMSOXD
 70
     0
  9
$DIMSAH
 70
     1
  9
$DIMBLK1
  1
OPEN30
  9
$DIMBLK2
  1
OPEN30
  9
$DIMSTYLE
  2
NEWX10
  9
$DIMCLRD
 70
   256
  9
$DIMCLRE
 70
   256
  9
$DIMCLRT
 70
   201
  9
$DIMTFAC
 40
0.7
  9
$DIMGAP
 40
0.7
  9
$LUNITS
 70
     2
  9
$LUPREC
 70
     4
  9
$SKETCHINC
 40
1.0
  9
$FILLETRAD
 40
0.0
  9
$AUNITS
 70
     0
  9
$AUPREC
 70
     2
  9
$MENU
  1
acad
  9
$ELEVATION
 40
0.0
  9
$PELEVATION
 40
0.0
  9
$THICKNESS
 40
0.0
  9
$LIMCHECK
 70
     0
  9
$CHAMFERA
 40
10.0
  9
$CHAMFERB
 40
10.0
  9
$SKPOLY
 70
     0
  9
$TDCREATE
 40
2453033.732663484
  9
$TDUPDATE
 40
2460098.683979202
  9
$TDINDWG
 40
0.4423177083
  9
$TDUSRTIMER
 40
0.4423177083
  9
$USRTIMER
 70
     1
  9
$ANGBASE
 50
0.0
  9
$ANGDIR
 70
     0
  9
$PDMODE
 70
     0
  9
$PDSIZE
 40
0.0
  9
$PLINEWID
 40
0.0
  9
$COORDS
 70
     2
  9
$SPLFRAME
 70
     0
  9
$SPLINETYPE
 70
     6
  9
$SPLINESEGS
 70
     8
  9
$ATTDIA
 70
     0
  9
$ATTREQ
 70
     1
  9
$HANDLING
 70
     1
  9
$HANDSEED
  5
C4BB
  9
$SURFTAB1
 70
     6
  9
$SURFTAB2
 70
     6
  9
$SURFTYPE
 70
     6
  9
$SURFU
 70
     6
  9
$SURFV
 70
     6
  9
$UCSNAME
  2

  9
$UCSORG
 10
0.0
 20
0.0
 30
0.0
  9
$UCSXDIR
 10
1.0
 20
0.0
 30
0.0
  9
$UCSYDIR
 10
0.0
 20
1.0
 30
0.0
  9
$PUCSNAME
  2

  9
$PUCSORG
 10
0.0
 20
0.0
 30
0.0
  9
$PUCSXDIR
 10
1.0
 20
0.0
 30
0.0
  9
$PUCSYDIR
 10
0.0
 20
1.0
 30
0.0
  9
$USERI1
 70
     0
  9
$USERI2
 70
     0
  9
$USERI3
 70
     0
  9
$USERI4
 70
     0
  9
$USERI5
 70
     0
  9
$USERR1
 40
0.0
  9
$USERR2
 40
0.0
  9
$USERR3
 40
0.0
  9
$USERR4
 40
0.0
  9
$USERR5
 40
0.0
  9
$WORLDVIEW
 70
     1
  9
$SHADEDGE
 70
     3
  9
$SHADEDIF
 70
    70
  9
$TILEMODE
 70
     1
  9
$MAXACTVP
 70
    48
  9
$PLIMCHECK
 70
     0
  9
$PEXTMIN
 10
1.000000000000000E+20
 20
1.000000000000000E+20
 30
1.000000000000000E+20
  9
$PEXTMAX
 10
-1.000000000000000E+20
 20
-1.000000000000000E+20
 30
-1.000000000000000E+20
  9
$PLIMMIN
 10
0.0
 20
0.0
  9
$PLIMMAX
 10
420.0
 20
297.0
  9
$UNITMODE
 70
     0
  9
$VISRETAIN
 70
     1
  9
$PLINEGEN
 70
     0
  9
$PSLTSCALE
 70
     1
  0
ENDSEC
  0
SECTION
  2
TABLES
  0
TABLE
  2
VPORT
 70
     1
  0
VPORT
  2
*ACTIVE
 70
     0
 10
0.0
 20
0.0
 11
1.0
 21
1.0
 12
-533.3011132768286
 22
-705.6282168686166
 13
0.0
 23
0.0
 14
10.0
 24
10.0
 15
10.0
 25
10.0
 16
0.0
 26
0.0
 36
1.0
 17
0.0
 27
0.0
 37
0.0
 40
246.4337318216178
 41
1.824162679425838
 42
50.0
 43
0.0
 44
0.0
 50
0.0
 51
0.0
 71
    16
 72
   100
 73
     1
 74
     1
 75
     0
 76
     0
 77
     0
 78
     0
  0
ENDTAB
  0
TABLE
  2
LTYPE
 70
    12
  0
LTYPE
  2
CONTINUOUS
 70
     0
  3
Solid line
 72
    65
 73
     0
 40
0.0
  0
LTYPE
  2
CENTER2
 70
     0
  3
Center (.5x) ___ _ ___ _ ___ _ ___ _ ___ _ ___
 72
    65
 73
     4
 40
28.575
 49
19.05
 49
-3.175
 49
3.175
 49
-3.175
  0
LTYPE
  2
HIDDEN
 70
     0
  3
Hidden __ __ __ __ __ __ __ __ __ __ __ __ __ _
 72
    65
 73
     2
 40
9.524999999999999
 49
6.35
 49
-3.175
  0
LTYPE
  2
PHANTOM2
 70
     0
  3
Phantom (0.5x) ___ _ _ ___ _ _ ___ _ _ ___ _ _
 72
    65
 73
     6
 40
31.75
 49
15.875
 49
-3.175
 49
3.175
 49
-3.175
 49
3.175
 49
-3.175
  0
ENDTAB
  0
TABLE
  2
LAYER
 70
    37
  0
LAYER
  2
0
 70
     0
 62
     7
  6
CONTINUOUS
  0
LAYER
  2
1CENTER
 70
     0
 62
     7
  6
CENTER2
  0
LAYER
  2
1TEXT
 70
     0
 62
     7
  6
CONTINUOUS
  0
LAYER
  2
1DIM
 70
     0
 62
     7
  6
CONTINUOUS
  0
LAYER
  2
1HIDDEN
 70
     0
 62
     7
  6
HIDDEN
  0
LAYER
  2
1PHANTOM
 70
     0
 62
     7
  6
PHANTOM2
  0
LAYER
  2
01
 70
     0
 62
     1
  6
CONTINUOUS
  0
LAYER
  2
1HATCH
 70
     0
 62
     7
  6
CONTINUOUS
  0
ENDTAB
  0
TABLE
  2
STYLE
 70
    21
  0
STYLE
  2
STANDARD
 70
     0
 40
0.0
 41
1.0
 50
0.0
 71
     0
 42
4.0
  3
txt.shx
  4
extfont.shx
  0
ENDTAB
  0
TABLE
  2
VIEW
 70
     0
  0
ENDTAB
  0
TABLE
  2
UCS
 70
     0
  0
ENDTAB
  0
TABLE
  2
APPID
 70
    15
  0
APPID
  2
ACAD
 70
     0
  0
APPID
  2
DRAWINGVARIABLESXDATA
 70
     0
  0
APPID
  2
CONTENTTABDATA
 70
     0
  0
APPID
  2
CONTENTCURRENTTAB
 70
     0
  0
APPID
  2
CONTENTBLOCKDESCRIPTION
 70
     0
  0
APPID
  2
CONTENTBLOCKICON
 70
     0
  0
APPID
  2
CONTENTLONGBLOCKNAME
 70
     0
  0
APPID
  2
ACAD_PSEXT
 70
     0
  0
APPID
  2
ACAD_DSTYLE_DIMTEXT_FILL
 70
     0
  0
APPID
  2
ACAD_MLEADERVER
 70
     0
  0
APPID
  2
ACAD_DSTYLE_DIMRADIAL_EXTE
 70
     0
  0
APPID
  2
ACAD_EXEMPT_FROM_CAD_STAND
 70
     0
  0
APPID
  2
ACAD_NAV_VCDISPLAY
 70
     0
  0
APPID
  2
ACADANNOTATIVE
 70
     0
  0
APPID
  2
ACDBBLOCKREPETAG
 70
     0
  0
ENDTAB
  0
TABLE
  2
DIMSTYLE
 70
     5
  0
DIMSTYLE
  2
NEWX10
 70
     0
  3
 
  4

  5

  6
OPEN30
  7
OPEN30
 40
1.0
 41
2.0
 42
0.0
 43
7.0
 44
1.0
 45
0.0
 46
0.0
 47
0.0
 48
0.0
140
3.5
141
0.0
142
0.0
143
25.4
144
1.0
145
0.0
146
0.7
147
0.7
 71
     0
 72
     0
 73
     0
 74
     0
 75
     0
 76
     0
 77
     1
 78
     8
170
     0
171
     2
172
     1
173
     1
174
     0
175
     0
176
   256
177
   256
178
   201
  0
ENDTAB
  0
ENDSEC
  0
SECTION
  2
BLOCKS
  0
BLOCK
  8
0
  2
$MODEL_SPACE
 70
     0
 10
0.0
 20
0.0
 30
0.0
  3
$MODEL_SPACE
  1

  0
ENDBLK
  5
1A
  8
0
  0
BLOCK
 67
     1
  8
0
  2
$PAPER_SPACE
 70
     0
 10
0.0
 20
0.0
 30
0.0
  3
$PAPER_SPACE
  1

  0
ENDBLK
  5
17
 67
     1
  8
0
  0
BLOCK
  8
0
  2
_OPEN30
 70
     0
 10
0.0
 20
0.0
 30
0.0
  3
_OPEN30
  1

  0
LINE
  5
44
  8
0
  6
BYBLOCK
 62
     0
 10
-1.0
 20
0.26794919
 30
0.0
 11
0.0
 21
0.0
 31
0.0
  0
LINE
  5
45
  8
0
  6
BYBLOCK
 62
     0
 10
0.0
 20
0.0
 30
0.0
 11
-1.0
 21
-0.26794919
 31
0.0
  0
LINE
  5
46
  8
0
  6
BYBLOCK
 62
     0
 10
0.0
 20
0.0
 30
0.0
 11
-1.0
 21
0.0
 31
0.0
  0
ENDBLK
  5
47
  8
0
  0
BLOCK
  8
0
  2
A3WAKUKAWAJUN2017_HYOUDAI_
 70
     0
 10
0.0
 20
0.0
 30
0.0
  3
A3WAKUKAWAJUN2017_HYOUDAI_
  1

  0
LINE
  5
AE1F
  8
0
 10
13.26299999998673
 20
-0.0001000000000317
 30
0.0
 11
9.236999999990758
 21
8.999899999990987
 31
0.0
1001
ACAD
1000
ASC_BOUNDS
1002
{
1070
    19
1005
AE60
1002
}
  0
LINE
  5
AE20
  8
0
 10
5.657999999994331
 20
0.9999999999989768
 30
0.0
 11
9.236999999990758
 21
8.999999999991019
 31
0.0
1001
ACAD
1000
ASC_BOUNDS
1002
{
1070
    19
1005
AE60
1002
}
  0
LINE
  5
AE21
  8
0
 10
18.59199999998134
 20
-0.2368999999997641
 30
0.0
 11
16.46099999998353
 21
5.432899999994561
 31
0.0
1001
ACAD
1000
ASC_BOUNDS
1002
{
1070
    19
1005
AE61
1002
}
  0
LINE
  5
AE22
  8
0
 10
18.59199999998134
 20
-0.2368999999997641
 30
0.0
 11
22.38199999997767
 21
8.763099999991255
 31
0.0
1001
ACAD
1000
ASC_BOUNDS
1002
{
1070
    19
1005
AE61
1002
}
  0
LINE
  5
AE23
  8
0
 10
14.32899999998563
 20
-0.2368999999997641
 30
0.0
 11
16.46099999998353
 21
5.432899999994561
 31
0.0
1001
ACAD
1000
ASC_BOUNDS
1002
{
1070
    19
1005
AE61
1002
}
  0
LINE
  5
AE24
  8
0
 10
14.32899999998563
 20
-0.2368999999997641
 30
0.0
 11
10.53899999998941
 21
8.763099999991255
 31
0.0
1001
ACAD
1000
ASC_BOUNDS
1002
{
1070
    19
1005
AE61
1002
}
  0
LINE
  5
AE25
  8
0
 10
19.53899999998043
 20
-0.0001000000000317
 30
0.0
 11
23.56599999997638
 21
8.999899999990987
 31
0.0
1001
ACAD
1000
ASC_BOUNDS
1002
{
1070
    19
1005
AE62
1002
}
  0
LINE
  5
AE26
  8
0
 10
26.97358892824991
 20
1.383099999991202
 30
0.0
 11
23.56599999997638
 21
8.999899999990987
 31
0.0
1001
ACAD
1000
ASC_BOUNDS
1002
{
1070
    19
1005
AE62
1002
}
  0
LINE
  5
AE27
  8
0
 10
5.657999999994331
 20
0.9999999999989768
 30
0.0
 11
3.181999999996833
 21
4.668599999995308
 31
0.0
1001
ACAD
1000
ASC_BOUNDS
1002
{
1070
    19
1005
AE60
1002
}
  0
LINE
  5
AE28
  8
0
 10
4.617999999995391
 20
-0.0001000000000317
 30
0.0
 11
1.420999999998571
 21
4.736799999995242
 31
0.0
1001
ACAD
1000
ASC_BOUNDS
1002
{
1070
    19
1005
AE60
1002
}
  0
LINE
  5
AE29
  8
0
 10
1.420999999998571
 20
8.763099999991255
 30
0.0
 11
1.420999999998571
 21
0.0
 31
0.0
1001
ACAD
1000
ASC_BOUNDS
1002
{
1070
    19
1005
AE65
1002
}
  0
LINE
  5
AE2A
  8
0
 10
0.0
 20
8.763099999991255
 30
0.0
 11
0.0
 21
0.0
 31
0.0
1001
ACAD
1000
ASC_BOUNDS
1002
{
1070
    19
1005
AE65
1002
}
  0
LINE
  5
AE2B
  8
0
 10
6.766999999993232
 20
-0.0001000000000317
 30
0.0
 11
7.826999999992154
 21
2.368399999997621
 31
0.0
1001
ACAD
1000
ASC_BOUNDS
1002
{
1070
    19
1005
AE60
1002
}
  0
LINE
  5
AE2C
  8
0
 10
0.0
 20
0.0
 30
0.0
 11
1.420999999998571
 21
0.0
 31
0.0
1001
ACAD
1000
ASC_BOUNDS
1002
{
1070
    19
1005
AE65
1002
}
  0
LINE
  5
AE2D
  8
0
 10
4.617999999995391
 20
0.0
 30
0.0
 11
6.766999999993232
 21
0.0
 31
0.0
1001
ACAD
1000
ASC_BOUNDS
1002
{
1070
    19
1005
AE60
1002
}
  0
LINE
  5
AE2E
  8
0
 10
11.70599999998831
 20
-0.0001000000000317
 30
0.0
 11
10.64699999998936
 21
2.368399999997621
 31
0.0
1001
ACAD
1000
ASC_BOUNDS
1002
{
1070
    19
1005
AE60
1002
}
  0
LINE
  5
AE2F
  8
0
 10
7.826999999992154
 20
2.368399999997621
 30
0.0
 11
10.64699999998936
 21
2.368399999997621
 31
0.0
1001
ACAD
1000
ASC_BOUNDS
1002
{
1070
    19
1005
AE60
1002
}
  0
LINE
  5
AE30
  8
0
 10
11.70599999998831
 20
0.0
 30
0.0
 11
13.26299999998673
 21
0.0
 31
0.0
1001
ACAD
1000
ASC_BOUNDS
1002
{
1070
    19
1005
AE60
1002
}
  0
LINE
  5
AE31
  8
0
 10
22.15599999997789
 20
2.368399999997621
 30
0.0
 11
24.97599999997499
 21
2.368399999997621
 31
0.0
1001
ACAD
1000
ASC_BOUNDS
1002
{
1070
    19
1005
AE62
1002
}
  0
LINE
  5
AE32
  8
0
 10
19.53899999998043
 20
0.0
 30
0.0
 11
21.09599999997886
 21
0.0
 31
0.0
1001
ACAD
1000
ASC_BOUNDS
1002
{
1070
    19
1005
AE62
1002
}
  0
LINE
  5
AE33
  8
0
 10
21.09599999997886
 20
-0.0001000000000317
 30
0.0
 11
22.15599999997789
 21
2.368399999997621
 31
0.0
1001
ACAD
1000
ASC_BOUNDS
1002
{
1070
    19
1005
AE62
1002
}
  0
LINE
  5
AE34
  8
0
 10
26.02015566812236
 20
0.0330999999912365
 30
0.0
 11
24.97599999997499
 21
2.368399999997621
 31
0.0
1001
ACAD
1000
ASC_BOUNDS
1002
{
1070
    19
1005
AE62
1002
}
  0
LINE
  5
AE35
  8
0
 10
14.32399999998563
 20
3.315799999996671
 30
0.0
 11
16.46099999998353
 21
8.999899999990987
 31
0.0
1001
ACAD
1000
ASC_BOUNDS
1002
{
1070
    19
1005
AE61
1002
}
  0
LINE
  5
AE36
  8
0
 10
6.432999999993513
 20
8.763099999991255
 30
0.0
 11
3.181999999996833
 21
4.668599999995308
 31
0.0
1001
ACAD
1000
ASC_BOUNDS
1002
{
1070
    19
1005
AE60
1002
}
  0
LINE
  5
AE37
  8
0
 10
4.617999999995391
 20
8.763099999991255
 30
0.0
 11
1.420999999998571
 21
4.736799999995242
 31
0.0
1001
ACAD
1000
ASC_BOUNDS
1002
{
1070
    19
1005
AE60
1002
}
  0
LINE
  5
AE38
  8
0
 10
0.0
 20
8.763099999991255
 30
0.0
 11
1.420999999998571
 21
8.763099999991255
 31
0.0
1001
ACAD
1000
ASC_BOUNDS
1002
{
1070
    19
1005
AE65
1002
}
  0
LINE
  5
AE39
  8
0
 10
4.617999999995391
 20
8.763099999991255
 30
0.0
 11
6.432999999993513
 21
8.763099999991255
 31
0.0
1001
ACAD
1000
ASC_BOUNDS
1002
{
1070
    19
1005
AE60
1002
}
  0
LINE
  5
AE3A
  8
0
 10
14.32399999998563
 20
3.315799999996671
 30
0.0
 11
12.02999999998792
 21
8.763099999991255
 31
0.0
1001
ACAD
1000
ASC_BOUNDS
1002
{
1070
    19
1005
AE61
1002
}
  0
LINE
  5
AE3B
  8
0
 10
10.06399999998996
 20
3.670999999996297
 30
0.0
 11
9.236999999990758
 21
5.5200999999945
 31
0.0
1001
ACAD
1000
ASC_BOUNDS
1002
{
1070
    19
1005
AE60
1002
}
  0
LINE
  5
AE3C
  8
0
 10
8.409999999991555
 20
3.670999999996297
 30
0.0
 11
9.236999999990758
 21
5.5200999999945
 31
0.0
1001
ACAD
1000
ASC_BOUNDS
1002
{
1070
    19
1005
AE60
1002
}
  0
LINE
  5
AE3D
  8
0
 10
8.409999999991555
 20
3.670999999996297
 30
0.0
 11
10.06399999998996
 21
3.670999999996297
 31
0.0
1001
ACAD
1000
ASC_BOUNDS
1002
{
1070
    19
1005
AE60
1002
}
  0
LINE
  5
AE3E
  8
0
 10
10.53899999998941
 20
8.763099999991255
 30
0.0
 11
12.02999999998792
 21
8.763099999991255
 31
0.0
1001
ACAD
1000
ASC_BOUNDS
1002
{
1070
    19
1005
AE61
1002
}
  0
LINE
  5
AE3F
  8
0
 10
22.7389999999773
 20
3.670999999996297
 30
0.0
 11
23.56599999997638
 21
5.5200999999945
 31
0.0
1001
ACAD
1000
ASC_BOUNDS
1002
{
1070
    19
1005
AE62
1002
}
  0
LINE
  5
AE40
  8
0
 10
22.7389999999773
 20
3.670999999996297
 30
0.0
 11
24.39299999997559
 21
3.670999999996297
 31
0.0
1001
ACAD
1000
ASC_BOUNDS
1002
{
1070
    19
1005
AE62
1002
}
  0
LINE
  5
AE41
  8
0
 10
18.59799999998143
 20
3.315799999996671
 30
0.0
 11
20.89099999997916
 21
8.763099999991255
 31
0.0
1001
ACAD
1000
ASC_BOUNDS
1002
{
1070
    19
1005
AE61
1002
}
  0
LINE
  5
AE42
  8
0
 10
18.59799999998143
 20
3.315799999996671
 30
0.0
 11
16.46099999998353
 21
8.999899999990987
 31
0.0
1001
ACAD
1000
ASC_BOUNDS
1002
{
1070
    19
1005
AE61
1002
}
  0
LINE
  5
AE43
  8
0
 10
20.89099999997916
 20
8.763099999991255
 30
0.0
 11
22.38199999997767
 21
8.763099999991255
 31
0.0
1001
ACAD
1000
ASC_BOUNDS
1002
{
1070
    19
1005
AE61
1002
}
  0
LINE
  5
AE44
  8
0
 10
24.39299999997559
 20
3.670999999996297
 30
0.0
 11
23.56599999997638
 21
5.5200999999945
 31
0.0
1001
ACAD
1000
ASC_BOUNDS
1002
{
1070
    19
1005
AE62
1002
}
  0
LINE
  5
AE45
  8
0
 10
44.99999999995498
 20
-0.2368999999997641
 30
0.0
 11
40.02599999995994
 21
5.341799999994635
 31
0.0
1001
ACAD
1000
ASC_BOUNDS
1002
{
1070
    19
1005
AE64
1002
}
  0
LINE
  5
AE46
  8
0
 10
40.02599999995994
 20
5.341799999994635
 30
0.0
 11
40.02599999995994
 21
0.0
 31
0.0
1001
ACAD
1000
ASC_BOUNDS
1002
{
1070
    19
1005
AE64
1002
}
  0
LINE
  5
AE47
  8
0
 10
38.60499999996136
 20
8.999999999991019
 30
0.0
 11
38.60499999996136
 21
0.0
 31
0.0
1001
ACAD
1000
ASC_BOUNDS
1002
{
1070
    19
1005
AE64
1002
}
  0
LINE
  5
AE48
  8
0
 10
44.99999999995498
 20
8.763099999991255
 30
0.0
 11
44.99999999995498
 21
-0.2368999999997641
 31
0.0
1001
ACAD
1000
ASC_BOUNDS
1002
{
1070
    19
1005
AE64
1002
}
  0
LINE
  5
AE49
  8
0
 10
38.60499999996136
 20
0.0
 30
0.0
 11
40.02599999995994
 21
0.0
 31
0.0
1001
ACAD
1000
ASC_BOUNDS
1002
{
1070
    19
1005
AE64
1002
}
  0
LINE
  5
AE4A
  8
0
 10
43.57899999995641
 20
3.421199999996588
 30
0.0
 11
38.60499999996136
 21
8.999899999990987
 31
0.0
1001
ACAD
1000
ASC_BOUNDS
1002
{
1070
    19
1005
AE64
1002
}
  0
LINE
  5
AE4B
  8
0
 10
43.57899999995641
 20
8.763099999991255
 30
0.0
 11
43.57899999995641
 21
3.421199999996588
 31
0.0
1001
ACAD
1000
ASC_BOUNDS
1002
{
1070
    19
1005
AE64
1002
}
  0
LINE
  5
AE4C
  8
0
 10
43.57899999995641
 20
8.763099999991255
 30
0.0
 11
44.99999999995498
 21
8.763099999991255
 31
0.0
1001
ACAD
1000
ASC_BOUNDS
1002
{
1070
    19
1005
AE64
1002
}
  0
LINE
  5
AE4D
  8
0
 10
37.67199999996831
 20
8.763099999991255
 30
0.0
 11
36.23199999996837
 21
8.763099999991255
 31
0.0
  0
LINE
  5
AE4E
  8
0
 10
31.64199999996833
 20
8.763099999991255
 30
0.0
 11
31.64199999996833
 21
2.481619422925121
 31
0.0
  0
LINE
  5
AE4F
  8
0
 10
37.67199999996831
 20
8.763099999991255
 30
0.0
 11
37.67199999996831
 21
2.481619422925121
 31
0.0
  0
LINE
  5
AE50
  8
0
 10
36.23199999996837
 20
8.763099999991255
 30
0.0
 11
36.23199999996837
 21
2.481619422925064
 31
0.0
  0
LINE
  5
AE51
  8
0
 10
33.08199999996839
 20
8.763099999991255
 30
0.0
 11
33.08199999996839
 21
2.481619422925121
 31
0.0
  0
ARC
  5
AE52
  8
0
 10
34.65699999996832
 20
3.183099999991214
 30
0.0
 40
3.420000000000007
 50
240.0000000000255
 51
299.9999999999766
  0
ARC
  5
AE53
  8
0
 10
34.65699999996832
 20
3.183099999991214
 30
0.0
 40
1.97999999999999
 50
240.000000000026
 51
299.9999999999703
  0
LINE
  5
AE54
  8
0
 10
33.08199999996828
 20
8.763099999991255
 30
0.0
 11
31.64199999996833
 21
8.763099999991255
 31
0.0
  0
ARC
  5
AE55
  8
0
 10
35.06199999996829
 20
2.481619422925064
 30
0.0
 40
1.17
 50
299.9999999999699
 51
0.0
  0
ARC
  5
AE56
  8
0
 10
34.25199999996835
 20
2.481619422925121
 30
0.0
 40
1.17
 50
180.0
 51
240.0000000000238
  0
ARC
  5
AE57
  8
0
 10
35.06199999996841
 20
2.481619422925121
 30
0.0
 40
2.61
 50
299.9999999999756
 51
0.0
  0
ARC
  5
AE58
  8
0
 10
34.25199999996835
 20
2.481619422925121
 30
0.0
 40
2.61
 50
180.0
 51
240.0000000000244
  0
LINE
  5
AE59
  8
0
 10
29.30199999996933
 20
8.763099999991255
 30
0.0
 11
30.74199999996927
 21
8.763099999991255
 31
0.0
1001
ACAD
1000
ASC_BOUNDS
1002
{
1070
    19
1005
AE62
1002
}
  0
LINE
  5
AE5A
  8
0
 10
30.74199999996927
 20
8.763099999991255
 30
0.0
 11
30.74199999996927
 21
2.373099999991211
 31
0.0
1001
ACAD
1000
ASC_BOUNDS
1002
{
1070
    19
1005
AE62
1002
}
  0
LINE
  5
AE5B
  8
0
 10
26.02015566812236
 20
0.0330999999912365
 30
0.0
 11
28.40199999996923
 21
0.0330999999912365
 31
0.0
1001
ACAD
1000
ASC_BOUNDS
1002
{
1070
    19
1005
AE62
1002
}
  0
LINE
  5
AE5C
  8
0
 10
29.30199999996933
 20
8.763099999991255
 30
0.0
 11
29.30199999996933
 21
2.283099999991236
 31
0.0
1001
ACAD
1000
ASC_BOUNDS
1002
{
1070
    19
1005
AE62
1002
}
  0
LINE
  5
AE5D
  8
0
 10
26.97358892824991
 20
1.383099999991202
 30
0.0
 11
28.40199999996923
 21
1.383099999991202
 31
0.0
1001
ACAD
1000
ASC_BOUNDS
1002
{
1070
    19
1005
AE62
1002
}
  0
ARC
  5
AE5E
  8
0
 10
28.40199999996923
 20
2.283099999991236
 30
0.0
 40
0.9
 50
270.0
 51
0.0
1001
ACAD
1000
ASC_BOUNDS
1002
{
1070
    19
1005
AE62
1002
}
  0
ARC
  5
AE5F
  8
0
 10
28.40199999996923
 20
2.373099999991211
 30
0.0
 40
2.34
 50
270.0
 51
0.0
1001
ACAD
1000
ASC_BOUNDS
1002
{
1070
    19
1005
AE62
1002
}
  0
INSERT
  5
AE60
  8
0
  2
*X144
 10
0.0
 20
0.0
 30
0.0
1001
ACAD
1000
HATCH
1002
{
1070
    19
1000
ANSI37
1040
0.15
1040
0.0
1000
ASC_BOUNDS
1070
     2
1070
     2
1070
    12
1005
AE1F
1005
AE20
1005
AE27
1005
AE36
1005
AE39
1005
AE37
1005
AE28
1005
AE2D
1005
AE2B
1005
AE2F
1005
AE2E
1005
AE30
1070
     2
1070
     3
1005
AE3B
1005
AE3D
1005
AE3C
1000
ASC_SEEDPOINT
1011
3.614004224891801
1021
2.996669441146025
1031
0.0
1021
2.996669441146025
1031
0.0
1000
R14_HATCH_DATA
1000
AE60
1011
1.0
1021
0.0
1031
0.0
1021
0.0
1031
0.0
1011
0.0
1021
1.0
1031
0.0
1021
1.0
1031
0.0
1011
0.0
1021
0.0
1031
1.0
1021
0.0
1031
1.0
1040
0.0
1010
0.0
1020
0.0
1030
1.0
1000
ANSI37
1070
     0
1070
     1
1071
        2
1071
        7
1070
     0
1070
     1
1071
       17
1040
13.26299999998673
1040
-0.0001000000000317
1040
9.236999999990758
1040
8.999899999990987
1040
9.236999999990758
1040
8.999999999991019
1040
5.657999999994331
1040
0.9999999999989768
1040
3.181999999996833
1040
4.668599999995308
1040
6.432999999993513
1040
8.763099999991255
1040
4.617999999995391
1040
8.763099999991255
1040
1.420999999998571
1040
4.736799999995242
1040
4.617999999995391
1040
-0.0001000000000317
1040
4.617999999995391
1040
0.0
1040
6.766999999993232
1040
0.0
1040
6.766999999993232
1040
-0.0001000000000317
1040
7.826999999992154
1040
2.368399999997621
1040
10.64699999998936
1040
2.368399999997621
1040
11.70599999998831
1040
-0.0001000000000317
1040
11.70599999998831
1040
0.0
1040
13.26299999998673
1040
0.0
1071
       12
1005
AE1F
1005
AE20
1005
AE27
1005
AE36
1005
AE39
1005
AE37
1005
AE28
1005
AE2D
1005
AE2B
1005
AE2F
1005
AE2E
1005
AE30
1071
       22
1070
     0
1070
     1
1071
        3
1040
9.236999999990758
1040
5.5200999999945
1040
10.06399999998996
1040
3.670999999996297
1040
8.409999999991555
1040
3.670999999996297
1071
        3
1005
AE3B
1005
AE3D
1005
AE3C
1070
     0
1070
     1
1040
0.0
1040
0.15
1070
     0
1070
     2
1040
0.7853981633974483
1040
49.29960901727088
1040
-10.17736998311392
1040
-0.3367596045400932
1040
0.3367596045400932
1070
     0
1040
2.356194490192345
1040
49.29960901727088
1040
-10.17736998311392
1040
-0.3367596045400932
1040
-0.3367596045400932
1070
     0
1040
0.0110235143455945
1071
        2
1040
3.614004224891801
1040
2.996669441146025
1040
0.0
1040
3.614004224891801
1040
2.996669441146025
1040
0.0
1002
}
  0
INSERT
  5
AE61
  8
0
  2
*X145
 10
0.0
 20
0.0
 30
0.0
1001
ACAD
1000
HATCH
1002
{
1070
    19
1000
ANSI37
1040
0.15
1040
0.0
1000
ASC_BOUNDS
1070
     1
1070
     2
1070
    10
1005
AE21
1005
AE22
1005
AE43
1005
AE41
1005
AE42
1005
AE35
1005
AE3A
1005
AE3E
1005
AE24
1005
AE23
1000
ASC_SEEDPOINT
1011
14.73245321214324
1021
2.798246178283421
1031
0.0
1021
2.798246178283421
1031
0.0
1000
R14_HATCH_DATA
1000
AE61
1011
1.0
1021
0.0
1031
0.0
1021
0.0
1031
0.0
1011
0.0
1021
1.0
1031
0.0
1021
1.0
1031
0.0
1011
0.0
1021
0.0
1031
1.0
1021
0.0
1031
1.0
1040
0.0
1010
0.0
1020
0.0
1030
1.0
1000
ANSI37
1070
     0
1070
     1
1071
        1
1071
        7
1070
     0
1070
     1
1071
       10
1040
16.46099999998353
1040
5.432899999994561
1040
18.59199999998134
1040
-0.2368999999997641
1040
22.38199999997767
1040
8.763099999991255
1040
20.89099999997916
1040
8.763099999991255
1040
18.59799999998143
1040
3.315799999996671
1040
16.46099999998353
1040
8.999899999990987
1040
14.32399999998563
1040
3.315799999996671
1040
12.02999999998792
1040
8.763099999991255
1040
10.53899999998941
1040
8.763099999991255
1040
14.32899999998563
1040
-0.2368999999997641
1071
       10
1005
AE21
1005
AE22
1005
AE43
1005
AE41
1005
AE42
1005
AE35
1005
AE3A
1005
AE3E
1005
AE24
1005
AE23
1070
     0
1070
     1
1040
0.0
1040
0.15
1070
     0
1070
     2
1040
0.7853981633974483
1040
49.29960901727088
1040
-10.17736998311392
1040
-0.3367596045400932
1040
0.3367596045400932
1070
     0
1040
2.356194490192345
1040
49.29960901727088
1040
-10.17736998311392
1040
-0.3367596045400932
1040
-0.3367596045400932
1070
     0
1040
0.0110235143455945
1071
        1
1040
14.73245321214324
1040
2.798246178283421
1040
0.0
1002
}
  0
INSERT
  5
AE62
  8
0
  2
*X146
 10
0.0
 20
0.0
 30
0.0
1001
ACAD
1000
HATCH
1002
{
1070
    19
1000
ANSI37
1040
0.15
1040
0.0
1000
ASC_BOUNDS
1070
     2
1070
     2
1070
    13
1005
AE25
1005
AE32
1005
AE33
1005
AE31
1005
AE34
1005
AE5B
1005
AE5F
1005
AE5A
1005
AE59
1005
AE5C
1005
AE5E
1005
AE5D
1005
AE26
1070
     2
1070
     3
1005
AE3F
1005
AE44
1005
AE40
1000
ASC_SEEDPOINT
1011
21.97929957367762
1021
3.294304244259308
1031
0.0
1021
3.294304244259308
1031
0.0
1000
R14_HATCH_DATA
1000
AE62
1011
1.0
1021
0.0
1031
0.0
1021
0.0
1031
0.0
1011
0.0
1021
1.0
1031
0.0
1021
1.0
1031
0.0
1011
0.0
1021
0.0
1031
1.0
1021
0.0
1031
1.0
1040
0.0
1010
0.0
1020
0.0
1030
1.0
1000
ANSI37
1070
     0
1070
     1
1071
        2
1071
        7
1070
     1
1070
     1
1071
       15
1040
23.56599999997638
1040
8.999899999990987
1040
0.0
1040
19.53899999998043
1040
-0.0001000000000317
1040
0.0
1040
19.53899999998043
1040
0.0
1040
0.0
1040
21.09599999997886
1040
0.0
1040
0.0
1040
21.09599999997886
1040
-0.0001000000000317
1040
0.0
1040
22.15599999997789
1040
2.368399999997621
1040
0.0
1040
24.97599999997499
1040
2.368399999997621
1040
0.0
1040
26.02015566812236
1040
0.0330999999912365
1040
0.0
1040
28.40199999996923
1040
0.0330999999912365
1040
0.414213562373095
1040
30.74199999996923
1040
2.373099999991211
1040
0.0
1040
30.74199999996927
1040
8.763099999991255
1040
0.0
1040
29.30199999996933
1040
8.763099999991255
1040
0.0
1040
29.30199999996933
1040
2.283099999991236
1040
-0.414213562373095
1040
28.40199999996923
1040
1.383099999991237
1040
0.0
1040
26.97358892824991
1040
1.383099999991202
1040
0.0
1071
       13
1005
AE25
1005
AE32
1005
AE33
1005
AE31
1005
AE34
1005
AE5B
1005
AE5F
1005
AE5A
1005
AE59
1005
AE5C
1005
AE5E
1005
AE5D
1005
AE26
1071
       22
1070
     0
1070
     1
1071
        3
1040
22.7389999999773
1040
3.670999999996297
1040
23.56599999997638
1040
5.5200999999945
1040
24.39299999997559
1040
3.670999999996297
1071
        3
1005
AE3F
1005
AE44
1005
AE40
1070
     0
1070
     1
1040
0.0
1040
0.15
1070
     0
1070
     2
1040
0.7853981633974483
1040
49.29960901727088
1040
-10.17736998311392
1040
-0.3367596045400932
1040
0.3367596045400932
1070
     0
1040
2.356194490192345
1040
49.29960901727088
1040
-10.17736998311392
1040
-0.3367596045400932
1040
-0.3367596045400932
1070
     0
1040
0.0110235143455945
1071
        2
1040
21.97929957367762
1040
3.294304244259308
1040
0.0
1040
21.97929957367762
1040
3.294304244259308
1040
0.0
1002
}
  0
INSERT
  5
AE63
  8
0
  2
*X147
 10
0.0
 20
0.0
 30
0.0
1001
ACAD
1000
HATCH
1002
{
1070
    19
1000
ANSI37
1040
0.15
1040
0.0
1000
R14_HATCH_DATA
1000
AE63
1011
1.0
1021
0.0
1031
0.0
1021
0.0
1031
0.0
1011
0.0
1021
1.0
1031
0.0
1021
1.0
1031
0.0
1011
0.0
1021
0.0
1031
1.0
1021
0.0
1031
1.0
1040
0.0
1010
0.0
1020
0.0
1030
1.0
1000
ANSI37
1070
     0
1070
     1
1071
        1
1071
        7
1070
     1
1070
     1
1071
       12
1040
31.64199999996833
1040
2.481619422925121
1040
0.2679491924310942
1040
32.94699999997067
1040
0.2212931190493919
1040
0.2679491924301353
1040
36.36699999995983
1040
0.2212931190459813
1040
0.2679491924321411
1040
37.67199999996831
1040
2.481619422928361
1040
0.0
1040
37.67199999996831
1040
8.763099999991255
1040
0.0
1040
36.23199999996837
1040
8.763099999991255
1040
0.0
1040
36.23199999996837
1040
2.481619422925064
1040
-0.2679491924310291
1040
35.64699999996708
1040
1.468369700498386
1040
-0.267949192430519
1040
33.66699999997093
1040
1.468369700497703
1040
-0.267949192431809
1040
33.08199999996839
1040
2.481619422926997
1040
0.0
1040
33.08199999996839
1040
8.763099999991255
1040
0.0
1040
31.64199999996833
1040
8.763099999991255
1040
0.0
1071
        0
1070
     0
1070
     1
1040
0.0
1040
0.15
1070
     0
1070
     2
1040
0.7853981633974483
1040
49.29960901727088
1040
-10.17736998311392
1040
-0.3367596045400932
1040
0.3367596045400932
1070
     0
1040
2.356194490192345
1040
49.29960901727088
1040
-10.17736998311392
1040
-0.3367596045400932
1040
-0.3367596045400932
1070
     0
1040
0.0110235143455945
1071
        1
1040
32.30357378967278
1040
3.988785755459219
1040
0.0
1002
}
  0
INSERT
  5
AE64
  8
0
  2
*X148
 10
0.0
 20
0.0
 30
0.0
1001
ACAD
1000
HATCH
1002
{
1070
    19
1000
ANSI37
1040
0.15
1040
0.0
1000
ASC_BOUNDS
1070
     1
1070
     2
1070
     8
1005
AE45
1005
AE48
1005
AE4C
1005
AE4B
1005
AE4A
1005
AE47
1005
AE49
1005
AE46
1000
ASC_SEEDPOINT
1011
39.74896370716704
1021
4.484843821435049
1031
0.0
1021
4.484843821435049
1031
0.0
1000
R14_HATCH_DATA
1000
AE64
1011
1.0
1021
0.0
1031
0.0
1021
0.0
1031
0.0
1011
0.0
1021
1.0
1031
0.0
1021
1.0
1031
0.0
1011
0.0
1021
0.0
1031
1.0
1021
0.0
1031
1.0
1040
0.0
1010
0.0
1020
0.0
1030
1.0
1000
ANSI37
1070
     0
1070
     1
1071
        1
1071
        7
1070
     0
1070
     1
1071
        9
1040
40.02599999995994
1040
5.341799999994635
1040
44.99999999995498
1040
-0.2368999999997641
1040
44.99999999995498
1040
8.763099999991255
1040
43.57899999995641
1040
8.763099999991255
1040
43.57899999995641
1040
3.421199999996588
1040
38.60499999996136
1040
8.999899999990987
1040
38.60499999996136
1040
8.999999999991019
1040
38.60499999996136
1040
0.0
1040
40.02599999995994
1040
0.0
1071
        8
1005
AE45
1005
AE48
1005
AE4C
1005
AE4B
1005
AE4A
1005
AE47
1005
AE49
1005
AE46
1070
     0
1070
     1
1040
0.0
1040
0.15
1070
     0
1070
     2
1040
0.7853981633974483
1040
49.29960901727088
1040
-10.17736998311392
1040
-0.3367596045400932
1040
0.3367596045400932
1070
     0
1040
2.356194490192345
1040
49.29960901727088
1040
-10.17736998311392
1040
-0.3367596045400932
1040
-0.3367596045400932
1070
     0
1040
0.0110235143455945
1071
        1
1040
39.74896370716704
1040
4.484843821435049
1040
0.0
1002
}
  0
INSERT
  5
AE65
  8
0
  2
*X149
 10
0.0
 20
0.0
 30
0.0
1001
ACAD
1000
HATCH
1002
{
1070
    19
1000
ANSI37
1040
0.15
1040
0.0
1000
ASC_BOUNDS
1070
     1
1070
     2
1070
     4
1005
AE29
1005
AE38
1005
AE2A
1005
AE2C
1000
ASC_SEEDPOINT
1011
1.079051535452663
1021
4.148538732891836
1031
0.0
1021
4.148538732891836
1031
0.0
1000
R14_HATCH_DATA
1000
AE65
1011
1.0
1021
0.0
1031
0.0
1021
0.0
1031
0.0
1011
0.0
1021
1.0
1031
0.0
1021
1.0
1031
0.0
1011
0.0
1021
0.0
1031
1.0
1021
0.0
1031
1.0
1040
0.0
1010
0.0
1020
0.0
1030
1.0
1000
ANSI37
1070
     0
1070
     1
1071
        1
1071
        7
1070
     0
1070
     1
1071
        4
1040
1.420999999998571
1040
0.0
1040
1.420999999998571
1040
8.763099999991255
1040
0.0
1040
8.763099999991255
1040
0.0
1040
0.0
1071
        4
1005
AE29
1005
AE38
1005
AE2A
1005
AE2C
1070
     0
1070
     1
1040
0.0
1040
0.15
1070
     0
1070
     2
1040
0.7853981633974483
1040
49.29960901727088
1040
-10.17736998311392
1040
-0.3367596045400932
1040
0.3367596045400932
1070
     0
1040
2.356194490192345
1040
49.29960901727088
1040
-10.17736998311392
1040
-0.3367596045400932
1040
-0.3367596045400932
1070
     0
1040
0.0053004257112761
1071
        1
1040
1.079051535452663
1040
4.148538732891836
1040
0.0
1002
}
  0
ENDBLK
  5
B523
  8
0
  0
BLOCK
  8
0
  2
*X144
 70
     1
 10
0.0
 20
0.0
 30
0.0
  3
*X144
  1

  0
LINE
  5
C319
  8
0
  6
CONTINUOUS
 10
3.418023043697893
 20
7.251849696850613
 30
0.0
 11
4.929273346838536
 21
8.763099999991255
 31
0.0
  0
LINE
  5
C31A
  8
0
  6
CONTINUOUS
 10
1.483656411257782
 20
4.643963855330318
 30
0.0
 11
5.60279255591872
 21
8.763099999991255
 31
0.0
  0
LINE
  5
C31B
  8
0
  6
CONTINUOUS
 10
1.755053947328235
 20
4.241842182320584
 30
0.0
 11
6.276311764998907
 21
8.763099999991255
 31
0.0
  0
LINE
  5
C31C
  8
0
  6
CONTINUOUS
 10
2.026451483398688
 20
3.839720509310849
 30
0.0
 11
4.441040904851878
 21
6.254309930764039
 31
0.0
  0
LINE
  5
C31D
  8
0
  6
CONTINUOUS
 10
2.297849019469139
 20
3.437598836301114
 30
0.0
 11
3.321765168359338
 21
4.461514985191313
 31
0.0
  0
LINE
  5
C31E
  8
0
  6
CONTINUOUS
 10
2.569246555539591
 20
3.03547716329138
 30
0.0
 11
3.593163397972743
 21
4.059394005724531
 31
0.0
  0
LINE
  5
C31F
  8
0
  6
CONTINUOUS
 10
2.840644091610043
 20
2.633355490281646
 30
0.0
 11
3.864561627586149
 21
3.657273026257751
 31
0.0
  0
LINE
  5
C320
  8
0
  6
CONTINUOUS
 10
3.112041627680496
 20
2.231233817271911
 30
0.0
 11
4.135959857199554
 21
3.25515204679097
 31
0.0
  0
LINE
  5
C321
  8
0
  6
CONTINUOUS
 10
3.383439163750948
 20
1.829112144262177
 30
0.0
 11
4.40735808681296
 21
2.853031067324189
 31
0.0
  0
LINE
  5
C322
  8
0
  6
CONTINUOUS
 10
3.654836699821399
 20
1.426990471252442
 30
0.0
 11
4.678756316426365
 21
2.450910087857407
 31
0.0
  0
LINE
  5
C323
  8
0
  6
CONTINUOUS
 10
3.926234235891853
 20
1.024868798242709
 30
0.0
 11
4.95015454603977
 21
2.048789108390626
 31
0.0
  0
LINE
  5
C324
  8
0
  6
CONTINUOUS
 10
4.197631771962304
 20
0.6227471252329737
 30
0.0
 11
5.221552775653176
 21
1.646668128923846
 31
0.0
  0
LINE
  5
C325
  8
0
  6
CONTINUOUS
 10
8.715877546767851
 20
7.835069736359266
 30
0.0
 11
9.435953450375058
 21
8.555145639966472
 31
0.0
  0
LINE
  5
C326
  8
0
  6
CONTINUOUS
 10
8.170620868422267
 20
6.616293848933497
 30
0.0
 11
9.644120833743461
 21
8.08979381425469
 31
0.0
  0
LINE
  5
C327
  8
0
  6
CONTINUOUS
 10
7.625364190076684
 20
5.397517961507727
 30
0.0
 11
9.852288217111864
 21
7.624441988542907
 31
0.0
  0
LINE
  5
C328
  8
0
  6
CONTINUOUS
 10
7.080107511731101
 20
4.178742074081957
 30
0.0
 11
10.06045560048027
 21
7.159090162831124
 31
0.0
  0
LINE
  5
C329
  8
0
  6
CONTINUOUS
 10
6.534850833385518
 20
2.959966186656187
 30
0.0
 11
10.26862298384867
 21
6.693738337119342
 31
0.0
  0
LINE
  5
C32A
  8
0
  6
CONTINUOUS
 10
4.469029308032756
 20
0.2206254522232385
 30
0.0
 11
5.492951005266582
 21
1.244547149457064
 31
0.0
  0
LINE
  5
C32B
  8
0
  6
CONTINUOUS
 10
5.989594155039935
 20
1.741190299230417
 30
0.0
 11
8.806950407233131
 21
4.558546551423613
 31
0.0
  0
LINE
  5
C32C
  8
0
  6
CONTINUOUS
 10
9.401251593263643
 20
5.152847737454126
 30
0.0
 11
10.47679036721708
 21
6.228386511407559
 31
0.0
  0
LINE
  5
C32D
  8
0
  6
CONTINUOUS
 10
4.921837203428691
 20
-0.0000858614610131
 30
0.0
 11
8.592923064886001
 21
3.670999999996297
 31
0.0
  0
LINE
  5
C32E
  8
0
  6
CONTINUOUS
 10
9.609390446785305
 20
4.6874673818956
 30
0.0
 11
10.68495775058548
 21
5.763034685695775
 31
0.0
  0
LINE
  5
C32F
  8
0
  6
CONTINUOUS
 10
5.595387755019432
 20
-0.0000545189504582
 30
0.0
 11
7.716137258923768
 21
2.120694984953879
 31
0.0
  0
LINE
  5
C330
  8
0
  6
CONTINUOUS
 10
6.268938306610172
 20
-0.000023176439905
 30
0.0
 11
7.170485805526503
 21
0.9015243224764267
 31
0.0
  0
LINE
  5
C331
  8
0
  6
CONTINUOUS
 10
7.963842273967511
 20
2.368399999997621
 30
0.0
 11
9.266442273966188
 21
3.670999999996297
 31
0.0
  0
LINE
  5
C332
  8
0
  6
CONTINUOUS
 10
8.637361483047696
 20
2.368399999997621
 30
0.0
 11
9.939961483046375
 21
3.670999999996297
 31
0.0
  0
LINE
  5
C333
  8
0
  6
CONTINUOUS
 10
9.817529300306965
 20
4.222087026337075
 30
0.0
 11
10.89312513395388
 21
5.297682859983993
 31
0.0
  0
LINE
  5
C334
  8
0
  6
CONTINUOUS
 10
10.02566815382863
 20
3.756706670778549
 30
0.0
 11
11.10129251732229
 21
4.832331034272211
 31
0.0
  0
LINE
  5
C335
  8
0
  6
CONTINUOUS
 10
9.310880692127883
 20
2.368399999997621
 30
0.0
 11
11.30945990069069
 21
4.366979208560428
 31
0.0
  0
LINE
  5
C336
  8
0
  6
CONTINUOUS
 10
9.98439990120807
 20
2.36839999999762
 30
0.0
 11
11.5176272840591
 21
3.901627382848645
 31
0.0
  0
LINE
  5
C337
  8
0
  6
CONTINUOUS
 10
10.65037369446246
 20
2.36085458417182
 30
0.0
 11
11.7257946674275
 21
3.436275557136862
 31
0.0
  0
LINE
  5
C338
  8
0
  6
CONTINUOUS
 10
10.85847197087848
 20
1.895433651507656
 30
0.0
 11
11.9339620507959
 21
2.97092373142508
 31
0.0
  0
LINE
  5
C339
  8
0
  6
CONTINUOUS
 10
11.0665702472945
 20
1.430012718843491
 30
0.0
 11
12.14212943416431
 21
2.505571905713296
 31
0.0
  0
LINE
  5
C33A
  8
0
  6
CONTINUOUS
 10
11.27466852371052
 20
0.9645917861793256
 30
0.0
 11
12.35029681753271
 21
2.040220080001513
 31
0.0
  0
LINE
  5
C33B
  8
0
  6
CONTINUOUS
 10
11.48276680012654
 20
0.4991708535151611
 30
0.0
 11
12.55846420090111
 21
1.57486825428973
 31
0.0
  0
LINE
  5
C33C
  8
0
  6
CONTINUOUS
 10
11.69086507654257
 20
0.0337499208509957
 30
0.0
 11
12.76663158426952
 21
1.109516428577947
 31
0.0
  0
LINE
  5
C33D
  8
0
  6
CONTINUOUS
 10
12.33057447873954
 20
-0.0000598860322123
 30
0.0
 11
12.97479896763792
 21
0.6441646028661663
 31
0.0
  0
LINE
  5
C33E
  8
0
  6
CONTINUOUS
 10
13.00413694809395
 20
-0.0000166257579952
 30
0.0
 11
13.18296635100632
 21
0.1788127771543824
 31
0.0
  0
LINE
  5
C33F
  8
0
  6
CONTINUOUS
 10
4.772852165289667
 20
-0.000092794222212
 30
0.0
 11
4.296495091028902
 21
0.4762642800385528
 31
0.0
  0
LINE
  5
C340
  8
0
  6
CONTINUOUS
 10
5.446340034776103
 20
-0.0000614546284616
 30
0.0
 11
2.898195908335625
 21
2.548082671812017
 31
0.0
  0
LINE
  5
C341
  8
0
  6
CONTINUOUS
 10
6.119827904262539
 20
-0.0000301150347113
 30
0.0
 11
1.499896725642348
 21
4.61990106358548
 31
0.0
  0
LINE
  5
C342
  8
0
  6
CONTINUOUS
 10
6.775136745476159
 20
0.0181802528318542
 30
0.0
 11
5.699826040202669
 21
1.093490958105344
 31
0.0
  0
LINE
  5
C343
  8
0
  6
CONTINUOUS
 10
6.983376846288489
 20
0.4834593610997118
 30
0.0
 11
5.908008617934405
 21
1.558827589453796
 31
0.0
  0
LINE
  5
C344
  8
0
  6
CONTINUOUS
 10
5.377063484962296
 20
1.416253513345719
 30
0.0
 11
1.702276957014131
 21
5.091040041293883
 31
0.0
  0
LINE
  5
C345
  8
0
  6
CONTINUOUS
 10
3.978745891735324
 20
3.488090315652877
 30
0.0
 11
2.000373521109399
 21
5.466462686278803
 31
0.0
  0
LINE
  5
C346
  8
0
  6
CONTINUOUS
 10
7.191616947100819
 20
0.948738469367568
 30
0.0
 11
6.11619119566614
 21
2.024164220802247
 31
0.0
  0
LINE
  5
C347
  8
0
  6
CONTINUOUS
 10
7.399857047913149
 20
1.414017577635424
 30
0.0
 11
6.324373773397875
 21
2.489500852150698
 31
0.0
  0
LINE
  5
C348
  8
0
  6
CONTINUOUS
 10
7.608097148725479
 20
1.879296685903281
 30
0.0
 11
6.53255635112961
 21
2.95483748349915
 31
0.0
  0
LINE
  5
C349
  8
0
  6
CONTINUOUS
 10
7.816337249537808
 20
2.344575794171138
 30
0.0
 11
6.740738928861345
 21
3.420174114847601
 31
0.0
  0
LINE
  5
C34A
  8
0
  6
CONTINUOUS
 10
3.310241080789734
 20
4.830114335678653
 30
0.0
 11
2.298470085204666
 21
5.84188533126372
 31
0.0
  0
LINE
  5
C34B
  8
0
  6
CONTINUOUS
 10
3.60832983563551
 20
5.205544789913063
 30
0.0
 11
2.596566649299935
 21
6.217307976248638
 31
0.0
  0
LINE
  5
C34C
  8
0
  6
CONTINUOUS
 10
3.906418590481286
 20
5.580975244147473
 30
0.0
 11
2.894663213395203
 21
6.592730621233557
 31
0.0
  0
LINE
  5
C34D
  8
0
  6
CONTINUOUS
 10
4.204507345327062
 20
5.956405698381884
 30
0.0
 11
3.192759777490472
 21
6.968153266218474
 31
0.0
  0
LINE
  5
C34E
  8
0
  6
CONTINUOUS
 10
8.466032252791512
 20
2.368399999997621
 30
0.0
 11
6.948921506593081
 21
3.885510746196053
 31
0.0
  0
LINE
  5
C34F
  8
0
  6
CONTINUOUS
 10
9.139551461871699
 20
2.36839999999762
 30
0.0
 11
7.157104084324816
 21
4.350847377544504
 31
0.0
  0
LINE
  5
C350
  8
0
  6
CONTINUOUS
 10
4.502596100172839
 20
6.331836152616295
 30
0.0
 11
3.49085634158574
 21
7.343575911203393
 31
0.0
  0
LINE
  5
C351
  8
0
  6
CONTINUOUS
 10
4.800684855018615
 20
6.707266606850705
 30
0.0
 11
3.788952905681008
 21
7.718998556188312
 31
0.0
  0
LINE
  5
C352
  8
0
  6
CONTINUOUS
 10
12.18154012887317
 20
-0.0000694579236642
 30
0.0
 11
11.32140332908496
 21
0.8600673418645499
 31
0.0
  0
LINE
  5
C353
  8
0
  6
CONTINUOUS
 10
12.85501608323566
 20
-0.0000262032059659
 30
0.0
 11
10.77672456435345
 21
2.078265315676246
 31
0.0
  0
LINE
  5
C354
  8
0
  6
CONTINUOUS
 10
9.813070670951886
 20
2.36839999999762
 30
0.0
 11
8.51047067095321
 21
3.670999999996297
 31
0.0
  0
LINE
  5
C355
  8
0
  6
CONTINUOUS
 10
10.48658988003207
 20
2.36839999999762
 30
0.0
 11
9.183989880033396
 21
3.670999999996297
 31
0.0
  0
LINE
  5
C356
  8
0
  6
CONTINUOUS
 10
8.441048632286794
 20
3.740422038662712
 30
0.0
 11
7.365286662056551
 21
4.816184008892956
 31
0.0
  0
LINE
  5
C357
  8
0
  6
CONTINUOUS
 10
8.649187485808454
 20
4.205802394221237
 30
0.0
 11
7.573469239788285
 21
5.281520640241407
 31
0.0
  0
LINE
  5
C358
  8
0
  6
CONTINUOUS
 10
5.098773609864391
 20
7.082697061085115
 30
0.0
 11
4.087049469776277
 21
8.09442120117323
 31
0.0
  0
LINE
  5
C359
  8
0
  6
CONTINUOUS
 10
5.396862364710167
 20
7.458127515319526
 30
0.0
 11
4.385146033871544
 21
8.469843846158149
 31
0.0
  0
LINE
  5
C35A
  8
0
  6
CONTINUOUS
 10
13.04801363231285
 20
0.4804954567970334
 30
0.0
 11
9.85750908911358
 21
3.670999999996297
 31
0.0
  0
LINE
  5
C35B
  8
0
  6
CONTINUOUS
 10
8.857326339330116
 20
4.671182749779763
 30
0.0
 11
7.781651817520021
 21
5.746857271589858
 31
0.0
  0
LINE
  5
C35C
  8
0
  6
CONTINUOUS
 10
5.694951119555943
 20
7.833557969553937
 30
0.0
 11
4.765409089118624
 21
8.763099999991255
 31
0.0
  0
LINE
  5
C35D
  8
0
  6
CONTINUOUS
 10
12.50286117236978
 20
1.699167125820288
 30
0.0
 11
9.68611877250287
 21
4.515909525687196
 31
0.0
  0
LINE
  5
C35E
  8
0
  6
CONTINUOUS
 10
9.065465192851777
 20
5.136563105338288
 30
0.0
 11
7.989834395251757
 21
6.21219390293831
 31
0.0
  0
LINE
  5
C35F
  8
0
  6
CONTINUOUS
 10
5.993039874401719
 20
8.208988423788346
 30
0.0
 11
5.43892829819881
 21
8.763099999991255
 31
0.0
  0
LINE
  5
C360
  8
0
  6
CONTINUOUS
 10
11.95770871242671
 20
2.917838794843543
 30
0.0
 11
8.19801697298349
 21
6.677530534286761
 31
0.0
  0
LINE
  5
C361
  8
0
  6
CONTINUOUS
 10
6.291128629247495
 20
8.584418878022756
 30
0.0
 11
6.112447507278997
 21
8.763099999991255
 31
0.0
  0
LINE
  5
C362
  8
0
  6
CONTINUOUS
 10
11.41255625248364
 20
4.136510463866797
 30
0.0
 11
8.406199550715227
 21
7.142867165635211
 31
0.0
  0
LINE
  5
C363
  8
0
  6
CONTINUOUS
 10
10.86740379254057
 20
5.355182132890051
 30
0.0
 11
8.614382128446962
 21
7.608203796983664
 31
0.0
  0
LINE
  5
C364
  8
0
  6
CONTINUOUS
 10
10.3222513325975
 20
6.573853801913305
 30
0.0
 11
8.822564706178696
 21
8.073540428332114
 31
0.0
  0
LINE
  5
C365
  8
0
  6
CONTINUOUS
 10
9.777098872654436
 20
7.792525470936562
 30
0.0
 11
9.030747283910433
 21
8.538877059680566
 31
0.0
  0
ENDBLK
  5
C4A7
  8
0
  0
BLOCK
  8
0
  2
*X145
 70
     1
 10
0.0
 20
0.0
 30
0.0
  3
*X145
  1

  0
LINE
  5
C367
  8
0
  6
CONTINUOUS
 10
10.67292308101235
 20
8.445076852443387
 30
0.0
 11
10.99094622856022
 21
8.763099999991255
 31
0.0
  0
LINE
  5
C368
  8
0
  6
CONTINUOUS
 10
10.87250383178748
 20
7.971138394138331
 30
0.0
 11
11.6644654376404
 21
8.763099999991255
 31
0.0
  0
LINE
  5
C369
  8
0
  6
CONTINUOUS
 10
11.07208458256261
 20
7.497199935833273
 30
0.0
 11
12.12126590876355
 21
8.546381262034211
 31
0.0
  0
LINE
  5
C36A
  8
0
  6
CONTINUOUS
 10
11.27166533333774
 20
7.023261477528216
 30
0.0
 11
12.32085164573666
 21
8.072447789927136
 31
0.0
  0
LINE
  5
C36B
  8
0
  6
CONTINUOUS
 10
11.47124608411287
 20
6.549323019223158
 30
0.0
 11
12.52043738270977
 21
7.59851431782006
 31
0.0
  0
LINE
  5
C36C
  8
0
  6
CONTINUOUS
 10
11.670826834888
 20
6.075384560918101
 30
0.0
 11
12.72002311968288
 21
7.124580845712984
 31
0.0
  0
LINE
  5
C36D
  8
0
  6
CONTINUOUS
 10
11.87040758566313
 20
5.601446102613043
 30
0.0
 11
12.91960885665599
 21
6.650647373605907
 31
0.0
  0
LINE
  5
C36E
  8
0
  6
CONTINUOUS
 10
12.06998833643825
 20
5.127507644307986
 30
0.0
 11
13.1191945936291
 21
6.176713901498832
 31
0.0
  0
LINE
  5
C36F
  8
0
  6
CONTINUOUS
 10
12.26956908721338
 20
4.65356918600293
 30
0.0
 11
13.31878033060221
 21
5.702780429391757
 31
0.0
  0
LINE
  5
C370
  8
0
  6
CONTINUOUS
 10
12.46914983798851
 20
4.179630727697873
 30
0.0
 11
13.51836606757532
 21
5.228846957284683
 31
0.0
  0
LINE
  5
C371
  8
0
  6
CONTINUOUS
 10
12.66873058876364
 20
3.705692269392816
 30
0.0
 11
13.71795180454843
 21
4.754913485177607
 31
0.0
  0
LINE
  5
C372
  8
0
  6
CONTINUOUS
 10
12.86831133953877
 20
3.231753811087759
 30
0.0
 11
13.91753754152154
 21
4.280980013070531
 31
0.0
  0
LINE
  5
C373
  8
0
  6
CONTINUOUS
 10
13.0678920903139
 20
2.757815352782702
 30
0.0
 11
14.11712327849465
 21
3.807046540963456
 31
0.0
  0
LINE
  5
C374
  8
0
  6
CONTINUOUS
 10
13.26747284108903
 20
2.283876894477644
 30
0.0
 11
14.31670901546777
 21
3.333113068856379
 31
0.0
  0
LINE
  5
C375
  8
0
  6
CONTINUOUS
 10
16.36767838827179
 20
8.751678487061342
 30
0.0
 11
16.50332410898388
 21
8.887324207773432
 31
0.0
  0
LINE
  5
C376
  8
0
  6
CONTINUOUS
 10
15.96190732182191
 20
7.67238821153127
 30
0.0
 11
16.68735328004734
 21
8.397834169756699
 31
0.0
  0
LINE
  5
C377
  8
0
  6
CONTINUOUS
 10
15.55613625537202
 20
6.593097936001196
 30
0.0
 11
16.87138245111079
 21
7.908344131739965
 31
0.0
  0
LINE
  5
C378
  8
0
  6
CONTINUOUS
 10
15.15036518892213
 20
5.513807660471122
 30
0.0
 11
17.05541162217424
 21
7.418854093723231
 31
0.0
  0
LINE
  5
C379
  8
0
  6
CONTINUOUS
 10
14.74459412247225
 20
4.434517384941048
 30
0.0
 11
17.2394407932377
 21
6.929364055706499
 31
0.0
  0
LINE
  5
C37A
  8
0
  6
CONTINUOUS
 10
14.33882305602236
 20
3.355227109410975
 30
0.0
 11
17.42346996430115
 21
6.439874017689766
 31
0.0
  0
LINE
  5
C37B
  8
0
  6
CONTINUOUS
 10
13.46705359186416
 20
1.809938436172586
 30
0.0
 11
16.0819338255367
 21
4.424818669845129
 31
0.0
  0
LINE
  5
C37C
  8
0
  6
CONTINUOUS
 10
16.63283254238972
 20
4.975717386698149
 30
0.0
 11
17.60749913536461
 21
5.950383979673033
 31
0.0
  0
LINE
  5
C37D
  8
0
  6
CONTINUOUS
 10
13.66663434263929
 20
1.335999977867529
 30
0.0
 11
15.67604797733754
 21
3.345413612565779
 31
0.0
  0
LINE
  5
C37E
  8
0
  6
CONTINUOUS
 10
13.86621509341442
 20
0.8620615195624723
 30
0.0
 11
15.27016212913838
 21
2.26600855528643
 31
0.0
  0
LINE
  5
C37F
  8
0
  6
CONTINUOUS
 10
16.81682257348267
 20
4.486188208710908
 30
0.0
 11
17.79152830642806
 21
5.460893941656299
 31
0.0
  0
LINE
  5
C380
  8
0
  6
CONTINUOUS
 10
17.00081260457561
 20
3.996659030723667
 30
0.0
 11
17.97555747749151
 21
4.971403903639565
 31
0.0
  0
LINE
  5
C381
  8
0
  6
CONTINUOUS
 10
20.74362343514722
 20
8.412989070375462
 30
0.0
 11
21.09373436476302
 21
8.763099999991256
 31
0.0
  0
LINE
  5
C382
  8
0
  6
CONTINUOUS
 10
20.25401257174777
 20
7.249858997895826
 30
0.0
 11
21.7672535738432
 21
8.763099999991255
 31
0.0
  0
LINE
  5
C383
  8
0
  6
CONTINUOUS
 10
14.06579584418955
 20
0.3881230612574149
 30
0.0
 11
14.86427628093921
 21
1.186603498007082
 31
0.0
  0
LINE
  5
C384
  8
0
  6
CONTINUOUS
 10
14.26537659496467
 20
-0.0858153970476412
 30
0.0
 11
14.45839043274005
 21
0.1071984407277329
 31
0.0
  0
LINE
  5
C385
  8
0
  6
CONTINUOUS
 10
17.18480263566856
 20
3.507129852736426
 30
0.0
 11
18.15958664855496
 21
4.481913865622833
 31
0.0
  0
LINE
  5
C386
  8
0
  6
CONTINUOUS
 10
17.3687926667615
 20
3.017600674749186
 30
0.0
 11
18.34361581961842
 21
3.9924238276061
 31
0.0
  0
LINE
  5
C387
  8
0
  6
CONTINUOUS
 10
19.76440170834832
 20
6.086728925416191
 30
0.0
 11
22.33924590259489
 21
8.661573119662755
 31
0.0
  0
LINE
  5
C388
  8
0
  6
CONTINUOUS
 10
19.27479084494887
 20
4.923598852936555
 30
0.0
 11
21.84929622842713
 21
7.498104236414807
 31
0.0
  0
LINE
  5
C389
  8
0
  6
CONTINUOUS
 10
17.55278269785445
 20
2.528071496761945
 30
0.0
 11
18.52764499068187
 21
3.502933789589366
 31
0.0
  0
LINE
  5
C38A
  8
0
  6
CONTINUOUS
 10
18.78517998154942
 20
3.760468780456919
 30
0.0
 11
21.35934655425936
 21
6.33463535316686
 31
0.0
  0
LINE
  5
C38B
  8
0
  6
CONTINUOUS
 10
17.73677272894739
 20
2.038542318774704
 30
0.0
 11
20.8693968800916
 21
5.171166469918914
 31
0.0
  0
LINE
  5
C38C
  8
0
  6
CONTINUOUS
 10
17.92076276004034
 20
1.549013140787464
 30
0.0
 11
20.37944720592384
 21
4.007697586670968
 31
0.0
  0
LINE
  5
C38D
  8
0
  6
CONTINUOUS
 10
18.10475279113329
 20
1.059483962800223
 30
0.0
 11
19.88949753175608
 21
2.84422870342302
 31
0.0
  0
LINE
  5
C38E
  8
0
  6
CONTINUOUS
 10
18.28874282222623
 20
0.5699547848129822
 30
0.0
 11
19.39954785758832
 21
1.680759820175074
 31
0.0
  0
LINE
  5
C38F
  8
0
  6
CONTINUOUS
 10
18.47273285331918
 20
0.0804256068257416
 30
0.0
 11
18.90959818342056
 21
0.517290936927127
 31
0.0
  0
LINE
  5
C390
  8
0
  6
CONTINUOUS
 10
14.3590401358224
 20
-0.1570118376323384
 30
0.0
 11
14.24903296539946
 21
-0.0470046672093929
 31
0.0
  0
LINE
  5
C391
  8
0
  6
CONTINUOUS
 10
14.54309291258661
 20
0.332454594683643
 30
0.0
 11
13.75908329123172
 21
1.116464216038529
 31
0.0
  0
LINE
  5
C392
  8
0
  6
CONTINUOUS
 10
14.72714568935081
 20
0.8219210269996244
 30
0.0
 11
13.26913361706399
 21
2.27993309928645
 31
0.0
  0
LINE
  5
C393
  8
0
  6
CONTINUOUS
 10
14.91119846611502
 20
1.311387459315606
 30
0.0
 11
12.77918394289625
 21
3.443401982534371
 31
0.0
  0
LINE
  5
C394
  8
0
  6
CONTINUOUS
 10
15.09525124287922
 20
1.800853891631587
 30
0.0
 11
12.28923426872852
 21
4.606870865782293
 31
0.0
  0
LINE
  5
C395
  8
0
  6
CONTINUOUS
 10
15.27930401964343
 20
2.290320323947569
 30
0.0
 11
11.79928459456078
 21
5.770339749030213
 31
0.0
  0
LINE
  5
C396
  8
0
  6
CONTINUOUS
 10
15.46335679640763
 20
2.77978675626355
 30
0.0
 11
14.48885470994921
 21
3.754288842721972
 31
0.0
  0
LINE
  5
C397
  8
0
  6
CONTINUOUS
 10
13.88507249233704
 20
4.358071060334137
 30
0.0
 11
11.30933492039305
 21
6.933808632278135
 31
0.0
  0
LINE
  5
C398
  8
0
  6
CONTINUOUS
 10
18.75840522805855
 20
0.1582575336928151
 30
0.0
 11
18.25383727664818
 21
0.6628254851031863
 31
0.0
  0
LINE
  5
C399
  8
0
  6
CONTINUOUS
 10
15.64740957317184
 20
3.269253188579531
 30
0.0
 11
14.67288388101266
 21
4.243778880738705
 31
0.0
  0
LINE
  5
C39A
  8
0
  6
CONTINUOUS
 10
13.39509276772158
 20
5.521569994029786
 30
0.0
 11
10.81938524622531
 21
8.097277515526056
 31
0.0
  0
LINE
  5
C39B
  8
0
  6
CONTINUOUS
 10
18.95798597883369
 20
0.6321959919978686
 30
0.0
 11
17.84825644852853
 21
1.741925522303024
 31
0.0
  0
LINE
  5
C39C
  8
0
  6
CONTINUOUS
 10
19.15756672960882
 20
1.106134450302922
 30
0.0
 11
17.44267562040888
 21
2.821025559502861
 31
0.0
  0
LINE
  5
C39D
  8
0
  6
CONTINUOUS
 10
15.83146234993604
 20
3.758719620895513
 30
0.0
 11
14.85691305207612
 21
4.733268918755439
 31
0.0
  0
LINE
  5
C39E
  8
0
  6
CONTINUOUS
 10
16.01551512670025
 20
4.248186053211494
 30
0.0
 11
15.04094222313957
 21
5.222758956772172
 31
0.0
  0
LINE
  5
C39F
  8
0
  6
CONTINUOUS
 10
12.90511304310612
 20
6.685068927725435
 30
0.0
 11
10.8270819708403
 21
8.763099999991255
 31
0.0
  0
LINE
  5
C3A0
  8
0
  6
CONTINUOUS
 10
12.41513331849066
 20
7.848567861421083
 30
0.0
 11
11.50060117992049
 21
8.763099999991255
 31
0.0
  0
LINE
  5
C3A1
  8
0
  6
CONTINUOUS
 10
19.35714748038395
 20
1.580072908607975
 30
0.0
 11
17.03709479228923
 21
3.900125596702697
 31
0.0
  0
LINE
  5
C3A2
  8
0
  6
CONTINUOUS
 10
19.55672823115909
 20
2.054011366913028
 30
0.0
 11
16.63151396416958
 21
4.979225633902534
 31
0.0
  0
LINE
  5
C3A3
  8
0
  6
CONTINUOUS
 10
16.19956790346445
 20
4.737652485527476
 30
0.0
 11
15.22497139420302
 21
5.712248994788904
 31
0.0
  0
LINE
  5
C3A4
  8
0
  6
CONTINUOUS
 10
16.38362068022866
 20
5.227118917843457
 30
0.0
 11
15.40900056526648
 21
6.201739032805637
 31
0.0
  0
LINE
  5
C3A5
  8
0
  6
CONTINUOUS
 10
19.75630898193422
 20
2.527949825218081
 30
0.0
 11
18.70774536448286
 21
3.576513442669441
 31
0.0
  0
LINE
  5
C3A6
  8
0
  6
CONTINUOUS
 10
19.95588973270936
 20
3.001888283523134
 30
0.0
 11
18.90726987211446
 21
4.050508144118028
 31
0.0
  0
LINE
  5
C3A7
  8
0
  6
CONTINUOUS
 10
20.15547048348449
 20
3.475826741828186
 30
0.0
 11
19.10679437974606
 21
4.524502845566614
 31
0.0
  0
LINE
  5
C3A8
  8
0
  6
CONTINUOUS
 10
20.35505123425962
 20
3.94976520013324
 30
0.0
 11
19.30631888737766
 21
4.998497547015201
 31
0.0
  0
LINE
  5
C3A9
  8
0
  6
CONTINUOUS
 10
20.55463198503475
 20
4.423703658438292
 30
0.0
 11
19.50584339500926
 21
5.472492248463787
 31
0.0
  0
LINE
  5
C3AA
  8
0
  6
CONTINUOUS
 10
18.37481191085755
 20
3.909446896294752
 30
0.0
 11
15.59302973632993
 21
6.691229070822371
 31
0.0
  0
LINE
  5
C3AB
  8
0
  6
CONTINUOUS
 10
17.96904084440766
 20
4.988737171824825
 30
0.0
 11
15.77705890739338
 21
7.180719108839104
 31
0.0
  0
LINE
  5
C3AC
  8
0
  6
CONTINUOUS
 10
17.56326977795777
 20
6.068027447354899
 30
0.0
 11
15.96108807845684
 21
7.670209146855838
 31
0.0
  0
LINE
  5
C3AD
  8
0
  6
CONTINUOUS
 10
17.15749871150789
 20
7.147317722884972
 30
0.0
 11
16.14511724952029
 21
8.15969918487257
 31
0.0
  0
LINE
  5
C3AE
  8
0
  6
CONTINUOUS
 10
16.751727645058
 20
8.226607998415046
 30
0.0
 11
16.32914642058374
 21
8.649189222889303
 31
0.0
  0
LINE
  5
C3AF
  8
0
  6
CONTINUOUS
 10
20.75421273580989
 20
4.897642116743345
 30
0.0
 11
19.70536790264086
 21
5.946486949912374
 31
0.0
  0
LINE
  5
C3B0
  8
0
  6
CONTINUOUS
 10
20.95379348658502
 20
5.371580575048398
 30
0.0
 11
19.90489241027246
 21
6.42048165136096
 31
0.0
  0
LINE
  5
C3B1
  8
0
  6
CONTINUOUS
 10
21.15337423736015
 20
5.845519033353452
 30
0.0
 11
20.10441691790406
 21
6.894476352809547
 31
0.0
  0
LINE
  5
C3B2
  8
0
  6
CONTINUOUS
 10
21.35295498813529
 20
6.319457491658505
 30
0.0
 11
20.30394142553566
 21
7.368471054258134
 31
0.0
  0
LINE
  5
C3B3
  8
0
  6
CONTINUOUS
 10
21.55253573891042
 20
6.793395949963558
 30
0.0
 11
20.50346593316726
 21
7.842465755706721
 31
0.0
  0
LINE
  5
C3B4
  8
0
  6
CONTINUOUS
 10
21.75211648968556
 20
7.267334408268612
 30
0.0
 11
20.70299044079886
 21
8.316460457155308
 31
0.0
  0
LINE
  5
C3B5
  8
0
  6
CONTINUOUS
 10
21.95169724046069
 20
7.741272866573663
 30
0.0
 11
20.9298701070431
 21
8.763099999991256
 31
0.0
  0
LINE
  5
C3B6
  8
0
  6
CONTINUOUS
 10
22.15127799123582
 20
8.215211324878716
 30
0.0
 11
21.60338931612328
 21
8.763099999991256
 31
0.0
  0
LINE
  5
C3B7
  8
0
  6
CONTINUOUS
 10
22.35085874201096
 20
8.689149783183769
 30
0.0
 11
22.27690852520347
 21
8.763099999991255
 31
0.0
  0
ENDBLK
  5
C4A9
  8
0
  0
BLOCK
  8
0
  2
*X146
 70
     1
 10
0.0
 20
0.0
 30
0.0
  3
*X146
  1

  0
LINE
  5
C3B9
  8
0
  6
CONTINUOUS
 10
23.19462913593892
 20
8.169917934846424
 30
0.0
 11
23.70775465517246
 21
8.683043454079957
 31
0.0
  0
LINE
  5
C3BA
  8
0
  6
CONTINUOUS
 10
22.64923161835078
 20
6.951001208178088
 30
0.0
 11
23.9159364069932
 21
8.217705996820516
 31
0.0
  0
LINE
  5
C3BB
  8
0
  6
CONTINUOUS
 10
22.10383410076263
 20
5.732084481509751
 30
0.0
 11
24.12411815881395
 21
7.752368539561078
 31
0.0
  0
LINE
  5
C3BC
  8
0
  6
CONTINUOUS
 10
21.55843658317447
 20
4.513167754841414
 30
0.0
 11
24.3322999106347
 21
7.287031082301639
 31
0.0
  0
LINE
  5
C3BD
  8
0
  6
CONTINUOUS
 10
21.01303906558632
 20
3.294251028173077
 30
0.0
 11
24.54048166245544
 21
6.821693625042199
 31
0.0
  0
LINE
  5
C3BE
  8
0
  6
CONTINUOUS
 10
20.46764154799817
 20
2.075334301504738
 30
0.0
 11
23.28571549467848
 21
4.89340824818505
 31
0.0
  0
LINE
  5
C3BF
  8
0
  6
CONTINUOUS
 10
19.92224403041002
 20
0.8564175748364002
 30
0.0
 11
22.74075865492779
 21
3.674932199354171
 31
0.0
  0
LINE
  5
C3C0
  8
0
  6
CONTINUOUS
 10
23.67305085490148
 20
5.280743608408048
 30
0.0
 11
24.74866341427619
 21
6.356356167782759
 31
0.0
  0
LINE
  5
C3C1
  8
0
  6
CONTINUOUS
 10
23.88118970842314
 20
4.815363252849522
 30
0.0
 11
24.95684516609694
 21
5.89101871052332
 31
0.0
  0
LINE
  5
C3C2
  8
0
  6
CONTINUOUS
 10
19.73925852647308
 20
-0.0000871381807288
 30
0.0
 11
23.4103456646501
 21
3.670999999996297
 31
0.0
  0
LINE
  5
C3C3
  8
0
  6
CONTINUOUS
 10
24.0893285619448
 20
4.349982897290997
 30
0.0
 11
25.16502691791769
 21
5.42568125326388
 31
0.0
  0
LINE
  5
C3C4
  8
0
  6
CONTINUOUS
 10
20.41282099582748
 20
-0.0000438779065108
 30
0.0
 11
21.64944178675636
 21
1.236576913022366
 31
0.0
  0
LINE
  5
C3C5
  8
0
  6
CONTINUOUS
 10
22.78126487373161
 20
2.36839999999762
 30
0.0
 11
24.08386487373029
 21
3.670999999996297
 31
0.0
  0
LINE
  5
C3C6
  8
0
  6
CONTINUOUS
 10
24.29746741546646
 20
3.884602541732471
 30
0.0
 11
25.37320866973843
 21
4.960343796004441
 31
0.0
  0
LINE
  5
C3C7
  8
0
  6
CONTINUOUS
 10
21.08638346518189
 20
-0.0000006176322938
 30
0.0
 11
21.10379033335899
 21
0.0174062505448083
 31
0.0
  0
LINE
  5
C3C8
  8
0
  6
CONTINUOUS
 10
23.4547840828118
 20
2.36839999999762
 30
0.0
 11
25.58139042155918
 21
4.495006338745002
 31
0.0
  0
LINE
  5
C3C9
  8
0
  6
CONTINUOUS
 10
29.30199999996933
 20
8.215615917155148
 30
0.0
 11
29.84948408280543
 21
8.763099999991255
 31
0.0
  0
LINE
  5
C3CA
  8
0
  6
CONTINUOUS
 10
24.12830329189199
 20
2.36839999999762
 30
0.0
 11
25.78957217337993
 21
4.029668881485562
 31
0.0
  0
LINE
  5
C3CB
  8
0
  6
CONTINUOUS
 10
29.30199999996933
 20
7.54209670807496
 30
0.0
 11
30.52300329188562
 21
8.763099999991255
 31
0.0
  0
LINE
  5
C3CC
  8
0
  6
CONTINUOUS
 10
24.80182250097217
 20
2.36839999999762
 30
0.0
 11
25.99775392520067
 21
3.564331424226122
 31
0.0
  0
LINE
  5
C3CD
  8
0
  6
CONTINUOUS
 10
29.30199999996933
 20
6.868577498994774
 30
0.0
 11
30.74199999996926
 21
8.308577498994712
 31
0.0
  0
LINE
  5
C3CE
  8
0
  6
CONTINUOUS
 10
25.13028238392013
 20
2.023340673865392
 30
0.0
 11
26.20593567702142
 21
3.098993966966683
 31
0.0
  0
LINE
  5
C3CF
  8
0
  6
CONTINUOUS
 10
25.33838066033617
 20
1.557919741201244
 30
0.0
 11
26.41411742884217
 21
2.633656509707244
 31
0.0
  0
LINE
  5
C3D0
  8
0
  6
CONTINUOUS
 10
25.54647893675221
 20
1.092498808537098
 30
0.0
 11
26.62229918066291
 21
2.168319052447804
 31
0.0
  0
LINE
  5
C3D1
  8
0
  6
CONTINUOUS
 10
25.75457721316825
 20
0.62707787587295
 30
0.0
 11
26.83048093248366
 21
1.702981595188365
 31
0.0
  0
LINE
  5
C3D2
  8
0
  6
CONTINUOUS
 10
29.30199999996933
 20
6.195058289914587
 30
0.0
 11
30.74199999996926
 21
7.635058289914522
 31
0.0
  0
LINE
  5
C3D3
  8
0
  6
CONTINUOUS
 10
29.30199999996933
 20
5.521539080834401
 30
0.0
 11
30.74199999996926
 21
6.961539080834331
 31
0.0
  0
LINE
  5
C3D4
  8
0
  6
CONTINUOUS
 10
29.30199999996933
 20
4.848019871754214
 30
0.0
 11
30.74199999996925
 21
6.288019871754143
 31
0.0
  0
LINE
  5
C3D5
  8
0
  6
CONTINUOUS
 10
29.30199999996933
 20
4.174500662674028
 30
0.0
 11
30.74199999996925
 21
5.614500662673953
 31
0.0
  0
LINE
  5
C3D6
  8
0
  6
CONTINUOUS
 10
25.96267548958429
 20
0.1616569432088024
 30
0.0
 11
27.18411854636669
 21
1.383099999991207
 31
0.0
  0
LINE
  5
C3D7
  8
0
  6
CONTINUOUS
 10
29.30199999996933
 20
3.500981453593841
 30
0.0
 11
30.74199999996925
 21
4.940981453593762
 31
0.0
  0
LINE
  5
C3D8
  8
0
  6
CONTINUOUS
 10
26.50763775544691
 20
0.0330999999912356
 30
0.0
 11
27.85763775544689
 21
1.383099999991223
 31
0.0
  0
LINE
  5
C3D9
  8
0
  6
CONTINUOUS
 10
29.30199999996933
 20
2.827462244513656
 30
0.0
 11
30.74199999996925
 21
4.267462244513574
 31
0.0
  0
LINE
  5
C3DA
  8
0
  6
CONTINUOUS
 10
27.18115696452709
 20
0.0330999999912356
 30
0.0
 11
28.6224847300034
 21
1.474427765467545
 31
0.0
  0
LINE
  5
C3DB
  8
0
  6
CONTINUOUS
 10
29.21067223449293
 20
2.062615269957069
 30
0.0
 11
30.74199999996924
 21
3.593943035433383
 31
0.0
  0
LINE
  5
C3DC
  8
0
  6
CONTINUOUS
 10
27.85467617360728
 20
0.0330999999912356
 30
0.0
 11
30.74199999996924
 21
2.920423826353195
 31
0.0
  0
LINE
  5
C3DD
  8
0
  6
CONTINUOUS
 10
28.57438609860264
 20
0.0792907159064073
 30
0.0
 11
30.69580928405405
 21
2.200713901357819
 31
0.0
  0
LINE
  5
C3DE
  8
0
  6
CONTINUOUS
 10
29.49443044814297
 20
0.3258158563665496
 30
0.0
 11
30.44928414359389
 21
1.280669551817477
 31
0.0
  0
LINE
  5
C3DF
  8
0
  6
CONTINUOUS
 10
19.59027867740337
 20
-0.0000967065718083
 30
0.0
 11
19.55485265190471
 21
0.035329318926844
 31
0.0
  0
LINE
  5
C3E0
  8
0
  6
CONTINUOUS
 10
20.26375463176586
 20
-0.0000534518541091
 30
0.0
 11
19.76305575737534
 21
0.5006454225364014
 31
0.0
  0
LINE
  5
C3E1
  8
0
  6
CONTINUOUS
 10
20.93723058612834
 20
-0.0000101971364099
 30
0.0
 11
19.97125886284597
 21
0.965961526145958
 31
0.0
  0
LINE
  5
C3E2
  8
0
  6
CONTINUOUS
 10
21.25514828313686
 20
0.355591314935257
 30
0.0
 11
20.1794619683166
 21
1.431277629755512
 31
0.0
  0
LINE
  5
C3E3
  8
0
  6
CONTINUOUS
 10
21.46338838394921
 20
0.8208704232030986
 30
0.0
 11
20.38766507378723
 21
1.896593733365069
 31
0.0
  0
LINE
  5
C3E4
  8
0
  6
CONTINUOUS
 10
21.67162848476155
 20
1.28614953147094
 30
0.0
 11
20.59586817925786
 21
2.361909836974626
 31
0.0
  0
LINE
  5
C3E5
  8
0
  6
CONTINUOUS
 10
21.8798685855739
 20
1.751428639738782
 30
0.0
 11
20.80407128472849
 21
2.827225940584183
 31
0.0
  0
LINE
  5
C3E6
  8
0
  6
CONTINUOUS
 10
22.08810868638624
 20
2.216707748006623
 30
0.0
 11
21.01227439019912
 21
3.292542044193739
 31
0.0
  0
LINE
  5
C3E7
  8
0
  6
CONTINUOUS
 10
22.60993564347543
 20
2.36839999999762
 30
0.0
 11
21.22047749566975
 21
3.757858147803296
 31
0.0
  0
LINE
  5
C3E8
  8
0
  6
CONTINUOUS
 10
23.28345485255561
 20
2.36839999999762
 30
0.0
 11
21.42868060114038
 21
4.223174251412853
 31
0.0
  0
LINE
  5
C3E9
  8
0
  6
CONTINUOUS
 10
26.29227406164219
 20
0.0330999999912356
 30
0.0
 11
25.80009199592872
 21
0.5252820657046957
 31
0.0
  0
LINE
  5
C3EA
  8
0
  6
CONTINUOUS
 10
23.9569740616358
 20
2.36839999999762
 30
0.0
 11
21.63688370661101
 21
4.688490355022409
 31
0.0
  0
LINE
  5
C3EB
  8
0
  6
CONTINUOUS
 10
26.96579327072237
 20
0.0330999999912356
 30
0.0
 11
25.2554132311971
 21
1.743480039516508
 31
0.0
  0
LINE
  5
C3EC
  8
0
  6
CONTINUOUS
 10
24.63049327071599
 20
2.36839999999762
 30
0.0
 11
23.32789327071731
 21
3.670999999996297
 31
0.0
  0
LINE
  5
C3ED
  8
0
  6
CONTINUOUS
 10
22.92098674744635
 20
4.077906523267254
 30
0.0
 11
21.84508681208164
 21
5.153806458631966
 31
0.0
  0
LINE
  5
C3EE
  8
0
  6
CONTINUOUS
 10
27.63931247980256
 20
0.0330999999912356
 30
0.0
 11
24.0014124797975
 21
3.670999999996297
 31
0.0
  0
LINE
  5
C3EF
  8
0
  6
CONTINUOUS
 10
23.129125600968
 20
4.5432868788258
 30
0.0
 11
22.05328991755227
 21
5.619122562241522
 31
0.0
  0
LINE
  5
C3F0
  8
0
  6
CONTINUOUS
 10
28.31283168888275
 20
0.0330999999912356
 30
0.0
 11
24.16488385994816
 21
4.181047828925828
 31
0.0
  0
LINE
  5
C3F1
  8
0
  6
CONTINUOUS
 10
23.33726445448964
 20
5.008667234384345
 30
0.0
 11
22.2614930230229
 21
6.084438665851079
 31
0.0
  0
LINE
  5
C3F2
  8
0
  6
CONTINUOUS
 10
28.86286302309502
 20
0.1565878748591523
 30
0.0
 11
27.63635089796295
 21
1.383099999991217
 31
0.0
  0
LINE
  5
C3F3
  8
0
  6
CONTINUOUS
 10
26.43704649509776
 20
2.582404402856405
 30
0.0
 11
23.61992702019732
 21
5.399523877756844
 31
0.0
  0
LINE
  5
C3F4
  8
0
  6
CONTINUOUS
 10
23.54540330801128
 20
5.47404758994289
 30
0.0
 11
22.46969612849353
 21
6.549754769460635
 31
0.0
  0
LINE
  5
C3F5
  8
0
  6
CONTINUOUS
 10
29.39405087596853
 20
0.2989192310658284
 30
0.0
 11
28.30987010704312
 21
1.383099999991234
 31
0.0
  0
LINE
  5
C3F6
  8
0
  6
CONTINUOUS
 10
25.89179548232307
 20
3.801174624711282
 30
0.0
 11
22.67789923396416
 21
7.015070873070191
 31
0.0
  0
LINE
  5
C3F7
  8
0
  6
CONTINUOUS
 10
29.79594438047407
 20
0.570544935640473
 30
0.0
 11
28.81310432793121
 21
1.553384988183336
 31
0.0
  0
LINE
  5
C3F8
  8
0
  6
CONTINUOUS
 10
25.34654446954838
 20
5.01994484656616
 30
0.0
 11
22.88610233943479
 21
7.480386976679748
 31
0.0
  0
LINE
  5
C3F9
  8
0
  6
CONTINUOUS
 10
30.13270398501416
 20
0.9073045401805646
 30
0.0
 11
29.14234640337737
 21
1.897662121817355
 31
0.0
  0
LINE
  5
C3FA
  8
0
  6
CONTINUOUS
 10
24.80129345677369
 20
6.238715068421037
 30
0.0
 11
23.09430544490542
 21
7.945703080289305
 31
0.0
  0
LINE
  5
C3FB
  8
0
  6
CONTINUOUS
 10
30.44581292956759
 20
1.26771480470732
 30
0.0
 11
29.30199999996933
 21
2.411527734305588
 31
0.0
  0
LINE
  5
C3FC
  8
0
  6
CONTINUOUS
 10
30.58814428577427
 20
1.798902657580827
 30
0.0
 11
29.30199999996933
 21
3.085046943385775
 31
0.0
  0
LINE
  5
C3FD
  8
0
  6
CONTINUOUS
 10
24.256042443999
 20
7.457485290275915
 30
0.0
 11
23.30250855037605
 21
8.411019183898862
 31
0.0
  0
LINE
  5
C3FE
  8
0
  6
CONTINUOUS
 10
23.71079143122431
 20
8.676255512130794
 30
0.0
 11
23.51071165584668
 21
8.876335287508418
 31
0.0
  0
LINE
  5
C3FF
  8
0
  6
CONTINUOUS
 10
30.73047564198095
 20
2.330090510454333
 30
0.0
 11
29.30199999996933
 21
3.758566152465961
 31
0.0
  0
LINE
  5
C400
  8
0
  6
CONTINUOUS
 10
30.74199999996924
 20
2.992085361546236
 30
0.0
 11
29.30199999996933
 21
4.432085361546148
 31
0.0
  0
LINE
  5
C401
  8
0
  6
CONTINUOUS
 10
30.74199999996924
 20
3.665604570626419
 30
0.0
 11
29.30199999996933
 21
5.105604570626333
 31
0.0
  0
LINE
  5
C402
  8
0
  6
CONTINUOUS
 10
30.74199999996925
 20
4.339123779706602
 30
0.0
 11
29.30199999996933
 21
5.77912377970652
 31
0.0
  0
LINE
  5
C403
  8
0
  6
CONTINUOUS
 10
30.74199999996925
 20
5.012642988786785
 30
0.0
 11
29.30199999996933
 21
6.452642988786707
 31
0.0
  0
LINE
  5
C404
  8
0
  6
CONTINUOUS
 10
30.74199999996925
 20
5.68616219786697
 30
0.0
 11
29.30199999996933
 21
7.126162197866894
 31
0.0
  0
LINE
  5
C405
  8
0
  6
CONTINUOUS
 10
30.74199999996925
 20
6.359681406947153
 30
0.0
 11
29.30199999996933
 21
7.799681406947081
 31
0.0
  0
LINE
  5
C406
  8
0
  6
CONTINUOUS
 10
30.74199999996926
 20
7.033200616027337
 30
0.0
 11
29.30199999996933
 21
8.473200616027269
 31
0.0
  0
LINE
  5
C407
  8
0
  6
CONTINUOUS
 10
30.74199999996926
 20
7.706719825107518
 30
0.0
 11
29.68561982508552
 21
8.763099999991255
 31
0.0
  0
LINE
  5
C408
  8
0
  6
CONTINUOUS
 10
30.74199999996926
 20
8.380239034187703
 30
0.0
 11
30.35913903416571
 21
8.763099999991255
 31
0.0
  0
ENDBLK
  5
C4AB
  8
0
  0
BLOCK
  8
0
  2
*X147
 70
     1
 10
0.0
 20
0.0
 30
0.0
  3
*X147
  1

  0
LINE
  5
C40A
  8
0
  6
CONTINUOUS
 10
31.64199999996833
 20
8.5350582899136
 30
0.0
 11
31.87004171004599
 21
8.763099999991255
 31
0.0
  0
LINE
  5
C40B
  8
0
  6
CONTINUOUS
 10
31.64199999996833
 20
7.861539080833413
 30
0.0
 11
32.54356091912618
 21
8.763099999991255
 31
0.0
  0
LINE
  5
C40C
  8
0
  6
CONTINUOUS
 10
31.64199999996833
 20
7.188019871753227
 30
0.0
 11
33.08199999996839
 21
8.628019871753281
 31
0.0
  0
LINE
  5
C40D
  8
0
  6
CONTINUOUS
 10
31.64199999996833
 20
6.514500662673041
 30
0.0
 11
33.08199999996839
 21
7.954500662673095
 31
0.0
  0
LINE
  5
C40E
  8
0
  6
CONTINUOUS
 10
31.64199999996833
 20
5.840981453592855
 30
0.0
 11
33.08199999996839
 21
7.28098145359291
 31
0.0
  0
LINE
  5
C40F
  8
0
  6
CONTINUOUS
 10
31.64199999996833
 20
5.167462244512668
 30
0.0
 11
33.08199999996839
 21
6.607462244512723
 31
0.0
  0
LINE
  5
C410
  8
0
  6
CONTINUOUS
 10
31.64199999996833
 20
4.493943035432482
 30
0.0
 11
33.08199999996839
 21
5.933943035432536
 31
0.0
  0
LINE
  5
C411
  8
0
  6
CONTINUOUS
 10
31.64199999996833
 20
3.820423826352294
 30
0.0
 11
33.08199999996839
 21
5.260423826352349
 31
0.0
  0
LINE
  5
C412
  8
0
  6
CONTINUOUS
 10
31.64199999996833
 20
3.146904617272108
 30
0.0
 11
33.08199999996839
 21
4.586904617272163
 31
0.0
  0
LINE
  5
C413
  8
0
  6
CONTINUOUS
 10
36.23199999996837
 20
8.410423826352327
 30
0.0
 11
36.58467617360729
 21
8.763099999991255
 31
0.0
  0
LINE
  5
C414
  8
0
  6
CONTINUOUS
 10
36.23199999996837
 20
7.73690461727214
 30
0.0
 11
37.25819538268748
 21
8.763099999991255
 31
0.0
  0
LINE
  5
C415
  8
0
  6
CONTINUOUS
 10
31.64323424774199
 20
2.474619655965573
 30
0.0
 11
33.08199999996839
 21
3.913385408191976
 31
0.0
  0
LINE
  5
C416
  8
0
  6
CONTINUOUS
 10
31.74419223861915
 20
1.902058437762552
 30
0.0
 11
33.08199999996839
 21
3.239866199111789
 31
0.0
  0
LINE
  5
C417
  8
0
  6
CONTINUOUS
 10
36.23199999996837
 20
7.063385408191953
 30
0.0
 11
37.67199999996831
 21
8.503385408191894
 31
0.0
  0
LINE
  5
C418
  8
0
  6
CONTINUOUS
 10
36.23199999996837
 20
6.389866199111767
 30
0.0
 11
37.67199999996831
 21
7.829866199111708
 31
0.0
  0
LINE
  5
C419
  8
0
  6
CONTINUOUS
 10
31.91111233414976
 20
1.39545932421297
 30
0.0
 11
33.08199999996839
 21
2.566346990031603
 31
0.0
  0
LINE
  5
C41A
  8
0
  6
CONTINUOUS
 10
36.23199999996837
 20
5.71634699003158
 30
0.0
 11
37.67199999996831
 21
7.156346990031522
 31
0.0
  0
LINE
  5
C41B
  8
0
  6
CONTINUOUS
 10
32.1576374746103
 20
0.9684652555933289
 30
0.0
 11
33.20642631446081
 21
2.017254095443838
 31
0.0
  0
LINE
  5
C41C
  8
0
  6
CONTINUOUS
 10
36.23199999996837
 20
5.042827780951393
 30
0.0
 11
37.67199999996831
 21
6.482827780951334
 31
0.0
  0
LINE
  5
C41D
  8
0
  6
CONTINUOUS
 10
32.47774023927325
 20
0.6150488111760914
 30
0.0
 11
33.49903056428258
 21
1.636339136185419
 31
0.0
  0
LINE
  5
C41E
  8
0
  6
CONTINUOUS
 10
36.23199999996837
 20
4.369308571871207
 30
0.0
 11
37.67199999996831
 21
5.809308571871148
 31
0.0
  0
LINE
  5
C41F
  8
0
  6
CONTINUOUS
 10
32.84396249154443
 20
0.3077518543670883
 30
0.0
 11
33.93324121824649
 21
1.397030581069146
 31
0.0
  0
LINE
  5
C420
  8
0
  6
CONTINUOUS
 10
36.23199999996837
 20
3.695789362791021
 30
0.0
 11
37.67199999996831
 21
5.135789362790963
 31
0.0
  0
LINE
  5
C421
  8
0
  6
CONTINUOUS
 10
33.30186329036846
 20
0.0921334441109263
 30
0.0
 11
34.46442907112041
 21
1.254699224862875
 31
0.0
  0
LINE
  5
C422
  8
0
  6
CONTINUOUS
 10
36.23199999996837
 20
3.022270153710834
 30
0.0
 11
37.67199999996831
 21
4.462270153710776
 31
0.0
  0
LINE
  5
C423
  8
0
  6
CONTINUOUS
 10
33.79565647746294
 20
-0.0875925778747773
 30
0.0
 11
35.24350171668284
 21
1.360252661345124
 31
0.0
  0
LINE
  5
C424
  8
0
  6
CONTINUOUS
 10
36.18336676155003
 20
2.300117706212308
 30
0.0
 11
37.67199999996831
 21
3.788750944630589
 31
0.0
  0
LINE
  5
C425
  8
0
  6
CONTINUOUS
 10
34.37182574910968
 20
-0.184942515308224
 30
0.0
 11
37.67199999996831
 21
3.115231735550402
 31
0.0
  0
LINE
  5
C426
  8
0
  6
CONTINUOUS
 10
35.0453449581892
 20
-0.1849425153088955
 30
0.0
 11
37.66345697088136
 21
2.433169497383271
 31
0.0
  0
LINE
  5
C427
  8
0
  6
CONTINUOUS
 10
35.98667157609191
 20
0.0828648935136398
 30
0.0
 11
37.51927401744566
 21
1.615467334867382
 31
0.0
  0
LINE
  5
C428
  8
0
  6
CONTINUOUS
 10
32.27747408544484
 20
0.7830920669904482
 30
0.0
 11
32.24716210471949
 21
0.8134040477157893
 31
0.0
  0
LINE
  5
C429
  8
0
  6
CONTINUOUS
 10
33.83656881101902
 20
-0.1024834495035494
 30
0.0
 11
31.72538911593758
 21
2.008696245577891
 31
0.0
  0
LINE
  5
C42A
  8
0
  6
CONTINUOUS
 10
34.5925470859041
 20
-0.1849425153084434
 30
0.0
 11
31.64199999996833
 21
2.765604570627322
 31
0.0
  0
LINE
  5
C42B
  8
0
  6
CONTINUOUS
 10
35.26201302775981
 20
-0.1808892480839752
 30
0.0
 11
31.64199999996833
 21
3.439123779707508
 31
0.0
  0
LINE
  5
C42C
  8
0
  6
CONTINUOUS
 10
35.75580621485512
 20
-0.0011632260990879
 30
0.0
 11
34.51294304365551
 21
1.241699945100514
 31
0.0
  0
LINE
  5
C42D
  8
0
  6
CONTINUOUS
 10
33.08199999996839
 20
2.672642988787641
 30
0.0
 11
31.64199999996833
 21
4.112642988787695
 31
0.0
  0
LINE
  5
C42E
  8
0
  6
CONTINUOUS
 10
36.24959940195042
 20
0.1785627958857976
 30
0.0
 11
35.10501653033629
 21
1.323145667499924
 31
0.0
  0
LINE
  5
C42F
  8
0
  6
CONTINUOUS
 10
33.08199999996839
 20
3.346162197867827
 30
0.0
 11
31.64199999996833
 21
4.786162197867881
 31
0.0
  0
LINE
  5
C430
  8
0
  6
CONTINUOUS
 10
36.64615197150552
 20
0.4555294354108876
 30
0.0
 11
35.6362043832099
 21
1.465477023706505
 31
0.0
  0
LINE
  5
C431
  8
0
  6
CONTINUOUS
 10
33.08199999996839
 20
4.019681406948013
 30
0.0
 11
31.64199999996833
 21
5.459681406948068
 31
0.0
  0
LINE
  5
C432
  8
0
  6
CONTINUOUS
 10
37.0123742237774
 20
0.7628263922191891
 30
0.0
 11
35.97691545773309
 21
1.798285158263504
 31
0.0
  0
LINE
  5
C433
  8
0
  6
CONTINUOUS
 10
33.08199999996839
 20
4.6932006160282
 30
0.0
 11
31.64199999996833
 21
6.133200616028255
 31
0.0
  0
LINE
  5
C434
  8
0
  6
CONTINUOUS
 10
37.27491524157143
 20
1.173804583505349
 30
0.0
 11
36.17602012811361
 21
2.272699696963169
 31
0.0
  0
LINE
  5
C435
  8
0
  6
CONTINUOUS
 10
33.08199999996839
 20
5.366719825108387
 30
0.0
 11
31.64199999996833
 21
6.806719825108441
 31
0.0
  0
LINE
  5
C436
  8
0
  6
CONTINUOUS
 10
37.51739996707661
 20
1.604839067080355
 30
0.0
 11
36.23199999996837
 21
2.890239034188595
 31
0.0
  0
LINE
  5
C437
  8
0
  6
CONTINUOUS
 10
37.6183579579535
 20
2.177400285283649
 30
0.0
 11
36.23199999996837
 21
3.563758243268782
 31
0.0
  0
LINE
  5
C438
  8
0
  6
CONTINUOUS
 10
33.08199999996839
 20
6.040239034188573
 30
0.0
 11
31.64199999996833
 21
7.480239034188628
 31
0.0
  0
LINE
  5
C439
  8
0
  6
CONTINUOUS
 10
33.08199999996839
 20
6.713758243268759
 30
0.0
 11
31.64199999996833
 21
8.153758243268815
 31
0.0
  0
LINE
  5
C43A
  8
0
  6
CONTINUOUS
 10
37.67199999996831
 20
2.797277452349027
 30
0.0
 11
36.23199999996837
 21
4.237277452348969
 31
0.0
  0
LINE
  5
C43B
  8
0
  6
CONTINUOUS
 10
37.67199999996831
 20
3.470796661429214
 30
0.0
 11
36.23199999996837
 21
4.910796661429155
 31
0.0
  0
LINE
  5
C43C
  8
0
  6
CONTINUOUS
 10
37.67199999996831
 20
4.1443158705094
 30
0.0
 11
36.23199999996837
 21
5.584315870509341
 31
0.0
  0
LINE
  5
C43D
  8
0
  6
CONTINUOUS
 10
33.08199999996839
 20
7.387277452348946
 30
0.0
 11
31.70617745232608
 21
8.763099999991255
 31
0.0
  0
LINE
  5
C43E
  8
0
  6
CONTINUOUS
 10
33.08199999996839
 20
8.060796661429134
 30
0.0
 11
32.37969666140626
 21
8.763099999991255
 31
0.0
  0
LINE
  5
C43F
  8
0
  6
CONTINUOUS
 10
33.08199999996839
 20
8.734315870509318
 30
0.0
 11
33.05321587048645
 21
8.763099999991255
 31
0.0
  0
LINE
  5
C440
  8
0
  6
CONTINUOUS
 10
37.67199999996831
 20
4.817835079589586
 30
0.0
 11
36.23199999996837
 21
6.257835079589528
 31
0.0
  0
LINE
  5
C441
  8
0
  6
CONTINUOUS
 10
37.67199999996831
 20
5.491354288669772
 30
0.0
 11
36.23199999996837
 21
6.931354288669715
 31
0.0
  0
LINE
  5
C442
  8
0
  6
CONTINUOUS
 10
37.67199999996831
 20
6.164873497749959
 30
0.0
 11
36.23199999996837
 21
7.6048734977499
 31
0.0
  0
LINE
  5
C443
  8
0
  6
CONTINUOUS
 10
37.67199999996831
 20
6.838392706830145
 30
0.0
 11
36.23199999996837
 21
8.278392706830086
 31
0.0
  0
LINE
  5
C444
  8
0
  6
CONTINUOUS
 10
37.67199999996831
 20
7.511911915910333
 30
0.0
 11
36.42081191588738
 21
8.763099999991255
 31
0.0
  0
LINE
  5
C445
  8
0
  6
CONTINUOUS
 10
37.67199999996831
 20
8.185431124990519
 30
0.0
 11
37.09433112496757
 21
8.763099999991255
 31
0.0
  0
ENDBLK
  5
C4AD
  8
0
  0
BLOCK
  8
0
  2
*X148
 70
     1
 10
0.0
 20
0.0
 30
0.0
  3
*X148
  1

  0
LINE
  5
C447
  8
0
  6
CONTINUOUS
 10
38.60499999996136
 20
8.762866199104765
 30
0.0
 11
38.71672554182345
 21
8.874591740966855
 31
0.0
  0
LINE
  5
C448
  8
0
  6
CONTINUOUS
 10
38.60499999996136
 20
8.089346990024577
 30
0.0
 11
39.03418785440363
 21
8.518534844466847
 31
0.0
  0
LINE
  5
C449
  8
0
  6
CONTINUOUS
 10
38.60499999996136
 20
7.41582778094439
 30
0.0
 11
39.35165016698382
 21
8.16247794796684
 31
0.0
  0
LINE
  5
C44A
  8
0
  6
CONTINUOUS
 10
38.60499999996136
 20
6.742308571864204
 30
0.0
 11
39.66911247956399
 21
7.806421051466834
 31
0.0
  0
LINE
  5
C44B
  8
0
  6
CONTINUOUS
 10
38.60499999996136
 20
6.068789362784018
 30
0.0
 11
39.98657479214418
 21
7.450364154966827
 31
0.0
  0
LINE
  5
C44C
  8
0
  6
CONTINUOUS
 10
38.60499999996136
 20
5.395270153703832
 30
0.0
 11
40.30403710472435
 21
7.09430725846682
 31
0.0
  0
LINE
  5
C44D
  8
0
  6
CONTINUOUS
 10
38.60499999996136
 20
4.721750944623645
 30
0.0
 11
40.62149941730453
 21
6.738250361966813
 31
0.0
  0
LINE
  5
C44E
  8
0
  6
CONTINUOUS
 10
38.60499999996136
 20
4.048231735543458
 30
0.0
 11
40.93896172988471
 21
6.382193465466806
 31
0.0
  0
LINE
  5
C44F
  8
0
  6
CONTINUOUS
 10
38.60499999996136
 20
3.374712526463272
 30
0.0
 11
40.02599999995994
 21
4.795712526461843
 31
0.0
  0
LINE
  5
C450
  8
0
  6
CONTINUOUS
 10
38.60499999996136
 20
2.701193317383085
 30
0.0
 11
40.02599999995994
 21
4.122193317381657
 31
0.0
  0
LINE
  5
C451
  8
0
  6
CONTINUOUS
 10
40.28339754687704
 20
5.053110073378947
 30
0.0
 11
41.25642404246489
 21
6.026136568966799
 31
0.0
  0
LINE
  5
C452
  8
0
  6
CONTINUOUS
 10
40.60085985945722
 20
4.697053176878939
 30
0.0
 11
41.57388635504507
 21
5.670079672466793
 31
0.0
  0
LINE
  5
C453
  8
0
  6
CONTINUOUS
 10
43.57899999995641
 20
8.348712526458318
 30
0.0
 11
43.99338747348935
 21
8.763099999991255
 31
0.0
  0
LINE
  5
C454
  8
0
  6
CONTINUOUS
 10
43.57899999995641
 20
7.675193317378131
 30
0.0
 11
44.66690668256953
 21
8.763099999991255
 31
0.0
  0
LINE
  5
C455
  8
0
  6
CONTINUOUS
 10
38.60499999996136
 20
2.027674108302898
 30
0.0
 11
40.02599999995994
 21
3.44867410830147
 31
0.0
  0
LINE
  5
C456
  8
0
  6
CONTINUOUS
 10
38.60499999996136
 20
1.354154899222712
 30
0.0
 11
40.02599999995994
 21
2.775154899221284
 31
0.0
  0
LINE
  5
C457
  8
0
  6
CONTINUOUS
 10
38.60499999996136
 20
0.6806356901425255
 30
0.0
 11
40.02599999995994
 21
2.101635690141098
 31
0.0
  0
LINE
  5
C458
  8
0
  6
CONTINUOUS
 10
38.60499999996136
 20
0.0071164810623383
 30
0.0
 11
40.02599999995994
 21
1.428116481060911
 31
0.0
  0
LINE
  5
C459
  8
0
  6
CONTINUOUS
 10
40.9183221720374
 20
4.340996280378933
 30
0.0
 11
41.89134866762525
 21
5.314022775966786
 31
0.0
  0
LINE
  5
C45A
  8
0
  6
CONTINUOUS
 10
41.23578448461758
 20
3.984939383878926
 30
0.0
 11
42.20881098020543
 21
4.957965879466778
 31
0.0
  0
LINE
  5
C45B
  8
0
  6
CONTINUOUS
 10
41.55324679719776
 20
3.628882487378919
 30
0.0
 11
42.52627329278561
 21
4.601908982966772
 31
0.0
  0
LINE
  5
C45C
  8
0
  6
CONTINUOUS
 10
41.87070910977793
 20
3.272825590878912
 30
0.0
 11
42.84373560536579
 21
4.245852086466765
 31
0.0
  0
LINE
  5
C45D
  8
0
  6
CONTINUOUS
 10
43.57899999995641
 20
7.001674108297943
 30
0.0
 11
44.99999999995498
 21
8.422674108296516
 31
0.0
  0
LINE
  5
C45E
  8
0
  6
CONTINUOUS
 10
43.57899999995641
 20
6.328154899217758
 30
0.0
 11
44.99999999995498
 21
7.749154899216329
 31
0.0
  0
LINE
  5
C45F
  8
0
  6
CONTINUOUS
 10
43.57899999995641
 20
5.654635690137571
 30
0.0
 11
44.99999999995498
 21
7.075635690136142
 31
0.0
  0
LINE
  5
C460
  8
0
  6
CONTINUOUS
 10
43.57899999995641
 20
4.981116481057384
 30
0.0
 11
44.99999999995498
 21
6.402116481055955
 31
0.0
  0
LINE
  5
C461
  8
0
  6
CONTINUOUS
 10
39.27140272797921
 20
-0.0000000000000009
 30
0.0
 11
40.02599999995994
 21
0.7545972719807246
 31
0.0
  0
LINE
  5
C462
  8
0
  6
CONTINUOUS
 10
39.9449219370594
 20
-0.0000000000000009
 30
0.0
 11
40.02599999995994
 21
0.0810780629005379
 31
0.0
  0
LINE
  5
C463
  8
0
  6
CONTINUOUS
 10
42.18817142235812
 20
2.916768694378905
 30
0.0
 11
43.16119791794597
 21
3.889795189966758
 31
0.0
  0
LINE
  5
C464
  8
0
  6
CONTINUOUS
 10
42.50563373493829
 20
2.560711797878898
 30
0.0
 11
43.47866023052615
 21
3.533738293466751
 31
0.0
  0
LINE
  5
C465
  8
0
  6
CONTINUOUS
 10
43.57899999995641
 20
4.307597271977198
 30
0.0
 11
44.99999999995498
 21
5.728597271975769
 31
0.0
  0
LINE
  5
C466
  8
0
  6
CONTINUOUS
 10
43.57899999995641
 20
3.634078062897011
 30
0.0
 11
44.99999999995498
 21
5.055078062895582
 31
0.0
  0
LINE
  5
C467
  8
0
  6
CONTINUOUS
 10
42.82309604751848
 20
2.204654901378891
 30
0.0
 11
44.99999999995498
 21
4.381558853815395
 31
0.0
  0
LINE
  5
C468
  8
0
  6
CONTINUOUS
 10
43.14055836009865
 20
1.848598004878885
 30
0.0
 11
44.99999999995498
 21
3.70803964473521
 31
0.0
  0
LINE
  5
C469
  8
0
  6
CONTINUOUS
 10
43.45802067267883
 20
1.492541108378878
 30
0.0
 11
44.99999999995498
 21
3.034520435655023
 31
0.0
  0
LINE
  5
C46A
  8
0
  6
CONTINUOUS
 10
43.77548298525902
 20
1.136484211878871
 30
0.0
 11
44.99999999995498
 21
2.361001226574837
 31
0.0
  0
LINE
  5
C46B
  8
0
  6
CONTINUOUS
 10
44.09294529783919
 20
0.7804273153788639
 30
0.0
 11
44.99999999995498
 21
1.687482017494649
 31
0.0
  0
LINE
  5
C46C
  8
0
  6
CONTINUOUS
 10
44.41040761041938
 20
0.4243704188788566
 30
0.0
 11
44.99999999995498
 21
1.013962808414463
 31
0.0
  0
LINE
  5
C46D
  8
0
  6
CONTINUOUS
 10
44.72786992299955
 20
0.0683135223788494
 30
0.0
 11
44.99999999995498
 21
0.340443599334276
 31
0.0
  0
LINE
  5
C46E
  8
0
  6
CONTINUOUS
 10
39.12223903415696
 20
-0.0000000000000009
 30
0.0
 11
38.60499999996136
 21
0.5172390341955961
 31
0.0
  0
LINE
  5
C46F
  8
0
  6
CONTINUOUS
 10
39.79575824323715
 20
-0.0000000000000009
 30
0.0
 11
38.60499999996136
 21
1.190758243275783
 31
0.0
  0
LINE
  5
C470
  8
0
  6
CONTINUOUS
 10
40.02599999995994
 20
0.443277452357397
 30
0.0
 11
38.60499999996136
 21
1.864277452355969
 31
0.0
  0
LINE
  5
C471
  8
0
  6
CONTINUOUS
 10
40.02599999995994
 20
1.116796661437583
 30
0.0
 11
38.60499999996136
 21
2.537796661436155
 31
0.0
  0
LINE
  5
C472
  8
0
  6
CONTINUOUS
 10
40.02599999995994
 20
1.79031587051777
 30
0.0
 11
38.60499999996136
 21
3.211315870516341
 31
0.0
  0
LINE
  5
C473
  8
0
  6
CONTINUOUS
 10
40.02599999995994
 20
2.463835079597956
 30
0.0
 11
38.60499999996136
 21
3.884835079596527
 31
0.0
  0
LINE
  5
C474
  8
0
  6
CONTINUOUS
 10
40.02599999995994
 20
3.137354288678143
 30
0.0
 11
38.60499999996136
 21
4.558354288676714
 31
0.0
  0
LINE
  5
C475
  8
0
  6
CONTINUOUS
 10
40.02599999995994
 20
3.810873497758329
 30
0.0
 11
38.60499999996136
 21
5.2318734977569
 31
0.0
  0
LINE
  5
C476
  8
0
  6
CONTINUOUS
 10
40.02599999995994
 20
4.484392706838515
 30
0.0
 11
38.60499999996136
 21
5.905392706837086
 31
0.0
  0
LINE
  5
C477
  8
0
  6
CONTINUOUS
 10
44.99999999995498
 20
0.183911915923658
 30
0.0
 11
41.53858364506288
 21
3.64532827081576
 31
0.0
  0
LINE
  5
C478
  8
0
  6
CONTINUOUS
 10
40.02599999995994
 20
5.157911915918703
 30
0.0
 11
38.60499999996136
 21
6.578911915917274
 31
0.0
  0
LINE
  5
C479
  8
0
  6
CONTINUOUS
 10
44.99999999995498
 20
0.8574311250038447
 30
0.0
 11
38.60499999996136
 21
7.25243112499746
 31
0.0
  0
LINE
  5
C47A
  8
0
  6
CONTINUOUS
 10
44.99999999995498
 20
1.530950334084031
 30
0.0
 11
38.60499999996136
 21
7.925950334077647
 31
0.0
  0
LINE
  5
C47B
  8
0
  6
CONTINUOUS
 10
44.99999999995498
 20
2.204469543164218
 30
0.0
 11
43.57899999995641
 21
3.625469543162789
 31
0.0
  0
LINE
  5
C47C
  8
0
  6
CONTINUOUS
 10
41.89876730984767
 20
5.305702233271528
 30
0.0
 11
38.60499999996136
 21
8.599469543157834
 31
0.0
  0
LINE
  5
C47D
  8
0
  6
CONTINUOUS
 10
44.99999999995498
 20
2.877988752244405
 30
0.0
 11
43.57899999995641
 21
4.298988752242975
 31
0.0
  0
LINE
  5
C47E
  8
0
  6
CONTINUOUS
 10
44.99999999995498
 20
3.551507961324591
 30
0.0
 11
43.57899999995641
 21
4.972507961323163
 31
0.0
  0
LINE
  5
C47F
  8
0
  6
CONTINUOUS
 10
44.99999999995498
 20
4.225027170404777
 30
0.0
 11
43.57899999995641
 21
5.646027170403348
 31
0.0
  0
LINE
  5
C480
  8
0
  6
CONTINUOUS
 10
44.99999999995498
 20
4.898546379484964
 30
0.0
 11
43.57899999995641
 21
6.319546379483535
 31
0.0
  0
LINE
  5
C481
  8
0
  6
CONTINUOUS
 10
44.99999999995498
 20
5.572065588565151
 30
0.0
 11
43.57899999995641
 21
6.993065588563722
 31
0.0
  0
LINE
  5
C482
  8
0
  6
CONTINUOUS
 10
44.99999999995498
 20
6.245584797645336
 30
0.0
 11
43.57899999995641
 21
7.666584797643908
 31
0.0
  0
LINE
  5
C483
  8
0
  6
CONTINUOUS
 10
44.99999999995498
 20
6.919104006725522
 30
0.0
 11
43.57899999995641
 21
8.340104006724093
 31
0.0
  0
LINE
  5
C484
  8
0
  6
CONTINUOUS
 10
44.99999999995498
 20
7.592623215805709
 30
0.0
 11
43.82952321576943
 21
8.763099999991255
 31
0.0
  0
LINE
  5
C485
  8
0
  6
CONTINUOUS
 10
44.99999999995498
 20
8.266142424885896
 30
0.0
 11
44.50304242484962
 21
8.763099999991255
 31
0.0
  0
ENDBLK
  5
C4AF
  8
0
  0
BLOCK
  8
0
  2
*X149
 70
     1
 10
0.0
 20
0.0
 30
0.0
  3
*X149
  1

  0
LINE
  5
C487
  8
0
  6
CONTINUOUS
 10
0.0
 20
8.548461116714023
 30
0.0
 11
0.2146388832772324
 21
8.763099999991255
 31
0.0
  0
LINE
  5
C488
  8
0
  6
CONTINUOUS
 10
-0.0000000000000002
 20
7.874941907633837
 30
0.0
 11
0.8881580923574184
 21
8.763099999991255
 31
0.0
  0
LINE
  5
C489
  8
0
  6
CONTINUOUS
 10
0.0
 20
7.20142269855365
 30
0.0
 11
1.420999999998572
 21
8.622422698552223
 31
0.0
  0
LINE
  5
C48A
  8
0
  6
CONTINUOUS
 10
-0.0000000000000001
 20
6.527903489473465
 30
0.0
 11
1.420999999998571
 21
7.948903489472036
 31
0.0
  0
LINE
  5
C48B
  8
0
  6
CONTINUOUS
 10
-0.0000000000000002
 20
5.854384280393278
 30
0.0
 11
1.420999999998571
 21
7.275384280391849
 31
0.0
  0
LINE
  5
C48C
  8
0
  6
CONTINUOUS
 10
-0.0000000000000002
 20
5.180865071313091
 30
0.0
 11
1.420999999998571
 21
6.601865071311663
 31
0.0
  0
LINE
  5
C48D
  8
0
  6
CONTINUOUS
 10
0.0
 20
4.507345862232905
 30
0.0
 11
1.420999999998571
 21
5.928345862231477
 31
0.0
  0
LINE
  5
C48E
  8
0
  6
CONTINUOUS
 10
-0.0000000000000003
 20
3.833826653152718
 30
0.0
 11
1.420999999998571
 21
5.25482665315129
 31
0.0
  0
LINE
  5
C48F
  8
0
  6
CONTINUOUS
 10
-0.0000000000000002
 20
3.160307444072532
 30
0.0
 11
1.420999999998571
 21
4.581307444071103
 31
0.0
  0
LINE
  5
C490
  8
0
  6
CONTINUOUS
 10
-0.0000000000000001
 20
2.486788234992345
 30
0.0
 11
1.420999999998571
 21
3.907788234990917
 31
0.0
  0
LINE
  5
C491
  8
0
  6
CONTINUOUS
 10
-0.0000000000000006
 20
1.813269025912159
 30
0.0
 11
1.420999999998571
 21
3.234269025910731
 31
0.0
  0
LINE
  5
C492
  8
0
  6
CONTINUOUS
 10
0.0
 20
1.139749816831973
 30
0.0
 11
1.420999999998571
 21
2.560749816830544
 31
0.0
  0
LINE
  5
C493
  8
0
  6
CONTINUOUS
 10
0.0000000000000002
 20
0.466230607751787
 30
0.0
 11
1.420999999998571
 21
1.887230607750358
 31
0.0
  0
LINE
  5
C494
  8
0
  6
CONTINUOUS
 10
0.2072886013284003
 20
-0.0000000000000009
 30
0.0
 11
1.420999999998571
 21
1.213711398670171
 31
0.0
  0
LINE
  5
C495
  8
0
  6
CONTINUOUS
 10
0.8808078104085864
 20
-0.0000000000000009
 30
0.0
 11
1.420999999998571
 21
0.5401921895899839
 31
0.0
  0
LINE
  5
C496
  8
0
  6
CONTINUOUS
 10
0.0581249075061505
 20
-0.0000000000000009
 30
0.0
 11
-0.0000000000000002
 21
0.0581249075061496
 31
0.0
  0
LINE
  5
C497
  8
0
  6
CONTINUOUS
 10
0.7316441165863372
 20
-0.0000000000000009
 30
0.0
 11
-0.0000000000000002
 21
0.7316441165863363
 31
0.0
  0
LINE
  5
C498
  8
0
  6
CONTINUOUS
 10
1.405163325666523
 20
-0.0000000000000009
 30
0.0
 11
-0.0000000000000002
 21
1.405163325666523
 31
0.0
  0
LINE
  5
C499
  8
0
  6
CONTINUOUS
 10
1.420999999998572
 20
0.6576825347481381
 30
0.0
 11
-0.0000000000000001
 21
2.07868253474671
 31
0.0
  0
LINE
  5
C49A
  8
0
  6
CONTINUOUS
 10
1.420999999998571
 20
1.331201743828324
 30
0.0
 11
-0.0000000000000001
 21
2.752201743826896
 31
0.0
  0
LINE
  5
C49B
  8
0
  6
CONTINUOUS
 10
1.420999999998571
 20
2.004720952908511
 30
0.0
 11
-0.0000000000000002
 21
3.425720952907082
 31
0.0
  0
LINE
  5
C49C
  8
0
  6
CONTINUOUS
 10
1.420999999998571
 20
2.678240161988697
 30
0.0
 11
-0.0000000000000001
 21
4.099240161987269
 31
0.0
  0
LINE
  5
C49D
  8
0
  6
CONTINUOUS
 10
1.420999999998572
 20
3.351759371068884
 30
0.0
 11
0.0
 21
4.772759371067455
 31
0.0
  0
LINE
  5
C49E
  8
0
  6
CONTINUOUS
 10
1.420999999998571
 20
4.02527858014907
 30
0.0
 11
-0.0000000000000003
 21
5.446278580147642
 31
0.0
  0
LINE
  5
C49F
  8
0
  6
CONTINUOUS
 10
1.420999999998571
 20
4.698797789229257
 30
0.0
 11
0.0
 21
6.119797789227828
 31
0.0
  0
LINE
  5
C4A0
  8
0
  6
CONTINUOUS
 10
1.420999999998571
 20
5.372316998309444
 30
0.0
 11
-0.0000000000000001
 21
6.793316998308015
 31
0.0
  0
LINE
  5
C4A1
  8
0
  6
CONTINUOUS
 10
1.420999999998572
 20
6.045836207389629
 30
0.0
 11
-0.0000000000000004
 21
7.466836207388202
 31
0.0
  0
LINE
  5
C4A2
  8
0
  6
CONTINUOUS
 10
1.420999999998571
 20
6.719355416469816
 30
0.0
 11
0.0
 21
8.140355416468388
 31
0.0
  0
LINE
  5
C4A3
  8
0
  6
CONTINUOUS
 10
1.420999999998571
 20
7.392874625550003
 30
0.0
 11
0.0507746255573185
 21
8.763099999991255
 31
0.0
  0
LINE
  5
C4A4
  8
0
  6
CONTINUOUS
 10
1.420999999998571
 20
8.06639383463019
 30
0.0
 11
0.7242938346375052
 21
8.763099999991255
 31
0.0
  0
LINE
  5
C4A5
  8
0
  6
CONTINUOUS
 10
1.420999999998571
 20
8.739913043710375
 30
0.0
 11
1.397813043717691
 21
8.763099999991255
 31
0.0
  0
ENDBLK
  5
C4B1
  8
0
  0
ENDSEC
  0
SECTION
  2
ENTITIES
  0
LINE
  5
9A87
  8
01
  6
BYBLOCK
 10
-691.641200606582
 20
-736.8450769532797
 30
0.0
 11
-616.641200606582
 21
-736.8450769532797
 31
0.0
  0
LINE
  5
9A8C
  8
01
  6
BYBLOCK
 10
-614.141200606582
 20
-721.3450769532797
 30
0.0
 11
-615.1412006065817
 21
-721.3450769532797
 31
0.0
  0
LINE
  5
9A8D
  8
01
  6
BYBLOCK
 10
-615.141200606582
 20
-721.3450769532797
 30
0.0
 11
-693.141200606582
 21
-721.3450769532797
 31
0.0
  0
LINE
  5
9A8E
  8
01
  6
BYBLOCK
 10
-693.141200606582
 20
-721.3450769532797
 30
0.0
 11
-694.1412006065822
 21
-721.3450769532797
 31
0.0
  0
LINE
  5
9A8F
  8
01
  6
BYBLOCK
 10
-616.641200606582
 20
-736.8450769532797
 30
0.0
 11
-616.641200606582
 21
-721.3450769532797
 31
0.0
  0
LINE
  5
9A91
  8
01
  6
BYBLOCK
 10
-691.641200606582
 20
-721.3450769532797
 30
0.0
 11
-691.641200606582
 21
-736.8450769532797
 31
0.0
  0
POLYLINE
  5
9A93
  8
01
  6
BYBLOCK
 10
0.0
 20
0.0
 30
0.0
 66
     1
 70
     8
  0
VERTEX
  5
C157
  8
01
  6
BYBLOCK
 10
-693.641200606582
 20
-719.3450769532797
 30
0.0
 70
    32
  0
VERTEX
  5
C158
  8
01
  6
BYBLOCK
 10
-693.6409357281798
 20
-719.3450769532797
 30
0.0
 70
    32
  0
VERTEX
  5
C159
  8
01
  6
BYBLOCK
 10
-693.6401313601608
 20
-719.3450769532797
 30
0.0
 70
    32
  0
VERTEX
  5
C15A
  8
01
  6
BYBLOCK
 10
-693.6387908624394
 20
-719.3450769532797
 30
0.0
 70
    32
  0
VERTEX
  5
C15B
  8
01
  6
BYBLOCK
 10
-693.6369175949299
 20
-719.3450769532797
 30
0.0
 70
    32
  0
VERTEX
  5
C15C
  8
01
  6
BYBLOCK
 10
-693.634514917547
 20
-719.3450769532797
 30
0.0
 70
    32
  0
VERTEX
  5
C15D
  8
01
  6
BYBLOCK
 10
-693.6315861902052
 20
-719.3450769532797
 30
0.0
 70
    32
  0
VERTEX
  5
C15E
  8
01
  6
BYBLOCK
 10
-693.6281347728187
 20
-719.3450769532797
 30
0.0
 70
    32
  0
VERTEX
  5
C15F
  8
01
  6
BYBLOCK
 10
-693.6241640253024
 20
-719.3450769532797
 30
0.0
 70
    32
  0
VERTEX
  5
C160
  8
01
  6
BYBLOCK
 10
-693.6196773075706
 20
-719.3450769532797
 30
0.0
 70
    32
  0
VERTEX
  5
C161
  8
01
  6
BYBLOCK
 10
-693.6146779795374
 20
-719.3450769532797
 30
0.0
 70
    32
  0
VERTEX
  5
C162
  8
01
  6
BYBLOCK
 10
-693.6091694011179
 20
-719.3450769532797
 30
0.0
 70
    32
  0
VERTEX
  5
C163
  8
01
  6
BYBLOCK
 10
-693.6031550666361
 20
-719.3450769532797
 30
0.0
 70
    32
  0
VERTEX
  5
C164
  8
01
  6
BYBLOCK
 10
-693.5966414724829
 20
-719.3450769532797
 30
0.0
 70
    32
  0
VERTEX
  5
C165
  8
01
  6
BYBLOCK
 10
-693.5896380682944
 20
-719.3450769532797
 30
0.0
 70
    32
  0
VERTEX
  5
C166
  8
01
  6
BYBLOCK
 10
-693.5821544283516
 20
-719.3450769532797
 30
0.0
 70
    32
  0
VERTEX
  5
C167
  8
01
  6
BYBLOCK
 10
-693.5742001269352
 20
-719.3450769532797
 30
0.0
 70
    32
  0
VERTEX
  5
C168
  8
01
  6
BYBLOCK
 10
-693.5657847383262
 20
-719.3450769532797
 30
0.0
 70
    32
  0
VERTEX
  5
C169
  8
01
  6
BYBLOCK
 10
-693.5569178368056
 20
-719.3450769532797
 30
0.0
 70
    32
  0
VERTEX
  5
C16A
  8
01
  6
BYBLOCK
 10
-693.5476089966542
 20
-719.3450769532797
 30
0.0
 70
    32
  0
VERTEX
  5
C16B
  8
01
  6
BYBLOCK
 10
-693.5378677921531
 20
-719.3450769532797
 30
0.0
 70
    32
  0
VERTEX
  5
C16C
  8
01
  6
BYBLOCK
 10
-693.527703797583
 20
-719.3450769532797
 30
0.0
 70
    32
  0
VERTEX
  5
C16D
  8
01
  6
BYBLOCK
 10
-693.5171265872248
 20
-719.3450769532797
 30
0.0
 70
    32
  0
VERTEX
  5
C16E
  8
01
  6
BYBLOCK
 10
-693.5061457353596
 20
-719.3450769532797
 30
0.0
 70
    32
  0
VERTEX
  5
C16F
  8
01
  6
BYBLOCK
 10
-693.4947708168542
 20
-719.3450769532797
 30
0.0
 70
    32
  0
VERTEX
  5
C170
  8
01
  6
BYBLOCK
 10
-693.4830125172264
 20
-719.3450769532797
 30
0.0
 70
    32
  0
VERTEX
  5
C171
  8
01
  6
BYBLOCK
 10
-693.4708849420173
 20
-719.3450769532797
 30
0.0
 70
    32
  0
VERTEX
  5
C172
  8
01
  6
BYBLOCK
 10
-693.4584028529404
 20
-719.3450769532797
 30
0.0
 70
    32
  0
VERTEX
  5
C173
  8
01
  6
BYBLOCK
 10
-693.4455810117097
 20
-719.3450769532797
 30
0.0
 70
    32
  0
VERTEX
  5
C174
  8
01
  6
BYBLOCK
 10
-693.4324341800386
 20
-719.3450769532797
 30
0.0
 70
    32
  0
VERTEX
  5
C175
  8
01
  6
BYBLOCK
 10
-693.4189771196412
 20
-719.3450769532797
 30
0.0
 70
    32
  0
VERTEX
  5
C176
  8
01
  6
BYBLOCK
 10
-693.4052245922308
 20
-719.3450769532797
 30
0.0
 70
    32
  0
VERTEX
  5
C177
  8
01
  6
BYBLOCK
 10
-693.3911913595213
 20
-719.3450769532797
 30
0.0
 70
    32
  0
VERTEX
  5
C178
  8
01
  6
BYBLOCK
 10
-693.3768921832261
 20
-719.3450769532797
 30
0.0
 70
    32
  0
VERTEX
  5
C179
  8
01
  6
BYBLOCK
 10
-693.362341825059
 20
-719.3450769532797
 30
0.0
 70
    32
  0
VERTEX
  5
C17A
  8
01
  6
BYBLOCK
 10
-693.3475550467342
 20
-719.3450769532797
 30
0.0
 70
    32
  0
VERTEX
  5
C17B
  8
01
  6
BYBLOCK
 10
-693.3325466099648
 20
-719.3450769532797
 30
0.0
 70
    32
  0
VERTEX
  5
C17C
  8
01
  6
BYBLOCK
 10
-693.3173314001269
 20
-719.3450769532797
 30
0.0
 70
    32
  0
VERTEX
  5
C17D
  8
01
  6
BYBLOCK
 10
-693.3019257560641
 20
-719.3450769532797
 30
0.0
 70
    32
  0
VERTEX
  5
C17E
  8
01
  6
BYBLOCK
 10
-693.2863469619435
 20
-719.3450769532797
 30
0.0
 70
    32
  0
VERTEX
  5
C17F
  8
01
  6
BYBLOCK
 10
-693.270612318033
 20
-719.3450769532797
 30
0.0
 70
    32
  0
VERTEX
  5
C180
  8
01
  6
BYBLOCK
 10
-693.2547391246001
 20
-719.3450769532797
 30
0.0
 70
    32
  0
VERTEX
  5
C181
  8
01
  6
BYBLOCK
 10
-693.2387446819125
 20
-719.3450769532797
 30
0.0
 70
    32
  0
VERTEX
  5
C182
  8
01
  6
BYBLOCK
 10
-693.2226462902381
 20
-719.3450769532797
 30
0.0
 70
    32
  0
VERTEX
  5
C183
  8
01
  6
BYBLOCK
 10
-693.2064612498443
 20
-719.3450769532797
 30
0.0
 70
    32
  0
VERTEX
  5
C184
  8
01
  6
BYBLOCK
 10
-693.1902068609993
 20
-719.3450769532797
 30
0.0
 70
    32
  0
VERTEX
  5
C185
  8
01
  6
BYBLOCK
 10
-693.1739004239704
 20
-719.3450769532797
 30
0.0
 70
    32
  0
VERTEX
  5
C186
  8
01
  6
BYBLOCK
 10
-693.1575592390253
 20
-719.3450769532797
 30
0.0
 70
    32
  0
VERTEX
  5
C187
  8
01
  6
BYBLOCK
 10
-693.1412006064319
 20
-719.3450769532797
 30
0.0
 70
    32
  0
SEQEND
  5
C4B2
  8
01
  6
BYBLOCK
  0
LINE
  5
9A94
  8
01
  6
BYBLOCK
 10
-615.141200606582
 20
-719.3450769532797
 30
0.0
 11
-693.1412006064319
 21
-719.3450769532797
 31
0.0
  0
LINE
  5
9A95
  8
01
  6
BYBLOCK
 10
-615.141200606582
 20
-719.3450769532797
 30
0.0
 11
-614.6412006064917
 21
-719.3450769532797
 31
0.0
  0
LINE
  5
9A96
  8
01
  6
BYBLOCK
 10
-614.141200606582
 20
-721.3450769532797
 30
0.0
 11
-614.141200606582
 21
-719.8450769532797
 31
0.0
  0
LINE
  5
9A97
  8
01
  6
BYBLOCK
 10
-694.141200606582
 20
-719.8450769532797
 30
0.0
 11
-694.141200606582
 21
-721.3450769532797
 31
0.0
  0
ARC
  5
9A98
  8
01
  6
BYBLOCK
 10
614.6412006058682
 20
-719.8450769525296
 30
0.0
 40
0.4999999992680895
 50
89.9999999285569
 51
180.0000000857278
210
0.0
220
0.0
230
-1.0
  0
ARC
  5
9A99
  8
01
  6
BYBLOCK
 10
693.6412006072229
 20
-719.8450769526837
 30
0.0
 40
0.4999999993815623
 50
359.9999999317096
 51
90.00000007322787
210
0.0
220
0.0
230
-1.0
  0
ARC
  5
9A9A
  8
01
  6
BYBLOCK
 10
620.4417760420866
 20
-659.9857391977845
 30
0.0
 40
1.800514473829956
 50
89.98455613443046
 51
179.9836305635386
210
0.0
220
0.0
230
-1.0
  0
ARC
  5
9A9B
  8
01
  6
BYBLOCK
 10
687.8407472413195
 20
-659.985739197928
 30
0.0
 40
1.800514473936776
 50
0.0163694409429105
 51
90.01544386387596
210
0.0
220
0.0
230
-1.0
  0
LINE
  5
9A9C
  8
01
  6
BYBLOCK
 10
-618.6412616417382
 20
-659.9852247897926
 30
0.0
 11
-618.6412616417382
 21
-676.8862239568017
 31
0.0
  0
ARC
  5
9A9D
  8
01
  6
BYBLOCK
 10
620.4398636667019
 20
-676.886622764396
 30
0.0
 40
1.7986020691803
 50
179.9872956935981
 51
270.0127043066821
210
0.0
220
0.0
230
-1.0
  0
LINE
  5
9A9E
  8
01
  6
BYBLOCK
 10
-620.440262474298
 20
-678.6852247893645
 30
0.0
 11
-687.8422608091781
 21
-678.6852247893645
 31
0.0
  0
ARC
  5
9A9F
  8
01
  6
BYBLOCK
 10
687.8426596168937
 20
-676.8866227646132
 30
0.0
 40
1.798602069012081
 50
269.9872956897223
 51
0.0127043135540799
210
0.0
220
0.0
230
-1.0
  0
LINE
  5
9AA0
  8
01
  6
BYBLOCK
 10
-689.6412616417382
 20
-676.8862239568016
 30
0.0
 11
-689.6412616417382
 21
-659.9852247898025
 31
0.0
  0
LINE
  5
9AA1
  8
01
  6
BYBLOCK
 10
-614.1412616417382
 20
-682.1852241555493
 30
0.0
 11
-614.1412616417382
 21
-644.1852241555493
 31
0.0
  0
LINE
  5
9AA2
  8
01
  6
BYBLOCK
 10
-694.1412616417382
 20
-644.1852241555495
 30
0.0
 11
-694.1412616417382
 21
-682.1852241555495
 31
0.0
  0
LINE
  5
9AA3
  8
01
  6
BYBLOCK
 10
-690.125150222238
 20
-659.9852241563633
 30
0.0
 11
-690.125150222238
 21
-677.3701119020863
 31
0.0
  0
LINE
  5
9AA4
  8
01
  6
BYBLOCK
 10
-618.157373061228
 20
-677.3701119020902
 30
0.0
 11
-618.157373061228
 21
-659.9852241548442
 31
0.0
  0
ARC
  5
9AA5
  8
01
  6
BYBLOCK
 10
-619.9549779888329
 20
-677.3715078076424
 30
0.0
 40
1.797605469628748
 50
269.9555077729212
 51
0.0444922460143044
  0
ARC
  5
9AA6
  8
01
  6
BYBLOCK
 10
-619.9581198624013
 20
-659.985970930081
 30
0.0
 40
1.800746955951023
 50
0.0237607348429529
 51
90.02571412853389
  0
LINE
  5
9AA7
  8
01
  6
BYBLOCK
 10
-619.9589280307781
 20
-658.1852241555484
 30
0.0
 11
-688.3235952526883
 21
-658.1852241555495
 31
0.0
  0
ARC
  5
9AA8
  8
01
  6
BYBLOCK
 10
-688.3244028636208
 20
-659.9859714881995
 30
0.0
 40
1.800747513722201
 50
89.97430361630296
 51
179.9762215629922
  0
LINE
  5
9AA9
  8
01
  6
BYBLOCK
 10
-688.3261493892782
 20
-679.1691127353242
 30
0.0
 11
-619.9563738937983
 21
-679.1691127353242
 31
0.0
  0
ARC
  5
9AAA
  8
01
  6
BYBLOCK
 10
-688.3275452941529
 20
-677.371507807397
 30
0.0
 40
1.797605469991507
 50
179.9555077619195
 51
270.0444922244081
  0
LINE
  5
9AAB
  8
01
  6
BYBLOCK
 10
-693.1412616417382
 20
-683.1852241555493
 30
0.0
 11
-615.1412616417382
 21
-683.1852241555493
 31
0.0
  0
LINE
  5
9AAC
  8
01
  6
BYBLOCK
 10
-615.1412616417382
 20
-643.1852241555495
 30
0.0
 11
-693.1412616417382
 21
-643.1852241555484
 31
0.0
  0
ARC
  5
9AAD
  8
01
  6
BYBLOCK
 10
-615.1411483946493
 20
-644.1851109081578
 30
0.0
 40
0.9998867591729164
 50
359.9935106677766
 51
90.00648931510516
  0
ARC
  5
9AAE
  8
01
  6
BYBLOCK
 10
-615.1411483946271
 20
-682.185337402587
 30
0.0
 40
0.9998867593388234
 50
269.9935106838592
 51
0.0064893121739518
  0
ARC
  5
9AAF
  8
01
  6
BYBLOCK
 10
-693.1413748888762
 20
-644.185110908444
 30
0.0
 40
0.9998867592919898
 50
89.99351068232191
 51
180.0064893160562
  0
ARC
  5
9AB0
  8
01
  6
BYBLOCK
 10
-693.1413748892263
 20
-682.1853374031004
 30
0.0
 40
0.9998867588936193
 50
179.9935106586313
 51
270.0064893379815
  0
LINE
  5
9AB4
  8
01
  6
BYBLOCK
 10
-554.5590671432941
 20
-680.6852238277139
 30
0.0
 11
-554.5590671432941
 21
-645.6852238277143
 31
0.0
  0
LINE
  5
9AB8
  8
01
  6
BYBLOCK
 10
-554.5590671432941
 20
-680.6852238277139
 30
0.0
 11
-570.0590671432941
 21
-680.6852238277139
 31
0.0
  0
LINE
  5
9AB9
  8
01
  6
BYBLOCK
 10
-570.0590671432941
 20
-643.1852241555495
 30
0.0
 11
-570.0590671432941
 21
-644.1852241992611
 31
0.0
  0
LINE
  5
9ABA
  8
01
  6
BYBLOCK
 10
-570.0590671432941
 20
-644.1852241992609
 30
0.0
 11
-570.0590671432941
 21
-682.1852241992609
 31
0.0
  0
LINE
  5
9ABB
  8
01
  6
BYBLOCK
 10
-570.0590671432941
 20
-682.1852241992607
 30
0.0
 11
-570.0590671432941
 21
-683.1852241555495
 31
0.0
  0
LINE
  5
9ABC
  8
01
  6
BYBLOCK
 10
-557.0590671432941
 20
-674.6852240899824
 30
0.0
 11
-557.0590671432941
 21
-651.6852240899824
 31
0.0
  0
POLYLINE
  5
9ABD
  8
01
  6
BYBLOCK
 10
0.0
 20
0.0
 30
0.0
 66
     1
 70
     8
  0
VERTEX
  5
C188
  8
01
  6
BYBLOCK
 10
-557.0590671432941
 20
-680.6852238277139
 30
0.0
 70
    32
  0
VERTEX
  5
C189
  8
01
  6
BYBLOCK
 10
-557.0590671432941
 20
-680.6842668413062
 30
0.0
 70
    32
  0
VERTEX
  5
C18A
  8
01
  6
BYBLOCK
 10
-557.0590671432941
 20
-680.6813976384176
 30
0.0
 70
    32
  0
VERTEX
  5
C18B
  8
01
  6
BYBLOCK
 10
-557.0590671432941
 20
-680.6766188675766
 30
0.0
 70
    32
  0
VERTEX
  5
C18C
  8
01
  6
BYBLOCK
 10
-557.0590671432941
 20
-680.6699331773116
 30
0.0
 70
    32
  0
VERTEX
  5
C18D
  8
01
  6
BYBLOCK
 10
-557.0590671432941
 20
-680.6613432161511
 30
0.0
 70
    32
  0
VERTEX
  5
C18E
  8
01
  6
BYBLOCK
 10
-557.0590671432941
 20
-680.6508516326232
 30
0.0
 70
    32
  0
VERTEX
  5
C18F
  8
01
  6
BYBLOCK
 10
-557.0590671432941
 20
-680.6384610752568
 30
0.0
 70
    32
  0
VERTEX
  5
C190
  8
01
  6
BYBLOCK
 10
-557.0590671432941
 20
-680.62417419258
 30
0.0
 70
    32
  0
VERTEX
  5
C191
  8
01
  6
BYBLOCK
 10
-557.0590671432941
 20
-680.6079936331212
 30
0.0
 70
    32
  0
VERTEX
  5
C192
  8
01
  6
BYBLOCK
 10
-557.0590671432941
 20
-680.589922771485
 30
0.0
 70
    32
  0
VERTEX
  5
C193
  8
01
  6
BYBLOCK
 10
-557.0590671432941
 20
-680.5699686883145
 30
0.0
 70
    32
  0
VERTEX
  5
C194
  8
01
  6
BYBLOCK
 10
-557.0590671432941
 20
-680.54813964363
 30
0.0
 70
    32
  0
VERTEX
  5
C195
  8
01
  6
BYBLOCK
 10
-557.0590671432941
 20
-680.5244438979478
 30
0.0
 70
    32
  0
VERTEX
  5
C196
  8
01
  6
BYBLOCK
 10
-557.0590671432941
 20
-680.4988897117845
 30
0.0
 70
    32
  0
VERTEX
  5
C197
  8
01
  6
BYBLOCK
 10
-557.0590671432941
 20
-680.4714853456568
 30
0.0
 70
    32
  0
VERTEX
  5
C198
  8
01
  6
BYBLOCK
 10
-557.0590671432941
 20
-680.4422390600807
 30
0.0
 70
    32
  0
VERTEX
  5
C199
  8
01
  6
BYBLOCK
 10
-557.0590671432941
 20
-680.4111591155734
 30
0.0
 70
    32
  0
VERTEX
  5
C19A
  8
01
  6
BYBLOCK
 10
-557.0590671432941
 20
-680.3782537726507
 30
0.0
 70
    32
  0
VERTEX
  5
C19B
  8
01
  6
BYBLOCK
 10
-557.0590671432941
 20
-680.3435313291242
 30
0.0
 70
    32
  0
VERTEX
  5
C19C
  8
01
  6
BYBLOCK
 10
-557.0590671432941
 20
-680.3070022129965
 30
0.0
 70
    32
  0
VERTEX
  5
C19D
  8
01
  6
BYBLOCK
 10
-557.0590671432941
 20
-680.2686800936982
 30
0.0
 70
    32
  0
VERTEX
  5
C19E
  8
01
  6
BYBLOCK
 10
-557.0590671432941
 20
-680.2285789125532
 30
0.0
 70
    32
  0
VERTEX
  5
C19F
  8
01
  6
BYBLOCK
 10
-557.0590671432941
 20
-680.186712610886
 30
0.0
 70
    32
  0
VERTEX
  5
C1A0
  8
01
  6
BYBLOCK
 10
-557.0590671432941
 20
-680.143095130021
 30
0.0
 70
    32
  0
VERTEX
  5
C1A1
  8
01
  6
BYBLOCK
 10
-557.0590671432941
 20
-680.0977404112826
 30
0.0
 70
    32
  0
VERTEX
  5
C1A2
  8
01
  6
BYBLOCK
 10
-557.0590671432941
 20
-680.0506623959951
 30
0.0
 70
    32
  0
VERTEX
  5
C1A3
  8
01
  6
BYBLOCK
 10
-557.0590671432941
 20
-680.0018750254826
 30
0.0
 70
    32
  0
VERTEX
  5
C1A4
  8
01
  6
BYBLOCK
 10
-557.0590671432941
 20
-679.9513922410698
 30
0.0
 70
    32
  0
VERTEX
  5
C1A5
  8
01
  6
BYBLOCK
 10
-557.0590671432941
 20
-679.8992280301569
 30
0.0
 70
    32
  0
VERTEX
  5
C1A6
  8
01
  6
BYBLOCK
 10
-557.0590671432941
 20
-679.8453985183886
 30
0.0
 70
    32
  0
VERTEX
  5
C1A7
  8
01
  6
BYBLOCK
 10
-557.0590671432941
 20
-679.789922828384
 30
0.0
 70
    32
  0
VERTEX
  5
C1A8
  8
01
  6
BYBLOCK
 10
-557.0590671432941
 20
-679.7328203067441
 30
0.0
 70
    32
  0
VERTEX
  5
C1A9
  8
01
  6
BYBLOCK
 10
-557.0590671432941
 20
-679.6741103000702
 30
0.0
 70
    32
  0
VERTEX
  5
C1AA
  8
01
  6
BYBLOCK
 10
-557.0590671432941
 20
-679.6138121549636
 30
0.0
 70
    32
  0
VERTEX
  5
C1AB
  8
01
  6
BYBLOCK
 10
-557.0590671432941
 20
-679.5519452180256
 30
0.0
 70
    32
  0
VERTEX
  5
C1AC
  8
01
  6
BYBLOCK
 10
-557.0590671432941
 20
-679.4885288358573
 30
0.0
 70
    32
  0
VERTEX
  5
C1AD
  8
01
  6
BYBLOCK
 10
-557.0590671432941
 20
-679.4235823550599
 30
0.0
 70
    32
  0
VERTEX
  5
C1AE
  8
01
  6
BYBLOCK
 10
-557.0590671432941
 20
-679.3571251222348
 30
0.0
 70
    32
  0
VERTEX
  5
C1AF
  8
01
  6
BYBLOCK
 10
-557.0590671432941
 20
-679.2891764868663
 30
0.0
 70
    32
  0
VERTEX
  5
C1B0
  8
01
  6
BYBLOCK
 10
-557.0590671432941
 20
-679.219757033301
 30
0.0
 70
    32
  0
VERTEX
  5
C1B1
  8
01
  6
BYBLOCK
 10
-557.0590671432941
 20
-679.148890498603
 30
0.0
 70
    32
  0
VERTEX
  5
C1B2
  8
01
  6
BYBLOCK
 10
-557.0590671432941
 20
-679.0766011157328
 30
0.0
 70
    32
  0
VERTEX
  5
C1B3
  8
01
  6
BYBLOCK
 10
-557.0590671432941
 20
-679.0029131176509
 30
0.0
 70
    32
  0
VERTEX
  5
C1B4
  8
01
  6
BYBLOCK
 10
-557.0590671432941
 20
-678.9278507373178
 30
0.0
 70
    32
  0
VERTEX
  5
C1B5
  8
01
  6
BYBLOCK
 10
-557.0590671432941
 20
-678.8514382076942
 30
0.0
 70
    32
  0
VERTEX
  5
C1B6
  8
01
  6
BYBLOCK
 10
-557.0590671432941
 20
-678.7736997617402
 30
0.0
 70
    32
  0
VERTEX
  5
C1B7
  8
01
  6
BYBLOCK
 10
-557.0590671432941
 20
-678.6946596324167
 30
0.0
 70
    32
  0
VERTEX
  5
C1B8
  8
01
  6
BYBLOCK
 10
-557.0590671432941
 20
-678.614342052684
 30
0.0
 70
    32
  0
VERTEX
  5
C1B9
  8
01
  6
BYBLOCK
 10
-557.0590671432941
 20
-678.5327712555027
 30
0.0
 70
    32
  0
VERTEX
  5
C1BA
  8
01
  6
BYBLOCK
 10
-557.0590671432941
 20
-678.4499718703032
 30
0.0
 70
    32
  0
VERTEX
  5
C1BB
  8
01
  6
BYBLOCK
 10
-557.0590671432941
 20
-678.365971047119
 30
0.0
 70
    32
  0
VERTEX
  5
C1BC
  8
01
  6
BYBLOCK
 10
-557.0590671432941
 20
-678.2807969232576
 30
0.0
 70
    32
  0
VERTEX
  5
C1BD
  8
01
  6
BYBLOCK
 10
-557.0590671432941
 20
-678.1944776383319
 30
0.0
 70
    32
  0
VERTEX
  5
C1BE
  8
01
  6
BYBLOCK
 10
-557.0590671432941
 20
-678.1070413319546
 30
0.0
 70
    32
  0
VERTEX
  5
C1BF
  8
01
  6
BYBLOCK
 10
-557.0590671432941
 20
-678.0185161437386
 30
0.0
 70
    32
  0
VERTEX
  5
C1C0
  8
01
  6
BYBLOCK
 10
-557.0590671432941
 20
-677.9289302132963
 30
0.0
 70
    32
  0
VERTEX
  5
C1C1
  8
01
  6
BYBLOCK
 10
-557.0590671432941
 20
-677.838311680241
 30
0.0
 70
    32
  0
VERTEX
  5
C1C2
  8
01
  6
BYBLOCK
 10
-557.0590671432941
 20
-677.7466886841851
 30
0.0
 70
    32
  0
VERTEX
  5
C1C3
  8
01
  6
BYBLOCK
 10
-557.0590671432941
 20
-677.6540893647415
 30
0.0
 70
    32
  0
VERTEX
  5
C1C4
  8
01
  6
BYBLOCK
 10
-557.0590671432941
 20
-677.5605420053084
 30
0.0
 70
    32
  0
VERTEX
  5
C1C5
  8
01
  6
BYBLOCK
 10
-557.0590671432941
 20
-677.4660768131904
 30
0.0
 70
    32
  0
VERTEX
  5
C1C6
  8
01
  6
BYBLOCK
 10
-557.0590671432941
 20
-677.3707253683374
 30
0.0
 70
    32
  0
VERTEX
  5
C1C7
  8
01
  6
BYBLOCK
 10
-557.0590671432941
 20
-677.274519280278
 30
0.0
 70
    32
  0
VERTEX
  5
C1C8
  8
01
  6
BYBLOCK
 10
-557.0590671432941
 20
-677.1774901585408
 30
0.0
 70
    32
  0
VERTEX
  5
C1C9
  8
01
  6
BYBLOCK
 10
-557.0590671432941
 20
-677.0796696126539
 30
0.0
 70
    32
  0
VERTEX
  5
C1CA
  8
01
  6
BYBLOCK
 10
-557.0590671432941
 20
-676.9810892521459
 30
0.0
 70
    32
  0
VERTEX
  5
C1CB
  8
01
  6
BYBLOCK
 10
-557.0590671432941
 20
-676.8817806865455
 30
0.0
 70
    32
  0
VERTEX
  5
C1CC
  8
01
  6
BYBLOCK
 10
-557.0590671432941
 20
-676.7817755253808
 30
0.0
 70
    32
  0
VERTEX
  5
C1CD
  8
01
  6
BYBLOCK
 10
-557.0590671432941
 20
-676.6811053781804
 30
0.0
 70
    32
  0
VERTEX
  5
C1CE
  8
01
  6
BYBLOCK
 10
-557.0590671432941
 20
-676.5798018609631
 30
0.0
 70
    32
  0
VERTEX
  5
C1CF
  8
01
  6
BYBLOCK
 10
-557.0590671432941
 20
-676.4778966671233
 30
0.0
 70
    32
  0
VERTEX
  5
C1D0
  8
01
  6
BYBLOCK
 10
-557.0590671432941
 20
-676.3754215409047
 30
0.0
 70
    32
  0
VERTEX
  5
C1D1
  8
01
  6
BYBLOCK
 10
-557.0590671432941
 20
-676.2724082274411
 30
0.0
 70
    32
  0
VERTEX
  5
C1D2
  8
01
  6
BYBLOCK
 10
-557.0590671432941
 20
-676.1688884718669
 30
0.0
 70
    32
  0
VERTEX
  5
C1D3
  8
01
  6
BYBLOCK
 10
-557.0590671432941
 20
-676.0648940193157
 30
0.0
 70
    32
  0
VERTEX
  5
C1D4
  8
01
  6
BYBLOCK
 10
-557.0590671432941
 20
-675.9604566149219
 30
0.0
 70
    32
  0
VERTEX
  5
C1D5
  8
01
  6
BYBLOCK
 10
-557.0590671432941
 20
-675.855608003819
 30
0.0
 70
    32
  0
VERTEX
  5
C1D6
  8
01
  6
BYBLOCK
 10
-557.0590671432941
 20
-675.7503799311417
 30
0.0
 70
    32
  0
VERTEX
  5
C1D7
  8
01
  6
BYBLOCK
 10
-557.0590671432941
 20
-675.6448041427398
 30
0.0
 70
    32
  0
VERTEX
  5
C1D8
  8
01
  6
BYBLOCK
 10
-557.0590671432941
 20
-675.538914087374
 30
0.0
 70
    32
  0
VERTEX
  5
C1D9
  8
01
  6
BYBLOCK
 10
-557.0590671432941
 20
-675.4327485649762
 30
0.0
 70
    32
  0
VERTEX
  5
C1DA
  8
01
  6
BYBLOCK
 10
-557.0590671432941
 20
-675.3263474238644
 30
0.0
 70
    32
  0
VERTEX
  5
C1DB
  8
01
  6
BYBLOCK
 10
-557.0590671432941
 20
-675.2197505123557
 30
0.0
 70
    32
  0
VERTEX
  5
C1DC
  8
01
  6
BYBLOCK
 10
-557.0590671432941
 20
-675.1129976787684
 30
0.0
 70
    32
  0
VERTEX
  5
C1DD
  8
01
  6
BYBLOCK
 10
-557.0590671432941
 20
-675.0061287714196
 30
0.0
 70
    32
  0
VERTEX
  5
C1DE
  8
01
  6
BYBLOCK
 10
-557.0590671432941
 20
-674.8991836386273
 30
0.0
 70
    32
  0
VERTEX
  5
C1DF
  8
01
  6
BYBLOCK
 10
-557.0590671432941
 20
-674.792202128709
 30
0.0
 70
    32
  0
VERTEX
  5
C1E0
  8
01
  6
BYBLOCK
 10
-557.0590671432941
 20
-674.6852240899824
 30
0.0
 70
    32
  0
SEQEND
  5
C4B3
  8
01
  6
BYBLOCK
  0
LINE
  5
9ABE
  8
01
  6
BYBLOCK
 10
-570.0590671432941
 20
-645.6852238277141
 30
0.0
 11
-554.5590671432941
 21
-645.6852238277143
 31
0.0
  0
LINE
  5
9ABF
  8
01
  6
BYBLOCK
 10
-557.0590671432941
 20
-651.6852240899824
 30
0.0
 11
-557.0590671432941
 21
-645.6852238277144
 31
0.0
  0
LINE
  5
9AC1
  8
01
  6
BYBLOCK
 10
-572.0590671432941
 20
-644.1852241774071
 30
0.0
 11
-572.0590671432941
 21
-643.6852241554583
 31
0.0
  0
POLYLINE
  5
9AC2
  8
01
  6
BYBLOCK
 10
0.0
 20
0.0
 30
0.0
 66
     1
 70
     8
  0
VERTEX
  5
C1E1
  8
01
  6
BYBLOCK
 10
-572.0590671432941
 20
-682.6852241555513
 30
0.0
 70
    32
  0
VERTEX
  5
C1E2
  8
01
  6
BYBLOCK
 10
-572.0590671432941
 20
-682.6849592778646
 30
0.0
 70
    32
  0
VERTEX
  5
C1E3
  8
01
  6
BYBLOCK
 10
-572.0590671432941
 20
-682.6841549105602
 30
0.0
 70
    32
  0
VERTEX
  5
C1E4
  8
01
  6
BYBLOCK
 10
-572.0590671432941
 20
-682.6828144135518
 30
0.0
 70
    32
  0
VERTEX
  5
C1E5
  8
01
  6
BYBLOCK
 10
-572.0590671432941
 20
-682.6809411467533
 30
0.0
 70
    32
  0
VERTEX
  5
C1E6
  8
01
  6
BYBLOCK
 10
-572.0590671432941
 20
-682.6785384700781
 30
0.0
 70
    32
  0
VERTEX
  5
C1E7
  8
01
  6
BYBLOCK
 10
-572.0590671432941
 20
-682.6756097434403
 30
0.0
 70
    32
  0
VERTEX
  5
C1E8
  8
01
  6
BYBLOCK
 10
-572.0590671432941
 20
-682.6721583267533
 30
0.0
 70
    32
  0
VERTEX
  5
C1E9
  8
01
  6
BYBLOCK
 10
-572.0590671432941
 20
-682.668187579931
 30
0.0
 70
    32
  0
VERTEX
  5
C1EA
  8
01
  6
BYBLOCK
 10
-572.0590671432941
 20
-682.6637008628869
 30
0.0
 70
    32
  0
VERTEX
  5
C1EB
  8
01
  6
BYBLOCK
 10
-572.0590671432941
 20
-682.6587015355351
 30
0.0
 70
    32
  0
VERTEX
  5
C1EC
  8
01
  6
BYBLOCK
 10
-572.0590671432941
 20
-682.6531929577889
 30
0.0
 70
    32
  0
VERTEX
  5
C1ED
  8
01
  6
BYBLOCK
 10
-572.0590671432941
 20
-682.647178623972
 30
0.0
 70
    32
  0
VERTEX
  5
C1EE
  8
01
  6
BYBLOCK
 10
-572.0590671432941
 20
-682.6406650304745
 30
0.0
 70
    32
  0
VERTEX
  5
C1EF
  8
01
  6
BYBLOCK
 10
-572.0590671432941
 20
-682.6336616269319
 30
0.0
 70
    32
  0
VERTEX
  5
C1F0
  8
01
  6
BYBLOCK
 10
-572.0590671432941
 20
-682.6261779876247
 30
0.0
 70
    32
  0
VERTEX
  5
C1F1
  8
01
  6
BYBLOCK
 10
-572.0590671432941
 20
-682.6182236868328
 30
0.0
 70
    32
  0
VERTEX
  5
C1F2
  8
01
  6
BYBLOCK
 10
-572.0590671432941
 20
-682.6098082988368
 30
0.0
 70
    32
  0
VERTEX
  5
C1F3
  8
01
  6
BYBLOCK
 10
-572.0590671432941
 20
-682.6009413979168
 30
0.0
 70
    32
  0
VERTEX
  5
C1F4
  8
01
  6
BYBLOCK
 10
-572.0590671432941
 20
-682.5916325583531
 30
0.0
 70
    32
  0
VERTEX
  5
C1F5
  8
01
  6
BYBLOCK
 10
-572.0590671432941
 20
-682.5818913544261
 30
0.0
 70
    32
  0
VERTEX
  5
C1F6
  8
01
  6
BYBLOCK
 10
-572.0590671432941
 20
-682.5717273604162
 30
0.0
 70
    32
  0
VERTEX
  5
C1F7
  8
01
  6
BYBLOCK
 10
-572.0590671432941
 20
-682.5611501506033
 30
0.0
 70
    32
  0
VERTEX
  5
C1F8
  8
01
  6
BYBLOCK
 10
-572.0590671432941
 20
-682.5501692992681
 30
0.0
 70
    32
  0
VERTEX
  5
C1F9
  8
01
  6
BYBLOCK
 10
-572.0590671432941
 20
-682.5387943812764
 30
0.0
 70
    32
  0
VERTEX
  5
C1FA
  8
01
  6
BYBLOCK
 10
-572.0590671432941
 20
-682.5270360821457
 30
0.0
 70
    32
  0
VERTEX
  5
C1FB
  8
01
  6
BYBLOCK
 10
-572.0590671432941
 20
-682.5149085074167
 30
0.0
 70
    32
  0
VERTEX
  5
C1FC
  8
01
  6
BYBLOCK
 10
-572.0590671432941
 20
-682.5024264188025
 30
0.0
 70
    32
  0
VERTEX
  5
C1FD
  8
01
  6
BYBLOCK
 10
-572.0590671432941
 20
-682.4896045780165
 30
0.0
 70
    32
  0
VERTEX
  5
C1FE
  8
01
  6
BYBLOCK
 10
-572.0590671432941
 20
-682.4764577467719
 30
0.0
 70
    32
  0
VERTEX
  5
C1FF
  8
01
  6
BYBLOCK
 10
-572.0590671432941
 20
-682.4630006867817
 30
0.0
 70
    32
  0
VERTEX
  5
C200
  8
01
  6
BYBLOCK
 10
-572.0590671432941
 20
-682.4492481597595
 30
0.0
 70
    32
  0
VERTEX
  5
C201
  8
01
  6
BYBLOCK
 10
-572.0590671432941
 20
-682.4352149274183
 30
0.0
 70
    32
  0
VERTEX
  5
C202
  8
01
  6
BYBLOCK
 10
-572.0590671432941
 20
-682.4209157514716
 30
0.0
 70
    32
  0
VERTEX
  5
C203
  8
01
  6
BYBLOCK
 10
-572.0590671432941
 20
-682.4063653936323
 30
0.0
 70
    32
  0
VERTEX
  5
C204
  8
01
  6
BYBLOCK
 10
-572.0590671432941
 20
-682.3915786156141
 30
0.0
 70
    32
  0
VERTEX
  5
C205
  8
01
  6
BYBLOCK
 10
-572.0590671432941
 20
-682.37657017913
 30
0.0
 70
    32
  0
VERTEX
  5
C206
  8
01
  6
BYBLOCK
 10
-572.0590671432941
 20
-682.3613549695554
 30
0.0
 70
    32
  0
VERTEX
  5
C207
  8
01
  6
BYBLOCK
 10
-572.0590671432941
 20
-682.3459493257337
 30
0.0
 70
    32
  0
VERTEX
  5
C208
  8
01
  6
BYBLOCK
 10
-572.0590671432941
 20
-682.330370531832
 30
0.0
 70
    32
  0
VERTEX
  5
C209
  8
01
  6
BYBLOCK
 10
-572.0590671432941
 20
-682.314635888118
 30
0.0
 70
    32
  0
VERTEX
  5
C20A
  8
01
  6
BYBLOCK
 10
-572.0590671432941
 20
-682.2987626948587
 30
0.0
 70
    32
  0
VERTEX
  5
C20B
  8
01
  6
BYBLOCK
 10
-572.0590671432941
 20
-682.2827682523223
 30
0.0
 70
    32
  0
VERTEX
  5
C20C
  8
01
  6
BYBLOCK
 10
-572.0590671432941
 20
-682.2666698607759
 30
0.0
 70
    32
  0
VERTEX
  5
C20D
  8
01
  6
BYBLOCK
 10
-572.0590671432941
 20
-682.2504848204873
 30
0.0
 70
    32
  0
VERTEX
  5
C20E
  8
01
  6
BYBLOCK
 10
-572.0590671432941
 20
-682.2342304317236
 30
0.0
 70
    32
  0
VERTEX
  5
C20F
  8
01
  6
BYBLOCK
 10
-572.0590671432941
 20
-682.2179239947529
 30
0.0
 70
    32
  0
VERTEX
  5
C210
  8
01
  6
BYBLOCK
 10
-572.0590671432941
 20
-682.2015828098425
 30
0.0
 70
    32
  0
VERTEX
  5
C211
  8
01
  6
BYBLOCK
 10
-572.0590671432941
 20
-682.18522417726
 30
0.0
 70
    32
  0
SEQEND
  5
C4B4
  8
01
  6
BYBLOCK
  0
LINE
  5
9AC3
  8
01
  6
BYBLOCK
 10
-572.0590671432941
 20
-644.1852241774071
 30
0.0
 11
-572.0590671432941
 21
-682.18522417726
 31
0.0
  0
LINE
  5
9AC4
  8
01
  6
BYBLOCK
 10
-571.5590671432941
 20
-643.1852241555495
 30
0.0
 11
-570.0590671432941
 21
-643.1852241555495
 31
0.0
  0
LINE
  5
9AC5
  8
01
  6
BYBLOCK
 10
-570.0590671432941
 20
-683.1852241555495
 30
0.0
 11
-571.5590671432941
 21
-683.1852241555495
 31
0.0
  0
ARC
  5
9AC6
  8
01
  6
BYBLOCK
 10
571.5590671433389
 20
-643.6852241555545
 30
0.0
 40
0.4999999999800666
 50
0.0000000109952539
 51
90.00000000489837
210
0.0
220
0.0
230
-1.0
  0
ARC
  5
9AC7
  8
01
  6
BYBLOCK
 10
571.5590671431778
 20
-682.6852241554808
 30
0.0
 40
0.5000000000924816
 50
270.0000000133272
 51
359.9999999916884
210
0.0
220
0.0
230
-1.0
  0
LINE
  5
9AC8
  8
01
  6
BYBLOCK
 10
-684.2912616417383
 20
-765.5426705279075
 30
0.0
 11
-623.9912616417382
 21
-765.5426705279076
 31
0.0
  0
ARC
  5
9ACA
  8
01
  6
BYBLOCK
 10
622.6413069310028
 20
-793.0426252387457
 30
0.0
 40
5.700045289393596
 50
180.0004552383328
 51
269.9995447608595
210
0.0
220
0.0
230
-1.0
  0
LINE
  5
9ACB
  8
01
  6
BYBLOCK
 10
-685.6412616417382
 20
-798.7426705279084
 30
0.0
 11
-622.6412616417382
 21
-798.7426705279084
 31
0.0
  0
ARC
  5
9ACC
  8
01
  6
BYBLOCK
 10
685.6412163523354
 20
-793.0426252385116
 30
0.0
 40
5.700045289579647
 50
270.0004552407493
 51
359.9995447595307
210
0.0
220
0.0
230
-1.0
  0
LINE
  5
9ACD
  8
01
  6
BYBLOCK
 10
-691.341261641738
 20
-770.0426705279076
 30
0.0
 11
-691.341261641738
 21
-793.0426705279086
 31
0.0
  0
LINE
  5
9ACE
  8
01
  6
BYBLOCK
 10
-616.9412616417382
 20
-793.0426705279075
 30
0.0
 11
-616.9412616417382
 21
-770.0426705279076
 31
0.0
  0
ARC
  5
9AD2
  8
01
  6
BYBLOCK
 10
-688.141261641808
 20
-790.0426705278259
 30
0.0
 40
2.199999999999932
 50
180.0000000025795
 51
359.9999999978374
  0
ARC
  5
9AD3
  8
01
  6
BYBLOCK
 10
-688.1412616418028
 20
-790.0426705279677
 30
0.0
 40
2.200000000000045
 50
0.0000000019932155
 51
179.9999999984367
  0
ARC
  5
9AD6
  8
01
  6
BYBLOCK
 10
620.1412616417725
 20
-790.0426705278417
 30
0.0
 40
2.199999999999704
 50
359.9999999987233
 51
180.0000000017196
210
0.0
220
0.0
230
-1.0
  0
ARC
  5
9AD7
  8
01
  6
BYBLOCK
 10
620.1412616417844
 20
-790.0426705279664
 30
0.0
 40
2.199999999999932
 50
179.9999999989187
 51
0.0000000015372511
210
0.0
220
0.0
230
-1.0
  0
LINE
  5
9B0C
  8
01
  6
BYBLOCK
 10
-624.1412616417382
 20
-765.5426705060529
 30
0.0
 11
-624.1412616417382
 21
-764.0426705060529
 31
0.0
  0
LINE
  5
9B0D
  8
01
  6
BYBLOCK
 10
-684.1412616417382
 20
-764.0426705060529
 30
0.0
 11
-684.1412616417382
 21
-765.5426705060529
 31
0.0
  0
LINE
  5
9B0E
  8
01
  6
BYBLOCK
 10
-685.6412616417382
 20
-799.042670418629
 30
0.0
 11
-622.6412616417382
 21
-799.042670418629
 31
0.0
  0
LINE
  5
9B0F
  8
01
  6
BYBLOCK
 10
-693.1412616417382
 20
-761.5426698503811
 30
0.0
 11
-615.1412616417382
 21
-761.5426698503811
 31
0.0
  0
ARC
  5
9B10
  8
01
  6
BYBLOCK
 10
-615.1412695869782
 20
-762.5426777954399
 30
0.0
 40
1.000007945181167
 50
0.0004552149352671
 51
89.99954477489673
  0
LINE
  5
9B11
  8
01
  6
BYBLOCK
 10
-614.1412616417382
 20
-762.5426698503811
 30
0.0
 11
-614.1412616417382
 21
-800.5426698503811
 31
0.0
  0
ARC
  5
9B12
  8
01
  6
BYBLOCK
 10
-615.1412695874811
 20
-800.5426619046045
 30
0.0
 40
1.000007945791216
 50
270.0004552541547
 51
359.9995447441582
  0
LINE
  5
9B13
  8
01
  6
BYBLOCK
 10
-615.1412616417382
 20
-801.5426698503809
 30
0.0
 11
-693.1412616417382
 21
-801.5426698503809
 31
0.0
  0
ARC
  5
9B14
  8
01
  6
BYBLOCK
 10
-693.1412536961378
 20
-800.5426619049076
 30
0.0
 40
1.000007945568501
 50
180.0004552386975
 51
269.9995447542481
  0
LINE
  5
9B15
  8
01
  6
BYBLOCK
 10
-694.1412616417382
 20
-800.5426698503809
 30
0.0
 11
-694.1412616417382
 21
-762.5426698503809
 31
0.0
  0
ARC
  5
9B16
  8
01
  6
BYBLOCK
 10
-693.141253696423
 20
-762.5426777957206
 30
0.0
 40
1.000007945358861
 50
90.00045522963684
 51
179.9995447692102
  0
LINE
  5
9B17
  8
01
  6
BYBLOCK
 10
-616.6412616417382
 20
-793.042670418629
 30
0.0
 11
-616.6412616417382
 21
-770.5426704185966
 31
0.0
  0
ARC
  5
9B18
  8
01
 10
-623.1412616417382
 20
-770.5426704185966
 30
0.0
 40
6.5
 50
0.0
 51
90.0
  0
ARC
  5
9B19
  8
01
  6
BYBLOCK
 10
622.6413093147893
 20
-793.0426227455406
 30
0.0
 40
6.000047673259122
 50
180.0004552410685
 51
269.9995447595112
210
0.0
220
0.0
230
-1.0
  0
ARC
  5
9B1A
  8
01
  6
BYBLOCK
 10
685.6412139687917
 20
-793.0426227457214
 30
0.0
 40
6.000047673116444
 50
270.0004552397072
 51
359.9995447608725
210
0.0
220
0.0
230
-1.0
  0
LINE
  5
9B1B
  8
01
  6
BYBLOCK
 10
-691.6412616417383
 20
-770.5426704185966
 30
0.0
 11
-691.6412616417382
 21
-793.0426704186291
 31
0.0
  0
ARC
  5
9B1C
  8
01
 10
-685.1412616417383
 20
-770.5426704185966
 30
0.0
 40
6.5
 50
90.0
 51
180.0
  0
ARC
  5
9B1D
  8
01
  6
BYBLOCK
 10
620.1412616417814
 20
-790.0426704185111
 30
0.0
 40
1.650000000000091
 50
180.0000000045857
 51
359.9999999958703
210
0.0
220
0.0
230
-1.0
  0
ARC
  5
9B1E
  8
01
  6
BYBLOCK
 10
-688.1412616417564
 20
-790.0426704186591
 30
0.0
 40
1.649999999999977
 50
179.9999999994398
 51
0.0000000010161491
  0
ARC
  5
9B1F
  8
01
  6
BYBLOCK
 10
620.141261641768
 20
-790.0426704185385
 30
0.0
 40
1.64999999999975
 50
359.9999999972642
 51
180.0000000031787
210
0.0
220
0.0
230
-1.0
  0
ARC
  5
9B20
  8
01
  6
BYBLOCK
 10
-688.1412616417698
 20
-790.0426704186867
 30
0.0
 40
1.650000000000091
 50
0.0000000024231247
 51
179.9999999980328
  0
LINE
  5
9B53
  8
1CENTER
 10
-685.2465675552434
 20
-790.0426704186867
 30
0.0
 11
-691.0359557282962
 21
-790.0426704186867
 31
0.0
  0
LINE
  5
9B54
  8
1CENTER
 10
-688.1412616417698
 20
-792.9373645052132
 30
0.0
 11
-688.1412616417698
 21
-787.1479763321603
 31
0.0
  0
LINE
  5
9B55
  8
1CENTER
 10
-617.2465675552415
 20
-790.0426704185385
 30
0.0
 11
-623.0359557282944
 21
-790.0426704185385
 31
0.0
  0
LINE
  5
9B56
  8
1CENTER
 10
-620.141261641768
 20
-792.9373645050649
 30
0.0
 11
-620.141261641768
 21
-787.147976332012
 31
0.0
  0
LINE
  5
9B5C
  8
1CENTER
 10
-654.1412616417382
 20
-639.0471056364647
 30
0.0
 11
-654.1412616417382
 21
-687.254986436116
 31
0.0
  0
LINE
  5
9B5D
  8
1CENTER
 10
-654.1412616417382
 20
-757.404551331297
 30
0.0
 11
-654.1412616417382
 21
-805.6124321309483
 31
0.0
  0
LINE
  5
9B5E
  8
1CENTER
 10
-654.141200606582
 20
-739.618709271788
 30
0.0
 11
-654.141200606582
 21
-716.4144453276101
 31
0.0
  0
LINE
  5
9B62
  8
1PHANTOM
 10
-510.711675498952
 20
-631.8917015924542
 30
0.0
 11
-447.711675498952
 21
-631.8917015924542
 31
0.0
  0
ARC
  5
9B63
  8
1PHANTOM
 10
-447.711675498952
 20
-637.8917015924542
 30
0.0
 40
6.0
 50
0.0
 51
90.0
  0
ARC
  5
9B64
  8
1PHANTOM
 10
-510.711675498952
 20
-637.8917015924542
 30
0.0
 40
6.0
 50
90.0
 51
180.0
  0
LINE
  5
9B65
  8
1PHANTOM
 10
-441.711675498952
 20
-637.8917015924542
 30
0.0
 11
-441.711675498952
 21
-660.8917015924542
 31
0.0
  0
ARC
  5
9B66
  8
1PHANTOM
 10
-447.711675498952
 20
-660.8917015924542
 30
0.0
 40
6.0
 50
270.0
 51
0.0
  0
LINE
  5
9B67
  8
1PHANTOM
 10
-447.711675498952
 20
-666.8917015924542
 30
0.0
 11
-510.711675498952
 21
-666.8917015924543
 31
0.0
  0
ARC
  5
9B68
  8
1PHANTOM
 10
-510.711675498952
 20
-660.8917015924543
 30
0.0
 40
6.0
 50
180.0
 51
270.0
  0
LINE
  5
9B69
  8
1PHANTOM
 10
-516.711675498952
 20
-660.8917015924543
 30
0.0
 11
-516.711675498952
 21
-637.8917015924542
 31
0.0
  0
LINE
  5
9B6C
  8
1CENTER
 10
-513.211675498952
 20
-638.5032148390586
 30
0.0
 11
-513.211675498952
 21
-643.2801883458498
 31
0.0
  0
LINE
  5
9B6D
  8
1CENTER
 10
-510.8231887455565
 20
-640.8917015924542
 30
0.0
 11
-515.6001622523474
 21
-640.8917015924542
 31
0.0
  0
LINE
  5
9B6E
  8
1CENTER
 10
-513.211675498952
 20
-638.5032148390586
 30
0.0
 11
-513.211675498952
 21
-643.2801883458498
 31
0.0
  0
LINE
  5
9B6F
  8
1CENTER
 10
-445.211675498952
 20
-638.5032148390586
 30
0.0
 11
-445.211675498952
 21
-643.2801883458498
 31
0.0
  0
LINE
  5
9B70
  8
1CENTER
 10
-447.6001622523474
 20
-640.8917015924542
 30
0.0
 11
-442.8231887455565
 21
-640.8917015924542
 31
0.0
  0
LINE
  5
9B71
  8
1CENTER
 10
-445.211675498952
 20
-638.5032148390586
 30
0.0
 11
-445.211675498952
 21
-643.2801883458498
 31
0.0
  0
LINE
  5
9B73
  8
1PHANTOM
 10
-519.0272048445307
 20
-682.1807615632331
 30
0.0
 11
-439.3961461533733
 21
-682.1807615632331
 31
0.0
  0
LINE
  5
9B74
  8
1PHANTOM
 10
-516.7116754989522
 20
-698.1807615632331
 30
0.0
 11
-441.7116754989521
 21
-698.1807615632331
 31
0.0
  0
LINE
  5
9B75
  8
1PHANTOM
 10
-516.7116754989521
 20
-682.1807615632331
 30
0.0
 11
-516.7116754989521
 21
-698.1807615632331
 31
0.0
  0
LINE
  5
9B76
  8
1PHANTOM
 10
-441.7116754989521
 20
-682.1807615632332
 30
0.0
 11
-441.7116754989521
 21
-698.1807615632331
 31
0.0
  0
LINE
  5
9B7C
  8
01
 10
-685.1412616417383
 20
-764.0426704185966
 30
0.0
 11
-623.1412616417382
 21
-764.0426704185966
 31
0.0
  0
LINE
  5
9BA4
  8
01
  6
BYBLOCK
 10
-624.1412616417382
 20
-765.5426704185963
 30
0.0
 11
-631.9412616417384
 21
-765.5426704185963
 31
0.0
  0
LINE
  5
9BA5
  8
01
  6
BYBLOCK
 10
-676.3412616417382
 20
-765.5426704185968
 30
0.0
 11
-684.1412616417384
 21
-765.5426704185966
 31
0.0
  0
LINE
  5
9BA6
  8
01
  6
BYBLOCK
 10
-624.1412616417382
 20
-765.5426704185963
 30
0.0
 11
-624.1412616417384
 21
-764.0426704185966
 31
0.0
  0
LINE
  5
9BA9
  8
01
  6
BYBLOCK
 10
-684.1412616417384
 20
-765.5426704185966
 30
0.0
 11
-684.1412616417382
 21
-764.0426704185966
 31
0.0
  0
LINE
  5
9F3B
  8
01
  6
BYBLOCK
 10
-684.2912616417386
 20
-765.5426705279075
 30
0.0
 11
-684.2912616417384
 21
-764.0426705279074
 31
0.0
  0
LINE
  5
9F3C
  8
01
  6
BYBLOCK
 10
-684.2912616417383
 20
-764.0426705279074
 30
0.0
 11
-685.341261641738
 21
-764.0426705279076
 31
0.0
  0
ARC
  5
9F3D
  8
01
  6
BYBLOCK
 10
-685.341261641738
 20
-770.0426705279076
 30
0.0
 40
6.0
 50
90.0
 51
180.0
  0
LINE
  5
9F3E
  8
01
  6
BYBLOCK
 10
-623.9912616417382
 20
-765.5426705279075
 30
0.0
 11
-623.9912616417384
 21
-764.0426704185966
 31
0.0
  0
LINE
  5
9F3F
  8
01
  6
BYBLOCK
 10
-623.9912616417383
 20
-764.0426704185966
 30
0.0
 11
-622.9412616417387
 21
-764.0426704185968
 31
0.0
  0
ARC
  5
9F40
  8
01
  6
BYBLOCK
 10
-622.9412616417387
 20
-770.0426704185968
 30
0.0
 40
6.0
 50
0.0
 51
90.0
  0
LINE
  5
A0A7
  8
01
  6
BYBLOCK
 10
-525.2818570273025
 20
-729.1512581592814
 30
0.0
 11
-525.2818570273025
 21
-797.3816331961974
 31
0.0
  0
LINE
  5
A0A9
  8
01
  6
BYBLOCK
 10
-525.2818570273025
 20
-748.6313150150033
 30
0.0
 11
-525.2818570273025
 21
-797.3816331961974
 31
0.0
  0
LINE
  5
A0AA
  8
1CENTER
 10
-528.8429725551969
 20
-758.3307028431568
 30
0.0
 11
-498.3421057838659
 21
-758.3309718321543
 31
0.0
  0
LINE
  5
A0AB
  8
01
 10
-504.5818291057516
 20
-754.3309509864737
 30
0.0
 11
-506.5818337593034
 21
-756.330932372158
 31
0.0
  0
LINE
  5
A0AC
  8
01
 10
-515.9318817636483
 20
-756.3307509476822
 30
0.0
 11
-506.5818337593034
 21
-756.3308780129599
 31
0.0
  0
LINE
  5
A0AD
  8
01
 10
-504.5818291057516
 20
-754.3309509864737
 30
0.0
 11
-504.2818291057637
 21
-754.3309537786276
 31
0.0
  0
LINE
  5
A0AE
  8
01
 10
-516.2818241680642
 20
-756.680688240328
 30
0.0
 11
-515.9318545841782
 21
-756.330723768609
 31
0.0
  0
LINE
  5
A0B0
  8
01
 10
-504.5818849488291
 20
-762.3309509863006
 30
0.0
 11
-504.2818849488413
 21
-762.3309537784544
 31
0.0
  0
LINE
  5
A0B1
  8
01
 10
-516.2821223019012
 20
-759.9804788561487
 30
0.0
 11
-515.9318457474404
 21
-760.3307605273353
 31
0.0
  0
LINE
  5
A0B2
  8
01
 10
-504.5818849488291
 20
-762.3309509863006
 30
0.0
 11
-506.5818896024676
 21
-760.3309323718115
 31
0.0
  0
LINE
  5
A0B3
  8
01
 10
-515.9318457474404
 20
-760.3307605273353
 30
0.0
 11
-506.5818896024676
 21
-760.3309323718115
 31
0.0
  0
LINE
  5
A0B4
  8
01
 10
-516.2818241680642
 20
-756.680688240328
 30
0.0
 11
-519.7818570273025
 21
-756.6807457430812
 31
0.0
  0
LINE
  5
A0B5
  8
01
 10
-516.2821223019012
 20
-759.9804788561487
 30
0.0
 11
-519.7818570273025
 21
-759.9804788561487
 31
0.0
  0
LINE
  5
A0B6
  8
01
 10
-519.7818570273025
 20
-756.6807457430812
 30
0.0
 11
-519.7818570273025
 21
-759.9804788561487
 31
0.0
  0
LINE
  5
A0BD
  8
01
  6
BYBLOCK
 10
-509.7818570273025
 20
-749.3313770326018
 30
0.0
 11
-509.7818570273026
 21
-756.3308345252852
 31
0.0
  0
LINE
  5
A0BE
  8
01
  6
BYBLOCK
 10
-509.7818570273025
 20
-760.3308345256413
 30
0.0
 11
-509.7818570273025
 21
-784.3313770326016
 31
0.0
  0
LINE
  5
A0BF
  8
01
  6
BYBLOCK
 10
-509.7818570273025
 20
-749.3313770326018
 30
0.0
 11
-525.2818570273025
 21
-749.3313770326018
 31
0.0
  0
LINE
  5
A0C0
  8
01
  6
BYBLOCK
 10
-525.2818570273025
 20
-786.8313767047663
 30
0.0
 11
-525.2818570273025
 21
-785.8313766610547
 31
0.0
  0
LINE
  5
A0C1
  8
01
  6
BYBLOCK
 10
-525.2818570273025
 20
-785.8313766610548
 30
0.0
 11
-525.2818570273025
 21
-747.831376661055
 31
0.0
  0
LINE
  5
A0C2
  8
01
  6
BYBLOCK
 10
-525.2818570273025
 20
-747.8313766610551
 30
0.0
 11
-525.2818570273025
 21
-746.8313767047663
 31
0.0
  0
LINE
  5
A0C3
  8
01
  6
BYBLOCK
 10
-525.2818570273025
 20
-784.3313770326016
 30
0.0
 11
-509.7818570273025
 21
-784.3313770326016
 31
0.0
  0
LINE
  5
A0C4
  8
01
  6
BYBLOCK
 10
-527.2818570273025
 20
-785.8313766829086
 30
0.0
 11
-527.2818570273025
 21
-786.3313767048575
 31
0.0
  0
POLYLINE
  5
A0C5
  8
01
  6
BYBLOCK
 10
0.0
 20
0.0
 30
0.0
 66
     1
 70
     8
  0
VERTEX
  5
C212
  8
01
  6
BYBLOCK
 10
-527.2818570273025
 20
-747.3313767047645
 30
0.0
 70
    32
  0
VERTEX
  5
C213
  8
01
  6
BYBLOCK
 10
-527.2818570273025
 20
-747.3316415824512
 30
0.0
 70
    32
  0
VERTEX
  5
C214
  8
01
  6
BYBLOCK
 10
-527.2818570273025
 20
-747.3324459497557
 30
0.0
 70
    32
  0
VERTEX
  5
C215
  8
01
  6
BYBLOCK
 10
-527.2818570273025
 20
-747.333786446764
 30
0.0
 70
    32
  0
VERTEX
  5
C216
  8
01
  6
BYBLOCK
 10
-527.2818570273025
 20
-747.3356597135626
 30
0.0
 70
    32
  0
VERTEX
  5
C217
  8
01
  6
BYBLOCK
 10
-527.2818570273025
 20
-747.3380623902377
 30
0.0
 70
    32
  0
VERTEX
  5
C218
  8
01
  6
BYBLOCK
 10
-527.2818570273025
 20
-747.3409911168756
 30
0.0
 70
    32
  0
VERTEX
  5
C219
  8
01
  6
BYBLOCK
 10
-527.2818570273025
 20
-747.3444425335625
 30
0.0
 70
    32
  0
VERTEX
  5
C21A
  8
01
  6
BYBLOCK
 10
-527.2818570273025
 20
-747.3484132803849
 30
0.0
 70
    32
  0
VERTEX
  5
C21B
  8
01
  6
BYBLOCK
 10
-527.2818570273025
 20
-747.352899997429
 30
0.0
 70
    32
  0
VERTEX
  5
C21C
  8
01
  6
BYBLOCK
 10
-527.2818570273025
 20
-747.3578993247808
 30
0.0
 70
    32
  0
VERTEX
  5
C21D
  8
01
  6
BYBLOCK
 10
-527.2818570273025
 20
-747.363407902527
 30
0.0
 70
    32
  0
VERTEX
  5
C21E
  8
01
  6
BYBLOCK
 10
-527.2818570273025
 20
-747.3694222363439
 30
0.0
 70
    32
  0
VERTEX
  5
C21F
  8
01
  6
BYBLOCK
 10
-527.2818570273025
 20
-747.3759358298414
 30
0.0
 70
    32
  0
VERTEX
  5
C220
  8
01
  6
BYBLOCK
 10
-527.2818570273025
 20
-747.3829392333839
 30
0.0
 70
    32
  0
VERTEX
  5
C221
  8
01
  6
BYBLOCK
 10
-527.2818570273025
 20
-747.3904228726911
 30
0.0
 70
    32
  0
VERTEX
  5
C222
  8
01
  6
BYBLOCK
 10
-527.2818570273025
 20
-747.398377173483
 30
0.0
 70
    32
  0
VERTEX
  5
C223
  8
01
  6
BYBLOCK
 10
-527.2818570273025
 20
-747.406792561479
 30
0.0
 70
    32
  0
VERTEX
  5
C224
  8
01
  6
BYBLOCK
 10
-527.2818570273025
 20
-747.415659462399
 30
0.0
 70
    32
  0
VERTEX
  5
C225
  8
01
  6
BYBLOCK
 10
-527.2818570273025
 20
-747.4249683019627
 30
0.0
 70
    32
  0
VERTEX
  5
C226
  8
01
  6
BYBLOCK
 10
-527.2818570273025
 20
-747.4347095058897
 30
0.0
 70
    32
  0
VERTEX
  5
C227
  8
01
  6
BYBLOCK
 10
-527.2818570273025
 20
-747.4448734998997
 30
0.0
 70
    32
  0
VERTEX
  5
C228
  8
01
  6
BYBLOCK
 10
-527.2818570273025
 20
-747.4554507097125
 30
0.0
 70
    32
  0
VERTEX
  5
C229
  8
01
  6
BYBLOCK
 10
-527.2818570273025
 20
-747.4664315610478
 30
0.0
 70
    32
  0
VERTEX
  5
C22A
  8
01
  6
BYBLOCK
 10
-527.2818570273025
 20
-747.4778064790395
 30
0.0
 70
    32
  0
VERTEX
  5
C22B
  8
01
  6
BYBLOCK
 10
-527.2818570273025
 20
-747.4895647781701
 30
0.0
 70
    32
  0
VERTEX
  5
C22C
  8
01
  6
BYBLOCK
 10
-527.2818570273025
 20
-747.5016923528991
 30
0.0
 70
    32
  0
VERTEX
  5
C22D
  8
01
  6
BYBLOCK
 10
-527.2818570273025
 20
-747.5141744415132
 30
0.0
 70
    32
  0
VERTEX
  5
C22E
  8
01
  6
BYBLOCK
 10
-527.2818570273025
 20
-747.5269962822993
 30
0.0
 70
    32
  0
VERTEX
  5
C22F
  8
01
  6
BYBLOCK
 10
-527.2818570273025
 20
-747.540143113544
 30
0.0
 70
    32
  0
VERTEX
  5
C230
  8
01
  6
BYBLOCK
 10
-527.2818570273025
 20
-747.553600173534
 30
0.0
 70
    32
  0
VERTEX
  5
C231
  8
01
  6
BYBLOCK
 10
-527.2818570273025
 20
-747.5673527005563
 30
0.0
 70
    32
  0
VERTEX
  5
C232
  8
01
  6
BYBLOCK
 10
-527.2818570273025
 20
-747.5813859328975
 30
0.0
 70
    32
  0
VERTEX
  5
C233
  8
01
  6
BYBLOCK
 10
-527.2818570273025
 20
-747.5956851088442
 30
0.0
 70
    32
  0
VERTEX
  5
C234
  8
01
  6
BYBLOCK
 10
-527.2818570273025
 20
-747.6102354666834
 30
0.0
 70
    32
  0
VERTEX
  5
C235
  8
01
  6
BYBLOCK
 10
-527.2818570273025
 20
-747.6250222447017
 30
0.0
 70
    32
  0
VERTEX
  5
C236
  8
01
  6
BYBLOCK
 10
-527.2818570273025
 20
-747.6400306811859
 30
0.0
 70
    32
  0
VERTEX
  5
C237
  8
01
  6
BYBLOCK
 10
-527.2818570273025
 20
-747.6552458907604
 30
0.0
 70
    32
  0
VERTEX
  5
C238
  8
01
  6
BYBLOCK
 10
-527.2818570273025
 20
-747.670651534582
 30
0.0
 70
    32
  0
VERTEX
  5
C239
  8
01
  6
BYBLOCK
 10
-527.2818570273025
 20
-747.6862303284837
 30
0.0
 70
    32
  0
VERTEX
  5
C23A
  8
01
  6
BYBLOCK
 10
-527.2818570273025
 20
-747.7019649721977
 30
0.0
 70
    32
  0
VERTEX
  5
C23B
  8
01
  6
BYBLOCK
 10
-527.2818570273025
 20
-747.717838165457
 30
0.0
 70
    32
  0
VERTEX
  5
C23C
  8
01
  6
BYBLOCK
 10
-527.2818570273025
 20
-747.7338326079935
 30
0.0
 70
    32
  0
VERTEX
  5
C23D
  8
01
  6
BYBLOCK
 10
-527.2818570273025
 20
-747.7499309995399
 30
0.0
 70
    32
  0
VERTEX
  5
C23E
  8
01
  6
BYBLOCK
 10
-527.2818570273025
 20
-747.7661160398286
 30
0.0
 70
    32
  0
VERTEX
  5
C23F
  8
01
  6
BYBLOCK
 10
-527.2818570273025
 20
-747.7823704285921
 30
0.0
 70
    32
  0
VERTEX
  5
C240
  8
01
  6
BYBLOCK
 10
-527.2818570273025
 20
-747.7986768655628
 30
0.0
 70
    32
  0
VERTEX
  5
C241
  8
01
  6
BYBLOCK
 10
-527.2818570273025
 20
-747.8150180504733
 30
0.0
 70
    32
  0
VERTEX
  5
C242
  8
01
  6
BYBLOCK
 10
-527.2818570273025
 20
-747.8313766830559
 30
0.0
 70
    32
  0
SEQEND
  5
C4B5
  8
01
  6
BYBLOCK
  0
LINE
  5
A0C6
  8
01
  6
BYBLOCK
 10
-527.2818570273025
 20
-785.8313766829086
 30
0.0
 11
-527.2818570273025
 21
-747.8313766830557
 31
0.0
  0
LINE
  5
A0C7
  8
01
  6
BYBLOCK
 10
-526.7818570273025
 20
-786.8313767047663
 30
0.0
 11
-525.2818570273025
 21
-786.8313767047663
 31
0.0
  0
LINE
  5
A0C8
  8
01
  6
BYBLOCK
 10
-525.2818570273025
 20
-746.8313767047664
 30
0.0
 11
-526.7818570273025
 21
-746.8313767047664
 31
0.0
  0
ARC
  5
A0C9
  8
01
  6
BYBLOCK
 10
526.7818570273473
 20
-786.3313767047614
 30
0.0
 40
0.4999999999800666
 50
269.9999999950886
 51
0.0000000109952539
210
0.0
220
0.0
230
-1.0
  0
ARC
  5
A0CA
  8
01
  6
BYBLOCK
 10
526.7818570271862
 20
-747.3313767048351
 30
0.0
 40
0.5000000000924816
 50
0.0000000083246057
 51
89.9999999866728
210
0.0
220
0.0
230
-1.0
  0
LINE
  5
A0CC
  8
01
  6
BYBLOCK
 10
-427.3942982452522
 20
-729.1515090946656
 30
0.0
 11
-427.3942982452523
 21
-797.3818841315815
 31
0.0
  0
LINE
  5
A0CF
  8
01
  6
BYBLOCK
 10
-427.3942982452522
 20
-748.6313150150033
 30
0.0
 11
-427.3942982452523
 21
-797.3818841315816
 31
0.0
  0
LINE
  5
A0D0
  8
1CENTER
 10
-430.9554137731466
 20
-758.330953778541
 30
0.0
 11
-400.4545470018156
 21
-758.3312227675385
 31
0.0
  0
LINE
  5
A0D1
  8
01
 10
-407.1942654374317
 20
-754.3313723759283
 30
0.0
 11
-409.1942700909835
 21
-756.3313537616125
 31
0.0
  0
LINE
  5
A0D2
  8
01
 10
-418.5442793973031
 20
-756.3311451580635
 30
0.0
 11
-409.1941885523458
 21
-756.3312722239235
 31
0.0
  0
LINE
  5
A0D3
  8
01
 10
-407.1942654374317
 20
-754.3313723759283
 30
0.0
 11
-406.8942654374438
 21
-754.3313751680821
 31
0.0
  0
LINE
  5
A0D4
  8
01
 10
-418.8942818404275
 20
-756.6811424885407
 30
0.0
 11
-418.5442793973031
 21
-756.3311451580635
 31
0.0
  0
LINE
  5
A0D5
  8
01
 10
-408.3942703237136
 20
-749.631376050276
 30
0.0
 11
-408.3943115081817
 21
-755.5314044854542
 31
0.0
  0
LINE
  5
A0D6
  8
01
 10
-407.1943212805092
 20
-762.3313723757551
 30
0.0
 11
-406.8943212805213
 21
-762.331375167909
 31
0.0
  0
LINE
  5
A0D7
  8
01
 10
-418.8943048756969
 20
-759.981142488471
 30
0.0
 11
-418.5443073188418
 21
-760.3311451579763
 31
0.0
  0
LINE
  5
A0D8
  8
01
 10
-407.1943212805092
 20
-762.3313723757551
 30
0.0
 11
-409.1943259341477
 21
-760.331353761266
 31
0.0
  0
LINE
  5
A0D9
  8
01
 10
-418.5443073188418
 20
-760.3311451579763
 30
0.0
 11
-409.1943259341477
 21
-760.331353761266
 31
0.0
  0
LINE
  5
A0DA
  8
01
 10
-418.8942571957766
 20
-756.6811178442498
 30
0.0
 11
-421.8942982452456
 21
-756.6811671325356
 31
0.0
  0
LINE
  5
A0DB
  8
01
 10
-421.8942982452456
 20
-756.6811671325356
 30
0.0
 11
-421.8942982452456
 21
-759.9809002456033
 31
0.0
  0
LINE
  5
A0E2
  8
01
  6
BYBLOCK
 10
-411.8942982452522
 20
-749.3313770326018
 30
0.0
 11
-411.8942982452522
 21
-756.331249459838
 31
0.0
  0
LINE
  5
A0E3
  8
01
  6
BYBLOCK
 10
-411.8942982452522
 20
-760.3312559150959
 30
0.0
 11
-411.8942982452522
 21
-784.3313770326016
 31
0.0
  0
LINE
  5
A0E4
  8
01
  6
BYBLOCK
 10
-408.3942982452523
 20
-749.3313770326018
 30
0.0
 11
-427.3942982452522
 21
-749.3313770326018
 31
0.0
  0
LINE
  5
A0E5
  8
01
  6
BYBLOCK
 10
-427.3942982452522
 20
-786.8313767047663
 30
0.0
 11
-427.3942982452522
 21
-785.8313766610547
 31
0.0
  0
LINE
  5
A0E6
  8
01
  6
BYBLOCK
 10
-427.3942982452522
 20
-785.8313766610548
 30
0.0
 11
-427.3942982452522
 21
-747.831376661055
 31
0.0
  0
LINE
  5
A0E7
  8
01
  6
BYBLOCK
 10
-427.3942982452522
 20
-747.8313766610551
 30
0.0
 11
-427.3942982452522
 21
-746.8313767047663
 31
0.0
  0
LINE
  5
A0E8
  8
01
  6
BYBLOCK
 10
-427.3942982452522
 20
-784.3313770326016
 30
0.0
 11
-408.3942982452523
 21
-784.3313770326016
 31
0.0
  0
LINE
  5
A0E9
  8
01
  6
BYBLOCK
 10
-429.3942982452522
 20
-785.8313766829086
 30
0.0
 11
-429.3942982452522
 21
-786.3313767048575
 31
0.0
  0
POLYLINE
  5
A0EA
  8
01
  6
BYBLOCK
 10
0.0
 20
0.0
 30
0.0
 66
     1
 70
     8
  0
VERTEX
  5
C243
  8
01
  6
BYBLOCK
 10
-429.3942982452522
 20
-747.3313767047645
 30
0.0
 70
    32
  0
VERTEX
  5
C244
  8
01
  6
BYBLOCK
 10
-429.3942982452522
 20
-747.3316415824512
 30
0.0
 70
    32
  0
VERTEX
  5
C245
  8
01
  6
BYBLOCK
 10
-429.3942982452522
 20
-747.3324459497557
 30
0.0
 70
    32
  0
VERTEX
  5
C246
  8
01
  6
BYBLOCK
 10
-429.3942982452522
 20
-747.333786446764
 30
0.0
 70
    32
  0
VERTEX
  5
C247
  8
01
  6
BYBLOCK
 10
-429.3942982452522
 20
-747.3356597135626
 30
0.0
 70
    32
  0
VERTEX
  5
C248
  8
01
  6
BYBLOCK
 10
-429.3942982452522
 20
-747.3380623902377
 30
0.0
 70
    32
  0
VERTEX
  5
C249
  8
01
  6
BYBLOCK
 10
-429.3942982452522
 20
-747.3409911168756
 30
0.0
 70
    32
  0
VERTEX
  5
C24A
  8
01
  6
BYBLOCK
 10
-429.3942982452522
 20
-747.3444425335625
 30
0.0
 70
    32
  0
VERTEX
  5
C24B
  8
01
  6
BYBLOCK
 10
-429.3942982452522
 20
-747.3484132803849
 30
0.0
 70
    32
  0
VERTEX
  5
C24C
  8
01
  6
BYBLOCK
 10
-429.3942982452522
 20
-747.352899997429
 30
0.0
 70
    32
  0
VERTEX
  5
C24D
  8
01
  6
BYBLOCK
 10
-429.3942982452522
 20
-747.3578993247808
 30
0.0
 70
    32
  0
VERTEX
  5
C24E
  8
01
  6
BYBLOCK
 10
-429.3942982452522
 20
-747.363407902527
 30
0.0
 70
    32
  0
VERTEX
  5
C24F
  8
01
  6
BYBLOCK
 10
-429.3942982452522
 20
-747.3694222363439
 30
0.0
 70
    32
  0
VERTEX
  5
C250
  8
01
  6
BYBLOCK
 10
-429.3942982452522
 20
-747.3759358298414
 30
0.0
 70
    32
  0
VERTEX
  5
C251
  8
01
  6
BYBLOCK
 10
-429.3942982452522
 20
-747.3829392333839
 30
0.0
 70
    32
  0
VERTEX
  5
C252
  8
01
  6
BYBLOCK
 10
-429.3942982452522
 20
-747.3904228726911
 30
0.0
 70
    32
  0
VERTEX
  5
C253
  8
01
  6
BYBLOCK
 10
-429.3942982452522
 20
-747.398377173483
 30
0.0
 70
    32
  0
VERTEX
  5
C254
  8
01
  6
BYBLOCK
 10
-429.3942982452522
 20
-747.406792561479
 30
0.0
 70
    32
  0
VERTEX
  5
C255
  8
01
  6
BYBLOCK
 10
-429.3942982452522
 20
-747.415659462399
 30
0.0
 70
    32
  0
VERTEX
  5
C256
  8
01
  6
BYBLOCK
 10
-429.3942982452522
 20
-747.4249683019627
 30
0.0
 70
    32
  0
VERTEX
  5
C257
  8
01
  6
BYBLOCK
 10
-429.3942982452522
 20
-747.4347095058897
 30
0.0
 70
    32
  0
VERTEX
  5
C258
  8
01
  6
BYBLOCK
 10
-429.3942982452522
 20
-747.4448734998997
 30
0.0
 70
    32
  0
VERTEX
  5
C259
  8
01
  6
BYBLOCK
 10
-429.3942982452522
 20
-747.4554507097125
 30
0.0
 70
    32
  0
VERTEX
  5
C25A
  8
01
  6
BYBLOCK
 10
-429.3942982452522
 20
-747.4664315610478
 30
0.0
 70
    32
  0
VERTEX
  5
C25B
  8
01
  6
BYBLOCK
 10
-429.3942982452522
 20
-747.4778064790395
 30
0.0
 70
    32
  0
VERTEX
  5
C25C
  8
01
  6
BYBLOCK
 10
-429.3942982452522
 20
-747.4895647781701
 30
0.0
 70
    32
  0
VERTEX
  5
C25D
  8
01
  6
BYBLOCK
 10
-429.3942982452522
 20
-747.5016923528991
 30
0.0
 70
    32
  0
VERTEX
  5
C25E
  8
01
  6
BYBLOCK
 10
-429.3942982452522
 20
-747.5141744415132
 30
0.0
 70
    32
  0
VERTEX
  5
C25F
  8
01
  6
BYBLOCK
 10
-429.3942982452522
 20
-747.5269962822993
 30
0.0
 70
    32
  0
VERTEX
  5
C260
  8
01
  6
BYBLOCK
 10
-429.3942982452522
 20
-747.540143113544
 30
0.0
 70
    32
  0
VERTEX
  5
C261
  8
01
  6
BYBLOCK
 10
-429.3942982452522
 20
-747.553600173534
 30
0.0
 70
    32
  0
VERTEX
  5
C262
  8
01
  6
BYBLOCK
 10
-429.3942982452522
 20
-747.5673527005563
 30
0.0
 70
    32
  0
VERTEX
  5
C263
  8
01
  6
BYBLOCK
 10
-429.3942982452522
 20
-747.5813859328975
 30
0.0
 70
    32
  0
VERTEX
  5
C264
  8
01
  6
BYBLOCK
 10
-429.3942982452522
 20
-747.5956851088442
 30
0.0
 70
    32
  0
VERTEX
  5
C265
  8
01
  6
BYBLOCK
 10
-429.3942982452522
 20
-747.6102354666834
 30
0.0
 70
    32
  0
VERTEX
  5
C266
  8
01
  6
BYBLOCK
 10
-429.3942982452522
 20
-747.6250222447017
 30
0.0
 70
    32
  0
VERTEX
  5
C267
  8
01
  6
BYBLOCK
 10
-429.3942982452522
 20
-747.6400306811859
 30
0.0
 70
    32
  0
VERTEX
  5
C268
  8
01
  6
BYBLOCK
 10
-429.3942982452522
 20
-747.6552458907604
 30
0.0
 70
    32
  0
VERTEX
  5
C269
  8
01
  6
BYBLOCK
 10
-429.3942982452522
 20
-747.670651534582
 30
0.0
 70
    32
  0
VERTEX
  5
C26A
  8
01
  6
BYBLOCK
 10
-429.3942982452522
 20
-747.6862303284837
 30
0.0
 70
    32
  0
VERTEX
  5
C26B
  8
01
  6
BYBLOCK
 10
-429.3942982452522
 20
-747.7019649721977
 30
0.0
 70
    32
  0
VERTEX
  5
C26C
  8
01
  6
BYBLOCK
 10
-429.3942982452522
 20
-747.717838165457
 30
0.0
 70
    32
  0
VERTEX
  5
C26D
  8
01
  6
BYBLOCK
 10
-429.3942982452522
 20
-747.7338326079935
 30
0.0
 70
    32
  0
VERTEX
  5
C26E
  8
01
  6
BYBLOCK
 10
-429.3942982452522
 20
-747.7499309995399
 30
0.0
 70
    32
  0
VERTEX
  5
C26F
  8
01
  6
BYBLOCK
 10
-429.3942982452522
 20
-747.7661160398286
 30
0.0
 70
    32
  0
VERTEX
  5
C270
  8
01
  6
BYBLOCK
 10
-429.3942982452522
 20
-747.7823704285921
 30
0.0
 70
    32
  0
VERTEX
  5
C271
  8
01
  6
BYBLOCK
 10
-429.3942982452522
 20
-747.7986768655628
 30
0.0
 70
    32
  0
VERTEX
  5
C272
  8
01
  6
BYBLOCK
 10
-429.3942982452522
 20
-747.8150180504733
 30
0.0
 70
    32
  0
VERTEX
  5
C273
  8
01
  6
BYBLOCK
 10
-429.3942982452522
 20
-747.8313766830559
 30
0.0
 70
    32
  0
SEQEND
  5
C4B6
  8
01
  6
BYBLOCK
  0
LINE
  5
A0EB
  8
01
  6
BYBLOCK
 10
-429.3942982452522
 20
-785.8313766829086
 30
0.0
 11
-429.3942982452522
 21
-747.8313766830557
 31
0.0
  0
LINE
  5
A0EC
  8
01
  6
BYBLOCK
 10
-428.8942982452522
 20
-786.8313767047663
 30
0.0
 11
-427.3942982452522
 21
-786.8313767047663
 31
0.0
  0
LINE
  5
A0ED
  8
01
  6
BYBLOCK
 10
-427.3942982452522
 20
-746.8313767047664
 30
0.0
 11
-428.8942982452522
 21
-746.8313767047664
 31
0.0
  0
ARC
  5
A0EE
  8
01
  6
BYBLOCK
 10
428.894298245297
 20
-786.3313767047614
 30
0.0
 40
0.4999999999800666
 50
269.9999999950951
 51
0.0000000109952539
210
0.0
220
0.0
230
-1.0
  0
ARC
  5
A0EF
  8
01
  6
BYBLOCK
 10
428.8942982451359
 20
-747.3313767048351
 30
0.0
 40
0.5000000000924816
 50
0.0000000083246057
 51
89.9999999866728
210
0.0
220
0.0
230
-1.0
  0
LINE
  5
A0F0
  8
01
 10
-408.3942982452523
 20
-730.948350838857
 30
0.0
 11
-408.3942982452523
 21
-755.5313912226792
 31
0.0
  0
LINE
  5
A0F1
  8
01
 10
-408.3942982452524
 20
-761.131387034682
 30
0.0
 11
-408.3942982452523
 21
-799.1787258757728
 31
0.0
  0
LINE
  5
A0F2
  8
01
 10
-406.8942982452523
 20
-745.3313766829823
 30
0.0
 11
-406.8942982452523
 21
-788.3313766829821
 31
0.0
  0
ARC
  5
A0F3
  8
01
 10
-407.3942982452523
 20
-745.3313766829823
 30
0.0
 40
0.5
 50
0.0
 51
90.0
  0
ARC
  5
A0F4
  8
01
 10
-407.3942982452523
 20
-788.3313766829821
 30
0.0
 40
0.5
 50
270.0
 51
0.0
  0
LINE
  5
A0F5
  8
01
 10
-408.3942982452523
 20
-744.8313766829823
 30
0.0
 11
-407.3942982452523
 21
-744.8313766829823
 31
0.0
  0
LINE
  5
A0F6
  8
01
 10
-408.3942982452523
 20
-788.8313766829821
 30
0.0
 11
-407.3942982452523
 21
-788.8313766829821
 31
0.0
  0
LINE
  5
A0F7
  8
01
 10
-418.8942571957766
 20
-759.9807897128322
 30
0.0
 11
-421.8942982452456
 21
-759.9807404245464
 31
0.0
  0
LINE
  5
A172
  8
01
 10
-691.641200606582
 20
-734.3450769532797
 30
0.0
 11
-616.641200606582
 21
-734.3450769532797
 31
0.0
  0
LINE
  5
A173
  8
1CENTER
 10
-563.0590671432941
 20
-654.6852238277143
 30
0.0
 11
-551.0590671432941
 21
-654.6852238277143
 31
0.0
  0
TEXT
  5
A195
  8
1TEXT
 10
-501.2713745512657
 20
-643.7679825631152
 30
0.0
 40
4.0
  1
切欠図(S=1:1)
  0
CIRCLE
  5
A1A9
  8
1PHANTOM
 10
-513.2116754989515
 20
-640.8917015924543
 30
0.0
 40
2.25
  0
CIRCLE
  5
A1AA
  8
1PHANTOM
 10
-445.211675498952
 20
-640.8917015924543
 30
0.0
 40
2.25
  0
TEXT
  5
A1B4
  8
01
 10
-529.7927696970287
 20
-708.4486847532675
 30
0.0
 40
3.2
  1
切欠き部への取付け
  0
TEXT
  5
A1B5
  8
01
 10
-427.9313332375941
 20
-707.9540780954491
 30
0.0
 40
3.2
  1
貫通穴部への取付け
  0
TEXT
  5
A1ED
  8
1TEXT
 10
-695.2074664955832
 20
-604.0565441709132
 30
0.0
 40
7.0
  1
PC-414-XXS
 41
1.0098214
  0
LINE
  5
A1EF
  8
1DIM
 10
-694.0971957868041
 20
-614.0621675331129
 30
0.0
 11
-626.8971957868042
 21
-614.0621675331129
 31
0.0
  0
LINE
  5
A1F0
  8
1DIM
 10
-694.0971957868041
 20
-620.7821675331129
 30
0.0
 11
-626.8971957868042
 21
-620.7821675331129
 31
0.0
  0
LINE
  5
A1F1
  8
1DIM
 10
-694.0971957868041
 20
-627.5021675331127
 30
0.0
 11
-626.8971957868042
 21
-627.5021675331127
 31
0.0
  0
LINE
  5
A1F2
  8
1DIM
 10
-694.0971957868041
 20
-634.2221675331127
 30
0.0
 11
-626.8971957868042
 21
-634.2221675331127
 31
0.0
  0
LINE
  5
A1F3
  8
1DIM
 10
-694.0971957868041
 20
-607.3421675331128
 30
0.0
 11
-626.8971957868042
 21
-607.3421675331128
 31
0.0
  0
TEXT
  5
A1F4
  8
1TEXT
 10
-658.1291957868034
 20
-619.5479502374164
 30
0.0
 40
3.84
  1
PC-414-XCS
 41
0.8
 72
     1
 11
-643.7931957868034
 21
-619.5479502374164
 31
0.0
  0
TEXT
  5
A1F5
  8
1TEXT
 10
-658.1291957868034
 20
-626.2445495564862
 30
0.0
 40
3.84
  1
PC-414-XNS
 41
0.8
 72
     1
 11
-643.7931957868034
 21
-626.2445495564862
 31
0.0
  0
TEXT
  5
A1F6
  8
1TEXT
 10
-658.1398624534709
 20
-632.9411495104509
 30
0.0
 40
3.84
  1
PC-414-GQS
 41
0.8
 72
     1
 11
-643.7931957868042
 21
-632.9411495104509
 31
0.0
  0
TEXT
  5
A1F7
  8
1TEXT
 10
-650.3851957868042
 20
-612.6221675331128
 30
0.0
 40
3.84
  1
コード
 72
     1
 11
-643.7931957868042
 21
-612.6221675331128
 31
0.0
  0
LINE
  5
A1F8
  8
1DIM
 10
-626.8971957868042
 20
-607.3421675331128
 30
0.0
 11
-626.8971957868042
 21
-634.2221675331127
 31
0.0
  0
LINE
  5
A1F9
  8
1DIM
 10
-694.0971957868041
 20
-607.3421675331128
 30
0.0
 11
-694.0971957868041
 21
-634.2221675331127
 31
0.0
  0
LINE
  5
A1FA
  8
1DIM
 10
-660.4971957868042
 20
-607.3421675331128
 30
0.0
 11
-660.4971957868041
 21
-634.2221675331127
 31
0.0
  0
TEXT
  5
A1FB
  8
1TEXT
 10
-686.4811957868042
 20
-619.3209467522979
 30
0.0
 40
3.84
  1
クローム
 72
     1
 11
-677.3931957868042
 21
-619.3209467522979
 31
0.0
  0
TEXT
  5
A1FC
  8
1TEXT
 10
-693.2651957868042
 20
-625.9040446462561
 30
0.0
 40
3.84
  1
サテンニッケル
 72
     1
 11
-677.3931957868042
 21
-625.9040446462561
 31
0.0
  0
TEXT
  5
A1FD
  8
1TEXT
 10
-692.8811957868043
 20
-632.6006446002209
 30
0.0
 40
3.84
  1
パールブラック
 72
     1
 11
-677.3931957868042
 21
-632.6006446002209
 31
0.0
  0
TEXT
  5
A1FE
  8
1TEXT
 10
-686.2891957868042
 20
-612.6221675331128
 30
0.0
 40
3.84
  1
表面処理
 72
     1
 11
-677.3931957868042
 21
-612.6221675331128
 31
0.0
  0
CIRCLE
  5
A25B
  8
01
 10
-683.6412616416418
 20
-794.7426705051154
 30
0.0
 40
3.25
  0
CIRCLE
  5
A25C
  8
01
 10
-624.641261641717
 20
-794.7426705049578
 30
0.0
 40
3.25
  0
CIRCLE
  5
A25D
  8
01
 10
-683.6412616416418
 20
-794.7426705051155
 30
0.0
 40
3.0
  0
ARC
  5
A25E
  8
01
 10
-682.9662616566419
 20
-795.4176704901154
 30
0.0
 40
0.375
 50
90.00000299999769
 51
180.000010000001
  0
ARC
  5
A25F
  8
01
 10
-682.9662616566419
 20
-794.0676705201156
 30
0.0
 40
0.375
 50
179.999989999999
 51
270.0
  0
LINE
  5
A260
  8
01
 10
-684.3162616266417
 20
-795.0426705126155
 30
0.0
 11
-685.1412616416418
 21
-795.0426705126155
 31
0.0
  0
LINE
  5
A261
  8
01
 10
-684.3162616266417
 20
-794.4426704976155
 30
0.0
 11
-685.1412616416418
 21
-794.4426704976155
 31
0.0
  0
LINE
  5
A262
  8
01
 10
-685.1412616416418
 20
-795.0426705126155
 30
0.0
 11
-685.1412616416418
 21
-794.4426704976155
 31
0.0
  0
LINE
  5
A263
  8
01
 10
-683.9412616491417
 20
-796.2426705051155
 30
0.0
 11
-683.9412616491417
 21
-795.4176704901154
 31
0.0
  0
LINE
  5
A264
  8
01
 10
-683.3412616341419
 20
-796.2426705051155
 30
0.0
 11
-683.3412616341419
 21
-795.4176704901154
 31
0.0
  0
LINE
  5
A265
  8
01
 10
-683.3412616341419
 20
-796.2426705051155
 30
0.0
 11
-683.9412616491417
 21
-796.2426705051155
 31
0.0
  0
LINE
  5
A266
  8
01
 10
-683.3412616341419
 20
-793.2426705051155
 30
0.0
 11
-683.3412616341419
 21
-794.0676705201156
 31
0.0
  0
LINE
  5
A267
  8
01
 10
-683.9412616491417
 20
-793.2426705051155
 30
0.0
 11
-683.9412616491417
 21
-794.0676705201156
 31
0.0
  0
LINE
  5
A268
  8
01
 10
-683.9412616491417
 20
-793.2426705051155
 30
0.0
 11
-683.3412616341419
 21
-793.2426705051155
 31
0.0
  0
ARC
  5
A269
  8
01
 10
-684.3162616266417
 20
-794.0676705201156
 30
0.0
 40
0.375
 50
270.0
 51
0.0
  0
ARC
  5
A26A
  8
01
 10
-684.3162616266417
 20
-795.4176704901154
 30
0.0
 40
0.375
 50
0.0
 51
90.00000299999769
  0
LINE
  5
A26B
  8
01
 10
-682.9662616566419
 20
-794.4426704976155
 30
0.0
 11
-682.1412616416418
 21
-794.4426704976155
 31
0.0
  0
LINE
  5
A26C
  8
01
 10
-682.9662616566419
 20
-795.0426705126155
 30
0.0
 11
-682.1412616416418
 21
-795.0426705126155
 31
0.0
  0
LINE
  5
A26D
  8
01
 10
-682.1412616416418
 20
-794.4426704976155
 30
0.0
 11
-682.1412616416418
 21
-795.0426705126155
 31
0.0
  0
CIRCLE
  5
A26E
  8
01
 10
-624.641261641717
 20
-794.7426705049579
 30
0.0
 40
3.0
  0
ARC
  5
A26F
  8
01
 10
-623.9662616567172
 20
-795.4176704899578
 30
0.0
 40
0.375
 50
90.00000299999769
 51
180.000010000001
  0
ARC
  5
A270
  8
01
 10
-623.9662616567172
 20
-794.067670519958
 30
0.0
 40
0.375
 50
179.999989999999
 51
270.0
  0
LINE
  5
A271
  8
01
 10
-625.3162616267169
 20
-795.0426705124579
 30
0.0
 11
-626.141261641717
 21
-795.0426705124579
 31
0.0
  0
LINE
  5
A272
  8
01
 10
-625.3162616267169
 20
-794.4426704974579
 30
0.0
 11
-626.141261641717
 21
-794.4426704974579
 31
0.0
  0
LINE
  5
A273
  8
01
 10
-626.141261641717
 20
-795.0426705124579
 30
0.0
 11
-626.141261641717
 21
-794.4426704974579
 31
0.0
  0
LINE
  5
A274
  8
01
 10
-624.9412616492169
 20
-796.2426705049579
 30
0.0
 11
-624.9412616492169
 21
-795.4176704899578
 31
0.0
  0
LINE
  5
A275
  8
01
 10
-624.3412616342172
 20
-796.2426705049579
 30
0.0
 11
-624.3412616342172
 21
-795.4176704899578
 31
0.0
  0
LINE
  5
A276
  8
01
 10
-624.3412616342172
 20
-796.2426705049579
 30
0.0
 11
-624.9412616492169
 21
-796.2426705049579
 31
0.0
  0
LINE
  5
A277
  8
01
 10
-624.3412616342172
 20
-793.2426705049579
 30
0.0
 11
-624.3412616342172
 21
-794.067670519958
 31
0.0
  0
LINE
  5
A278
  8
01
 10
-624.9412616492169
 20
-793.2426705049579
 30
0.0
 11
-624.9412616492169
 21
-794.067670519958
 31
0.0
  0
LINE
  5
A279
  8
01
 10
-624.9412616492169
 20
-793.2426705049579
 30
0.0
 11
-624.3412616342172
 21
-793.2426705049579
 31
0.0
  0
ARC
  5
A27A
  8
01
 10
-625.3162616267169
 20
-794.067670519958
 30
0.0
 40
0.375
 50
270.0
 51
0.0
  0
ARC
  5
A27B
  8
01
 10
-625.3162616267169
 20
-795.4176704899578
 30
0.0
 40
0.375
 50
0.0
 51
90.00000299999769
  0
LINE
  5
A27C
  8
01
 10
-623.9662616567172
 20
-794.4426704974579
 30
0.0
 11
-623.141261641717
 21
-794.4426704974579
 31
0.0
  0
LINE
  5
A27D
  8
01
 10
-623.9662616567172
 20
-795.0426705124579
 30
0.0
 11
-623.141261641717
 21
-795.0426705124579
 31
0.0
  0
LINE
  5
A27E
  8
01
 10
-623.141261641717
 20
-794.4426704974579
 30
0.0
 11
-623.141261641717
 21
-795.0426705124579
 31
0.0
  0
TEXT
  5
A28A
  8
1TEXT
 10
-504.1281548773163
 20
-714.31692258105
 30
0.0
 40
2.4
  1
※最大値は参考ネジ使用の場合
  0
TEXT
  5
A2DF
  8
1TEXT
 10
-490.7960586845504
 20
-734.5582793074967
 30
0.0
 40
4.0
  1
※参考ネジ
  0
LINE
  5
A2F6
  8
01
  6
BYBLOCK
 10
-504.2818570273025
 20
-730.2843195350557
 30
0.0
 11
-504.2818570273025
 21
-798.5146945719717
 31
0.0
  0
POLYLINE
  5
A320
  8
01
 66
     1
 10
0.0
 20
0.0
 30
0.0
  0
VERTEX
  5
C274
  8
01
 10
-525.281857027301
 20
-729.1512581592877
 30
0.0
  0
VERTEX
  5
C275
  8
01
 10
-524.7445721181074
 20
-729.0378914694697
 30
0.0
  0
VERTEX
  5
C276
  8
01
 10
-524.2077956966386
 20
-728.9354578887157
 30
0.0
  0
VERTEX
  5
C277
  8
01
 10
-523.671599153658
 20
-728.8454924059048
 30
0.0
  0
VERTEX
  5
C278
  8
01
 10
-523.1360538799289
 20
-728.769530009916
 30
0.0
  0
VERTEX
  5
C279
  8
01
 10
-522.601231266215
 20
-728.7091056896287
 30
0.0
  0
VERTEX
  5
C27A
  8
01
 10
-522.0672027032793
 20
-728.665754433922
 30
0.0
  0
VERTEX
  5
C27B
  8
01
 10
-521.5340395818858
 20
-728.641011231675
 30
0.0
  0
VERTEX
  5
C27C
  8
01
 10
-521.0018132927975
 20
-728.6364110717667
 30
0.0
  0
VERTEX
  5
C27D
  8
01
 10
-520.4705952267778
 20
-728.6534889430765
 30
0.0
  0
VERTEX
  5
C27E
  8
01
 10
-519.9404567745904
 20
-728.6937798344834
 30
0.0
  0
VERTEX
  5
C27F
  8
01
 10
-519.4114693265207
 20
-728.7588187204642
 30
0.0
  0
VERTEX
  5
C280
  8
01
 10
-518.8836764469644
 20
-728.8493019681594
 30
0.0
  0
VERTEX
  5
C281
  8
01
 10
-518.3570188909827
 20
-728.9628275114666
 30
0.0
  0
VERTEX
  5
C282
  8
01
 10
-517.8314136750827
 20
-729.0962778596983
 30
0.0
  0
VERTEX
  5
C283
  8
01
 10
-517.3067778157715
 20
-729.2465355221659
 30
0.0
  0
VERTEX
  5
C284
  8
01
 10
-516.7830283295561
 20
-729.4104830081817
 30
0.0
  0
VERTEX
  5
C285
  8
01
 10
-516.2600822329434
 20
-729.5850028270572
 30
0.0
  0
VERTEX
  5
C286
  8
01
 10
-515.7378565424408
 20
-729.7669774881044
 30
0.0
  0
VERTEX
  5
C287
  8
01
 10
-515.2162682745551
 20
-729.953289500635
 30
0.0
  0
VERTEX
  5
C288
  8
01
 10
-514.6952344457932
 20
-730.1408213739613
 30
0.0
  0
VERTEX
  5
C289
  8
01
 10
-514.1746720726625
 20
-730.3264556173947
 30
0.0
  0
VERTEX
  5
C28A
  8
01
 10
-513.6544981716696
 20
-730.5070747402472
 30
0.0
  0
VERTEX
  5
C28B
  8
01
 10
-513.134629759322
 20
-730.6795612518306
 30
0.0
  0
VERTEX
  5
C28C
  8
01
 10
-512.6149838521264
 20
-730.8407976614569
 30
0.0
  0
VERTEX
  5
C28D
  8
01
 10
-512.0954774665902
 20
-730.9876664784379
 30
0.0
  0
VERTEX
  5
C28E
  8
01
 10
-511.57602761922
 20
-731.1170502120855
 30
0.0
  0
VERTEX
  5
C28F
  8
01
 10
-511.0565513265232
 20
-731.2258313717114
 30
0.0
  0
VERTEX
  5
C290
  8
01
 10
-510.5369656050066
 20
-731.3108924666275
 30
0.0
  0
VERTEX
  5
C291
  8
01
 10
-510.0171874711774
 20
-731.3691160061459
 30
0.0
  0
VERTEX
  5
C292
  8
01
 10
-509.4971340116743
 20
-731.3973880232597
 30
0.0
  0
VERTEX
  5
C293
  8
01
 10
-508.9767496750843
 20
-731.3939693190964
 30
0.0
  0
VERTEX
  5
C294
  8
01
 10
-508.4560476742459
 20
-731.360575671773
 30
0.0
  0
VERTEX
  5
C295
  8
01
 10
-507.9350518530983
 20
-731.2994570062529
 30
0.0
  0
VERTEX
  5
C296
  8
01
 10
-507.4137860555808
 20
-731.2128632474999
 30
0.0
  0
VERTEX
  5
C297
  8
01
 10
-506.8922741256325
 20
-731.1030443204777
 30
0.0
  0
VERTEX
  5
C298
  8
01
 10
-506.3705399071928
 20
-730.9722501501499
 30
0.0
  0
VERTEX
  5
C299
  8
01
 10
-505.8486072442007
 20
-730.8227306614799
 30
0.0
  0
VERTEX
  5
C29A
  8
01
 10
-505.3264999805955
 20
-730.656735779432
 30
0.0
  0
VERTEX
  5
C29B
  8
01
 10
-504.8042419603163
 20
-730.4765154289694
 30
0.0
  0
VERTEX
  5
C29C
  8
01
 10
-504.2818570273025
 20
-730.2843195350558
 30
0.0
  0
SEQEND
  5
C4B7
  8
01
  0
POLYLINE
  5
A321
  8
01
 66
     1
 10
0.0
 20
0.0
 30
0.0
  0
VERTEX
  5
C29D
  8
01
 10
-525.2818570273012
 20
-797.3816331962037
 30
0.0
  0
VERTEX
  5
C29E
  8
01
 10
-524.7445721181075
 20
-797.2682665063857
 30
0.0
  0
VERTEX
  5
C29F
  8
01
 10
-524.2077956966388
 20
-797.1658329256317
 30
0.0
  0
VERTEX
  5
C2A0
  8
01
 10
-523.6715991536581
 20
-797.0758674428207
 30
0.0
  0
VERTEX
  5
C2A1
  8
01
 10
-523.136053879929
 20
-796.9999050468319
 30
0.0
  0
VERTEX
  5
C2A2
  8
01
 10
-522.6012312662151
 20
-796.9394807265446
 30
0.0
  0
VERTEX
  5
C2A3
  8
01
 10
-522.0672027032795
 20
-796.8961294708379
 30
0.0
  0
VERTEX
  5
C2A4
  8
01
 10
-521.534039581886
 20
-796.8713862685909
 30
0.0
  0
VERTEX
  5
C2A5
  8
01
 10
-521.0018132927976
 20
-796.8667861086826
 30
0.0
  0
VERTEX
  5
C2A6
  8
01
 10
-520.470595226778
 20
-796.8838639799924
 30
0.0
  0
VERTEX
  5
C2A7
  8
01
 10
-519.9404567745905
 20
-796.9241548713993
 30
0.0
  0
VERTEX
  5
C2A8
  8
01
 10
-519.4114693265208
 20
-796.9891937573801
 30
0.0
  0
VERTEX
  5
C2A9
  8
01
 10
-518.8836764469645
 20
-797.0796770050753
 30
0.0
  0
VERTEX
  5
C2AA
  8
01
 10
-518.3570188909828
 20
-797.1932025483825
 30
0.0
  0
VERTEX
  5
C2AB
  8
01
 10
-517.8314136750828
 20
-797.3266528966142
 30
0.0
  0
VERTEX
  5
C2AC
  8
01
 10
-517.3067778157715
 20
-797.4769105590818
 30
0.0
  0
VERTEX
  5
C2AD
  8
01
 10
-516.7830283295561
 20
-797.6408580450976
 30
0.0
  0
VERTEX
  5
C2AE
  8
01
 10
-516.2600822329435
 20
-797.8153778639731
 30
0.0
  0
VERTEX
  5
C2AF
  8
01
 10
-515.7378565424409
 20
-797.9973525250203
 30
0.0
  0
VERTEX
  5
C2B0
  8
01
 10
-515.2162682745551
 20
-798.183664537551
 30
0.0
  0
VERTEX
  5
C2B1
  8
01
 10
-514.6952344457932
 20
-798.3711964108771
 30
0.0
  0
VERTEX
  5
C2B2
  8
01
 10
-514.1746720726625
 20
-798.5568306543106
 30
0.0
  0
VERTEX
  5
C2B3
  8
01
 10
-513.6544981716697
 20
-798.7374497771631
 30
0.0
  0
VERTEX
  5
C2B4
  8
01
 10
-513.134629759322
 20
-798.9099362887465
 30
0.0
  0
VERTEX
  5
C2B5
  8
01
 10
-512.6149838521266
 20
-799.0711726983728
 30
0.0
  0
VERTEX
  5
C2B6
  8
01
 10
-512.0954774665902
 20
-799.2180415153538
 30
0.0
  0
VERTEX
  5
C2B7
  8
01
 10
-511.57602761922
 20
-799.3474252490014
 30
0.0
  0
VERTEX
  5
C2B8
  8
01
 10
-511.0565513265232
 20
-799.4562064086273
 30
0.0
  0
VERTEX
  5
C2B9
  8
01
 10
-510.5369656050066
 20
-799.5412675035434
 30
0.0
  0
VERTEX
  5
C2BA
  8
01
 10
-510.0171874711774
 20
-799.5994910430618
 30
0.0
  0
VERTEX
  5
C2BB
  8
01
 10
-509.4971340116743
 20
-799.6277630601757
 30
0.0
  0
VERTEX
  5
C2BC
  8
01
 10
-508.9767496750842
 20
-799.6243443560123
 30
0.0
  0
VERTEX
  5
C2BD
  8
01
 10
-508.4560476742459
 20
-799.5909507086889
 30
0.0
  0
VERTEX
  5
C2BE
  8
01
 10
-507.9350518530983
 20
-799.5298320431688
 30
0.0
  0
VERTEX
  5
C2BF
  8
01
 10
-507.4137860555808
 20
-799.4432382844158
 30
0.0
  0
VERTEX
  5
C2C0
  8
01
 10
-506.8922741256326
 20
-799.3334193573936
 30
0.0
  0
VERTEX
  5
C2C1
  8
01
 10
-506.3705399071928
 20
-799.2026251870657
 30
0.0
  0
VERTEX
  5
C2C2
  8
01
 10
-505.8486072442007
 20
-799.0531056983958
 30
0.0
  0
VERTEX
  5
C2C3
  8
01
 10
-505.3264999805955
 20
-798.8871108163479
 30
0.0
  0
VERTEX
  5
C2C4
  8
01
 10
-504.8042419603163
 20
-798.7068904658852
 30
0.0
  0
VERTEX
  5
C2C5
  8
01
 10
-504.2818570273025
 20
-798.5146945719716
 30
0.0
  0
SEQEND
  5
C4B8
  8
01
  0
POLYLINE
  5
A382
  8
01
 66
     1
 10
0.0
 20
0.0
 30
0.0
  0
VERTEX
  5
C2C6
  8
01
 10
-427.3942982452509
 20
-729.151509094672
 30
0.0
  0
VERTEX
  5
C2C7
  8
01
 10
-426.9084383138055
 20
-729.0485484009159
 30
0.0
  0
VERTEX
  5
C2C8
  8
01
 10
-426.4229885657319
 20
-728.9544071521971
 30
0.0
  0
VERTEX
  5
C2C9
  8
01
 10
-425.9380017854007
 20
-728.8702202771514
 30
0.0
  0
VERTEX
  5
C2CA
  8
01
 10
-425.4535307571824
 20
-728.7971227044161
 30
0.0
  0
VERTEX
  5
C2CB
  8
01
 10
-424.9696282654477
 20
-728.7362493626271
 30
0.0
  0
VERTEX
  5
C2CC
  8
01
 10
-424.486347094567
 20
-728.6887351804214
 30
0.0
  0
VERTEX
  5
C2CD
  8
01
 10
-424.003740028911
 20
-728.6557150864355
 30
0.0
  0
VERTEX
  5
C2CE
  8
01
 10
-423.5218598528501
 20
-728.6383240093057
 30
0.0
  0
VERTEX
  5
C2CF
  8
01
 10
-423.040759350755
 20
-728.6376968776689
 30
0.0
  0
VERTEX
  5
C2D0
  8
01
 10
-422.560491306996
 20
-728.6549686201613
 30
0.0
  0
VERTEX
  5
C2D1
  8
01
 10
-422.081108505944
 20
-728.6912741654196
 30
0.0
  0
VERTEX
  5
C2D2
  8
01
 10
-421.6026637319694
 20
-728.7477484420806
 30
0.0
  0
VERTEX
  5
C2D3
  8
01
 10
-421.1251974790605
 20
-728.825155975364
 30
0.0
  0
VERTEX
  5
C2D4
  8
01
 10
-420.6486761017806
 20
-728.922026901356
 30
0.0
  0
VERTEX
  5
C2D5
  8
01
 10
-420.1730382917511
 20
-729.0360576596858
 30
0.0
  0
VERTEX
  5
C2D6
  8
01
 10
-419.6982226932555
 20
-729.1649432633244
 30
0.0
  0
VERTEX
  5
C2D7
  8
01
 10
-419.2241679505774
 20
-729.3063787252429
 30
0.0
  0
VERTEX
  5
C2D8
  8
01
 10
-418.7508127080001
 20
-729.458059058412
 30
0.0
  0
VERTEX
  5
C2D9
  8
01
 10
-418.2780956098073
 20
-729.617679275803
 30
0.0
  0
VERTEX
  5
C2DA
  8
01
 10
-417.8059553002824
 20
-729.7829343903865
 30
0.0
  0
VERTEX
  5
C2DB
  8
01
 10
-417.3343304237089
 20
-729.9515194151336
 30
0.0
  0
VERTEX
  5
C2DC
  8
01
 10
-416.8631596243701
 20
-730.1211293630154
 30
0.0
  0
VERTEX
  5
C2DD
  8
01
 10
-416.3923815465498
 20
-730.2894592470027
 30
0.0
  0
VERTEX
  5
C2DE
  8
01
 10
-415.9219348345313
 20
-730.4542040800666
 30
0.0
  0
VERTEX
  5
C2DF
  8
01
 10
-415.4517581325981
 20
-730.6130588751779
 30
0.0
  0
VERTEX
  5
C2E0
  8
01
 10
-414.9817900850338
 20
-730.7637186453076
 30
0.0
  0
VERTEX
  5
C2E1
  8
01
 10
-414.5119693361217
 20
-730.9038784034267
 30
0.0
  0
VERTEX
  5
C2E2
  8
01
 10
-414.0422345301454
 20
-731.0312331625062
 30
0.0
  0
VERTEX
  5
C2E3
  8
01
 10
-413.5725243113885
 20
-731.1434779355169
 30
0.0
  0
VERTEX
  5
C2E4
  8
01
 10
-413.1027773241343
 20
-731.23830773543
 30
0.0
  0
VERTEX
  5
C2E5
  8
01
 10
-412.6329322126663
 20
-731.3134175752162
 30
0.0
  0
VERTEX
  5
C2E6
  8
01
 10
-412.1629276212681
 20
-731.3665024678468
 30
0.0
  0
VERTEX
  5
C2E7
  8
01
 10
-411.6927021942231
 20
-731.3952574262923
 30
0.0
  0
VERTEX
  5
C2E8
  8
01
 10
-411.2222076584167
 20
-731.3980347830947
 30
0.0
  0
VERTEX
  5
C2E9
  8
01
 10
-410.7514483972428
 20
-731.3758325336488
 30
0.0
  0
VERTEX
  5
C2EA
  8
01
 10
-410.2804420402555
 20
-731.3303142106987
 30
0.0
  0
VERTEX
  5
C2EB
  8
01
 10
-409.8092062170088
 20
-731.2631433469944
 30
0.0
  0
VERTEX
  5
C2EC
  8
01
 10
-409.3377585570566
 20
-731.1759834752861
 30
0.0
  0
VERTEX
  5
C2ED
  8
01
 10
-408.8661166899531
 20
-731.0704981283235
 30
0.0
  0
VERTEX
  5
C2EE
  8
01
 10
-408.3942982452523
 20
-730.948350838857
 30
0.0
  0
SEQEND
  5
C4B9
  8
01
  0
POLYLINE
  5
A383
  8
01
 66
     1
 10
0.0
 20
0.0
 30
0.0
  0
VERTEX
  5
C2EF
  8
01
 10
-427.3942982452509
 20
-797.381884131588
 30
0.0
  0
VERTEX
  5
C2F0
  8
01
 10
-426.9084383138055
 20
-797.278923437832
 30
0.0
  0
VERTEX
  5
C2F1
  8
01
 10
-426.4229885657319
 20
-797.1847821891131
 30
0.0
  0
VERTEX
  5
C2F2
  8
01
 10
-425.9380017854007
 20
-797.1005953140674
 30
0.0
  0
VERTEX
  5
C2F3
  8
01
 10
-425.4535307571824
 20
-797.0274977413321
 30
0.0
  0
VERTEX
  5
C2F4
  8
01
 10
-424.9696282654477
 20
-796.9666243995431
 30
0.0
  0
VERTEX
  5
C2F5
  8
01
 10
-424.486347094567
 20
-796.9191102173376
 30
0.0
  0
VERTEX
  5
C2F6
  8
01
 10
-424.003740028911
 20
-796.8860901233516
 30
0.0
  0
VERTEX
  5
C2F7
  8
01
 10
-423.5218598528501
 20
-796.8686990462218
 30
0.0
  0
VERTEX
  5
C2F8
  8
01
 10
-423.040759350755
 20
-796.8680719145849
 30
0.0
  0
VERTEX
  5
C2F9
  8
01
 10
-422.560491306996
 20
-796.8853436570774
 30
0.0
  0
VERTEX
  5
C2FA
  8
01
 10
-422.081108505944
 20
-796.9216492023357
 30
0.0
  0
VERTEX
  5
C2FB
  8
01
 10
-421.6026637319694
 20
-796.9781234789966
 30
0.0
  0
VERTEX
  5
C2FC
  8
01
 10
-421.1251974790605
 20
-797.0555310122802
 30
0.0
  0
VERTEX
  5
C2FD
  8
01
 10
-420.6486761017806
 20
-797.1524019382721
 30
0.0
  0
VERTEX
  5
C2FE
  8
01
 10
-420.1730382917511
 20
-797.2664326966018
 30
0.0
  0
VERTEX
  5
C2FF
  8
01
 10
-419.6982226932555
 20
-797.3953183002404
 30
0.0
  0
VERTEX
  5
C300
  8
01
 10
-419.2241679505774
 20
-797.5367537621589
 30
0.0
  0
VERTEX
  5
C301
  8
01
 10
-418.7508127080001
 20
-797.6884340953279
 30
0.0
  0
VERTEX
  5
C302
  8
01
 10
-418.2780956098073
 20
-797.848054312719
 30
0.0
  0
VERTEX
  5
C303
  8
01
 10
-417.8059553002824
 20
-798.0133094273025
 30
0.0
  0
VERTEX
  5
C304
  8
01
 10
-417.3343304237088
 20
-798.1818944520496
 30
0.0
  0
VERTEX
  5
C305
  8
01
 10
-416.8631596243701
 20
-798.3515043999314
 30
0.0
  0
VERTEX
  5
C306
  8
01
 10
-416.3923815465498
 20
-798.5198342839186
 30
0.0
  0
VERTEX
  5
C307
  8
01
 10
-415.9219348345313
 20
-798.6845791169825
 30
0.0
  0
VERTEX
  5
C308
  8
01
 10
-415.4517581325981
 20
-798.8434339120938
 30
0.0
  0
VERTEX
  5
C309
  8
01
 10
-414.9817900850338
 20
-798.9940936822235
 30
0.0
  0
VERTEX
  5
C30A
  8
01
 10
-414.5119693361217
 20
-799.1342534403427
 30
0.0
  0
VERTEX
  5
C30B
  8
01
 10
-414.0422345301454
 20
-799.2616081994221
 30
0.0
  0
VERTEX
  5
C30C
  8
01
 10
-413.5725243113885
 20
-799.3738529724328
 30
0.0
  0
VERTEX
  5
C30D
  8
01
 10
-413.1027773241343
 20
-799.4686827723459
 30
0.0
  0
VERTEX
  5
C30E
  8
01
 10
-412.6329322126663
 20
-799.5437926121322
 30
0.0
  0
VERTEX
  5
C30F
  8
01
 10
-412.1629276212681
 20
-799.5968775047627
 30
0.0
  0
VERTEX
  5
C310
  8
01
 10
-411.6927021942231
 20
-799.6256324632083
 30
0.0
  0
VERTEX
  5
C311
  8
01
 10
-411.2222076584167
 20
-799.6284098200106
 30
0.0
  0
VERTEX
  5
C312
  8
01
 10
-410.7514483972428
 20
-799.6062075705646
 30
0.0
  0
VERTEX
  5
C313
  8
01
 10
-410.2804420402555
 20
-799.5606892476145
 30
0.0
  0
VERTEX
  5
C314
  8
01
 10
-409.8092062170087
 20
-799.4935183839102
 30
0.0
  0
VERTEX
  5
C315
  8
01
 10
-409.3377585570565
 20
-799.4063585122019
 30
0.0
  0
VERTEX
  5
C316
  8
01
 10
-408.8661166899531
 20
-799.3008731652393
 30
0.0
  0
VERTEX
  5
C317
  8
01
 10
-408.3942982452522
 20
-799.1787258757727
 30
0.0
  0
SEQEND
  5
C4BA
  8
01
  0
TEXT
  5
A3A8
  8
1TEXT
 10
-406.2394560422699
 20
-714.31692258105
 30
0.0
 40
2.4
  1
※最大値は参考ネジ使用の場合
  0
TEXT
  5
A3DD
  8
1TEXT
 10
-399.663938289348
 20
-733.5095534450033
 30
0.0
 40
4.0
  1
※参考ネジ
  0
LINE
  5
B8BF
  8
1HIDDEN
 10
-679.1412616417383
 20
-647.6852241555495
 30
0.0
 11
-629.1412616417382
 21
-647.6852241555495
 31
0.0
  0
ARC
  5
B8C0
  8
1HIDDEN
 10
-679.1412616417383
 20
-649.6852241555495
 30
0.0
 40
2.0
 50
90.0
 51
180.0
  0
ARC
  5
B8C1
  8
1HIDDEN
 10
-629.1412616417382
 20
-649.6852241555495
 30
0.0
 40
2.0
 50
0.0
 51
90.0
  0
LINE
  5
B8CB
  8
1HIDDEN
 10
-627.1412616417382
 20
-649.6852241555495
 30
0.0
 11
-627.1412616417382
 21
-653.1852241555492
 31
0.0
  0
ARC
  5
B8CC
  8
1HIDDEN
 10
-622.1412616417382
 20
-653.1852241555492
 30
0.0
 40
5.0
 50
180.0
 51
270.0
  0
LINE
  5
B8CD
  8
1HIDDEN
 10
-681.1412616417383
 20
-649.6852241555495
 30
0.0
 11
-681.1412616417382
 21
-653.1852241555497
 31
0.0
  0
ARC
  5
B8CE
  8
1HIDDEN
 10
-686.1412616417383
 20
-653.1852241555497
 30
0.0
 40
5.0
 50
270.0
 51
0.0
  0
ARC
  5
BAB2
  8
1HIDDEN
 10
-571.5590671432941
 20
-679.668835189543
 30
0.0
 40
0.5
 50
91.90915243300071
 51
180.0
  0
LINE
  5
BAB4
  8
1HIDDEN
 10
-569.5590671432941
 20
-657.4268440043471
 30
0.0
 11
-569.5590671432941
 21
-657.6852241555493
 31
0.0
  0
LINE
  5
BAB6
  8
1HIDDEN
 10
-570.0590671432941
 20
-649.587727321153
 30
0.0
 11
-570.0590671432946
 21
-656.6852241555495
 31
0.0
  0
ARC
  5
BAB7
  8
1HIDDEN
 10
-569.5590671432946
 20
-656.6852241555495
 30
0.0
 40
0.5
 50
180.0
 51
247.9756871653589
  0
ARC
  5
BAB8
  8
1HIDDEN
 10
-569.859067143294
 20
-657.426844004347
 30
0.0
 40
0.3
 50
0.0000000000217126
 51
67.97568716533316
  0
ARC
  5
BAB9
  8
1HIDDEN
 10
-568.5590671432941
 20
-649.587727321153
 30
0.0
 40
1.5
 50
92.00000000000365
 51
180.0
  0
ARC
  5
BAC0
  8
1HIDDEN
 10
-570.0590671432941
 20
-657.6852241555495
 30
0.0
 40
0.5
 50
270.0
 51
0.0000000000130276
  0
ARC
  5
BAC1
  8
1HIDDEN
 10
-571.5590671432941
 20
-657.6852241555496
 30
0.0
 40
0.5
 50
180.0
 51
270.0
  0
LINE
  5
BAC6
  8
1HIDDEN
 10
-571.5757245584105
 20
-679.1691127360534
 30
0.0
 11
-557.0590671432941
 21
-678.6852241555492
 31
0.0
  0
LINE
  5
BAC7
  8
1HIDDEN
 10
-568.611416388348
 20
-648.0886410806244
 30
0.0
 11
-557.0590671432941
 21
-647.6852241555495
 31
0.0
  0
LINE
  5
BBDB
  8
1HIDDEN
 10
-571.5590671432941
 20
-658.1852241555496
 30
0.0
 11
-570.0590671432941
 21
-658.1852241555495
 31
0.0
  0
TEXT
  5
BF30
  8
01
  6
CONTINUOUS
 10
-494.6186922508093
 20
-775.8634679579018
 30
0.0
 40
3.5
  1
M4-10
  0
TEXT
  5
BF31
  8
01
  6
CONTINUOUS
 10
-455.2763970023528
 20
-777.372405771783
 30
0.0
 40
3.5
  1
M4-10
  0
LINE
  5
BF32
  8
01
 10
-531.9191432313066
 20
-703.9138059035989
 30
0.0
 11
-494.2114658292469
 21
-703.9138059035989
 31
0.0
  0
LINE
  5
BF33
  8
01
 10
-494.2114658292469
 20
-703.9138059035989
 30
0.0
 11
-494.2114658292469
 21
-709.8658348907769
 31
0.0
  0
LINE
  5
BF34
  8
01
 10
-494.2114658292469
 20
-709.8658348907769
 30
0.0
 11
-531.9191432313066
 21
-709.8658348907769
 31
0.0
  0
LINE
  5
BF35
  8
01
 10
-531.9191432313066
 20
-709.8658348907769
 30
0.0
 11
-531.9191432313066
 21
-703.9138059035989
 31
0.0
  0
LINE
  5
BF36
  8
01
 10
-429.0653987233704
 20
-703.5609140323369
 30
0.0
 11
-393.4093403200823
 21
-703.5609140323369
 31
0.0
  0
LINE
  5
BF37
  8
01
 10
-393.4093403200823
 20
-703.5609140323369
 30
0.0
 11
-393.4093403200823
 21
-709.2295123104296
 31
0.0
  0
LINE
  5
BF38
  8
01
 10
-393.4093403200823
 20
-709.2295123104296
 30
0.0
 11
-429.0653987233704
 21
-709.2295123104296
 31
0.0
  0
LINE
  5
BF39
  8
01
 10
-429.0653987233704
 20
-709.2295123104296
 30
0.0
 11
-429.0653987233704
 21
-703.5609140323369
 31
0.0
  0
LINE
  5
BF3A
  8
1HATCH
 10
-616.9412006065819
 20
-736.8450769532797
 30
0.0
 11
-600.591200606582
 21
-736.8450769532797
 31
0.0
1001
ACAD
1000
DSTYLE
1002
{
1070
    40
1040
1.0
1002
}
  0
LINE
  5
BF3B
  8
1HATCH
 10
-614.141200606582
 20
-721.3450769532797
 30
0.0
 11
-600.591200606582
 21
-721.3450769532797
 31
0.0
1001
ACAD
1000
DSTYLE
1002
{
1070
    40
1040
1.0
1002
}
  0
LINE
  5
BF3C
  8
1HATCH
 10
-601.591200606582
 20
-734.8450769532797
 30
0.0
 11
-601.591200606582
 21
-723.3450769532797
 31
0.0
1001
ACAD
1000
DSTYLE
1002
{
1070
    40
1040
1.0
1002
}
  0
LINE
  5
BF40
  8
1HATCH
 10
-614.6412006064917
 20
-719.3450769532797
 30
0.0
 11
-590.591200606582
 21
-719.3450769532797
 31
0.0
1001
ACAD
1000
DSTYLE
1002
{
1070
    40
1040
1.0
1002
}
  0
LINE
  5
BF41
  8
1HATCH
 10
-604.5505759681361
 20
-736.8450769532797
 30
0.0
 11
-590.591200606582
 21
-736.8450769532797
 31
0.0
1001
ACAD
1000
DSTYLE
1002
{
1070
    40
1040
1.0
1002
}
  0
LINE
  5
BF42
  8
1HATCH
 10
-591.591200606582
 20
-721.3450769532797
 30
0.0
 11
-591.591200606582
 21
-734.8450769532797
 31
0.0
1001
ACAD
1000
DSTYLE
1002
{
1070
    40
1040
1.0
1002
}
  0
LINE
  5
BF46
  8
1HATCH
 10
-694.1412616352768
 20
-682.1853374026587
 30
0.0
 11
-694.1412616352768
 21
-709.1852241555493
 31
0.0
1001
ACAD
1000
DSTYLE
1002
{
1070
    40
1040
1.0
1002
}
  0
LINE
  5
BF47
  8
1HATCH
 10
-614.1412616354282
 20
-682.1853374026587
 30
0.0
 11
-614.1412616354282
 21
-709.1852241555493
 31
0.0
1001
ACAD
1000
DSTYLE
1002
{
1070
    40
1040
1.0
1002
}
  0
LINE
  5
BF48
  8
1HATCH
 10
-692.1412616352768
 20
-708.1852241555493
 30
0.0
 11
-616.1412616354282
 21
-708.1852241555493
 31
0.0
1001
ACAD
1000
DSTYLE
1002
{
1070
    40
1040
1.0
1002
}
  0
LINE
  5
BF4C
  8
1HATCH
 10
-615.1412616417382
 20
-643.1852241555495
 30
0.0
 11
-593.1412616354282
 21
-643.1852241555495
 31
0.0
1001
ACAD
1000
DSTYLE
1002
{
1070
    40
1040
1.0
1002
}
  0
LINE
  5
BF4D
  8
1HATCH
 10
-615.1412616417382
 20
-683.1852241555493
 30
0.0
 11
-593.1412616354282
 21
-683.1852241555493
 31
0.0
1001
ACAD
1000
DSTYLE
1002
{
1070
    40
1040
1.0
1002
}
  0
LINE
  5
BF4E
  8
1HATCH
 10
-594.1412616354282
 20
-645.1852241555495
 30
0.0
 11
-594.1412616354282
 21
-681.1852241555493
 31
0.0
1001
ACAD
1000
DSTYLE
1002
{
1070
    40
1040
1.0
1002
}
  0
LINE
  5
BF52
  8
1HATCH
 10
-689.6412616417382
 20
-677.683140210669
 30
0.0
 11
-689.6412616417382
 21
-699.1852241555493
 31
0.0
1001
ACAD
1000
DSTYLE
1002
{
1070
    40
1040
1.0
1002
}
  0
LINE
  5
BF53
  8
1HATCH
 10
-618.6412616417382
 20
-676.8870215830134
 30
0.0
 11
-618.6412616417382
 21
-699.1852241555493
 31
0.0
1001
ACAD
1000
DSTYLE
1002
{
1070
    40
1040
1.0
1002
}
  0
LINE
  5
BF54
  8
1HATCH
 10
-687.6412616417382
 20
-698.1852241555493
 30
0.0
 11
-620.6412616417382
 21
-698.1852241555493
 31
0.0
1001
ACAD
1000
DSTYLE
1002
{
1070
    40
1040
1.0
1002
}
  0
LINE
  5
BF58
  8
1HATCH
 10
-619.9589280307781
 20
-658.1852241555484
 30
0.0
 11
-600.5912616417382
 21
-658.1852241555484
 31
0.0
1001
ACAD
1000
DSTYLE
1002
{
1070
    40
1040
1.0
1002
}
  0
LINE
  5
BF59
  8
1HATCH
 10
-620.440262474298
 20
-678.6852247893645
 30
0.0
 11
-600.5912616417382
 21
-678.6852247893645
 31
0.0
1001
ACAD
1000
DSTYLE
1002
{
1070
    40
1040
1.0
1002
}
  0
LINE
  5
BF5A
  8
1HATCH
 10
-601.5912616417382
 20
-660.1852241555484
 30
0.0
 11
-601.5912616417382
 21
-676.6852247893645
 31
0.0
1001
ACAD
1000
DSTYLE
1002
{
1070
    40
1040
1.0
1002
}
  0
LINE
  5
BF5E
  8
1HATCH
 10
-622.6402219888281
 20
-764.0426705169808
 30
0.0
 11
-590.5912616417381
 21
-764.0426705169808
 31
0.0
1001
ACAD
1000
DSTYLE
1002
{
1070
    40
1040
1.0
1002
}
  0
LINE
  5
BF5F
  8
1HATCH
 10
-622.6412616417382
 20
-799.042670418629
 30
0.0
 11
-590.5912616417382
 21
-799.042670418629
 31
0.0
1001
ACAD
1000
DSTYLE
1002
{
1070
    40
1040
1.0
1002
}
  0
LINE
  5
BF60
  8
1HATCH
 10
-591.5912616417381
 20
-766.0426705169808
 30
0.0
 11
-591.5912616417382
 21
-797.042670418629
 31
0.0
1001
ACAD
1000
DSTYLE
1002
{
1070
    40
1040
1.0
1002
}
  0
LINE
  5
BF64
  8
1HATCH
 10
-617.2465675552415
 20
-790.0426704185385
 30
0.0
 11
-598.1412616417382
 21
-790.0426704185385
 31
0.0
1001
ACAD
1000
DSTYLE
1002
{
1070
    40
1040
1.0
1002
}
  0
LINE
  5
BF65
  8
1HATCH
 10
-622.5528043443677
 20
-799.042670418629
 30
0.0
 11
-598.1412616417382
 21
-799.042670418629
 31
0.0
1001
ACAD
1000
DSTYLE
1002
{
1070
    40
1040
1.0
1002
}
  0
LINE
  5
BF66
  8
1HATCH
 10
-599.1412616417382
 20
-792.0426704185385
 30
0.0
 11
-599.1412616417382
 21
-797.042670418629
 31
0.0
1001
ACAD
1000
DSTYLE
1002
{
1070
    40
1040
1.0
1002
}
  0
LINE
  5
BF6A
  8
1DIM
 10
-691.6412616417058
 20
-793.0426720228178
 30
0.0
 11
-691.6412616417058
 21
-817.5426698503809
 31
0.0
1001
ACAD
1000
DSTYLE
1002
{
1070
    40
1040
1.0
1002
}
  0
LINE
  5
BF6B
  8
1DIM
 10
-616.6412616417189
 20
-793.4457385885622
 30
0.0
 11
-616.6412616417189
 21
-817.5426698503809
 31
0.0
1001
ACAD
1000
DSTYLE
1002
{
1070
    40
1040
1.0
1002
}
  0
LINE
  5
BF6C
  8
1DIM
 10
-689.6412616417058
 20
-816.5426698503809
 30
0.0
 11
-618.6412616417189
 21
-816.5426698503809
 31
0.0
1001
ACAD
1000
DSTYLE
1002
{
1070
    40
1040
1.0
1002
}
  0
LINE
  5
BF70
  8
1HATCH
 10
-447.711675498952
 20
-666.8917015924542
 30
0.0
 11
-419.1422706663703
 21
-666.8917015924542
 31
0.0
1001
ACAD
1000
DSTYLE
1002
{
1070
    40
1040
1.0
1002
}
  0
LINE
  5
BF71
  8
1HATCH
 10
-447.711675498952
 20
-631.8917015924542
 30
0.0
 11
-419.1422706663702
 21
-631.8917015924542
 31
0.0
1001
ACAD
1000
DSTYLE
1002
{
1070
    40
1040
1.0
1002
}
  0
LINE
  5
BF72
  8
1HATCH
 10
-420.1422706663703
 20
-664.8917015924542
 30
0.0
 11
-420.1422706663702
 21
-633.8917015924542
 31
0.0
1001
ACAD
1000
DSTYLE
1002
{
1070
    40
1040
1.0
1002
}
  0
LINE
  5
BF76
  8
1HATCH
 10
-441.711675498952
 20
-660.8917015924542
 30
0.0
 11
-441.711675498952
 21
-677.405921967236
 31
0.0
1001
ACAD
1000
DSTYLE
1002
{
1070
    40
1040
1.0
1002
}
  0
LINE
  5
BF77
  8
1HATCH
 10
-516.711675498952
 20
-660.8917015924543
 30
0.0
 11
-516.711675498952
 21
-677.405921967236
 31
0.0
1001
ACAD
1000
DSTYLE
1002
{
1070
    40
1040
1.0
1002
}
  0
LINE
  5
BF78
  8
1HATCH
 10
-443.711675498952
 20
-676.405921967236
 30
0.0
 11
-514.711675498952
 21
-676.405921967236
 31
0.0
1001
ACAD
1000
DSTYLE
1002
{
1070
    40
1040
1.0
1002
}
  0
LINE
  5
BF7C
  8
1HATCH
 10
-439.3961461533733
 20
-682.1807615632331
 30
0.0
 11
-419.1422706663703
 21
-682.1807615632331
 31
0.0
1001
ACAD
1000
DSTYLE
1002
{
1070
    40
1040
1.0
1002
}
  0
LINE
  5
BF7D
  8
1HATCH
 10
-441.7116754989521
 20
-698.1807615632331
 30
0.0
 11
-419.1422706663703
 21
-698.1807615632331
 31
0.0
1001
ACAD
1000
DSTYLE
1002
{
1070
    40
1040
1.0
1002
}
  0
LINE
  5
BF7E
  8
1HATCH
 10
-420.1422706663703
 20
-684.1807615632331
 30
0.0
 11
-420.1422706663703
 21
-696.1807615632331
 31
0.0
1001
ACAD
1000
DSTYLE
1002
{
1070
    40
1040
1.0
1002
}
  0
SOLID
  5
BF82
  8
1DIM
 10
-618.9318507727422
 20
-788.4152686669746
 30
0.0
 11
-620.1412616417679
 21
-790.0426704185387
 31
0.0
 12
-619.5250303067103
 22
-788.1109949662941
 32
0.0
 13
-619.5250303067103
 23
-788.1109949662941
 33
0.0
1001
ACAD
1000
DSTYLE
1002
{
1070
    40
1040
1.0
1002
}
  0
LINE
  5
BF83
  8
1DIM
 10
-619.2284405397263
 20
-788.2631318166344
 30
0.0
 11
-612.3799345726501
 21
-774.9120154735456
 31
0.0
1001
ACAD
1000
DSTYLE
1002
{
1070
    40
1040
1.0
1002
}
  0
LINE
  5
BF84
  8
1DIM
 10
-612.3799345726501
 20
-774.9120154735456
 30
0.0
 11
-592.5132679059834
 21
-774.9120154735456
 31
0.0
1001
ACAD
1000
DSTYLE
1002
{
1070
    40
1040
1.0
1002
}
  0
TEXT
  5
BF85
  8
1DIM
  6
CONTINUOUS
 10
-609.67993457265
 20
-774.2120154735455
 30
0.0
 40
3.5
  1
M4-10
  0
LINE
  5
BF86
  8
1DIM
 10
-691.6412616417058
 20
-793.0426720228178
 30
0.0
 11
-691.6412616417058
 21
-817.5426698503809
 31
0.0
1001
ACAD
1000
DSTYLE
1002
{
1070
    40
1040
1.0
1002
}
  0
LINE
  5
BF87
  8
1DIM
 10
-694.1412616417382
 20
-800.5426698503809
 30
0.0
 11
-694.1412616417382
 21
-817.5426698503809
 31
0.0
1001
ACAD
1000
DSTYLE
1002
{
1070
    40
1040
1.0
1002
}
  0
LINE
  5
BF88
  8
1DIM
 10
-689.6412616417058
 20
-816.5426698503809
 30
0.0
 11
-687.6412616417058
 21
-816.5426698503809
 31
0.0
1001
ACAD
1000
DSTYLE
1002
{
1070
    40
1040
1.0
1002
}
  0
LINE
  5
BF89
  8
1DIM
 10
-696.1412616417382
 20
-816.5426698503809
 30
0.0
 11
-706.8745949750715
 21
-816.5426698503809
 31
0.0
1001
ACAD
1000
DSTYLE
1002
{
1070
    40
1040
1.0
1002
}
  0
LINE
  5
BF8A
  8
1DIM
 10
-691.6412616417058
 20
-816.5426698503809
 30
0.0
 11
-694.1412616417382
 21
-816.5426698503809
 31
0.0
1001
ACAD
1000
DSTYLE
1002
{
1070
    40
1040
1.0
1002
}
  0
LINE
  5
BF8E
  8
1DIM
 10
-616.6412616417189
 20
-801.5426698503809
 30
0.0
 11
-616.6412616417189
 21
-817.5426698503809
 31
0.0
1001
ACAD
1000
DSTYLE
1002
{
1070
    40
1040
1.0
1002
}
  0
LINE
  5
BF8F
  8
1DIM
 10
-614.1412616417382
 20
-799.042670418629
 30
0.0
 11
-614.1412616417382
 21
-817.5426698503809
 31
0.0
1001
ACAD
1000
DSTYLE
1002
{
1070
    40
1040
1.0
1002
}
  0
LINE
  5
BF90
  8
1DIM
 10
-618.6412616417189
 20
-816.5426698503809
 30
0.0
 11
-620.6412616417189
 21
-816.5426698503809
 31
0.0
1001
ACAD
1000
DSTYLE
1002
{
1070
    40
1040
1.0
1002
}
  0
LINE
  5
BF91
  8
1DIM
 10
-612.1412616417382
 20
-816.5426698503809
 30
0.0
 11
-601.4079283084048
 21
-816.5426698503809
 31
0.0
1001
ACAD
1000
DSTYLE
1002
{
1070
    40
1040
1.0
1002
}
  0
LINE
  5
BF92
  8
1DIM
 10
-616.6412616417189
 20
-816.5426698503809
 30
0.0
 11
-614.1412616417382
 21
-816.5426698503809
 31
0.0
1001
ACAD
1000
DSTYLE
1002
{
1070
    40
1040
1.0
1002
}
  0
LINE
  5
BF96
  8
1DIM
 10
-688.1412616417698
 20
-787.1479763321603
 30
0.0
 11
-688.1412616417698
 21
-748.0926698503811
 31
0.0
1001
ACAD
1000
DSTYLE
1002
{
1070
    40
1040
1.0
1002
}
  0
LINE
  5
BF97
  8
1DIM
 10
-620.141261641768
 20
-787.147976332012
 30
0.0
 11
-620.141261641768
 21
-748.0926698503811
 31
0.0
1001
ACAD
1000
DSTYLE
1002
{
1070
    40
1040
1.0
1002
}
  0
LINE
  5
BF98
  8
1DIM
 10
-686.1412616417698
 20
-749.0926698503811
 30
0.0
 11
-622.141261641768
 21
-749.0926698503811
 31
0.0
1001
ACAD
1000
DSTYLE
1002
{
1070
    40
1040
1.0
1002
}
  0
LINE
  5
BF9C
  8
1DIM
 10
-688.1412616417698
 20
-761.5426698503811
 30
0.0
 11
-688.1412616417698
 21
-748.0926698503811
 31
0.0
1001
ACAD
1000
DSTYLE
1002
{
1070
    40
1040
1.0
1002
}
  0
LINE
  5
BF9D
  8
1DIM
 10
-694.1412616417504
 20
-763.1503650049626
 30
0.0
 11
-694.1412616417504
 21
-748.0926698503811
 31
0.0
1001
ACAD
1000
DSTYLE
1002
{
1070
    40
1040
1.0
1002
}
  0
LINE
  5
BF9E
  8
1DIM
 10
-690.1412616417698
 20
-749.0926698503811
 30
0.0
 11
-692.1412616417504
 21
-749.0926698503811
 31
0.0
1001
ACAD
1000
DSTYLE
1002
{
1070
    40
1040
1.0
1002
}
  0
LINE
  5
BFA2
  8
1DIM
 10
-620.141261641768
 20
-761.5426698503811
 30
0.0
 11
-620.141261641768
 21
-748.0926698503811
 31
0.0
1001
ACAD
1000
DSTYLE
1002
{
1070
    40
1040
1.0
1002
}
  0
LINE
  5
BFA3
  8
1DIM
 10
-614.1412616418286
 20
-762.5426698503774
 30
0.0
 11
-614.1412616418286
 21
-748.0926698503811
 31
0.0
1001
ACAD
1000
DSTYLE
1002
{
1070
    40
1040
1.0
1002
}
  0
LINE
  5
BFA4
  8
1DIM
 10
-618.141261641768
 20
-749.0926698503811
 30
0.0
 11
-616.1412616418286
 21
-749.0926698503811
 31
0.0
1001
ACAD
1000
DSTYLE
1002
{
1070
    40
1040
1.0
1002
}
  0
LINE
  5
BFA8
  8
1DIM
 10
-525.2818570273025
 20
-786.8313767047663
 30
0.0
 11
-525.2818570273025
 21
-809.1026334578186
 31
0.0
1001
ACAD
1000
DSTYLE
1002
{
1070
    40
1040
1.0
1002
}
  0
LINE
  5
BFA9
  8
1DIM
 10
-509.2818570273025
 20
-784.4803152708878
 30
0.0
 11
-509.2818570273025
 21
-809.1026334578186
 31
0.0
1001
ACAD
1000
DSTYLE
1002
{
1070
    40
1040
1.0
1002
}
  0
LINE
  5
BFAA
  8
1DIM
 10
-509.2818570273025
 20
-808.1026334578186
 30
0.0
 11
-462.5852119562579
 21
-808.1026334578186
 31
0.0
1001
ACAD
1000
DSTYLE
1002
{
1070
    40
1040
1.0
1002
}
  0
LINE
  5
BFAB
  8
1DIM
 10
-523.2818570273025
 20
-808.1026334578186
 30
0.0
 11
-511.2818570273025
 21
-808.1026334578186
 31
0.0
1001
ACAD
1000
DSTYLE
1002
{
1070
    40
1040
1.0
1002
}
  0
SOLID
  5
BFAF
  8
1DIM
 10
-516.5054221114824
 20
-761.6787463506203
 30
0.0
 11
-517.9318709871618
 21
-760.2377901694044
 31
0.0
 12
-516.1151903162599
 22
-761.1382247595234
 32
0.0
 13
-516.1151903162599
 23
-761.1382247595234
 33
0.0
1001
ACAD
1000
DSTYLE
1002
{
1070
    40
1040
1.0
1002
}
  0
LINE
  5
BFB0
  8
1DIM
 10
-516.3103062138712
 20
-761.4084855550718
 30
0.0
 11
-495.3186922508093
 21
-776.5634679579018
 31
0.0
1001
ACAD
1000
DSTYLE
1002
{
1070
    40
1040
1.0
1002
}
  0
SOLID
  5
BFB1
  8
1DIM
 10
-421.820875367211
 20
-763.4239354546969
 30
0.0
 11
-420.0443122051115
 21
-762.4467279832857
 31
0.0
 12
-421.4079127731264
 22
-763.9472960763826
 32
0.0
 13
-421.4079127731264
 23
-763.9472960763826
 33
0.0
1001
ACAD
1000
DSTYLE
1002
{
1070
    40
1040
1.0
1002
}
  0
LINE
  5
BFB2
  8
1DIM
 10
-421.6143940701687
 20
-763.6856157655398
 30
0.0
 11
-439.8472303356861
 21
-778.072405771783
 31
0.0
1001
ACAD
1000
DSTYLE
1002
{
1070
    40
1040
1.0
1002
}
  0
SOLID
  5
BFB3
  8
1HATCH
 10
-405.9569985393592
 20
-772.7339200592677
 30
0.0
 11
-407.1416285278836
 21
-771.088391906546
 31
0.0
 12
-405.4873477865048
 22
-772.2607682709505
 32
0.0
 13
-405.4873477865048
 23
-772.2607682709505
 33
0.0
1001
ACAD
1000
DSTYLE
1002
{
1070
    40
1040
1.0
1002
}
  0
LINE
  5
BFB4
  8
1HATCH
 10
-405.722173162932
 20
-772.4973441651091
 30
0.0
 11
-398.3664218005831
 21
-779.7986674411416
 31
0.0
1001
ACAD
1000
DSTYLE
1002
{
1070
    40
1040
1.0
1002
}
  0
LINE
  5
BFB5
  8
1HATCH
 10
-398.3664218005831
 20
-779.7986674411416
 30
0.0
 11
-371.8664218005831
 21
-779.7986674411416
 31
0.0
1001
ACAD
1000
DSTYLE
1002
{
1070
    40
1040
1.0
1002
}
  0
TEXT
  5
BFB6
  8
1HATCH
  6
CONTINUOUS
 10
-395.8997551339165
 20
-767.4320007744749
 30
0.0
 40
3.5
  1
貫通穴用
  0
TEXT
  5
BFB7
  8
1HATCH
  6
CONTINUOUS
 10
-395.6664218005831
 20
-773.2653341078083
 30
0.0
 40
3.5
  1
取付プレート
  0
TEXT
  5
BFB8
  8
1HATCH
  6
CONTINUOUS
 10
-395.6664218005831
 20
-779.0986674411416
 30
0.0
 40
3.5
  1
P414CSS
  0
LINE
  5
BFB9
  8
1DIM
 10
-408.3942982452524
 20
-788.8313766829821
 30
0.0
 11
-408.3942982452524
 21
-795.8525966489434
 31
0.0
1001
ACAD
1000
DSTYLE
1002
{
1070
    40
1040
1.0
1002
}
  0
LINE
  5
BFBA
  8
1DIM
 10
-406.8942982452523
 20
-788.3313766829821
 30
0.0
 11
-406.8942982452523
 21
-795.8525966489434
 31
0.0
1001
ACAD
1000
DSTYLE
1002
{
1070
    40
1040
1.0
1002
}
  0
LINE
  5
BFBB
  8
1DIM
 10
-406.8942982452523
 20
-794.8525966489434
 30
0.0
 11
-394.6609649119189
 21
-794.8525966489434
 31
0.0
1001
ACAD
1000
DSTYLE
1002
{
1070
    40
1040
1.0
1002
}
  0
LINE
  5
BFBC
  8
1DIM
 10
-408.3942982452524
 20
-794.8525966489434
 30
0.0
 11
-406.8942982452523
 21
-794.8525966489434
 31
0.0
1001
ACAD
1000
DSTYLE
1002
{
1070
    40
1040
1.0
1002
}
  0
LINE
  5
BFBD
  8
1DIM
 10
-410.3942982452524
 20
-794.8525966489434
 30
0.0
 11
-412.3942982452524
 21
-794.8525966489434
 31
0.0
1001
ACAD
1000
DSTYLE
1002
{
1070
    40
1040
1.0
1002
}
  0
LINE
  5
BFBE
  8
1DIM
 10
-404.8942982452523
 20
-794.8525966489434
 30
0.0
 11
-402.8942982452523
 21
-794.8525966489434
 31
0.0
1001
ACAD
1000
DSTYLE
1002
{
1070
    40
1040
1.0
1002
}
  0
LINE
  5
BFC2
  8
1DIM
 10
-509.9364756793808
 20
-643.600126622223
 30
0.0
 11
-508.3952051760531
 21
-644.8746795774086
 31
0.0
1001
ACAD
1000
DSTYLE
1002
{
1070
     3
1000
%%c<>貫通
1070
    40
1040
1.0
1002
}
  0
LINE
  5
BFC3
  8
1DIM
 10
-516.4868753185232
 20
-638.1832765626845
 30
0.0
 11
-544.792576739378
 21
-614.775889399523
 31
0.0
1001
ACAD
1000
DSTYLE
1002
{
1070
     3
1000
%%c<>貫通
1070
    40
1040
1.0
1002
}
  0
LINE
  5
BFC4
  8
1DIM
 10
-511.4777461827084
 20
-642.3255736670375
 30
0.0
 11
-514.9456048151956
 21
-639.45782951787
 31
0.0
1001
ACAD
1000
DSTYLE
1002
{
1070
     3
1000
%%c<>貫通
1070
    40
1040
1.0
1002
}
  0
LINE
  5
BFC8
  8
1DIM
 10
-513.211675498952
 20
-638.5032148390586
 30
0.0
 11
-513.211675498952
 21
-618.590466853943
 31
0.0
1001
ACAD
1000
DSTYLE
1002
{
1070
    40
1040
1.0
1002
}
  0
LINE
  5
BFC9
  8
1DIM
 10
-445.211675498952
 20
-638.5032148390586
 30
0.0
 11
-445.211675498952
 21
-618.590466853943
 31
0.0
1001
ACAD
1000
DSTYLE
1002
{
1070
    40
1040
1.0
1002
}
  0
LINE
  5
BFCA
  8
1DIM
 10
-511.211675498952
 20
-619.590466853943
 30
0.0
 11
-447.211675498952
 21
-619.590466853943
 31
0.0
1001
ACAD
1000
DSTYLE
1002
{
1070
    40
1040
1.0
1002
}
  0
LINE
  5
BFCE
  8
1DIM
 10
-442.8231887455565
 20
-640.8917015924542
 30
0.0
 11
-431.5284631560858
 21
-640.8917015924542
 31
0.0
1001
ACAD
1000
DSTYLE
1002
{
1070
    40
1040
1.0
1002
}
  0
LINE
  5
BFCF
  8
1DIM
 10
-445.211675498952
 20
-631.8917015924542
 30
0.0
 11
-431.5284631560858
 21
-631.8917015924542
 31
0.0
1001
ACAD
1000
DSTYLE
1002
{
1070
    40
1040
1.0
1002
}
  0
LINE
  5
BFD0
  8
1DIM
 10
-432.5284631560858
 20
-638.8917015924542
 30
0.0
 11
-432.5284631560858
 21
-633.8917015924542
 31
0.0
1001
ACAD
1000
DSTYLE
1002
{
1070
    40
1040
1.0
1002
}
  0
LINE
  5
BFD4
  8
1DIM
 10
-620.141261641768
 20
-764.0426705169808
 30
0.0
 11
-590.5912616417381
 21
-764.0426705169808
 31
0.0
1001
ACAD
1000
DSTYLE
1002
{
1070
    40
1040
1.0
1002
}
  0
LINE
  5
BFD5
  8
1DIM
 10
-615.1412616417382
 20
-761.5426698503811
 30
0.0
 11
-590.5912616417381
 21
-761.5426698503811
 31
0.0
1001
ACAD
1000
DSTYLE
1002
{
1070
    40
1040
1.0
1002
}
  0
LINE
  5
BFD6
  8
1DIM
 10
-591.5912616417381
 20
-766.0426705169808
 30
0.0
 11
-591.5912616417382
 21
-768.0426705169808
 31
0.0
1001
ACAD
1000
DSTYLE
1002
{
1070
    40
1040
1.0
1002
}
  0
LINE
  5
BFD7
  8
1DIM
 10
-591.5912616417381
 20
-759.5426698503811
 30
0.0
 11
-591.5912616417381
 21
-748.8093365170478
 31
0.0
1001
ACAD
1000
DSTYLE
1002
{
1070
    40
1040
1.0
1002
}
  0
LINE
  5
BFD8
  8
1DIM
 10
-591.5912616417381
 20
-764.0426705169808
 30
0.0
 11
-591.5912616417381
 21
-761.5426698503811
 31
0.0
1001
ACAD
1000
DSTYLE
1002
{
1070
    40
1040
1.0
1002
}
  0
LINE
  5
BFDC
  8
1DIM
 10
-615.1412616417341
 20
-801.5426698503642
 30
0.0
 11
-590.5912616417382
 21
-801.5426698503642
 31
0.0
1001
ACAD
1000
DSTYLE
1002
{
1070
    40
1040
1.0
1002
}
  0
LINE
  5
BFDD
  8
1DIM
 10
-614.1412616417382
 20
-799.042670418629
 30
0.0
 11
-590.5912616417382
 21
-799.042670418629
 31
0.0
1001
ACAD
1000
DSTYLE
1002
{
1070
    40
1040
1.0
1002
}
  0
LINE
  5
BFDE
  8
1DIM
 10
-591.5912616417382
 20
-797.042670418629
 30
0.0
 11
-591.5912616417382
 21
-795.042670418629
 31
0.0
1001
ACAD
1000
DSTYLE
1002
{
1070
    40
1040
1.0
1002
}
  0
LINE
  5
BFDF
  8
1DIM
 10
-591.5912616417382
 20
-803.5426698503642
 30
0.0
 11
-591.5912616417382
 21
-820.3890233541739
 31
0.0
1001
ACAD
1000
DSTYLE
1002
{
1070
    40
1040
1.0
1002
}
  0
LINE
  5
BFE0
  8
1DIM
 10
-591.5912616417382
 20
-799.042670418629
 30
0.0
 11
-591.5912616417382
 21
-801.5426698503642
 31
0.0
1001
ACAD
1000
DSTYLE
1002
{
1070
    40
1040
1.0
1002
}
  0
LINE
  5
BFE4
  8
1DIM
 10
-620.4422613641015
 20
-658.1852247893629
 30
0.0
 11
-600.5912616417382
 21
-658.1852247893629
 31
0.0
1001
ACAD
1000
DSTYLE
1002
{
1070
    40
1040
1.0
1002
}
  0
LINE
  5
BFE5
  8
1DIM
 10
-615.1412616417382
 20
-643.1852241555495
 30
0.0
 11
-600.5912616417382
 21
-643.1852241555495
 31
0.0
1001
ACAD
1000
DSTYLE
1002
{
1070
    40
1040
1.0
1002
}
  0
LINE
  5
BFE6
  8
1DIM
 10
-601.5912616417382
 20
-656.1852247893629
 30
0.0
 11
-601.5912616417382
 21
-645.1852241555495
 31
0.0
1001
ACAD
1000
DSTYLE
1002
{
1070
    40
1040
1.0
1002
}
  0
LINE
  5
BFEA
  8
1DIM
 10
-614.141200606582
 20
-721.3450769532797
 30
0.0
 11
-600.591200606582
 21
-721.3450769532797
 31
0.0
1001
ACAD
1000
DSTYLE
1002
{
1070
    40
1040
1.0
1002
}
  0
LINE
  5
BFEB
  8
1DIM
 10
-614.6412006058682
 20
-719.3450769532797
 30
0.0
 11
-600.591200606582
 21
-719.3450769532797
 31
0.0
1001
ACAD
1000
DSTYLE
1002
{
1070
    40
1040
1.0
1002
}
  0
LINE
  5
BFEC
  8
1DIM
 10
-601.591200606582
 20
-723.3450769532797
 30
0.0
 11
-601.591200606582
 21
-725.3450769532797
 31
0.0
1001
ACAD
1000
DSTYLE
1002
{
1070
    40
1040
1.0
1002
}
  0
LINE
  5
BFED
  8
1DIM
 10
-601.591200606582
 20
-717.3450769532797
 30
0.0
 11
-601.591200606582
 21
-711.6117436199463
 31
0.0
1001
ACAD
1000
DSTYLE
1002
{
1070
    40
1040
1.0
1002
}
  0
LINE
  5
BFEE
  8
1DIM
 10
-601.591200606582
 20
-721.3450769532797
 30
0.0
 11
-601.591200606582
 21
-719.3450769532797
 31
0.0
1001
ACAD
1000
DSTYLE
1002
{
1070
    40
1040
1.0
1002
}
  0
SOLID
  5
BFF2
  8
1DIM
 10
-405.6271930635252
 20
-755.4113268041431
 30
0.0
 11
-406.8558571934964
 21
-757.0242420427198
 31
0.0
 12
-406.2167149857647
 22
-755.1000257478593
 32
0.0
 13
-406.2167149857647
 23
-755.1000257478593
 33
0.0
1001
ACAD
1000
DSTYLE
1002
{
1070
    40
1040
1.0
1002
}
  0
LINE
  5
BFF3
  8
1DIM
 10
-405.9219540246449
 20
-755.2556762760012
 30
0.0
 11
-398.4329507290768
 21
-741.0734834136792
 31
0.0
1001
ACAD
1000
DSTYLE
1002
{
1070
    40
1040
1.0
1002
}
  0
LINE
  5
BFF4
  8
1DIM
 10
-398.4329507290768
 20
-741.0734834136792
 30
0.0
 11
-395.7329507290768
 21
-741.0734834136792
 31
0.0
1001
ACAD
1000
DSTYLE
1002
{
1070
    40
1040
1.0
1002
}
  0
TEXT
  5
BFF5
  8
1DIM
  6
CONTINUOUS
 10
-395.7329507290768
 20
-740.373483413679
 30
0.0
 40
3.5
  1
M4×12
  0
LINE
  5
BFF6
  8
1HATCH
 10
-525.2818570273025
 20
-728.0242884099081
 30
0.0
 11
-525.2818570273025
 21
-718.9646967891413
 31
0.0
1001
ACAD
1000
DSTYLE
1002
{
1070
    40
1040
1.0
1002
}
  0
LINE
  5
BFF7
  8
1HATCH
 10
-504.2818570273025
 20
-728.5238400695551
 30
0.0
 11
-504.2818570273025
 21
-718.9646967891413
 31
0.0
1001
ACAD
1000
DSTYLE
1002
{
1070
    40
1040
1.0
1002
}
  0
LINE
  5
BFF8
  8
1HATCH
 10
-504.2818570273025
 20
-719.9646967891413
 30
0.0
 11
-455.6151903606358
 21
-719.9646967891413
 31
0.0
1001
ACAD
1000
DSTYLE
1002
{
1070
    40
1040
1.0
1002
}
  0
LINE
  5
BFF9
  8
1HATCH
 10
-523.2818570273025
 20
-719.9646967891413
 30
0.0
 11
-506.2818570273025
 21
-719.9646967891413
 31
0.0
1001
ACAD
1000
DSTYLE
1002
{
1070
    40
1040
1.0
1002
}
  0
LINE
  5
BFFD
  8
1TEXT
 10
-492.0728423231883
 20
-729.5660473321481
 30
0.0
 11
-465.1863997612879
 21
-729.5660473321481
 31
0.0
  0
LINE
  5
BFFE
  8
1TEXT
 10
-465.1863997612879
 20
-729.5660473321481
 30
0.0
 11
-465.1863997612879
 21
-735.7220329186651
 31
0.0
  0
LINE
  5
BFFF
  8
1TEXT
 10
-465.1863997612879
 20
-735.7220329186651
 30
0.0
 11
-492.0728423231883
 21
-735.7220329186651
 31
0.0
  0
LINE
  5
C000
  8
1TEXT
 10
-492.0728423231883
 20
-735.7220329186651
 30
0.0
 11
-492.0728423231883
 21
-729.5660473321481
 31
0.0
  0
SOLID
  5
C001
  8
1DIM
 10
-496.7593134587276
 20
-756.4600526666364
 30
0.0
 11
-497.9879775886989
 21
-758.0729679052132
 31
0.0
 12
-497.3488353809672
 22
-756.1487516103526
 32
0.0
 13
-497.3488353809672
 23
-756.1487516103526
 33
0.0
1001
ACAD
1000
DSTYLE
1002
{
1070
    40
1040
1.0
1002
}
  0
LINE
  5
C002
  8
1DIM
 10
-497.0540744198474
 20
-756.3044021384945
 30
0.0
 11
-489.5650711242793
 21
-742.1222092761726
 31
0.0
1001
ACAD
1000
DSTYLE
1002
{
1070
    40
1040
1.0
1002
}
  0
LINE
  5
C003
  8
1DIM
 10
-489.5650711242793
 20
-742.1222092761726
 30
0.0
 11
-486.8650711242793
 21
-742.1222092761726
 31
0.0
1001
ACAD
1000
DSTYLE
1002
{
1070
    40
1040
1.0
1002
}
  0
TEXT
  5
C004
  8
1DIM
  6
CONTINUOUS
 10
-486.8650711242792
 20
-741.4222092761723
 30
0.0
 40
3.5
  1
M4×12
  0
LINE
  5
C005
  8
1HATCH
  6
CONTINUOUS
 10
-525.2818570273025
 20
-730.9647560606427
 30
0.0
 11
-523.1273146309098
 21
-728.81021366425
 31
0.0
1001
ACAD
1010
0.0
1020
0.0
1030
0.0
  0
LINE
  5
C006
  8
1HATCH
  6
CONTINUOUS
 10
-525.2818570273025
 20
-733.20982009091
 30
0.0
 11
-520.7231324660513
 21
-728.6510955296587
 31
0.0
1001
ACAD
1010
0.0
1020
0.0
1030
0.0
  0
LINE
  5
C007
  8
1HATCH
  6
CONTINUOUS
 10
-525.2818570273025
 20
-735.4548841211772
 30
0.0
 11
-518.7480627789541
 21
-728.9210898728288
 31
0.0
1001
ACAD
1010
0.0
1020
0.0
1030
0.0
  0
LINE
  5
C008
  8
1HATCH
  6
CONTINUOUS
 10
-525.2818570273025
 20
-737.6999481514446
 30
0.0
 11
-516.9415789351744
 21
-729.3596700593164
 31
0.0
1001
ACAD
1010
0.0
1020
0.0
1030
0.0
  0
LINE
  5
C009
  8
1HATCH
  6
CONTINUOUS
 10
-525.2818570273025
 20
-739.9450121817118
 30
0.0
 11
-515.2769235577593
 21
-729.9400787121685
 31
0.0
1001
ACAD
1010
0.0
1020
0.0
1030
0.0
  0
LINE
  5
C00A
  8
1HATCH
  6
CONTINUOUS
 10
-525.2818570273025
 20
-742.1900762119791
 30
0.0
 11
-513.59423406227
 21
-730.5024532469465
 31
0.0
1001
ACAD
1010
0.0
1020
0.0
1030
0.0
  0
LINE
  5
C00B
  8
1HATCH
  6
CONTINUOUS
 10
-525.2818570273025
 20
-744.4351402422463
 30
0.0
 11
-511.8834260023984
 21
-731.0367092173423
 31
0.0
1001
ACAD
1010
0.0
1020
0.0
1030
0.0
  0
LINE
  5
C00C
  8
1HATCH
  6
CONTINUOUS
 10
-525.2818570273025
 20
-746.6802042725137
 30
0.0
 11
-509.9580943861927
 21
-731.3564416314038
 31
0.0
1001
ACAD
1010
0.0
1020
0.0
1030
0.0
  0
LINE
  5
C00D
  8
1HATCH
  6
CONTINUOUS
 10
-525.2818570273025
 20
-748.925268302781
 30
0.0
 11
-507.5804804756831
 21
-731.2238917511615
 31
0.0
1001
ACAD
1010
0.0
1020
0.0
1030
0.0
  0
LINE
  5
C00E
  8
1HATCH
  6
CONTINUOUS
 10
-523.4429017268561
 20
-749.3313770326018
 30
0.0
 11
-504.4476167460124
 21
-730.3360920517581
 31
0.0
1001
ACAD
1010
0.0
1020
0.0
1030
0.0
  0
LINE
  5
C00F
  8
1HATCH
  6
CONTINUOUS
 10
-521.1978376965889
 20
-749.3313770326018
 30
0.0
 11
-504.2818570273025
 21
-732.4153963633155
 31
0.0
1001
ACAD
1010
0.0
1020
0.0
1030
0.0
  0
LINE
  5
C010
  8
1HATCH
  6
CONTINUOUS
 10
-518.9527736663215
 20
-749.3313770326018
 30
0.0
 11
-504.2818570273025
 21
-734.6604603935829
 31
0.0
1001
ACAD
1010
0.0
1020
0.0
1030
0.0
  0
LINE
  5
C011
  8
1HATCH
  6
CONTINUOUS
 10
-516.7077096360542
 20
-749.3313770326018
 30
0.0
 11
-504.2818570273025
 21
-736.9055244238501
 31
0.0
1001
ACAD
1010
0.0
1020
0.0
1030
0.0
  0
LINE
  5
C012
  8
1HATCH
  6
CONTINUOUS
 10
-514.462645605787
 20
-749.3313770326018
 30
0.0
 11
-504.2818570273025
 21
-739.1505884541174
 31
0.0
1001
ACAD
1010
0.0
1020
0.0
1030
0.0
  0
LINE
  5
C013
  8
1HATCH
  6
CONTINUOUS
 10
-512.2175815755196
 20
-749.3313770326018
 30
0.0
 11
-504.2818570273025
 21
-741.3956524843848
 31
0.0
1001
ACAD
1010
0.0
1020
0.0
1030
0.0
  0
LINE
  5
C014
  8
1HATCH
  6
CONTINUOUS
 10
-509.9725175452523
 20
-749.3313770326018
 30
0.0
 11
-504.2818570273025
 21
-743.640716514652
 31
0.0
1001
ACAD
1010
0.0
1020
0.0
1030
0.0
  0
LINE
  5
C015
  8
1HATCH
  6
CONTINUOUS
 10
-509.7818570273025
 20
-751.3857805449193
 30
0.0
 11
-504.2818570273025
 21
-745.8857805449193
 31
0.0
1001
ACAD
1010
0.0
1020
0.0
1030
0.0
  0
LINE
  5
C016
  8
1HATCH
  6
CONTINUOUS
 10
-509.7818570273026
 20
-753.6308445751866
 30
0.0
 11
-504.2818570273025
 21
-748.1308445751865
 31
0.0
1001
ACAD
1010
0.0
1020
0.0
1030
0.0
  0
LINE
  5
C017
  8
1HATCH
  6
CONTINUOUS
 10
-509.7818570273026
 20
-755.8759086054539
 30
0.0
 11
-504.2818570273025
 21
-750.3759086054539
 31
0.0
1001
ACAD
1010
0.0
1020
0.0
1030
0.0
  0
LINE
  5
C018
  8
1HATCH
  6
CONTINUOUS
 10
-507.9917432441541
 20
-756.3308588525728
 30
0.0
 11
-504.2818570273025
 21
-752.6209726357212
 31
0.0
1001
ACAD
1010
0.0
1020
0.0
1030
0.0
  0
LINE
  5
C019
  8
1HATCH
  6
CONTINUOUS
 10
-509.7818570273025
 20
-760.3660366659884
 30
0.0
 11
-509.7466945666227
 21
-760.3308742053086
 31
0.0
1001
ACAD
1010
0.0
1020
0.0
1030
0.0
  0
LINE
  5
C01A
  8
1HATCH
  6
CONTINUOUS
 10
-509.7818570273025
 20
-762.6111006962557
 30
0.0
 11
-507.5016717980208
 21
-760.330915466974
 31
0.0
1001
ACAD
1010
0.0
1020
0.0
1030
0.0
  0
LINE
  5
C01B
  8
1HATCH
  6
CONTINUOUS
 10
-509.7818570273025
 20
-764.856164726523
 30
0.0
 11
-505.9192594502441
 21
-760.9935671494645
 31
0.0
1001
ACAD
1010
0.0
1020
0.0
1030
0.0
  0
LINE
  5
C01C
  8
1HATCH
  6
CONTINUOUS
 10
-509.7818570273025
 20
-767.1012287567903
 30
0.0
 11
-504.7967313529631
 21
-762.1161030824509
 31
0.0
1001
ACAD
1010
0.0
1020
0.0
1030
0.0
  0
LINE
  5
C01D
  8
1HATCH
  6
CONTINUOUS
 10
-525.2818570273025
 20
-784.8462927870576
 30
0.0
 11
-524.7669412728466
 21
-784.3313770326016
 31
0.0
1001
ACAD
1010
0.0
1020
0.0
1030
0.0
  0
LINE
  5
C01E
  8
1HATCH
  6
CONTINUOUS
 10
-509.7818570273025
 20
-769.3462927870576
 30
0.0
 11
-504.2818570273025
 21
-763.8462927870576
 31
0.0
1001
ACAD
1010
0.0
1020
0.0
1030
0.0
  0
LINE
  5
C01F
  8
1HATCH
  6
CONTINUOUS
 10
-525.2818570273025
 20
-787.0913568173248
 30
0.0
 11
-522.5218772425793
 21
-784.3313770326016
 31
0.0
1001
ACAD
1010
0.0
1020
0.0
1030
0.0
  0
LINE
  5
C020
  8
1HATCH
  6
CONTINUOUS
 10
-525.2818570273025
 20
-789.3364208475922
 30
0.0
 11
-520.2768132123119
 21
-784.3313770326016
 31
0.0
1001
ACAD
1010
0.0
1020
0.0
1030
0.0
  0
LINE
  5
C021
  8
1HATCH
  6
CONTINUOUS
 10
-525.2818570273025
 20
-791.5814848778595
 30
0.0
 11
-518.0317491820447
 21
-784.3313770326016
 31
0.0
1001
ACAD
1010
0.0
1020
0.0
1030
0.0
  0
LINE
  5
C022
  8
1HATCH
  6
CONTINUOUS
 10
-525.2818570273025
 20
-793.8265489081267
 30
0.0
 11
-515.7866851517774
 21
-784.3313770326016
 31
0.0
1001
ACAD
1010
0.0
1020
0.0
1030
0.0
  0
LINE
  5
C023
  8
1HATCH
  6
CONTINUOUS
 10
-525.2818570273025
 20
-796.071612938394
 30
0.0
 11
-513.5416211215102
 21
-784.3313770326016
 31
0.0
1001
ACAD
1010
0.0
1020
0.0
1030
0.0
  0
LINE
  5
C024
  8
1HATCH
  6
CONTINUOUS
 10
-509.7818570273025
 20
-771.5913568173248
 30
0.0
 11
-504.2818570273025
 21
-766.0913568173248
 31
0.0
1001
ACAD
1010
0.0
1020
0.0
1030
0.0
  0
LINE
  5
C025
  8
1HATCH
  6
CONTINUOUS
 10
-509.7818570273025
 20
-773.8364208475922
 30
0.0
 11
-504.2818570273025
 21
-768.3364208475922
 31
0.0
1001
ACAD
1010
0.0
1020
0.0
1030
0.0
  0
LINE
  5
C026
  8
1HATCH
  6
CONTINUOUS
 10
-509.7818570273025
 20
-776.0814848778595
 30
0.0
 11
-504.2818570273025
 21
-770.5814848778595
 31
0.0
1001
ACAD
1010
0.0
1020
0.0
1030
0.0
  0
LINE
  5
C027
  8
1HATCH
  6
CONTINUOUS
 10
-509.7818570273025
 20
-778.3265489081267
 30
0.0
 11
-504.2818570273025
 21
-772.8265489081267
 31
0.0
1001
ACAD
1010
0.0
1020
0.0
1030
0.0
  0
LINE
  5
C028
  8
1HATCH
  6
CONTINUOUS
 10
-509.7818570273025
 20
-780.571612938394
 30
0.0
 11
-504.2818570273025
 21
-775.071612938394
 31
0.0
1001
ACAD
1010
0.0
1020
0.0
1030
0.0
  0
LINE
  5
C029
  8
1HATCH
  6
CONTINUOUS
 10
-524.1709699131031
 20
-797.205789854462
 30
0.0
 11
-511.2965570912428
 21
-784.3313770326016
 31
0.0
1001
ACAD
1010
0.0
1020
0.0
1030
0.0
  0
LINE
  5
C02A
  8
1HATCH
  6
CONTINUOUS
 10
-509.7818570273025
 20
-782.8166769686613
 30
0.0
 11
-504.2818570273025
 21
-777.3166769686613
 31
0.0
1001
ACAD
1010
0.0
1020
0.0
1030
0.0
  0
LINE
  5
C02B
  8
1HATCH
  6
CONTINUOUS
 10
-521.6126368141742
 20
-796.8925207858001
 30
0.0
 11
-504.2818570273025
 21
-779.5617409989286
 31
0.0
1001
ACAD
1010
0.0
1020
0.0
1030
0.0
  0
LINE
  5
C02C
  8
1HATCH
  6
CONTINUOUS
 10
-519.4594257376242
 20
-796.9843737395177
 30
0.0
 11
-504.2818570273025
 21
-781.8068050291959
 31
0.0
1001
ACAD
1010
0.0
1020
0.0
1030
0.0
  0
LINE
  5
C02D
  8
1HATCH
  6
CONTINUOUS
 10
-517.648248755698
 20
-797.4182607878586
 30
0.0
 11
-504.2818570273025
 21
-784.0518690594631
 31
0.0
1001
ACAD
1010
0.0
1020
0.0
1030
0.0
  0
LINE
  5
C02E
  8
1HATCH
  6
CONTINUOUS
 10
-515.9282739735011
 20
-797.9433500359289
 30
0.0
 11
-504.2818570273025
 21
-786.2969330897305
 31
0.0
1001
ACAD
1010
0.0
1020
0.0
1030
0.0
  0
LINE
  5
C02F
  8
1HATCH
  6
CONTINUOUS
 10
-514.2590764401124
 20
-798.5192165328076
 30
0.0
 11
-504.2818570273025
 21
-788.5419971199977
 31
0.0
1001
ACAD
1010
0.0
1020
0.0
1030
0.0
  0
LINE
  5
C030
  8
1HATCH
  6
CONTINUOUS
 10
-512.5599396733868
 20
-799.0651437963493
 30
0.0
 11
-504.2818570273025
 21
-790.787061150265
 31
0.0
1001
ACAD
1010
0.0
1020
0.0
1030
0.0
  0
LINE
  5
C031
  8
1HATCH
  6
CONTINUOUS
 10
-510.7553175922687
 20
-799.5055857454985
 30
0.0
 11
-504.2818570273025
 21
-793.0321251805324
 31
0.0
1001
ACAD
1010
0.0
1020
0.0
1030
0.0
  0
LINE
  5
C032
  8
1HATCH
  6
CONTINUOUS
 10
-508.5891627061821
 20
-799.5844948896791
 30
0.0
 11
-504.2818570273025
 21
-795.2771892107996
 31
0.0
1001
ACAD
1010
0.0
1020
0.0
1030
0.0
  0
LINE
  5
C033
  8
1HATCH
  6
CONTINUOUS
 10
-505.7250611146881
 20
-798.9654573284524
 30
0.0
 11
-504.2818570273025
 21
-797.5222532410669
 31
0.0
1001
ACAD
1010
0.0
1020
0.0
1030
0.0
  0
LINE
  5
C034
  8
1DIM
 10
-525.2818570273025
 20
-786.8313767047663
 30
0.0
 11
-525.2818570273025
 21
-809.1026334578186
 31
0.0
1001
ACAD
1000
DSTYLE
1002
{
1070
    40
1040
1.0
1002
}
  0
LINE
  5
C035
  8
1DIM
 10
-527.2818570273025
 20
-786.3313767047614
 30
0.0
 11
-527.2818570273025
 21
-809.1026334578186
 31
0.0
1001
ACAD
1000
DSTYLE
1002
{
1070
    40
1040
1.0
1002
}
  0
LINE
  5
C036
  8
1DIM
 10
-529.2818570273025
 20
-808.1026334578186
 30
0.0
 11
-535.0151903606359
 21
-808.1026334578186
 31
0.0
1001
ACAD
1000
DSTYLE
1002
{
1070
    40
1040
1.0
1002
}
  0
LINE
  5
C037
  8
1DIM
 10
-525.2818570273025
 20
-808.1026334578186
 30
0.0
 11
-527.2818570273025
 21
-808.1026334578186
 31
0.0
1001
ACAD
1000
DSTYLE
1002
{
1070
    40
1040
1.0
1002
}
  0
LINE
  5
C038
  8
1DIM
 10
-523.2818570273025
 20
-808.1026334578186
 30
0.0
 11
-521.2818570273025
 21
-808.1026334578186
 31
0.0
1001
ACAD
1000
DSTYLE
1002
{
1070
    40
1040
1.0
1002
}
  0
LINE
  5
C03C
  8
1HATCH
  6
CONTINUOUS
 10
-427.3942982452522
 20
-729.6149505800857
 30
0.0
 11
-426.8437024448242
 21
-729.0643547796578
 31
0.0
1001
ACAD
1010
0.0
1020
0.0
1030
0.0
  0
LINE
  5
C03D
  8
1HATCH
  6
CONTINUOUS
 10
-427.3942982452522
 20
-731.8600146103531
 30
0.0
 11
-424.2124896747551
 21
-728.6782060398559
 31
0.0
1001
ACAD
1010
0.0
1020
0.0
1030
0.0
  0
LINE
  5
C03E
  8
1HATCH
  6
CONTINUOUS
 10
-427.3942982452522
 20
-734.1050786406204
 30
0.0
 11
-422.0079584712883
 21
-728.7187388666564
 31
0.0
1001
ACAD
1010
0.0
1020
0.0
1030
0.0
  0
LINE
  5
C03F
  8
1HATCH
  6
CONTINUOUS
 10
-427.3942982452522
 20
-736.3501426708876
 30
0.0
 11
-420.1402238905104
 21
-729.0960683161459
 31
0.0
1001
ACAD
1010
0.0
1020
0.0
1030
0.0
  0
LINE
  5
C040
  8
1HATCH
  6
CONTINUOUS
 10
-427.3942982452522
 20
-738.5952067011549
 30
0.0
 11
-418.3903957673919
 21
-729.5913042232946
 31
0.0
1001
ACAD
1010
0.0
1020
0.0
1030
0.0
  0
LINE
  5
C041
  8
1HATCH
  6
CONTINUOUS
 10
-427.3942982452522
 20
-740.8402707314223
 30
0.0
 11
-416.7257403899768
 21
-730.1717128761468
 31
0.0
1001
ACAD
1010
0.0
1020
0.0
1030
0.0
  0
LINE
  5
C042
  8
1HATCH
  6
CONTINUOUS
 10
-427.3942982452522
 20
-743.0853347616895
 30
0.0
 11
-415.0293046914531
 21
-730.7203412078903
 31
0.0
1001
ACAD
1010
0.0
1020
0.0
1030
0.0
  0
LINE
  5
C043
  8
1HATCH
  6
CONTINUOUS
 10
-427.3942982452522
 20
-745.3303987919568
 30
0.0
 11
-413.2601437639173
 21
-731.1962443106219
 31
0.0
1001
ACAD
1010
0.0
1020
0.0
1030
0.0
  0
LINE
  5
C044
  8
1HATCH
  6
CONTINUOUS
 10
-427.3942982452522
 20
-747.5754628222242
 30
0.0
 11
-411.1845617393529
 21
-731.3657263163248
 31
0.0
1001
ACAD
1010
0.0
1020
0.0
1030
0.0
  0
LINE
  5
C045
  8
1HATCH
  6
CONTINUOUS
 10
-426.9051484253627
 20
-749.3313770326018
 30
0.0
 11
-408.5566483990063
 21
-730.9828770062454
 31
0.0
1001
ACAD
1010
0.0
1020
0.0
1030
0.0
  0
LINE
  5
C046
  8
1HATCH
  6
CONTINUOUS
 10
-424.6600843950954
 20
-749.3313770326018
 30
0.0
 11
-408.3942982452523
 21
-733.0655908827588
 31
0.0
1001
ACAD
1010
0.0
1020
0.0
1030
0.0
  0
LINE
  5
C047
  8
1HATCH
  6
CONTINUOUS
 10
-422.4150203648281
 20
-749.3313770326018
 30
0.0
 11
-408.3942982452523
 21
-735.310654913026
 31
0.0
1001
ACAD
1010
0.0
1020
0.0
1030
0.0
  0
LINE
  5
C048
  8
1HATCH
  6
CONTINUOUS
 10
-420.1699563345608
 20
-749.3313770326018
 30
0.0
 11
-408.3942982452523
 21
-737.5557189432933
 31
0.0
1001
ACAD
1010
0.0
1020
0.0
1030
0.0
  0
LINE
  5
C049
  8
1HATCH
  6
CONTINUOUS
 10
-417.9248923042935
 20
-749.3313770326018
 30
0.0
 11
-408.3942982452523
 21
-739.8007829735606
 31
0.0
1001
ACAD
1010
0.0
1020
0.0
1030
0.0
  0
LINE
  5
C04A
  8
1HATCH
  6
CONTINUOUS
 10
-415.6798282740262
 20
-749.3313770326018
 30
0.0
 11
-408.3942982452523
 21
-742.0458470038279
 31
0.0
1001
ACAD
1010
0.0
1020
0.0
1030
0.0
  0
LINE
  5
C04B
  8
1HATCH
  6
CONTINUOUS
 10
-413.4347642437589
 20
-749.3313770326018
 30
0.0
 11
-408.3942982452523
 21
-744.2909110340952
 31
0.0
1001
ACAD
1010
0.0
1020
0.0
1030
0.0
  0
LINE
  5
C04C
  8
1HATCH
  6
CONTINUOUS
 10
-411.1897002134916
 20
-749.3313770326018
 30
0.0
 11
-408.3942982452523
 21
-746.5359750643624
 31
0.0
1001
ACAD
1010
0.0
1020
0.0
1030
0.0
  0
LINE
  5
C04D
  8
1HATCH
  6
CONTINUOUS
 10
-408.9446361832244
 20
-749.3313770326018
 30
0.0
 11
-408.3942982452523
 21
-748.7810390946297
 31
0.0
1001
ACAD
1010
0.0
1020
0.0
1030
0.0
  0
LINE
  5
C04E
  8
1HATCH
  6
CONTINUOUS
 10
-427.3942982452522
 20
-785.741551336768
 30
0.0
 11
-425.9841239410858
 21
-784.3313770326016
 31
0.0
1001
ACAD
1010
0.0
1020
0.0
1030
0.0
  0
LINE
  5
C04F
  8
1HATCH
  6
CONTINUOUS
 10
-427.3942982452523
 20
-787.9866153670354
 30
0.0
 11
-423.7390599108185
 21
-784.3313770326016
 31
0.0
1001
ACAD
1010
0.0
1020
0.0
1030
0.0
  0
LINE
  5
C050
  8
1HATCH
  6
CONTINUOUS
 10
-427.3942982452523
 20
-790.2316793973026
 30
0.0
 11
-421.4939958805513
 21
-784.3313770326016
 31
0.0
1001
ACAD
1010
0.0
1020
0.0
1030
0.0
  0
LINE
  5
C051
  8
1HATCH
  6
CONTINUOUS
 10
-427.3942982452523
 20
-792.4767434275699
 30
0.0
 11
-419.248931850284
 21
-784.3313770326016
 31
0.0
1001
ACAD
1010
0.0
1020
0.0
1030
0.0
  0
LINE
  5
C052
  8
1HATCH
  6
CONTINUOUS
 10
-427.3942982452523
 20
-794.7218074578373
 30
0.0
 11
-417.0038678200167
 21
-784.3313770326016
 31
0.0
1001
ACAD
1010
0.0
1020
0.0
1030
0.0
  0
LINE
  5
C053
  8
1HATCH
  6
CONTINUOUS
 10
-427.3942982452523
 20
-796.9668714881045
 30
0.0
 11
-414.7588037897494
 21
-784.3313770326016
 31
0.0
1001
ACAD
1010
0.0
1020
0.0
1030
0.0
  0
LINE
  5
C054
  8
1HATCH
  6
CONTINUOUS
 10
-425.2200893324891
 20
-797.0377266056086
 30
0.0
 11
-412.5137397594821
 21
-784.3313770326016
 31
0.0
1001
ACAD
1010
0.0
1020
0.0
1030
0.0
  0
LINE
  5
C055
  8
1HATCH
  6
CONTINUOUS
 10
-422.8202666451054
 20
-796.8829679484921
 30
0.0
 11
-410.2686757292148
 21
-784.3313770326016
 31
0.0
1001
ACAD
1010
0.0
1020
0.0
1030
0.0
  0
LINE
  5
C056
  8
1HATCH
  6
CONTINUOUS
 10
-420.8471821591284
 20
-797.1549474927824
 30
0.0
 11
-408.3942982452523
 21
-784.7020635789064
 31
0.0
1001
ACAD
1010
0.0
1020
0.0
1030
0.0
  0
LINE
  5
C057
  8
1HATCH
  6
CONTINUOUS
 10
-419.0417461831338
 20
-797.5945755470552
 30
0.0
 11
-408.3942982452523
 21
-786.9471276091737
 31
0.0
1001
ACAD
1010
0.0
1020
0.0
1030
0.0
  0
LINE
  5
C058
  8
1HATCH
  6
CONTINUOUS
 10
-417.3770908057186
 20
-798.1749841999073
 30
0.0
 11
-408.3942982452523
 21
-789.192191639441
 31
0.0
1001
ACAD
1010
0.0
1020
0.0
1030
0.0
  0
LINE
  5
C059
  8
1HATCH
  6
CONTINUOUS
 10
-415.6941470692954
 20
-798.7371044937514
 30
0.0
 11
-408.3942982452523
 21
-791.4372556697083
 31
0.0
1001
ACAD
1010
0.0
1020
0.0
1030
0.0
  0
LINE
  5
C05A
  8
1HATCH
  6
CONTINUOUS
 10
-413.9822597522988
 20
-799.2702812070221
 30
0.0
 11
-408.3942982452523
 21
-793.6823196999756
 31
0.0
1001
ACAD
1010
0.0
1020
0.0
1030
0.0
  0
LINE
  5
C05B
  8
1HATCH
  6
CONTINUOUS
 10
-412.0555128245898
 20
-799.5885983095803
 30
0.0
 11
-408.3942982452523
 21
-795.9273837302428
 31
0.0
1001
ACAD
1010
0.0
1020
0.0
1030
0.0
  0
LINE
  5
C05C
  8
1HATCH
  6
CONTINUOUS
 10
-409.6723792328469
 20
-799.4505287481047
 30
0.0
 11
-408.3942982452523
 21
-798.1724477605101
 31
0.0
1001
ACAD
1010
0.0
1020
0.0
1030
0.0
  0
LINE
  5
C05D
  8
1HATCH
 10
-427.3931581922561
 20
-728.0242884099081
 30
0.0
 11
-427.3931581922561
 21
-718.9646967891413
 31
0.0
1001
ACAD
1000
DSTYLE
1002
{
1070
    40
1040
1.0
1002
}
  0
LINE
  5
C05E
  8
1HATCH
 10
-408.3942982452523
 20
-728.5238400695553
 30
0.0
 11
-408.3942982452523
 21
-718.9646967891413
 31
0.0
1001
ACAD
1000
DSTYLE
1002
{
1070
    40
1040
1.0
1002
}
  0
LINE
  5
C05F
  8
1HATCH
 10
-408.3942982452523
 20
-719.9646967891413
 30
0.0
 11
-359.7276315785857
 21
-719.9646967891413
 31
0.0
1001
ACAD
1000
DSTYLE
1002
{
1070
    40
1040
1.0
1002
}
  0
LINE
  5
C060
  8
1HATCH
 10
-425.3931581922561
 20
-719.9646967891413
 30
0.0
 11
-410.3942982452523
 21
-719.9646967891413
 31
0.0
1001
ACAD
1000
DSTYLE
1002
{
1070
    40
1040
1.0
1002
}
  0
LINE
  5
C064
  8
1TEXT
 10
-400.9407219279859
 20
-728.5173214696547
 30
0.0
 11
-374.0542793660855
 21
-728.5173214696547
 31
0.0
  0
LINE
  5
C065
  8
1TEXT
 10
-374.0542793660855
 20
-728.5173214696547
 30
0.0
 11
-374.0542793660855
 21
-734.6733070561718
 31
0.0
  0
LINE
  5
C066
  8
1TEXT
 10
-374.0542793660855
 20
-734.6733070561718
 30
0.0
 11
-400.9407219279859
 21
-734.6733070561718
 31
0.0
  0
LINE
  5
C067
  8
1TEXT
 10
-400.9407219279859
 20
-734.6733070561718
 30
0.0
 11
-400.9407219279859
 21
-728.5173214696547
 31
0.0
  0
TEXT
  5
C068
  8
1TEXT
  6
CONTINUOUS
 10
-522.4657412708284
 20
-593.8332548275038
 30
0.0
 40
2.904000000000001
  1
注意!!
  0
TEXT
  5
C069
  8
1TEXT
  6
CONTINUOUS
 10
-522.4657412708284
 20
-598.6772881608371
 30
0.0
 40
2.904000000000001
  1
切欠き深さは厳守してください。14.5mm以上掘り込みますと取付けネジの締め付
  0
TEXT
  5
C06A
  8
1TEXT
  6
CONTINUOUS
 10
-522.7561412708284
 20
-603.614088160837
 30
0.0
 40
2.904000000000001
  1
けにより、板材が破損する恐れがあります。また、底面に隙間の無いよう製品をしっ
  0
TEXT
  5
C06B
  8
1TEXT
  6
CONTINUOUS
 10
-522.8529412708284
 20
-608.550888160837
 30
0.0
 40
2.904000000000001
  1
かりと押し込んでから、取付けネジで固定してください。インパクトドライバーでの
  0
TEXT
  5
C06C
  8
1TEXT
  6
CONTINUOUS
 10
-522.4657412708284
 20
-613.4876881608369
 30
0.0
 40
2.904000000000001
  1
取付けは板材を破損しますので避けてください。
  0
TEXT
  5
C06D
  8
1DIM
  6
CONTINUOUS
 10
-612.0044133340001
 20
-622.7033801794165
 30
0.0
 40
3.5
  1
材質：亜鉛ダイキャスト
  0
TEXT
  5
C06E
  8
1DIM
  6
CONTINUOUS
 10
-611.8877466673334
 20
-628.5367135127499
 30
0.0
 40
3.5
  1
仕上げ：各種メッキ
  0
SOLID
  5
C06F
  8
1DIM
 10
-621.8871214682435
 20
-641.6689634484978
 30
0.0
 11
-623.2332509491489
 21
-643.1852241555495
 31
0.0
 12
-622.4516454532821
 22
-641.3143409523692
 32
0.0
 13
-622.4516454532821
 23
-641.3143409523692
 33
0.0
  0
LINE
  5
C070
  8
1DIM
 10
-622.1693834607629
 20
-641.4916522004336
 30
0.0
 11
-614.4710800006668
 21
-629.2367135127499
 31
0.0
  0
LINE
  5
C071
  8
1DIM
 10
-614.4710800006668
 20
-629.2367135127499
 30
0.0
 11
-567.2044133340002
 21
-629.2367135127499
 31
0.0
  0
LINE
  5
C072
  8
1DIM
 10
-570.0590671432941
 20
-658.1852241555495
 30
0.0
 11
-582.4977799208539
 21
-658.1852241555495
 31
0.0
  0
LINE
  5
C073
  8
1DIM
 10
-557.0590671432941
 20
-647.6852241555495
 30
0.0
 11
-582.4977799208539
 21
-647.6852241555495
 31
0.0
  0
LINE
  5
C074
  8
1DIM
 10
-581.4977799208539
 20
-656.1852241555495
 30
0.0
 11
-581.4977799208539
 21
-649.6852241555495
 31
0.0
  0
LINE
  5
C078
  8
1DIM
 10
-530.0321799398977
 20
-676.5992828240572
 30
0.0
 11
-516.9190664839948
 21
-665.9383140363428
 31
0.0
1001
ACAD_DSTYLE_DIMRADIAL_EXTE
1070
   387
1070
     1
1070
   388
1040
3.141592653589793
1070
   390
1040
4.71238898038469
  0
TEXT
  5
C07B
  8
1TEXT
  6
CONTINUOUS
 10
-439.2793578845842
 20
-806.136312047016
 30
0.0
 40
3.0
  1
※取付ネジ寸法算出法（単位：mm）
  0
TEXT
  5
C07C
  8
1TEXT
  6
CONTINUOUS
 10
-438.7793578845842
 20
-811.148812047016
 30
0.0
 40
3.0
  1
切欠き部への取付け：扉厚-15.5+6.5～11
  0
TEXT
  5
C07D
  8
1TEXT
  6
CONTINUOUS
 10
-438.9793578845841
 20
-816.161312047016
 30
0.0
 40
3.0
  1
貫通穴部への取付け：扉厚-15.5+8～12.5
  0
LINE
  5
C07E
  8
0
  6
BYBLOCK
 10
-601.055302226582
 20
-734.8450769532797
 30
0.0
 11
-601.591200606582
 21
-736.8450769532797
 31
0.0
  0
LINE
  5
C07F
  8
0
  6
BYBLOCK
 10
-601.591200606582
 20
-736.8450769532797
 30
0.0
 11
-602.127098986582
 21
-734.8450769532797
 31
0.0
  0
LINE
  5
C080
  8
0
  6
BYBLOCK
 10
-601.591200606582
 20
-736.8450769532797
 30
0.0
 11
-601.591200606582
 21
-734.8450769532797
 31
0.0
  0
LINE
  5
C081
  8
0
  6
BYBLOCK
 10
-602.127098986582
 20
-723.3450769532797
 30
0.0
 11
-601.591200606582
 21
-721.3450769532797
 31
0.0
  0
LINE
  5
C082
  8
0
  6
BYBLOCK
 10
-601.591200606582
 20
-721.3450769532797
 30
0.0
 11
-601.055302226582
 21
-723.3450769532797
 31
0.0
  0
LINE
  5
C083
  8
0
  6
BYBLOCK
 10
-601.591200606582
 20
-721.3450769532797
 30
0.0
 11
-601.591200606582
 21
-723.3450769532797
 31
0.0
  0
TEXT
  5
C084
  8
1HATCH
  6
CONTINUOUS
 10
-602.2912006065822
 20
-733.7738963977242
 30
0.0
 40
3.5
  1
15.5
 50
90.0
1001
ACAD
1000
DSTYLE
1002
{
1070
    40
1040
1.0
1002
}
  0
LINE
  5
C085
  8
0
  6
BYBLOCK
 10
-592.127098986582
 20
-721.3450769532797
 30
0.0
 11
-591.591200606582
 21
-719.3450769532797
 31
0.0
  0
LINE
  5
C086
  8
0
  6
BYBLOCK
 10
-591.591200606582
 20
-719.3450769532797
 30
0.0
 11
-591.055302226582
 21
-721.3450769532797
 31
0.0
  0
LINE
  5
C087
  8
0
  6
BYBLOCK
 10
-591.591200606582
 20
-719.3450769532797
 30
0.0
 11
-591.591200606582
 21
-721.3450769532797
 31
0.0
  0
LINE
  5
C088
  8
0
  6
BYBLOCK
 10
-591.055302226582
 20
-734.8450769532797
 30
0.0
 11
-591.591200606582
 21
-736.8450769532797
 31
0.0
  0
LINE
  5
C089
  8
0
  6
BYBLOCK
 10
-591.591200606582
 20
-736.8450769532797
 30
0.0
 11
-592.127098986582
 21
-734.8450769532797
 31
0.0
  0
LINE
  5
C08A
  8
0
  6
BYBLOCK
 10
-591.591200606582
 20
-736.8450769532797
 30
0.0
 11
-591.591200606582
 21
-734.8450769532797
 31
0.0
  0
TEXT
  5
C08B
  8
1HATCH
  6
CONTINUOUS
 10
-592.2912006065819
 20
-732.7617436199464
 30
0.0
 40
3.5
  1
17.5
 50
90.0
1001
ACAD
1000
DSTYLE
1002
{
1070
    40
1040
1.0
1002
}
  0
LINE
  5
C08C
  8
0
  6
BYBLOCK
 10
-692.1412616352768
 20
-708.7211225355494
 30
0.0
 11
-694.1412616352768
 21
-708.1852241555493
 31
0.0
  0
LINE
  5
C08D
  8
0
  6
BYBLOCK
 10
-694.1412616352768
 20
-708.1852241555493
 30
0.0
 11
-692.1412616352768
 21
-707.6493257755493
 31
0.0
  0
LINE
  5
C08E
  8
0
  6
BYBLOCK
 10
-694.1412616352768
 20
-708.1852241555493
 30
0.0
 11
-692.1412616352768
 21
-708.1852241555493
 31
0.0
  0
LINE
  5
C08F
  8
0
  6
BYBLOCK
 10
-616.1412616354282
 20
-707.6493257755493
 30
0.0
 11
-614.1412616354282
 21
-708.1852241555493
 31
0.0
  0
LINE
  5
C090
  8
0
  6
BYBLOCK
 10
-614.1412616354282
 20
-708.1852241555493
 30
0.0
 11
-616.1412616354282
 21
-708.7211225355494
 31
0.0
  0
LINE
  5
C091
  8
0
  6
BYBLOCK
 10
-614.1412616354282
 20
-708.1852241555493
 30
0.0
 11
-616.1412616354282
 21
-708.1852241555493
 31
0.0
  0
TEXT
  5
C092
  8
1HATCH
  6
CONTINUOUS
 10
-656.8391783020191
 20
-707.4852241555493
 30
0.0
 40
3.5
  1
80
1001
ACAD
1000
DSTYLE
1002
{
1070
    40
1040
1.0
1002
}
  0
LINE
  5
C093
  8
0
  6
BYBLOCK
 10
-594.6771600154283
 20
-645.1852241555495
 30
0.0
 11
-594.1412616354282
 21
-643.1852241555495
 31
0.0
  0
LINE
  5
C094
  8
0
  6
BYBLOCK
 10
-594.1412616354282
 20
-643.1852241555495
 30
0.0
 11
-593.6053632554282
 21
-645.1852241555495
 31
0.0
  0
LINE
  5
C095
  8
0
  6
BYBLOCK
 10
-594.1412616354282
 20
-643.1852241555495
 30
0.0
 11
-594.1412616354282
 21
-645.1852241555495
 31
0.0
  0
LINE
  5
C096
  8
0
  6
BYBLOCK
 10
-593.6053632554282
 20
-681.1852241555493
 30
0.0
 11
-594.1412616354282
 21
-683.1852241555493
 31
0.0
  0
LINE
  5
C097
  8
0
  6
BYBLOCK
 10
-594.1412616354282
 20
-683.1852241555493
 30
0.0
 11
-594.6771600154283
 21
-681.1852241555493
 31
0.0
  0
LINE
  5
C098
  8
0
  6
BYBLOCK
 10
-594.1412616354282
 20
-683.1852241555493
 30
0.0
 11
-594.1412616354282
 21
-681.1852241555493
 31
0.0
  0
TEXT
  5
C099
  8
1HATCH
  6
CONTINUOUS
 10
-594.8412616354283
 20
-665.8831408222162
 30
0.0
 40
3.5
  1
40
 50
90.0
1001
ACAD
1000
DSTYLE
1002
{
1070
    40
1040
1.0
1002
}
  0
LINE
  5
C09A
  8
0
  6
BYBLOCK
 10
-687.6412616417382
 20
-698.7211225355494
 30
0.0
 11
-689.6412616417382
 21
-698.1852241555493
 31
0.0
  0
LINE
  5
C09B
  8
0
  6
BYBLOCK
 10
-689.6412616417382
 20
-698.1852241555493
 30
0.0
 11
-687.6412616417382
 21
-697.6493257755493
 31
0.0
  0
LINE
  5
C09C
  8
0
  6
BYBLOCK
 10
-689.6412616417382
 20
-698.1852241555493
 30
0.0
 11
-687.6412616417382
 21
-698.1852241555493
 31
0.0
  0
LINE
  5
C09D
  8
0
  6
BYBLOCK
 10
-620.6412616417382
 20
-697.6493257755493
 30
0.0
 11
-618.6412616417382
 21
-698.1852241555493
 31
0.0
  0
LINE
  5
C09E
  8
0
  6
BYBLOCK
 10
-618.6412616417382
 20
-698.1852241555493
 30
0.0
 11
-620.6412616417382
 21
-698.7211225355494
 31
0.0
  0
LINE
  5
C09F
  8
0
  6
BYBLOCK
 10
-618.6412616417382
 20
-698.1852241555493
 30
0.0
 11
-620.6412616417382
 21
-698.1852241555493
 31
0.0
  0
TEXT
  5
C0A0
  8
1HATCH
  6
CONTINUOUS
 10
-656.4745949750716
 20
-697.4852241555493
 30
0.0
 40
3.5
  1
71
1001
ACAD
1000
DSTYLE
1002
{
1070
    40
1040
1.0
1002
}
  0
LINE
  5
C0A1
  8
0
  6
BYBLOCK
 10
-602.1271600217383
 20
-660.1852241555484
 30
0.0
 11
-601.5912616417382
 21
-658.1852241555484
 31
0.0
  0
LINE
  5
C0A2
  8
0
  6
BYBLOCK
 10
-601.5912616417382
 20
-658.1852241555484
 30
0.0
 11
-601.0553632617382
 21
-660.1852241555484
 31
0.0
  0
LINE
  5
C0A3
  8
0
  6
BYBLOCK
 10
-601.5912616417382
 20
-658.1852241555484
 30
0.0
 11
-601.5912616417382
 21
-660.1852241555484
 31
0.0
  0
LINE
  5
C0A4
  8
0
  6
BYBLOCK
 10
-601.0553632617382
 20
-676.6852247893645
 30
0.0
 11
-601.5912616417382
 21
-678.6852247893645
 31
0.0
  0
LINE
  5
C0A5
  8
0
  6
BYBLOCK
 10
-601.5912616417382
 20
-678.6852247893645
 30
0.0
 11
-602.1271600217383
 21
-676.6852247893645
 31
0.0
  0
LINE
  5
C0A6
  8
0
  6
BYBLOCK
 10
-601.5912616417382
 20
-678.6852247893645
 30
0.0
 11
-601.5912616417382
 21
-676.6852247893645
 31
0.0
  0
TEXT
  5
C0A7
  8
1HATCH
  6
CONTINUOUS
 10
-602.2912616417382
 20
-673.3935578057899
 30
0.0
 40
3.5
  1
20.5
 50
90.0
1001
ACAD
1000
DSTYLE
1002
{
1070
    40
1040
1.0
1002
}
  0
LINE
  5
C0A8
  8
0
  6
BYBLOCK
 10
-592.1271600217382
 20
-766.0426705169808
 30
0.0
 11
-591.5912616417381
 21
-764.0426705169808
 31
0.0
  0
LINE
  5
C0A9
  8
0
  6
BYBLOCK
 10
-591.5912616417381
 20
-764.0426705169808
 30
0.0
 11
-591.0553632617381
 21
-766.0426705169808
 31
0.0
  0
LINE
  5
C0AA
  8
0
  6
BYBLOCK
 10
-591.5912616417381
 20
-764.0426705169808
 30
0.0
 11
-591.5912616417381
 21
-766.0426705169808
 31
0.0
  0
LINE
  5
C0AB
  8
0
  6
BYBLOCK
 10
-591.0553632617382
 20
-797.042670418629
 30
0.0
 11
-591.5912616417382
 21
-799.042670418629
 31
0.0
  0
LINE
  5
C0AC
  8
0
  6
BYBLOCK
 10
-591.5912616417382
 20
-799.042670418629
 30
0.0
 11
-592.1271600217383
 21
-797.042670418629
 31
0.0
  0
LINE
  5
C0AD
  8
0
  6
BYBLOCK
 10
-591.5912616417382
 20
-799.042670418629
 30
0.0
 11
-591.5912616417382
 21
-797.042670418629
 31
0.0
  0
TEXT
  5
C0AE
  8
1HATCH
  6
CONTINUOUS
 10
-592.2912616417381
 20
-784.4593371344716
 30
0.0
 40
3.5
  1
35
 50
90.0
1001
ACAD
1000
DSTYLE
1002
{
1070
    40
1040
1.0
1002
}
  0
LINE
  5
C0AF
  8
0
  6
BYBLOCK
 10
-599.6771600217382
 20
-792.0426704185385
 30
0.0
 11
-599.1412616417382
 21
-790.0426704185385
 31
0.0
  0
LINE
  5
C0B0
  8
0
  6
BYBLOCK
 10
-599.1412616417382
 20
-790.0426704185385
 30
0.0
 11
-598.6053632617381
 21
-792.0426704185385
 31
0.0
  0
LINE
  5
C0B1
  8
0
  6
BYBLOCK
 10
-599.1412616417382
 20
-790.0426704185385
 30
0.0
 11
-599.1412616417382
 21
-792.0426704185385
 31
0.0
  0
LINE
  5
C0B2
  8
0
  6
BYBLOCK
 10
-598.6053632617381
 20
-797.042670418629
 30
0.0
 11
-599.1412616417382
 21
-799.042670418629
 31
0.0
  0
LINE
  5
C0B3
  8
0
  6
BYBLOCK
 10
-599.1412616417382
 20
-799.042670418629
 30
0.0
 11
-599.6771600217382
 21
-797.042670418629
 31
0.0
  0
LINE
  5
C0B4
  8
0
  6
BYBLOCK
 10
-599.1412616417382
 20
-799.042670418629
 30
0.0
 11
-599.1412616417382
 21
-797.042670418629
 31
0.0
  0
TEXT
  5
C0B5
  8
1HATCH
  6
CONTINUOUS
 10
-599.8412616417381
 20
-795.7109574556208
 30
0.0
 40
3.5
  1
9
 50
90.0
1001
ACAD
1000
DSTYLE
1002
{
1070
    40
1040
1.0
1002
}
  0
LINE
  5
C0B6
  8
0
  6
BYBLOCK
 10
-689.6412616417058
 20
-817.0785682303809
 30
0.0
 11
-691.6412616417058
 21
-816.5426698503809
 31
0.0
  0
LINE
  5
C0B7
  8
0
  6
BYBLOCK
 10
-691.6412616417058
 20
-816.5426698503809
 30
0.0
 11
-689.6412616417058
 21
-816.0067714703808
 31
0.0
  0
LINE
  5
C0B8
  8
0
  6
BYBLOCK
 10
-691.6412616417058
 20
-816.5426698503809
 30
0.0
 11
-689.6412616417058
 21
-816.5426698503809
 31
0.0
  0
LINE
  5
C0B9
  8
0
  6
BYBLOCK
 10
-618.6412616417189
 20
-816.0067714703808
 30
0.0
 11
-616.6412616417189
 21
-816.5426698503809
 31
0.0
  0
LINE
  5
C0BA
  8
0
  6
BYBLOCK
 10
-616.6412616417189
 20
-816.5426698503809
 30
0.0
 11
-618.6412616417189
 21
-817.0785682303809
 31
0.0
  0
LINE
  5
C0BB
  8
0
  6
BYBLOCK
 10
-616.6412616417189
 20
-816.5426698503809
 30
0.0
 11
-618.6412616417189
 21
-816.5426698503809
 31
0.0
  0
TEXT
  5
C0BC
  8
1DIM
  6
CONTINUOUS
 10
-657.0579283083789
 20
-815.842669850381
 30
0.0
 40
3.5
  1
75
1001
ACAD
1000
DSTYLE
1002
{
1070
    40
1040
1.0
1002
}
  0
LINE
  5
C0BD
  8
0
  6
BYBLOCK
 10
-419.6063722863703
 20
-664.8917015924542
 30
0.0
 11
-420.1422706663703
 21
-666.8917015924542
 31
0.0
  0
LINE
  5
C0BE
  8
0
  6
BYBLOCK
 10
-420.1422706663703
 20
-666.8917015924542
 30
0.0
 11
-420.6781690463703
 21
-664.8917015924542
 31
0.0
  0
LINE
  5
C0BF
  8
0
  6
BYBLOCK
 10
-420.1422706663703
 20
-666.8917015924542
 30
0.0
 11
-420.1422706663703
 21
-664.8917015924542
 31
0.0
  0
LINE
  5
C0C0
  8
0
  6
BYBLOCK
 10
-420.6781690463702
 20
-633.8917015924542
 30
0.0
 11
-420.1422706663702
 21
-631.8917015924542
 31
0.0
  0
LINE
  5
C0C1
  8
0
  6
BYBLOCK
 10
-420.1422706663702
 20
-631.8917015924542
 30
0.0
 11
-419.6063722863702
 21
-633.8917015924542
 31
0.0
  0
LINE
  5
C0C2
  8
0
  6
BYBLOCK
 10
-420.1422706663702
 20
-631.8917015924542
 30
0.0
 11
-420.1422706663702
 21
-633.8917015924542
 31
0.0
  0
TEXT
  5
C0C3
  8
1HATCH
  6
CONTINUOUS
 10
-420.84227066637
 20
-652.3083682591209
 30
0.0
 40
3.5
  1
35
 50
90.0
1001
ACAD
1000
DSTYLE
1002
{
1070
    40
1040
1.0
1002
}
  0
LINE
  5
C0C4
  8
0
  6
BYBLOCK
 10
-443.711675498952
 20
-675.870023587236
 30
0.0
 11
-441.711675498952
 21
-676.405921967236
 31
0.0
  0
LINE
  5
C0C5
  8
0
  6
BYBLOCK
 10
-441.711675498952
 20
-676.405921967236
 30
0.0
 11
-443.711675498952
 21
-676.9418203472361
 31
0.0
  0
LINE
  5
C0C6
  8
0
  6
BYBLOCK
 10
-441.711675498952
 20
-676.405921967236
 30
0.0
 11
-443.711675498952
 21
-676.405921967236
 31
0.0
  0
LINE
  5
C0C7
  8
0
  6
BYBLOCK
 10
-514.711675498952
 20
-676.9418203472361
 30
0.0
 11
-516.711675498952
 21
-676.405921967236
 31
0.0
  0
LINE
  5
C0C8
  8
0
  6
BYBLOCK
 10
-516.711675498952
 20
-676.405921967236
 30
0.0
 11
-514.711675498952
 21
-675.870023587236
 31
0.0
  0
LINE
  5
C0C9
  8
0
  6
BYBLOCK
 10
-516.711675498952
 20
-676.405921967236
 30
0.0
 11
-514.711675498952
 21
-676.405921967236
 31
0.0
  0
TEXT
  5
C0CA
  8
1HATCH
  6
CONTINUOUS
 10
-482.1283421656187
 20
-675.7059219672361
 30
0.0
 40
3.5
  1
75
1001
ACAD
1000
DSTYLE
1002
{
1070
    40
1040
1.0
1002
}
  0
LINE
  5
C0CB
  8
0
  6
BYBLOCK
 10
-420.6781690463703
 20
-684.1807615632331
 30
0.0
 11
-420.1422706663703
 21
-682.1807615632331
 31
0.0
  0
LINE
  5
C0CC
  8
0
  6
BYBLOCK
 10
-420.1422706663703
 20
-682.1807615632331
 30
0.0
 11
-419.6063722863703
 21
-684.1807615632331
 31
0.0
  0
LINE
  5
C0CD
  8
0
  6
BYBLOCK
 10
-420.1422706663703
 20
-682.1807615632331
 30
0.0
 11
-420.1422706663703
 21
-684.1807615632331
 31
0.0
  0
LINE
  5
C0CE
  8
0
  6
BYBLOCK
 10
-419.6063722863703
 20
-696.1807615632331
 30
0.0
 11
-420.1422706663703
 21
-698.1807615632331
 31
0.0
  0
LINE
  5
C0CF
  8
0
  6
BYBLOCK
 10
-420.1422706663703
 20
-698.1807615632331
 30
0.0
 11
-420.6781690463703
 21
-696.1807615632331
 31
0.0
  0
LINE
  5
C0D0
  8
0
  6
BYBLOCK
 10
-420.1422706663703
 20
-698.1807615632331
 30
0.0
 11
-420.1422706663703
 21
-696.1807615632331
 31
0.0
  0
TEXT
  5
C0D1
  8
1HATCH
  6
CONTINUOUS
 10
-420.8422706663703
 20
-692.5140948965663
 30
0.0
 40
3.5
  1
16
 50
90.0
1001
ACAD
1000
DSTYLE
1002
{
1070
    40
1040
1.0
1002
}
  0
LINE
  5
C0D2
  8
0
  6
BYBLOCK
 10
-689.6412616417058
 20
-817.0785682303809
 30
0.0
 11
-691.6412616417058
 21
-816.5426698503809
 31
0.0
  0
LINE
  5
C0D3
  8
0
  6
BYBLOCK
 10
-691.6412616417058
 20
-816.5426698503809
 30
0.0
 11
-689.6412616417058
 21
-816.0067714703808
 31
0.0
  0
LINE
  5
C0D4
  8
0
  6
BYBLOCK
 10
-691.6412616417058
 20
-816.5426698503809
 30
0.0
 11
-689.6412616417058
 21
-816.5426698503809
 31
0.0
  0
LINE
  5
C0D5
  8
0
  6
BYBLOCK
 10
-696.1412616417382
 20
-816.0067714703808
 30
0.0
 11
-694.1412616417382
 21
-816.5426698503809
 31
0.0
  0
LINE
  5
C0D6
  8
0
  6
BYBLOCK
 10
-694.1412616417382
 20
-816.5426698503809
 30
0.0
 11
-696.1412616417382
 21
-817.0785682303809
 31
0.0
  0
LINE
  5
C0D7
  8
0
  6
BYBLOCK
 10
-694.1412616417382
 20
-816.5426698503809
 30
0.0
 11
-696.1412616417382
 21
-816.5426698503809
 31
0.0
  0
TEXT
  5
C0D8
  8
1DIM
  6
CONTINUOUS
 10
-706.0079283084049
 20
-815.842669850381
 30
0.0
 40
3.5
  1
2.5
1001
ACAD
1000
DSTYLE
1002
{
1070
    40
1040
1.0
1002
}
  0
LINE
  5
C0D9
  8
0
  6
BYBLOCK
 10
-618.6412616417189
 20
-816.0067714703808
 30
0.0
 11
-616.6412616417189
 21
-816.5426698503809
 31
0.0
  0
LINE
  5
C0DA
  8
0
  6
BYBLOCK
 10
-616.6412616417189
 20
-816.5426698503809
 30
0.0
 11
-618.6412616417189
 21
-817.0785682303809
 31
0.0
  0
LINE
  5
C0DB
  8
0
  6
BYBLOCK
 10
-616.6412616417189
 20
-816.5426698503809
 30
0.0
 11
-618.6412616417189
 21
-816.5426698503809
 31
0.0
  0
LINE
  5
C0DC
  8
0
  6
BYBLOCK
 10
-612.1412616417382
 20
-817.0785682303809
 30
0.0
 11
-614.1412616417382
 21
-816.5426698503809
 31
0.0
  0
LINE
  5
C0DD
  8
0
  6
BYBLOCK
 10
-614.1412616417382
 20
-816.5426698503809
 30
0.0
 11
-612.1412616417382
 21
-816.0067714703808
 31
0.0
  0
LINE
  5
C0DE
  8
0
  6
BYBLOCK
 10
-614.1412616417382
 20
-816.5426698503809
 30
0.0
 11
-612.1412616417382
 21
-816.5426698503809
 31
0.0
  0
TEXT
  5
C0DF
  8
1DIM
  6
CONTINUOUS
 10
-609.2745949750715
 20
-815.842669850381
 30
0.0
 40
3.5
  1
2.5
1001
ACAD
1000
DSTYLE
1002
{
1070
    40
1040
1.0
1002
}
  0
LINE
  5
C0E0
  8
0
  6
BYBLOCK
 10
-686.1412616417698
 20
-749.6285682303811
 30
0.0
 11
-688.1412616417698
 21
-749.0926698503811
 31
0.0
  0
LINE
  5
C0E1
  8
0
  6
BYBLOCK
 10
-688.1412616417698
 20
-749.0926698503811
 30
0.0
 11
-686.1412616417698
 21
-748.556771470381
 31
0.0
  0
LINE
  5
C0E2
  8
0
  6
BYBLOCK
 10
-688.1412616417698
 20
-749.0926698503811
 30
0.0
 11
-686.1412616417698
 21
-749.0926698503811
 31
0.0
  0
LINE
  5
C0E3
  8
0
  6
BYBLOCK
 10
-622.141261641768
 20
-748.556771470381
 30
0.0
 11
-620.141261641768
 21
-749.0926698503811
 31
0.0
  0
LINE
  5
C0E4
  8
0
  6
BYBLOCK
 10
-620.141261641768
 20
-749.0926698503811
 30
0.0
 11
-622.141261641768
 21
-749.6285682303811
 31
0.0
  0
LINE
  5
C0E5
  8
0
  6
BYBLOCK
 10
-620.141261641768
 20
-749.0926698503811
 30
0.0
 11
-622.141261641768
 21
-749.0926698503811
 31
0.0
  0
TEXT
  5
C0E6
  8
1DIM
  6
CONTINUOUS
 10
-658.8200810862133
 20
-748.392669850381
 30
0.0
 40
3.5
  1
P68
1001
ACAD
1000
DSTYLE
1002
{
1070
    40
1040
1.0
1002
}
  0
LINE
  5
C0E7
  8
0
  6
BYBLOCK
 10
-690.1412616417698
 20
-748.556771470381
 30
0.0
 11
-688.1412616417698
 21
-749.0926698503811
 31
0.0
  0
LINE
  5
C0E8
  8
0
  6
BYBLOCK
 10
-688.1412616417698
 20
-749.0926698503811
 30
0.0
 11
-690.1412616417698
 21
-749.6285682303811
 31
0.0
  0
LINE
  5
C0E9
  8
0
  6
BYBLOCK
 10
-688.1412616417698
 20
-749.0926698503811
 30
0.0
 11
-690.1412616417698
 21
-749.0926698503811
 31
0.0
  0
LINE
  5
C0EA
  8
0
  6
BYBLOCK
 10
-692.1412616417504
 20
-749.6285682303811
 30
0.0
 11
-694.1412616417504
 21
-749.0926698503811
 31
0.0
  0
LINE
  5
C0EB
  8
0
  6
BYBLOCK
 10
-694.1412616417504
 20
-749.0926698503811
 30
0.0
 11
-692.1412616417504
 21
-748.556771470381
 31
0.0
  0
LINE
  5
C0EC
  8
0
  6
BYBLOCK
 10
-694.1412616417504
 20
-749.0926698503811
 30
0.0
 11
-692.1412616417504
 21
-749.0926698503811
 31
0.0
  0
TEXT
  5
C0ED
  8
1DIM
  6
CONTINUOUS
 10
-692.3079283084268
 20
-748.392669850381
 30
0.0
 40
3.5
  1
6
1001
ACAD
1000
DSTYLE
1002
{
1070
    40
1040
1.0
1002
}
  0
LINE
  5
C0EE
  8
0
  6
BYBLOCK
 10
-618.141261641768
 20
-749.6285682303811
 30
0.0
 11
-620.141261641768
 21
-749.0926698503811
 31
0.0
  0
LINE
  5
C0EF
  8
0
  6
BYBLOCK
 10
-620.141261641768
 20
-749.0926698503811
 30
0.0
 11
-618.141261641768
 21
-748.556771470381
 31
0.0
  0
LINE
  5
C0F0
  8
0
  6
BYBLOCK
 10
-620.141261641768
 20
-749.0926698503811
 30
0.0
 11
-618.141261641768
 21
-749.0926698503811
 31
0.0
  0
LINE
  5
C0F1
  8
0
  6
BYBLOCK
 10
-616.1412616418286
 20
-748.556771470381
 30
0.0
 11
-614.1412616418286
 21
-749.0926698503811
 31
0.0
  0
LINE
  5
C0F2
  8
0
  6
BYBLOCK
 10
-614.1412616418286
 20
-749.0926698503811
 30
0.0
 11
-616.1412616418286
 21
-749.6285682303811
 31
0.0
  0
LINE
  5
C0F3
  8
0
  6
BYBLOCK
 10
-614.1412616418286
 20
-749.0926698503811
 30
0.0
 11
-616.1412616418286
 21
-749.0926698503811
 31
0.0
  0
TEXT
  5
C0F4
  8
1DIM
  6
CONTINUOUS
 10
-618.307928308465
 20
-748.392669850381
 30
0.0
 40
3.5
  1
6
1001
ACAD
1000
DSTYLE
1002
{
1070
    40
1040
1.0
1002
}
  0
LINE
  5
C0F5
  8
0
  6
BYBLOCK
 10
-523.2818570273025
 20
-808.6385318378186
 30
0.0
 11
-525.2818570273025
 21
-808.1026334578186
 31
0.0
  0
LINE
  5
C0F6
  8
0
  6
BYBLOCK
 10
-525.2818570273025
 20
-808.1026334578186
 30
0.0
 11
-523.2818570273025
 21
-807.5667350778185
 31
0.0
  0
LINE
  5
C0F7
  8
0
  6
BYBLOCK
 10
-525.2818570273025
 20
-808.1026334578186
 30
0.0
 11
-523.2818570273025
 21
-808.1026334578186
 31
0.0
  0
LINE
  5
C0F8
  8
0
  6
BYBLOCK
 10
-511.2818570273025
 20
-807.5667350778185
 30
0.0
 11
-509.2818570273025
 21
-808.1026334578186
 31
0.0
  0
LINE
  5
C0F9
  8
0
  6
BYBLOCK
 10
-509.2818570273025
 20
-808.1026334578186
 30
0.0
 11
-511.2818570273025
 21
-808.6385318378186
 31
0.0
  0
LINE
  5
C0FA
  8
0
  6
BYBLOCK
 10
-509.2818570273025
 20
-808.1026334578186
 30
0.0
 11
-511.2818570273025
 21
-808.1026334578186
 31
0.0
  0
TEXT
  5
C0FB
  8
1DIM
  6
CONTINUOUS
 10
-492.9640314007024
 20
-807.4026334578185
 30
0.0
 40
3.5
  1
16 （切欠深さ）
1001
ACAD
1000
DSTYLE
1002
{
1070
    40
1040
1.0
1002
}
  0
LINE
  5
C0FC
  8
0
  6
BYBLOCK
 10
-410.3942982452524
 20
-794.3166982689434
 30
0.0
 11
-408.3942982452524
 21
-794.8525966489434
 31
0.0
  0
LINE
  5
C0FD
  8
0
  6
BYBLOCK
 10
-408.3942982452524
 20
-794.8525966489434
 30
0.0
 11
-410.3942982452524
 21
-795.3884950289435
 31
0.0
  0
LINE
  5
C0FE
  8
0
  6
BYBLOCK
 10
-408.3942982452524
 20
-794.8525966489434
 30
0.0
 11
-410.3942982452524
 21
-794.8525966489434
 31
0.0
  0
LINE
  5
C0FF
  8
0
  6
BYBLOCK
 10
-404.8942982452523
 20
-795.3884950289435
 30
0.0
 11
-406.8942982452523
 21
-794.8525966489434
 31
0.0
  0
LINE
  5
C100
  8
0
  6
BYBLOCK
 10
-406.8942982452523
 20
-794.8525966489434
 30
0.0
 11
-404.8942982452523
 21
-794.3166982689434
 31
0.0
  0
LINE
  5
C101
  8
0
  6
BYBLOCK
 10
-406.8942982452523
 20
-794.8525966489434
 30
0.0
 11
-404.8942982452523
 21
-794.8525966489434
 31
0.0
  0
TEXT
  5
C102
  8
1DIM
  6
CONTINUOUS
 10
-401.6942982452523
 20
-794.1525966489435
 30
0.0
 40
3.5
  1
1.5
1001
ACAD
1000
DSTYLE
1002
{
1070
    40
1040
1.0
1002
}
  0
LINE
  5
C103
  8
0
  6
BYBLOCK
 10
-510.2779911113349
 20
-644.0131088051605
 30
0.0
 11
-511.4777461827084
 21
-642.3255736670375
 31
0.0
  0
LINE
  5
C104
  8
0
  6
BYBLOCK
 10
-511.4777461827084
 20
-642.3255736670375
 30
0.0
 11
-509.5949602474267
 21
-643.1871444392855
 31
0.0
  0
LINE
  5
C105
  8
0
  6
BYBLOCK
 10
-511.4777461827084
 20
-642.3255736670375
 30
0.0
 11
-509.9364756793808
 21
-643.600126622223
 31
0.0
  0
LINE
  5
C106
  8
0
  6
BYBLOCK
 10
-516.1453598865692
 20
-637.7702943797469
 30
0.0
 11
-514.9456048151956
 21
-639.45782951787
 31
0.0
  0
LINE
  5
C107
  8
0
  6
BYBLOCK
 10
-514.9456048151956
 20
-639.45782951787
 30
0.0
 11
-516.8283907504773
 21
-638.596258745622
 31
0.0
  0
LINE
  5
C108
  8
0
  6
BYBLOCK
 10
-514.9456048151956
 20
-639.45782951787
 30
0.0
 11
-516.4868753185232
 21
-638.1832765626845
 31
0.0
  0
TEXT
  5
C109
  8
1DIM
  6
CONTINUOUS
 10
-543.8613576108733
 20
-614.637619117065
 30
0.0
 40
3.5
  1
2-\U+22054.5貫通
 50
320.4109682148936
1001
ACAD
1000
DSTYLE
1002
{
1070
     3
1000
%%c<>貫通
1070
    40
1040
1.0
1002
}
  0
LINE
  5
C10A
  8
0
  6
BYBLOCK
 10
-511.211675498952
 20
-620.126365233943
 30
0.0
 11
-513.211675498952
 21
-619.590466853943
 31
0.0
  0
LINE
  5
C10B
  8
0
  6
BYBLOCK
 10
-513.211675498952
 20
-619.590466853943
 30
0.0
 11
-511.211675498952
 21
-619.0545684739429
 31
0.0
  0
LINE
  5
C10C
  8
0
  6
BYBLOCK
 10
-513.211675498952
 20
-619.590466853943
 30
0.0
 11
-511.211675498952
 21
-619.590466853943
 31
0.0
  0
LINE
  5
C10D
  8
0
  6
BYBLOCK
 10
-447.211675498952
 20
-619.0545684739429
 30
0.0
 11
-445.211675498952
 21
-619.590466853943
 31
0.0
  0
LINE
  5
C10E
  8
0
  6
BYBLOCK
 10
-445.211675498952
 20
-619.590466853943
 30
0.0
 11
-447.211675498952
 21
-620.126365233943
 31
0.0
  0
LINE
  5
C10F
  8
0
  6
BYBLOCK
 10
-445.211675498952
 20
-619.590466853943
 30
0.0
 11
-447.211675498952
 21
-619.590466853943
 31
0.0
  0
TEXT
  5
C110
  8
1DIM
  6
CONTINUOUS
 10
-483.8904949433964
 20
-618.8904668539429
 30
0.0
 40
3.5
  1
P68
1001
ACAD
1000
DSTYLE
1002
{
1070
    40
1040
1.0
1002
}
  0
LINE
  5
C111
  8
0
  6
BYBLOCK
 10
-431.9925647760858
 20
-638.8917015924542
 30
0.0
 11
-432.5284631560858
 21
-640.8917015924542
 31
0.0
  0
LINE
  5
C112
  8
0
  6
BYBLOCK
 10
-432.5284631560858
 20
-640.8917015924542
 30
0.0
 11
-433.0643615360858
 21
-638.8917015924542
 31
0.0
  0
LINE
  5
C113
  8
0
  6
BYBLOCK
 10
-432.5284631560858
 20
-640.8917015924542
 30
0.0
 11
-432.5284631560858
 21
-638.8917015924542
 31
0.0
  0
LINE
  5
C114
  8
0
  6
BYBLOCK
 10
-433.0643615360858
 20
-633.8917015924542
 30
0.0
 11
-432.5284631560858
 21
-631.8917015924542
 31
0.0
  0
LINE
  5
C115
  8
0
  6
BYBLOCK
 10
-432.5284631560858
 20
-631.8917015924542
 30
0.0
 11
-431.9925647760858
 21
-633.8917015924542
 31
0.0
  0
LINE
  5
C116
  8
0
  6
BYBLOCK
 10
-432.5284631560858
 20
-631.8917015924542
 30
0.0
 11
-432.5284631560858
 21
-633.8917015924542
 31
0.0
  0
TEXT
  5
C117
  8
1DIM
  6
CONTINUOUS
 10
-433.2284631560857
 20
-637.5599886294913
 30
0.0
 40
3.5
  1
9
 50
90.0
1001
ACAD
1000
DSTYLE
1002
{
1070
    40
1040
1.0
1002
}
  0
LINE
  5
C118
  8
0
  6
BYBLOCK
 10
-592.1271600217382
 20
-766.0426705169808
 30
0.0
 11
-591.5912616417381
 21
-764.0426705169808
 31
0.0
  0
LINE
  5
C119
  8
0
  6
BYBLOCK
 10
-591.5912616417381
 20
-764.0426705169808
 30
0.0
 11
-591.0553632617381
 21
-766.0426705169808
 31
0.0
  0
LINE
  5
C11A
  8
0
  6
BYBLOCK
 10
-591.5912616417381
 20
-764.0426705169808
 30
0.0
 11
-591.5912616417381
 21
-766.0426705169808
 31
0.0
  0
LINE
  5
C11B
  8
0
  6
BYBLOCK
 10
-591.0553632617381
 20
-759.5426698503811
 30
0.0
 11
-591.5912616417381
 21
-761.5426698503811
 31
0.0
  0
LINE
  5
C11C
  8
0
  6
BYBLOCK
 10
-591.5912616417381
 20
-761.5426698503811
 30
0.0
 11
-592.1271600217382
 21
-759.5426698503811
 31
0.0
  0
LINE
  5
C11D
  8
0
  6
BYBLOCK
 10
-591.5912616417381
 20
-761.5426698503811
 30
0.0
 11
-591.5912616417381
 21
-759.5426698503811
 31
0.0
  0
TEXT
  5
C11E
  8
1DIM
  6
CONTINUOUS
 10
-592.2912616417381
 20
-756.6760031837146
 30
0.0
 40
3.5
  1
2.5
 50
90.0
1001
ACAD
1000
DSTYLE
1002
{
1070
    40
1040
1.0
1002
}
  0
LINE
  5
C11F
  8
0
  6
BYBLOCK
 10
-591.0553632617382
 20
-797.042670418629
 30
0.0
 11
-591.5912616417382
 21
-799.042670418629
 31
0.0
  0
LINE
  5
C120
  8
0
  6
BYBLOCK
 10
-591.5912616417382
 20
-799.042670418629
 30
0.0
 11
-592.1271600217383
 21
-797.042670418629
 31
0.0
  0
LINE
  5
C121
  8
0
  6
BYBLOCK
 10
-591.5912616417382
 20
-799.042670418629
 30
0.0
 11
-591.5912616417382
 21
-797.042670418629
 31
0.0
  0
LINE
  5
C122
  8
0
  6
BYBLOCK
 10
-592.1271600217383
 20
-803.5426698503642
 30
0.0
 11
-591.5912616417382
 21
-801.5426698503642
 31
0.0
  0
LINE
  5
C123
  8
0
  6
BYBLOCK
 10
-591.5912616417382
 20
-801.5426698503642
 30
0.0
 11
-591.0553632617382
 21
-803.5426698503642
 31
0.0
  0
LINE
  5
C124
  8
0
  6
BYBLOCK
 10
-591.5912616417382
 20
-801.5426698503642
 30
0.0
 11
-591.5912616417382
 21
-803.5426698503642
 31
0.0
  0
TEXT
  5
C125
  8
1DIM
  6
CONTINUOUS
 10
-592.291261641738
 20
-819.5223566875073
 30
0.0
 40
3.5
  1
2.5
 50
90.0
1001
ACAD
1000
DSTYLE
1002
{
1070
    40
1040
1.0
1002
}
  0
LINE
  5
C126
  8
0
  6
BYBLOCK
 10
-601.0553632617382
 20
-656.1852247893629
 30
0.0
 11
-601.5912616417382
 21
-658.1852247893629
 31
0.0
  0
LINE
  5
C127
  8
0
  6
BYBLOCK
 10
-601.5912616417382
 20
-658.1852247893629
 30
0.0
 11
-602.1271600217383
 21
-656.1852247893629
 31
0.0
  0
LINE
  5
C128
  8
0
  6
BYBLOCK
 10
-601.5912616417382
 20
-658.1852247893629
 30
0.0
 11
-601.5912616417382
 21
-656.1852247893629
 31
0.0
  0
LINE
  5
C129
  8
0
  6
BYBLOCK
 10
-602.1271600217383
 20
-645.1852241555495
 30
0.0
 11
-601.5912616417382
 21
-643.1852241555495
 31
0.0
  0
LINE
  5
C12A
  8
0
  6
BYBLOCK
 10
-601.5912616417382
 20
-643.1852241555495
 30
0.0
 11
-601.0553632617382
 21
-645.1852241555495
 31
0.0
  0
LINE
  5
C12B
  8
0
  6
BYBLOCK
 10
-601.5912616417382
 20
-643.1852241555495
 30
0.0
 11
-601.5912616417382
 21
-645.1852241555495
 31
0.0
  0
TEXT
  5
C12C
  8
1DIM
  6
CONTINUOUS
 10
-602.291261641738
 20
-653.0185578057897
 30
0.0
 40
3.5
  1
15
 50
90.0
1001
ACAD
1000
DSTYLE
1002
{
1070
    40
1040
1.0
1002
}
  0
LINE
  5
C12D
  8
0
  6
BYBLOCK
 10
-602.127098986582
 20
-723.3450769532797
 30
0.0
 11
-601.591200606582
 21
-721.3450769532797
 31
0.0
  0
LINE
  5
C12E
  8
0
  6
BYBLOCK
 10
-601.591200606582
 20
-721.3450769532797
 30
0.0
 11
-601.055302226582
 21
-723.3450769532797
 31
0.0
  0
LINE
  5
C12F
  8
0
  6
BYBLOCK
 10
-601.591200606582
 20
-721.3450769532797
 30
0.0
 11
-601.591200606582
 21
-723.3450769532797
 31
0.0
  0
LINE
  5
C130
  8
0
  6
BYBLOCK
 10
-601.055302226582
 20
-717.3450769532797
 30
0.0
 11
-601.591200606582
 21
-719.3450769532797
 31
0.0
  0
LINE
  5
C131
  8
0
  6
BYBLOCK
 10
-601.591200606582
 20
-719.3450769532797
 30
0.0
 11
-602.127098986582
 21
-717.3450769532797
 31
0.0
  0
LINE
  5
C132
  8
0
  6
BYBLOCK
 10
-601.591200606582
 20
-719.3450769532797
 30
0.0
 11
-601.591200606582
 21
-717.3450769532797
 31
0.0
  0
TEXT
  5
C133
  8
1DIM
  6
CONTINUOUS
 10
-602.2912006065819
 20
-714.6450769532797
 30
0.0
 40
3.5
  1
2
 50
90.0
1001
ACAD
1000
DSTYLE
1002
{
1070
    40
1040
1.0
1002
}
  0
LINE
  5
C134
  8
0
  6
BYBLOCK
 10
-523.2818570273025
 20
-720.5005951691413
 30
0.0
 11
-525.2818570273025
 21
-719.9646967891413
 31
0.0
  0
LINE
  5
C135
  8
0
  6
BYBLOCK
 10
-525.2818570273025
 20
-719.9646967891413
 30
0.0
 11
-523.2818570273025
 21
-719.4287984091412
 31
0.0
  0
LINE
  5
C136
  8
0
  6
BYBLOCK
 10
-525.2818570273025
 20
-719.9646967891413
 30
0.0
 11
-523.2818570273025
 21
-719.9646967891413
 31
0.0
  0
LINE
  5
C137
  8
0
  6
BYBLOCK
 10
-506.2818570273025
 20
-719.4287984091412
 30
0.0
 11
-504.2818570273025
 21
-719.9646967891413
 31
0.0
  0
LINE
  5
C138
  8
0
  6
BYBLOCK
 10
-504.2818570273025
 20
-719.9646967891413
 30
0.0
 11
-506.2818570273025
 21
-720.5005951691413
 31
0.0
  0
LINE
  5
C139
  8
0
  6
BYBLOCK
 10
-504.2818570273025
 20
-719.9646967891413
 30
0.0
 11
-506.2818570273025
 21
-719.9646967891413
 31
0.0
  0
TEXT
  5
C13A
  8
1HATCH
  6
CONTINUOUS
 10
-498.0818570273025
 20
-719.2646967891412
 30
0.0
 40
3.5
  1
板厚21mm～23mm
1001
ACAD
1000
DSTYLE
1002
{
1070
    40
1040
1.0
1002
}
  0
LINE
  5
C13B
  8
0
  6
BYBLOCK
 10
-523.2818570273025
 20
-808.6385318378186
 30
0.0
 11
-525.2818570273025
 21
-808.1026334578186
 31
0.0
  0
LINE
  5
C13C
  8
0
  6
BYBLOCK
 10
-525.2818570273025
 20
-808.1026334578186
 30
0.0
 11
-523.2818570273025
 21
-807.5667350778185
 31
0.0
  0
LINE
  5
C13D
  8
0
  6
BYBLOCK
 10
-525.2818570273025
 20
-808.1026334578186
 30
0.0
 11
-523.2818570273025
 21
-808.1026334578186
 31
0.0
  0
LINE
  5
C13E
  8
0
  6
BYBLOCK
 10
-529.2818570273025
 20
-807.5667350778185
 30
0.0
 11
-527.2818570273025
 21
-808.1026334578186
 31
0.0
  0
LINE
  5
C13F
  8
0
  6
BYBLOCK
 10
-527.2818570273025
 20
-808.1026334578186
 30
0.0
 11
-529.2818570273025
 21
-808.6385318378186
 31
0.0
  0
LINE
  5
C140
  8
0
  6
BYBLOCK
 10
-527.2818570273025
 20
-808.1026334578186
 30
0.0
 11
-529.2818570273025
 21
-808.1026334578186
 31
0.0
  0
TEXT
  5
C141
  8
1DIM
  6
CONTINUOUS
 10
-534.3151903606358
 20
-807.4026334578185
 30
0.0
 40
3.5
  1
2
1001
ACAD
1000
DSTYLE
1002
{
1070
    40
1040
1.0
1002
}
  0
LINE
  5
C142
  8
0
  6
BYBLOCK
 10
-425.3931581922561
 20
-720.5005951691413
 30
0.0
 11
-427.3931581922561
 21
-719.9646967891413
 31
0.0
  0
LINE
  5
C143
  8
0
  6
BYBLOCK
 10
-427.3931581922561
 20
-719.9646967891413
 30
0.0
 11
-425.3931581922561
 21
-719.4287984091412
 31
0.0
  0
LINE
  5
C144
  8
0
  6
BYBLOCK
 10
-427.3931581922561
 20
-719.9646967891413
 30
0.0
 11
-425.3931581922561
 21
-719.9646967891413
 31
0.0
  0
LINE
  5
C145
  8
0
  6
BYBLOCK
 10
-410.3942982452523
 20
-719.4287984091412
 30
0.0
 11
-408.3942982452523
 21
-719.9646967891413
 31
0.0
  0
LINE
  5
C146
  8
0
  6
BYBLOCK
 10
-408.3942982452523
 20
-719.9646967891413
 30
0.0
 11
-410.3942982452523
 21
-720.5005951691413
 31
0.0
  0
LINE
  5
C147
  8
0
  6
BYBLOCK
 10
-408.3942982452523
 20
-719.9646967891413
 30
0.0
 11
-410.3942982452523
 21
-719.9646967891413
 31
0.0
  0
TEXT
  5
C148
  8
1HATCH
  6
CONTINUOUS
 10
-401.610964911919
 20
-719.2646967891412
 30
0.0
 40
3.5
  1
板厚18mm～21mm
1001
ACAD
1000
DSTYLE
1002
{
1070
    40
1040
1.0
1002
}
  0
LINE
  5
C149
  8
0
  6
BYBLOCK
 10
-580.9618815408538
 20
-656.1852241555495
 30
0.0
 11
-581.4977799208539
 21
-658.1852241555495
 31
0.0
  0
LINE
  5
C14A
  8
0
  6
BYBLOCK
 10
-581.4977799208539
 20
-658.1852241555495
 30
0.0
 11
-582.0336783008539
 21
-656.1852241555495
 31
0.0
  0
LINE
  5
C14B
  8
0
  6
BYBLOCK
 10
-581.4977799208539
 20
-658.1852241555495
 30
0.0
 11
-581.4977799208539
 21
-656.1852241555495
 31
0.0
  0
LINE
  5
C14C
  8
0
  6
BYBLOCK
 10
-582.0336783008539
 20
-649.6852241555495
 30
0.0
 11
-581.4977799208539
 21
-647.6852241555495
 31
0.0
  0
LINE
  5
C14D
  8
0
  6
BYBLOCK
 10
-581.4977799208539
 20
-647.6852241555495
 30
0.0
 11
-580.9618815408538
 21
-649.6852241555495
 31
0.0
  0
LINE
  5
C14E
  8
0
  6
BYBLOCK
 10
-581.4977799208539
 20
-647.6852241555495
 30
0.0
 11
-581.4977799208539
 21
-649.6852241555495
 31
0.0
  0
TEXT
  5
C14F
  8
1DIM
  6
CONTINUOUS
 10
-582.1977799208537
 20
-657.3102241555495
 30
0.0
 40
3.5
  1
10.5
 50
90.0
  0
TEXT
  5
C150
  8
1DIM
  6
CONTINUOUS
 10
-529.6719705265031
 20
-675.4042820055304
 30
0.0
 40
3.5
  1
4-R6
 50
39.11113066067226
1001
ACAD_DSTYLE_DIMRADIAL_EXTE
1070
   387
1070
     1
1070
   388
1040
3.141592653589793
1070
   390
1040
4.71238898038469
  0
LINE
  5
C151
  8
0
  6
BYBLOCK
 10
-517.2571254131408
 20
-665.522497689729
 30
0.0
 11
-515.3672187377341
 21
-664.6766609253707
 31
0.0
  0
LINE
  5
C152
  8
0
  6
BYBLOCK
 10
-515.3672187377341
 20
-664.6766609253707
 30
0.0
 11
-516.5810075548488
 21
-666.3541303829567
 31
0.0
  0
LINE
  5
C153
  8
0
  6
BYBLOCK
 10
-515.3672187377341
 20
-664.6766609253707
 30
0.0
 11
-516.9190664839948
 21
-665.9383140363428
 31
0.0
  0
VIEWPORT
  5
57
 67
     1
  8
0
 10
0.0
 20
0.0
 30
0.0
 40
541.7763157894738
 41
297.0
 68
     1
 69
     1
1001
ACAD
1000
MVIEW
1002
{
1070
    16
1010
0.0
1020
0.0
1030
0.0
1010
0.0
1020
0.0
1030
1.0
1040
0.0
1040
297.0
1040
3.609822205042462
1040
20.71661911391246
1040
50.0
1040
0.0
1040
0.0
1070
    16
1070
   100
1070
     0
1070
     1
1070
     0
1070
     0
1070
     0
1070
     0
1040
0.0
1040
0.0
1040
0.0
1040
10.0
1040
10.0
1040
10.0
1040
10.0
1070
     0
1002
{
1002
}
1002
}
  0
ENDSEC
  0
EOF
