  0
SECTION
  2
HEADER
  9
$ACADVER
  1
AC1009
  9
$INSBASE
 10
0.0
 20
0.0
 30
0.0
  9
$EXTMIN
 10
-2816.35741017075
 20
-1721.3664610962201
 30
0.0
  9
$EXTMAX
 10
-1828.131181926017
 20
-1443.8689335911281
 30
0.0
  9
$LIMMIN
 10
0.0
 20
0.0
  9
$LIMMAX
 10
420.0
 20
297.0
  9
$ORTHOMODE
 70
     0
  9
$REGENMODE
 70
     1
  9
$FILLMODE
 70
     1
  9
$QTEXTMODE
 70
     0
  9
$MIRRTEXT
 70
     1
  9
$DRAGMODE
 70
     2
  9
$LTSCALE
 40
0.5
  9
$OSMODE
 70
  2175
  9
$ATTMODE
 70
     1
  9
$TEXTSIZE
 40
4.0
  9
$TRACEWID
 40
1.0
  9
$TEXTSTYLE
  7
STANDARD
  9
$CLAYER
  8
1TEXT
  9
$CELTYPE
  6
BYLAYER
  9
$CECOLOR
 62
   256
  9
$DIMSCALE
 40
1.0
  9
$DIMASZ
 40
2.0
  9
$DIMEXO
 40
0.0
  9
$DIMDLI
 40
7.0
  9
$DIMRND
 40
0.0
  9
$DIMDLE
 40
0.0
  9
$DIMEXE
 40
1.0
  9
$DIMTP
 40
0.0
  9
$DIMTM
 40
0.0
  9
$DIMTXT
 40
3.5
  9
$DIMCEN
 40
0.0
  9
$DIMTSZ
 40
0.0
  9
$DIMTOL
 70
     0
  9
$DIMLIM
 70
     0
  9
$DIMTIH
 70
     0
  9
$DIMTOH
 70
     0
  9
$DIMSE1
 70
     0
  9
$DIMSE2
 70
     0
  9
$DIMTAD
 70
     1
  9
$DIMZIN
 70
     8
  9
$DIMBLK
  1

  9
$DIMASO
 70
     1
  9
$DIMSHO
 70
     1
  9
$DIMPOST
  1
 
  9
$DIMAPOST
  1

  9
$DIMALT
 70
     0
  9
$DIMALTD
 70
     2
  9
$DIMALTF
 40
25.399999999999999
  9
$DIMLFAC
 40
1.0
  9
$DIMTOFL
 70
     1
  9
$DIMTVP
 40
0.0
  9
$DIMTIX
 70
     0
  9
$DIMSOXD
 70
     0
  9
$DIMSAH
 70
     1
  9
$DIMBLK1
  1
OPEN30
  9
$DIMBLK2
  1
OPEN30
  9
$DIMSTYLE
  2
NEWX10
  9
$DIMCLRD
 70
   256
  9
$DIMCLRE
 70
   256
  9
$DIMCLRT
 70
   201
  9
$DIMTFAC
 40
0.7
  9
$DIMGAP
 40
0.7
  9
$LUNITS
 70
     2
  9
$LUPREC
 70
     4
  9
$SKETCHINC
 40
1.0
  9
$FILLETRAD
 40
1.0
  9
$AUNITS
 70
     0
  9
$AUPREC
 70
     2
  9
$MENU
  1
acad
  9
$ELEVATION
 40
0.0
  9
$PELEVATION
 40
0.0
  9
$THICKNESS
 40
0.0
  9
$LIMCHECK
 70
     0
  9
$BLIPMODE
 70
     0
  9
$CHAMFERA
 40
10.0
  9
$CHAMFERB
 40
10.0
  9
$SKPOLY
 70
     0
  9
$TDCREATE
 40
2453033.7326634838
  9
$TDUPDATE
 40
2455070.3550817361
  9
$TDINDWG
 40
0.3764055208
  9
$TDUSRTIMER
 40
0.3764055208
  9
$USRTIMER
 70
     1
  9
$ANGBASE
 50
0.0
  9
$ANGDIR
 70
     0
  9
$PDMODE
 70
     0
  9
$PDSIZE
 40
0.0
  9
$PLINEWID
 40
0.0
  9
$COORDS
 70
     2
  9
$SPLFRAME
 70
     0
  9
$SPLINETYPE
 70
     6
  9
$SPLINESEGS
 70
     8
  9
$ATTDIA
 70
     0
  9
$ATTREQ
 70
     1
  9
$HANDLING
 70
     1
  9
$HANDSEED
  5
B8BB
  9
$SURFTAB1
 70
     6
  9
$SURFTAB2
 70
     6
  9
$SURFTYPE
 70
     6
  9
$SURFU
 70
     6
  9
$SURFV
 70
     6
  9
$UCSNAME
  2

  9
$UCSORG
 10
0.0
 20
0.0
 30
0.0
  9
$UCSXDIR
 10
1.0
 20
0.0
 30
0.0
  9
$UCSYDIR
 10
0.0
 20
1.0
 30
0.0
  9
$PUCSNAME
  2

  9
$PUCSORG
 10
0.0
 20
0.0
 30
0.0
  9
$PUCSXDIR
 10
1.0
 20
0.0
 30
0.0
  9
$PUCSYDIR
 10
0.0
 20
1.0
 30
0.0
  9
$USERI1
 70
     0
  9
$USERI2
 70
     0
  9
$USERI3
 70
     0
  9
$USERI4
 70
     0
  9
$USERI5
 70
     0
  9
$USERR1
 40
0.0
  9
$USERR2
 40
0.0
  9
$USERR3
 40
0.0
  9
$USERR4
 40
0.0
  9
$USERR5
 40
0.0
  9
$WORLDVIEW
 70
     1
  9
$SHADEDGE
 70
     3
  9
$SHADEDIF
 70
    70
  9
$TILEMODE
 70
     1
  9
$MAXACTVP
 70
    48
  9
$PLIMCHECK
 70
     0
  9
$PEXTMIN
 10
1.0000000000000000E+020
 20
1.0000000000000000E+020
 30
1.0000000000000000E+020
  9
$PEXTMAX
 10
-1.0000000000000000E+020
 20
-1.0000000000000000E+020
 30
-1.0000000000000000E+020
  9
$PLIMMIN
 10
0.0
 20
0.0
  9
$PLIMMAX
 10
420.0
 20
297.0
  9
$UNITMODE
 70
     0
  9
$VISRETAIN
 70
     1
  9
$PLINEGEN
 70
     0
  9
$PSLTSCALE
 70
     1
  0
ENDSEC
  0
SECTION
  2
TABLES
  0
TABLE
  2
VPORT
 70
     1
  0
VPORT
  2
*ACTIVE
 70
     0
 10
0.0
 20
0.0
 11
1.0
 21
1.0
 12
-2322.2568474947848
 22
-1582.606842992594
 13
0.0
 23
0.0
 14
10.0
 24
10.0
 15
10.0
 25
10.0
 16
0.0
 26
0.0
 36
1.0
 17
0.0
 27
0.0
 37
0.0
 40
740.59564276584865
 41
1.4123581336696089
 42
50.0
 43
0.0
 44
0.0
 50
0.0
 51
0.0
 71
     0
 72
   100
 73
     1
 74
     1
 75
     0
 76
     0
 77
     0
 78
     0
  0
ENDTAB
  0
TABLE
  2
LTYPE
 70
    15
  0
LTYPE
  2
CONTINUOUS
 70
     0
  3
Solid line
 72
    65
 73
     0
 40
0.0
  0
LTYPE
  2
CENTER2
 70
     0
  3
Center (.5x) ___ _ ___ _ ___ _ ___ _ ___ _ ___
 72
    65
 73
     4
 40
28.574999999999999
 49
19.050000000000001
 49
-3.1749999999999989
 49
3.1749999999999989
 49
-3.1749999999999989
  0
LTYPE
  2
XREF1|CENTER2
 70
    48
  3
Center (.5x) ___ _ ___ _ ___ _ ___ _ ___ _ ___
 72
    65
 73
     4
 40
28.574999999999999
 49
19.050000000000001
 49
-3.1749999999999989
 49
3.1749999999999989
 49
-3.1749999999999989
  0
LTYPE
  2
A3WAKUDAKE|CENTER2
 70
    48
  3
Center (.5x) ___ _ ___ _ ___ _ ___ _ ___ _ ___
 72
    65
 73
     4
 40
28.574999999999999
 49
19.050000000000001
 49
-3.1749999999999989
 49
3.1749999999999989
 49
-3.1749999999999989
  0
ENDTAB
  0
TABLE
  2
LAYER
 70
    43
  0
LAYER
  2
0
 70
     0
 62
     7
  6
CONTINUOUS
  0
LAYER
  2
1CENTER
 70
     0
 62
     7
  6
CENTER2
  0
LAYER
  2
1TEXT
 70
     0
 62
     7
  6
CONTINUOUS
  0
LAYER
  2
1DIM
 70
     0
 62
     7
  6
CONTINUOUS
  0
LAYER
  2
01
 70
     0
 62
     1
  6
CONTINUOUS
  0
LAYER
  2
1HATCH
 70
     0
 62
     7
  6
CONTINUOUS
  0
LAYER
  2
XREF1|1CENTER
 70
    48
 62
     7
  6
XREF1|CENTER2
  0
LAYER
  2
A3WAKUDAKE|THICK
 70
    48
 62
     7
  6
CONTINUOUS
  0
LAYER
  2
A3WAKUDAKE|POINT
 70
    48
 62
     7
  6
CONTINUOUS
  0
LAYER
  2
A3WAKUDAKE|1CENTER
 70
    48
 62
     7
  6
A3WAKUDAKE|CENTER2
  0
LAYER
  2
A3WAKUDAKE|0-6
 70
    48
 62
     7
  6
CONTINUOUS
  0
LAYER
  2
A3WAKUDAKE|1DIM
 70
    48
 62
     7
  6
CONTINUOUS
  0
ENDTAB
  0
TABLE
  2
STYLE
 70
    22
  0
STYLE
  2
STANDARD
 70
     0
 40
0.0
 41
1.0
 50
0.0
 71
     0
 42
4.0
  3
txt.shx
  4
extfont.shx
  0
ENDTAB
  0
TABLE
  2
VIEW
 70
     0
  0
ENDTAB
  0
TABLE
  2
UCS
 70
     0
  0
ENDTAB
  0
TABLE
  2
APPID
 70
    11
  0
APPID
  2
ACAD
 70
     0
  0
APPID
  2
DRAWINGVARIABLESXDATA
 70
     0
  0
APPID
  2
CONTENTTABDATA
 70
     0
  0
APPID
  2
CONTENTCURRENTTAB
 70
     0
  0
APPID
  2
CONTENTBLOCKDESCRIPTION
 70
     0
  0
APPID
  2
CONTENTBLOCKICON
 70
     0
  0
APPID
  2
CONTENTLONGBLOCKNAME
 70
     0
  0
APPID
  2
ACAD_PSEXT
 70
     0
  0
APPID
  2
ACAD_DSTYLE_DIMTEXT_FILL
 70
     0
  0
APPID
  2
ACAD_MLEADERVER
 70
     0
  0
APPID
  2
ACAD_DSTYLE_DIMRADIAL_EXTENSION
 70
     0
  0
ENDTAB
  0
TABLE
  2
DIMSTYLE
 70
     9
  0
DIMSTYLE
  2
NEWX10
 70
     0
  3
 
  4

  5

  6
OPEN30
  7
OPEN30
 40
1.0
 41
2.0
 42
0.0
 43
7.0
 44
1.0
 45
0.0
 46
0.0
 47
0.0
 48
0.0
140
3.5
141
0.0
142
0.0
143
25.399999999999999
144
1.0
145
0.0
146
0.7
147
0.7
 71
     0
 72
     0
 73
     0
 74
     0
 75
     0
 76
     0
 77
     1
 78
     8
170
     0
171
     2
172
     1
173
     1
174
     0
175
     0
176
   256
177
   256
178
   201
  0
ENDTAB
  0
ENDSEC
  0
SECTION
  2
BLOCKS
  0
BLOCK
  8
0
  2
$MODEL_SPACE
 70
     0
 10
0.0
 20
0.0
 30
0.0
  3
$MODEL_SPACE
  1

  0
ENDBLK
  5
1A
  8
0
  0
BLOCK
 67
     1
  8
0
  2
$PAPER_SPACE
 70
     0
 10
0.0
 20
0.0
 30
0.0
  3
$PAPER_SPACE
  1

  0
ENDBLK
  5
17
 67
     1
  8
0
  0
BLOCK
  8
0
  2
_OPEN30
 70
     0
 10
0.0
 20
0.0
 30
0.0
  3
_OPEN30
  1

  0
LINE
  5
44
  8
0
  6
BYBLOCK
 62
     0
 10
-1.0
 20
0.26794919
 30
0.0
 11
0.0
 21
0.0
 31
0.0
  0
LINE
  5
45
  8
0
  6
BYBLOCK
 62
     0
 10
0.0
 20
0.0
 30
0.0
 11
-1.0
 21
-0.26794919
 31
0.0
  0
LINE
  5
46
  8
0
  6
BYBLOCK
 62
     0
 10
0.0
 20
0.0
 30
0.0
 11
-1.0
 21
0.0
 31
0.0
  0
ENDBLK
  5
47
  8
0
  0
BLOCK
  8
0
  2
XREF1
 70
    36
 10
0.0
 20
0.0
 30
0.0
  3
XREF1
  1
D:\ACLT\FORMAT\KAWAJUN(9)図面用.dwg
  0
ENDBLK
  5
5D
  8
0
  0
BLOCK
  8
0
  2
A3WAKUDAKE
 70
    36
 10
0.0
 20
0.0
 30
0.0
  3
A3WAKUDAKE
  1
D:\ACLT\FORMAT\A3WAKUdake.dwg
  0
ENDBLK
  5
6DC
  8
0
  0
BLOCK
  8
0
  2
*X156
 70
     1
 10
0.0
 20
0.0
 30
0.0
  3
*X156
  1

  0
LINE
  5
B359
  8
0
 62
     0
 10
4.999963781330016
 20
0.6648318481563891
 30
0.0
 11
4.6648058190851449
 21
0.9999898104012601
 31
0.0
  0
LINE
  5
B35A
  8
0
 62
     0
 10
4.9999616918183198
 20
0.2158211316146108
 30
0.0
 11
4.2157909235005491
 21
0.9999918999323753
 31
0.0
  0
LINE
  5
B35B
  8
0
 62
     0
 10
2.4999712361998969
 20
2.266798781179574
 30
0.0
 11
2.3833706844548028
 21
2.3833993329246681
 31
0.0
  0
LINE
  5
B35C
  8
0
 62
     0
 10
4.9999596023066308
 20
-0.2331895849271461
 30
0.0
 11
3.7667760279159941
 21
0.9999939894634906
 31
0.0
  0
LINE
  5
B35D
  8
0
 62
     0
 10
2.4999691466882008
 20
1.8177880646378091
 30
0.0
 11
2.1588632366673721
 21
2.1588939746586391
 31
0.0
  0
LINE
  5
B35E
  8
0
 62
     0
 10
4.9999575127949347
 20
-0.6822003014689173
 30
0.0
 11
3.3177611323313978
 21
0.9999960789946271
 31
0.0
  0
LINE
  5
B35F
  8
0
 62
     0
 10
2.4999670571765189
 20
1.368777348096045
 30
0.0
 11
1.934355788879955
 21
1.934388616392595
 31
0.0
  0
LINE
  5
B360
  8
0
 62
     0
 10
4.8687555439913117
 20
-1.0000111387187469
 30
0.0
 11
2.868746236746829
 21
0.999998168525721
 31
0.0
  0
LINE
  5
B361
  8
0
 62
     0
 10
4.4197406484067079
 20
-1.000009049187589
 30
0.0
 11
1.709848341092538
 21
1.709883258126581
 31
0.0
  0
LINE
  5
B362
  8
0
 62
     0
 10
3.970725752822104
 20
-1.000006959656452
 30
0.0
 11
1.485340893305092
 21
1.485377899860566
 31
0.0
  0
LINE
  5
B363
  8
0
 62
     0
 10
3.521710857237522
 20
-1.0000048701253299
 30
0.0
 11
1.2608334455176751
 21
1.2608725415945219
 31
0.0
  0
LINE
  5
B364
  8
0
 62
     0
 10
3.072695961652939
 20
-1.000002780594186
 30
0.0
 11
1.036325997730259
 21
1.0363671833284931
 31
0.0
  0
LINE
  5
B365
  8
0
 62
     0
 10
2.6236810660683281
 20
-1.0000006910630499
 30
0.0
 11
0.8118185499428136
 21
0.8118618250624649
 31
0.0
  0
LINE
  5
B366
  8
0
 62
     0
 10
2.4999545201063849
 20
-1.3252869511545811
 30
0.0
 11
0.5873111021553826
 21
0.5873564667964361
 31
0.0
  0
LINE
  5
B367
  8
0
 62
     0
 10
2.4999524305947101
 20
-1.7742976676963591
 30
0.0
 11
0.3628036543679656
 21
0.3628511085303927
 31
0.0
  0
LINE
  5
B368
  8
0
 62
     0
 10
2.4999503410830348
 20
-2.2233083842381229
 30
0.0
 11
0.1382962065805344
 21
0.1383457502643637
 31
0.0
  0
LINE
  5
B369
  8
0
 62
     0
 10
4.6010502818750387
 20
-1.000009892928265
 30
0.0
 11
4.9999578901918467
 21
-0.6011022846114571
 31
0.0
  0
LINE
  5
B36A
  8
0
 62
     0
 10
4.152039565333272
 20
-1.0000078034165789
 30
0.0
 11
4.9999599797229841
 21
-0.1520873890268675
 31
0.0
  0
LINE
  5
B36B
  8
0
 62
     0
 10
3.703028848791504
 20
-1.000005713904887
 30
0.0
 11
4.9999620692541127
 21
0.2969275065577221
 31
0.0
  0
LINE
  5
B36C
  8
0
 62
     0
 10
2.3514924413035478
 20
-2.3515421213928418
 30
0.0
 11
2.4999504351984241
 21
-2.203084127497966
 31
0.0
  0
LINE
  5
B36D
  8
0
 62
     0
 10
3.254018132249743
 20
-1.0000036243931869
 30
0.0
 11
4.9999641587852457
 21
0.7459424021423189
 31
0.0
  0
LINE
  5
B36E
  8
0
 62
     0
 10
2.1269870830375228
 20
-2.1270346736054071
 30
0.0
 11
2.499952524729554
 21
-1.7540692319133759
 31
0.0
  0
LINE
  5
B36F
  8
0
 62
     0
 10
2.805007415707979
 20
-1.0000015348814979
 30
0.0
 11
4.8049981085933267
 21
0.9999891580038494
 31
0.0
  0
LINE
  5
B370
  8
0
 62
     0
 10
1.902481724771508
 20
-1.9025272258179691
 30
0.0
 11
2.4999546142606759
 21
-1.305054336328801
 31
0.0
  0
LINE
  5
B371
  8
0
 62
     0
 10
1.6779763665054901
 20
-1.678019778030527
 30
0.0
 11
4.3559873920515422
 21
0.9999912475155242
 31
0.0
  0
LINE
  5
B372
  8
0
 62
     0
 10
1.4534710082394611
 20
-1.4535123302430959
 30
0.0
 11
3.9069766755097461
 21
0.9999933370271882
 31
0.0
  0
LINE
  5
B373
  8
0
 62
     0
 10
1.228965649973442
 20
-1.2290048824556541
 30
0.0
 11
3.457965958967967
 21
0.9999954265388737
 31
0.0
  0
LINE
  5
B374
  8
0
 62
     0
 10
1.004460291707417
 20
-1.0044974346682201
 30
0.0
 11
3.008955242426171
 21
0.9999975160505378
 31
0.0
  0
LINE
  5
B375
  8
0
 62
     0
 10
0.779954933441406
 20
-0.7799899868807821
 30
0.0
 11
2.55994452588439
 21
0.999999605562202
 31
0.0
  0
LINE
  5
B376
  8
0
 62
     0
 10
0.5554495751753877
 20
-0.5554825390933403
 30
0.0
 11
2.4999671514474988
 21
1.3890350371787681
 31
0.0
  0
LINE
  5
B377
  8
0
 62
     0
 10
0.3309442169093621
 20
-0.3309750913059091
 30
0.0
 11
2.4999692409786181
 21
1.838049932763347
 31
0.0
  0
LINE
  5
B378
  8
0
 62
     0
 10
0.1064388586433438
 20
-0.1064676435184673
 30
0.0
 11
2.4999713305097622
 21
2.2870648283479511
 31
0.0
  0
ENDBLK
  5
B37A
  8
0
  0
BLOCK
  8
0
  2
*X157
 70
     1
 10
0.0
 20
0.0
 30
0.0
  3
*X157
  1

  0
LINE
  5
B37C
  8
0
 62
     0
 10
2.4791090173158281
 20
0.4185300168857875
 30
0.0
 11
2.4791090173158281
 21
0.4820300168857875
 31
0.0
  0
LINE
  5
B37D
  8
0
 62
     0
 10
2.4791090173158281
 20
0.2915300168857875
 30
0.0
 11
2.4791090173158281
 21
0.3550300168857875
 31
0.0
  0
LINE
  5
B37E
  8
0
 62
     0
 10
2.4791090173158281
 20
0.1645300168857875
 30
0.0
 11
2.4791090173158281
 21
0.2280300168857875
 31
0.0
  0
LINE
  5
B37F
  8
0
 62
     0
 10
2.4791090173158281
 20
0.0375300168857875
 30
0.0
 11
2.4791090173158281
 21
0.1010300168857875
 31
0.0
  0
LINE
  5
B380
  8
0
 62
     0
 10
2.4791090173158281
 20
-0.0894699831142125
 30
0.0
 11
2.4791090173158281
 21
-0.0259699831142125
 31
0.0
  0
LINE
  5
B381
  8
0
 62
     0
 10
2.4791090173158281
 20
-0.2164699831142125
 30
0.0
 11
2.4791090173158281
 21
-0.1529699831142125
 31
0.0
  0
LINE
  5
B382
  8
0
 62
     0
 10
2.4791090173158281
 20
-0.3434699831142125
 30
0.0
 11
2.4791090173158281
 21
-0.2799699831142125
 31
0.0
  0
LINE
  5
B383
  8
0
 62
     0
 10
2.4791090173158281
 20
-0.4704699831142126
 30
0.0
 11
2.4791090173158281
 21
-0.4069699831142125
 31
0.0
  0
LINE
  5
B384
  8
0
 62
     0
 10
2.4156090173158269
 20
0.4820300168857895
 30
0.0
 11
2.4156090173158269
 21
0.4999999999989769
 31
0.0
  0
LINE
  5
B385
  8
0
 62
     0
 10
2.4156090173158269
 20
0.3550300168857894
 30
0.0
 11
2.4156090173158269
 21
0.4185300168857894
 31
0.0
  0
LINE
  5
B386
  8
0
 62
     0
 10
2.4156090173158269
 20
0.2280300168857894
 30
0.0
 11
2.4156090173158269
 21
0.2915300168857894
 31
0.0
  0
LINE
  5
B387
  8
0
 62
     0
 10
2.4156090173158269
 20
0.1010300168857894
 30
0.0
 11
2.4156090173158269
 21
0.1645300168857894
 31
0.0
  0
LINE
  5
B388
  8
0
 62
     0
 10
2.4156090173158269
 20
-0.0259699831142106
 30
0.0
 11
2.4156090173158269
 21
0.0375300168857894
 31
0.0
  0
LINE
  5
B389
  8
0
 62
     0
 10
2.4156090173158269
 20
-0.1529699831142106
 30
0.0
 11
2.4156090173158269
 21
-0.0894699831142106
 31
0.0
  0
LINE
  5
B38A
  8
0
 62
     0
 10
2.4156090173158269
 20
-0.2799699831142106
 30
0.0
 11
2.4156090173158269
 21
-0.2164699831142106
 31
0.0
  0
LINE
  5
B38B
  8
0
 62
     0
 10
2.4156090173158269
 20
-0.4053494219742398
 30
0.0
 11
2.4156090173158269
 21
-0.3434699831142106
 31
0.0
  0
LINE
  5
B38C
  8
0
 62
     0
 10
2.3521090173158301
 20
0.4185300168857871
 30
0.0
 11
2.3521090173158301
 21
0.4820300168857871
 31
0.0
  0
LINE
  5
B38D
  8
0
 62
     0
 10
2.3521090173158301
 20
0.2915300168857871
 30
0.0
 11
2.3521090173158301
 21
0.3550300168857871
 31
0.0
  0
LINE
  5
B38E
  8
0
 62
     0
 10
2.3521090173158301
 20
0.1645300168857871
 30
0.0
 11
2.3521090173158301
 21
0.228030016885787
 31
0.0
  0
LINE
  5
B38F
  8
0
 62
     0
 10
2.3521090173158301
 20
0.0375300168857871
 30
0.0
 11
2.3521090173158301
 21
0.101030016885787
 31
0.0
  0
LINE
  5
B390
  8
0
 62
     0
 10
2.3521090173158301
 20
-0.089469983114213
 30
0.0
 11
2.3521090173158301
 21
-0.025969983114213
 31
0.0
  0
LINE
  5
B391
  8
0
 62
     0
 10
2.3521090173158301
 20
-0.2164699831142129
 30
0.0
 11
2.3521090173158301
 21
-0.1529699831142129
 31
0.0
  0
LINE
  5
B392
  8
0
 62
     0
 10
2.3521090173158301
 20
-0.3341295888419609
 30
0.0
 11
2.3521090173158301
 21
-0.279969983114213
 31
0.0
  0
LINE
  5
B393
  8
0
 62
     0
 10
2.288609017315828
 20
-0.1529699831142117
 30
0.0
 11
2.288609017315828
 21
-0.0894699831142117
 31
0.0
  0
LINE
  5
B394
  8
0
 62
     0
 10
2.288609017315828
 20
-0.262909755709682
 30
0.0
 11
2.288609017315828
 21
-0.2164699831142117
 31
0.0
  0
LINE
  5
B395
  8
0
 62
     0
 10
2.2251090173158272
 20
0.0375300168857895
 30
0.0
 11
2.2251090173158272
 21
0.0376818484092816
 31
0.0
  0
LINE
  5
B396
  8
0
 62
     0
 10
2.2251090173158272
 20
-0.0894699831142105
 30
0.0
 11
2.2251090173158272
 21
-0.0259699831142105
 31
0.0
  0
LINE
  5
B397
  8
0
 62
     0
 10
2.2251090173158272
 20
-0.1916899225774031
 30
0.0
 11
2.2251090173158272
 21
-0.1529699831142105
 31
0.0
  0
LINE
  5
B398
  8
0
 62
     0
 10
2.1616090173158291
 20
0.1010300168857872
 30
0.0
 11
2.1616090173158291
 21
0.1089016815415746
 31
0.0
  0
LINE
  5
B399
  8
0
 62
     0
 10
2.1616090173158291
 20
-0.0259699831142128
 30
0.0
 11
2.1616090173158291
 21
0.0375300168857872
 31
0.0
  0
LINE
  5
B39A
  8
0
 62
     0
 10
2.1616090173158291
 20
-0.1204700894451243
 30
0.0
 11
2.1616090173158291
 21
-0.0894699831142129
 31
0.0
  0
LINE
  5
B39B
  8
0
 62
     0
 10
2.0981090173158279
 20
0.1645300168857884
 30
0.0
 11
2.0981090173158279
 21
0.1801215146738677
 31
0.0
  0
LINE
  5
B39C
  8
0
 62
     0
 10
2.0981090173158279
 20
0.0375300168857884
 30
0.0
 11
2.0981090173158279
 21
0.1010300168857884
 31
0.0
  0
LINE
  5
B39D
  8
0
 62
     0
 10
2.0981090173158279
 20
-0.0492502563128454
 30
0.0
 11
2.0981090173158279
 21
-0.0259699831142116
 31
0.0
  0
LINE
  5
B39E
  8
0
 62
     0
 10
2.0346090173158271
 20
0.2280300168857896
 30
0.0
 11
2.0346090173158271
 21
0.2513413478061608
 31
0.0
  0
LINE
  5
B39F
  8
0
 62
     0
 10
2.0346090173158271
 20
0.1010300168857896
 30
0.0
 11
2.0346090173158271
 21
0.1645300168857896
 31
0.0
  0
LINE
  5
B3A0
  8
0
 62
     0
 10
2.0346090173158271
 20
0.0219695768194335
 30
0.0
 11
2.0346090173158271
 21
0.0375300168857896
 31
0.0
  0
LINE
  5
B3A1
  8
0
 62
     0
 10
1.971109017315829
 20
0.2915300168857873
 30
0.0
 11
1.971109017315829
 21
0.3225611809384539
 31
0.0
  0
LINE
  5
B3A2
  8
0
 62
     0
 10
1.971109017315829
 20
0.1645300168857873
 30
0.0
 11
1.971109017315829
 21
0.2280300168857873
 31
0.0
  0
LINE
  5
B3A3
  8
0
 62
     0
 10
1.971109017315829
 20
0.0931894099517123
 30
0.0
 11
1.971109017315829
 21
0.1010300168857873
 31
0.0
  0
LINE
  5
B3A4
  8
0
 62
     0
 10
1.907609017315828
 20
0.3550300168857887
 30
0.0
 11
1.907609017315828
 21
0.3937810140707469
 31
0.0
  0
LINE
  5
B3A5
  8
0
 62
     0
 10
1.907609017315828
 20
0.2280300168857887
 30
0.0
 11
1.907609017315828
 21
0.2915300168857887
 31
0.0
  0
LINE
  5
B3A6
  8
0
 62
     0
 10
1.907609017315828
 20
0.1010300168857887
 30
0.0
 11
1.907609017315828
 21
0.1645300168857887
 31
0.0
  0
LINE
  5
B3A7
  8
0
 62
     0
 10
1.907609017315828
 20
-0.0259699831142113
 30
0.0
 11
1.907609017315828
 21
0.0375300168857887
 31
0.0
  0
LINE
  5
B3A8
  8
0
 62
     0
 10
1.907609017315828
 20
-0.1529699831142113
 30
0.0
 11
1.907609017315828
 21
-0.0894699831142113
 31
0.0
  0
LINE
  5
B3A9
  8
0
 62
     0
 10
1.907609017315828
 20
-0.2799699831142113
 30
0.0
 11
1.907609017315828
 21
-0.2164699831142113
 31
0.0
  0
LINE
  5
B3AA
  8
0
 62
     0
 10
1.907609017315828
 20
-0.4069699831142114
 30
0.0
 11
1.907609017315828
 21
-0.3434699831142113
 31
0.0
  0
LINE
  5
B3AB
  8
0
 62
     0
 10
1.907609017315828
 20
-0.4736777777778798
 30
0.0
 11
1.907609017315828
 21
-0.4704699831142113
 31
0.0
  0
LINE
  5
B3AC
  8
0
 62
     0
 10
1.844109017315827
 20
0.4185300168857893
 30
0.0
 11
1.844109017315827
 21
0.4650008472030401
 31
0.0
  0
LINE
  5
B3AD
  8
0
 62
     0
 10
1.844109017315827
 20
0.2915300168857893
 30
0.0
 11
1.844109017315827
 21
0.3550300168857893
 31
0.0
  0
LINE
  5
B3AE
  8
0
 62
     0
 10
1.844109017315827
 20
0.1645300168857893
 30
0.0
 11
1.844109017315827
 21
0.2280300168857892
 31
0.0
  0
LINE
  5
B3AF
  8
0
 62
     0
 10
1.844109017315827
 20
0.0375300168857893
 30
0.0
 11
1.844109017315827
 21
0.1010300168857893
 31
0.0
  0
LINE
  5
B3B0
  8
0
 62
     0
 10
1.844109017315827
 20
-0.0894699831142107
 30
0.0
 11
1.844109017315827
 21
-0.0259699831142107
 31
0.0
  0
LINE
  5
B3B1
  8
0
 62
     0
 10
1.844109017315827
 20
-0.2164699831142107
 30
0.0
 11
1.844109017315827
 21
-0.1529699831142107
 31
0.0
  0
LINE
  5
B3B2
  8
0
 62
     0
 10
1.844109017315827
 20
-0.3434699831142107
 30
0.0
 11
1.844109017315827
 21
-0.2799699831142107
 31
0.0
  0
LINE
  5
B3B3
  8
0
 62
     0
 10
1.844109017315827
 20
-0.4704699831142108
 30
0.0
 11
1.844109017315827
 21
-0.4069699831142107
 31
0.0
  0
LINE
  5
B3B4
  8
0
 62
     0
 10
1.6536090173158271
 20
0.4820300168857895
 30
0.0
 11
1.6536090173158271
 21
0.4999999999989769
 31
0.0
  0
LINE
  5
B3B5
  8
0
 62
     0
 10
1.6536090173158271
 20
0.3550300168857894
 30
0.0
 11
1.6536090173158271
 21
0.4185300168857894
 31
0.0
  0
LINE
  5
B3B6
  8
0
 62
     0
 10
1.6536090173158271
 20
0.2280300168857894
 30
0.0
 11
1.6536090173158271
 21
0.2915300168857894
 31
0.0
  0
LINE
  5
B3B7
  8
0
 62
     0
 10
1.6536090173158271
 20
0.1010300168857894
 30
0.0
 11
1.6536090173158271
 21
0.1645300168857894
 31
0.0
  0
LINE
  5
B3B8
  8
0
 62
     0
 10
1.6536090173158271
 20
-0.0259699831142106
 30
0.0
 11
1.6536090173158271
 21
0.0375300168857894
 31
0.0
  0
LINE
  5
B3B9
  8
0
 62
     0
 10
1.6536090173158271
 20
-0.1529699831142106
 30
0.0
 11
1.6536090173158271
 21
-0.0894699831142106
 31
0.0
  0
LINE
  5
B3BA
  8
0
 62
     0
 10
1.6536090173158271
 20
-0.2799699831142106
 30
0.0
 11
1.6536090173158271
 21
-0.2164699831142106
 31
0.0
  0
LINE
  5
B3BB
  8
0
 62
     0
 10
1.590109017315829
 20
0.4185300168857865
 30
0.0
 11
1.590109017315829
 21
0.4820300168857865
 31
0.0
  0
LINE
  5
B3BC
  8
0
 62
     0
 10
1.590109017315829
 20
0.2915300168857864
 30
0.0
 11
1.590109017315829
 21
0.3550300168857864
 31
0.0
  0
LINE
  5
B3BD
  8
0
 62
     0
 10
1.590109017315829
 20
0.1645300168857864
 30
0.0
 11
1.590109017315829
 21
0.2280300168857864
 31
0.0
  0
LINE
  5
B3BE
  8
0
 62
     0
 10
1.590109017315829
 20
0.0375300168857864
 30
0.0
 11
1.590109017315829
 21
0.1010300168857864
 31
0.0
  0
LINE
  5
B3BF
  8
0
 62
     0
 10
1.590109017315829
 20
-0.0894699831142136
 30
0.0
 11
1.590109017315829
 21
-0.0259699831142136
 31
0.0
  0
LINE
  5
B3C0
  8
0
 62
     0
 10
1.590109017315829
 20
-0.2164699831142136
 30
0.0
 11
1.590109017315829
 21
-0.1529699831142136
 31
0.0
  0
LINE
  5
B3C1
  8
0
 62
     0
 10
1.590109017315829
 20
-0.3434699831142136
 30
0.0
 11
1.590109017315829
 21
-0.2799699831142136
 31
0.0
  0
LINE
  5
B3C2
  8
0
 62
     0
 10
1.590109017315829
 20
-0.413198806196851
 30
0.0
 11
1.590109017315829
 21
-0.4069699831142137
 31
0.0
  0
LINE
  5
B3C3
  8
0
 62
     0
 10
1.526609017315828
 20
0.4820300168857888
 30
0.0
 11
1.526609017315828
 21
0.4999999999989769
 31
0.0
  0
LINE
  5
B3C4
  8
0
 62
     0
 10
1.526609017315828
 20
0.3550300168857887
 30
0.0
 11
1.526609017315828
 21
0.4185300168857888
 31
0.0
  0
LINE
  5
B3C5
  8
0
 62
     0
 10
1.526609017315828
 20
0.2280300168857887
 30
0.0
 11
1.526609017315828
 21
0.2915300168857887
 31
0.0
  0
LINE
  5
B3C6
  8
0
 62
     0
 10
1.526609017315828
 20
0.1010300168857887
 30
0.0
 11
1.526609017315828
 21
0.1645300168857887
 31
0.0
  0
LINE
  5
B3C7
  8
0
 62
     0
 10
1.526609017315828
 20
-0.0259699831142113
 30
0.0
 11
1.526609017315828
 21
0.0375300168857887
 31
0.0
  0
LINE
  5
B3C8
  8
0
 62
     0
 10
1.526609017315828
 20
-0.1529699831142113
 30
0.0
 11
1.526609017315828
 21
-0.0894699831142113
 31
0.0
  0
LINE
  5
B3C9
  8
0
 62
     0
 10
1.526609017315828
 20
-0.2799699831142113
 30
0.0
 11
1.526609017315828
 21
-0.2164699831142113
 31
0.0
  0
LINE
  5
B3CA
  8
0
 62
     0
 10
1.526609017315828
 20
-0.4069699831142114
 30
0.0
 11
1.526609017315828
 21
-0.3434699831142113
 31
0.0
  0
LINE
  5
B3CB
  8
0
 62
     0
 10
1.4631090173158301
 20
-0.3434699831142143
 30
0.0
 11
1.4631090173158301
 21
-0.3091470712317168
 31
0.0
  0
LINE
  5
B3CC
  8
0
 62
     0
 10
1.4631090173158301
 20
-0.4704699831142144
 30
0.0
 11
1.4631090173158301
 21
-0.4069699831142143
 31
0.0
  0
LINE
  5
B3CD
  8
0
 62
     0
 10
1.3996090173158291
 20
-0.4069699831142131
 30
0.0
 11
1.3996090173158291
 21
-0.343469983114213
 31
0.0
  0
LINE
  5
B3CE
  8
0
 62
     0
 10
1.3996090173158291
 20
-0.4968494527608005
 30
0.0
 11
1.3996090173158291
 21
-0.4704699831142131
 31
0.0
  0
LINE
  5
B3CF
  8
0
 62
     0
 10
1.3361090173158281
 20
-0.3434699831142125
 30
0.0
 11
1.3361090173158281
 21
-0.3395104267839653
 31
0.0
  0
LINE
  5
B3D0
  8
0
 62
     0
 10
1.3361090173158281
 20
-0.4704699831142126
 30
0.0
 11
1.3361090173158281
 21
-0.4069699831142125
 31
0.0
  0
LINE
  5
B3D1
  8
0
 62
     0
 10
1.27260901731583
 20
-0.4069699831142149
 30
0.0
 11
1.27260901731583
 21
-0.3434699831142148
 31
0.0
  0
LINE
  5
B3D2
  8
0
 62
     0
 10
1.27260901731583
 20
-0.4918731569882464
 30
0.0
 11
1.27260901731583
 21
-0.4704699831142149
 31
0.0
  0
LINE
  5
B3D3
  8
0
 62
     0
 10
1.209109017315829
 20
-0.3434699831142125
 30
0.0
 11
1.209109017315829
 21
-0.2848626565113861
 31
0.0
  0
LINE
  5
B3D4
  8
0
 62
     0
 10
1.209109017315829
 20
-0.4704699831142126
 30
0.0
 11
1.209109017315829
 21
-0.4069699831142125
 31
0.0
  0
LINE
  5
B3D5
  8
0
 62
     0
 10
1.145609017315828
 20
0.4820300168857888
 30
0.0
 11
1.145609017315828
 21
0.4999999999989769
 31
0.0
  0
LINE
  5
B3D6
  8
0
 62
     0
 10
1.145609017315828
 20
0.3550300168857887
 30
0.0
 11
1.145609017315828
 21
0.4185300168857888
 31
0.0
  0
LINE
  5
B3D7
  8
0
 62
     0
 10
1.145609017315828
 20
0.2280300168857887
 30
0.0
 11
1.145609017315828
 21
0.2915300168857887
 31
0.0
  0
LINE
  5
B3D8
  8
0
 62
     0
 10
1.145609017315828
 20
0.1010300168857887
 30
0.0
 11
1.145609017315828
 21
0.1645300168857887
 31
0.0
  0
LINE
  5
B3D9
  8
0
 62
     0
 10
1.145609017315828
 20
-0.0259699831142113
 30
0.0
 11
1.145609017315828
 21
0.0375300168857887
 31
0.0
  0
LINE
  5
B3DA
  8
0
 62
     0
 10
1.145609017315828
 20
-0.1529699831142113
 30
0.0
 11
1.145609017315828
 21
-0.0894699831142113
 31
0.0
  0
LINE
  5
B3DB
  8
0
 62
     0
 10
1.145609017315828
 20
-0.2799699831142113
 30
0.0
 11
1.145609017315828
 21
-0.2164699831142113
 31
0.0
  0
LINE
  5
B3DC
  8
0
 62
     0
 10
1.145609017315828
 20
-0.4069699831142114
 30
0.0
 11
1.145609017315828
 21
-0.3434699831142113
 31
0.0
  0
LINE
  5
B3DD
  8
0
 62
     0
 10
1.0821090173158301
 20
0.4185300168857865
 30
0.0
 11
1.0821090173158301
 21
0.4820300168857865
 31
0.0
  0
LINE
  5
B3DE
  8
0
 62
     0
 10
1.0821090173158301
 20
0.2915300168857864
 30
0.0
 11
1.0821090173158301
 21
0.3550300168857864
 31
0.0
  0
LINE
  5
B3DF
  8
0
 62
     0
 10
1.0821090173158301
 20
0.1645300168857864
 30
0.0
 11
1.0821090173158301
 21
0.2280300168857864
 31
0.0
  0
LINE
  5
B3E0
  8
0
 62
     0
 10
1.0821090173158301
 20
0.0375300168857864
 30
0.0
 11
1.0821090173158301
 21
0.1010300168857864
 31
0.0
  0
LINE
  5
B3E1
  8
0
 62
     0
 10
1.0821090173158301
 20
-0.0894699831142136
 30
0.0
 11
1.0821090173158301
 21
-0.0259699831142136
 31
0.0
  0
LINE
  5
B3E2
  8
0
 62
     0
 10
1.0821090173158301
 20
-0.2164699831142136
 30
0.0
 11
1.0821090173158301
 21
-0.1529699831142136
 31
0.0
  0
LINE
  5
B3E3
  8
0
 62
     0
 10
1.0821090173158301
 20
-0.3434699831142136
 30
0.0
 11
1.0821090173158301
 21
-0.2799699831142136
 31
0.0
  0
LINE
  5
B3E4
  8
0
 62
     0
 10
1.0186090173158291
 20
0.4820300168857865
 30
0.0
 11
1.0186090173158291
 21
0.4999999999989769
 31
0.0
  0
LINE
  5
B3E5
  8
0
 62
     0
 10
1.0186090173158291
 20
0.3550300168857865
 30
0.0
 11
1.0186090173158291
 21
0.4185300168857866
 31
0.0
  0
LINE
  5
B3E6
  8
0
 62
     0
 10
1.0186090173158291
 20
0.2280300168857865
 30
0.0
 11
1.0186090173158291
 21
0.2915300168857865
 31
0.0
  0
LINE
  5
B3E7
  8
0
 62
     0
 10
1.0186090173158291
 20
0.1010300168857865
 30
0.0
 11
1.0186090173158291
 21
0.1645300168857865
 31
0.0
  0
LINE
  5
B3E8
  8
0
 62
     0
 10
1.0186090173158291
 20
-0.0259699831142135
 30
0.0
 11
1.0186090173158291
 21
0.0375300168857865
 31
0.0
  0
LINE
  5
B3E9
  8
0
 62
     0
 10
1.0186090173158291
 20
-0.1529699831142135
 30
0.0
 11
1.0186090173158291
 21
-0.0894699831142135
 31
0.0
  0
LINE
  5
B3EA
  8
0
 62
     0
 10
1.0186090173158291
 20
-0.2383663263908566
 30
0.0
 11
1.0186090173158291
 21
-0.2164699831142135
 31
0.0
  0
LINE
  5
B3EB
  8
0
 62
     0
 10
0.8916090173158304
 20
0.4820300168857859
 30
0.0
 11
0.8916090173158304
 21
0.4999999999989769
 31
0.0
  0
LINE
  5
B3EC
  8
0
 62
     0
 10
0.8916090173158304
 20
0.3550300168857858
 30
0.0
 11
0.8916090173158304
 21
0.4185300168857859
 31
0.0
  0
LINE
  5
B3ED
  8
0
 62
     0
 10
0.8916090173158304
 20
0.2280300168857858
 30
0.0
 11
0.8916090173158304
 21
0.2915300168857859
 31
0.0
  0
LINE
  5
B3EE
  8
0
 62
     0
 10
0.8916090173158304
 20
0.1010300168857858
 30
0.0
 11
0.8916090173158304
 21
0.1645300168857858
 31
0.0
  0
LINE
  5
B3EF
  8
0
 62
     0
 10
0.8916090173158304
 20
-0.0259699831142142
 30
0.0
 11
0.8916090173158304
 21
0.0375300168857858
 31
0.0
  0
LINE
  5
B3F0
  8
0
 62
     0
 10
0.8916090173158304
 20
-0.1529699831142142
 30
0.0
 11
0.8916090173158304
 21
-0.0894699831142142
 31
0.0
  0
LINE
  5
B3F1
  8
0
 62
     0
 10
0.8916090173158304
 20
-0.2799699831142142
 30
0.0
 11
0.8916090173158304
 21
-0.2164699831142141
 31
0.0
  0
LINE
  5
B3F2
  8
0
 62
     0
 10
0.8281090173158291
 20
0.4185300168857883
 30
0.0
 11
0.8281090173158291
 21
0.4820300168857882
 31
0.0
  0
LINE
  5
B3F3
  8
0
 62
     0
 10
0.8281090173158291
 20
0.2915300168857882
 30
0.0
 11
0.8281090173158291
 21
0.3550300168857881
 31
0.0
  0
LINE
  5
B3F4
  8
0
 62
     0
 10
0.8281090173158291
 20
0.1645300168857882
 30
0.0
 11
0.8281090173158291
 21
0.2280300168857882
 31
0.0
  0
LINE
  5
B3F5
  8
0
 62
     0
 10
0.8281090173158291
 20
0.0375300168857882
 30
0.0
 11
0.8281090173158291
 21
0.1010300168857882
 31
0.0
  0
LINE
  5
B3F6
  8
0
 62
     0
 10
0.8281090173158291
 20
-0.0894699831142118
 30
0.0
 11
0.8281090173158291
 21
-0.0259699831142118
 31
0.0
  0
LINE
  5
B3F7
  8
0
 62
     0
 10
0.8281090173158291
 20
-0.2164699831142118
 30
0.0
 11
0.8281090173158291
 21
-0.1529699831142118
 31
0.0
  0
LINE
  5
B3F8
  8
0
 62
     0
 10
0.8281090173158291
 20
-0.3434699831142118
 30
0.0
 11
0.8281090173158291
 21
-0.2799699831142118
 31
0.0
  0
LINE
  5
B3F9
  8
0
 62
     0
 10
0.764609017315828
 20
0.4820300168857888
 30
0.0
 11
0.764609017315828
 21
0.4999999999989769
 31
0.0
  0
LINE
  5
B3FA
  8
0
 62
     0
 10
0.764609017315828
 20
0.3550300168857887
 30
0.0
 11
0.764609017315828
 21
0.4185300168857888
 31
0.0
  0
LINE
  5
B3FB
  8
0
 62
     0
 10
0.764609017315828
 20
0.2280300168857887
 30
0.0
 11
0.764609017315828
 21
0.2915300168857887
 31
0.0
  0
LINE
  5
B3FC
  8
0
 62
     0
 10
0.764609017315828
 20
0.1010300168857887
 30
0.0
 11
0.764609017315828
 21
0.1645300168857887
 31
0.0
  0
LINE
  5
B3FD
  8
0
 62
     0
 10
0.764609017315828
 20
-0.0259699831142113
 30
0.0
 11
0.764609017315828
 21
0.0375300168857887
 31
0.0
  0
LINE
  5
B3FE
  8
0
 62
     0
 10
0.764609017315828
 20
-0.1529699831142113
 30
0.0
 11
0.764609017315828
 21
-0.0894699831142113
 31
0.0
  0
LINE
  5
B3FF
  8
0
 62
     0
 10
0.764609017315828
 20
-0.2799699831142113
 30
0.0
 11
0.764609017315828
 21
-0.2164699831142113
 31
0.0
  0
LINE
  5
B400
  8
0
 62
     0
 10
0.764609017315828
 20
-0.4069699831142114
 30
0.0
 11
0.764609017315828
 21
-0.3434699831142113
 31
0.0
  0
LINE
  5
B401
  8
0
 62
     0
 10
0.7011090173158303
 20
-0.3434699831142136
 30
0.0
 11
0.7011090173158303
 21
-0.3091351710733701
 31
0.0
  0
LINE
  5
B402
  8
0
 62
     0
 10
0.7011090173158303
 20
-0.466017731266069
 30
0.0
 11
0.7011090173158303
 21
-0.4069699831142137
 31
0.0
  0
LINE
  5
B403
  8
0
 62
     0
 10
0.6376090173158291
 20
-0.4069699831142131
 30
0.0
 11
0.6376090173158291
 21
-0.343469983114213
 31
0.0
  0
LINE
  5
B404
  8
0
 62
     0
 10
0.5741090173158279
 20
-0.3434699831142118
 30
0.0
 11
0.5741090173158279
 21
-0.3200000000010732
 31
0.0
  0
LINE
  5
B405
  8
0
 62
     0
 10
0.5741090173158279
 20
-0.4700000000010505
 30
0.0
 11
0.5741090173158279
 21
-0.4069699831142119
 31
0.0
  0
LINE
  5
B406
  8
0
 62
     0
 10
0.5106090173158302
 20
-0.4069699831142131
 30
0.0
 11
0.5106090173158302
 21
-0.343469983114213
 31
0.0
  0
LINE
  5
B407
  8
0
 62
     0
 10
0.4471090173158289
 20
-0.2164699831142118
 30
0.0
 11
0.4471090173158289
 21
-0.2083351068822843
 31
0.0
  0
LINE
  5
B408
  8
0
 62
     0
 10
0.4471090173158289
 20
-0.3434699831142118
 30
0.0
 11
0.4471090173158289
 21
-0.2799699831142118
 31
0.0
  0
LINE
  5
B409
  8
0
 62
     0
 10
0.4471090173158289
 20
-0.4700000000010505
 30
0.0
 11
0.4471090173158289
 21
-0.4069699831142119
 31
0.0
  0
LINE
  5
B40A
  8
0
 62
     0
 10
0.3836090173158277
 20
-0.1529699831142113
 30
0.0
 11
0.3836090173158277
 21
-0.0894699831142113
 31
0.0
  0
LINE
  5
B40B
  8
0
 62
     0
 10
0.3836090173158277
 20
-0.2799699831142113
 30
0.0
 11
0.3836090173158277
 21
-0.2164699831142113
 31
0.0
  0
LINE
  5
B40C
  8
0
 62
     0
 10
0.3836090173158277
 20
-0.4069699831142114
 30
0.0
 11
0.3836090173158277
 21
-0.3434699831142113
 31
0.0
  0
LINE
  5
B40D
  8
0
 62
     0
 10
0.3201090173158301
 20
0.0375300168857871
 30
0.0
 11
0.3201090173158301
 21
0.0755411529487891
 31
0.0
  0
LINE
  5
B40E
  8
0
 62
     0
 10
0.3201090173158301
 20
-0.089469983114213
 30
0.0
 11
0.3201090173158301
 21
-0.025969983114213
 31
0.0
  0
LINE
  5
B40F
  8
0
 62
     0
 10
0.3201090173158301
 20
-0.2164699831142129
 30
0.0
 11
0.3201090173158301
 21
-0.1529699831142129
 31
0.0
  0
LINE
  5
B410
  8
0
 62
     0
 10
0.3201090173158301
 20
-0.3111620152732097
 30
0.0
 11
0.3201090173158301
 21
-0.279969983114213
 31
0.0
  0
LINE
  5
B411
  8
0
 62
     0
 10
0.2566090173158289
 20
0.1010300168857883
 30
0.0
 11
0.2566090173158289
 21
0.1645300168857883
 31
0.0
  0
LINE
  5
B412
  8
0
 62
     0
 10
0.2566090173158289
 20
-0.0259699831142117
 30
0.0
 11
0.2566090173158289
 21
0.0375300168857883
 31
0.0
  0
LINE
  5
B413
  8
0
 62
     0
 10
0.2566090173158289
 20
-0.1529699831142117
 30
0.0
 11
0.2566090173158289
 21
-0.0894699831142117
 31
0.0
  0
LINE
  5
B414
  8
0
 62
     0
 10
0.1931090173158276
 20
0.2915300168857884
 30
0.0
 11
0.1931090173158276
 21
0.3550300168857884
 31
0.0
  0
LINE
  5
B415
  8
0
 62
     0
 10
0.1931090173158276
 20
0.1645300168857884
 30
0.0
 11
0.1931090173158276
 21
0.2280300168857884
 31
0.0
  0
LINE
  5
B416
  8
0
 62
     0
 10
0.1931090173158276
 20
0.0375300168857884
 30
0.0
 11
0.1931090173158276
 21
0.1010300168857884
 31
0.0
  0
LINE
  5
B417
  8
0
 62
     0
 10
0.1931090173158276
 20
-0.0272768178468432
 30
0.0
 11
0.1931090173158276
 21
-0.0259699831142116
 31
0.0
  0
LINE
  5
B418
  8
0
 62
     0
 10
0.1931090173158276
 20
-0.0894699831142105
 30
0.0
 11
0.1931090173158276
 21
-0.0657888888894149
 31
0.0
  0
LINE
  5
B419
  8
0
 62
     0
 10
0.1931090173158276
 20
-0.2105222222226075
 30
0.0
 11
0.1931090173158276
 21
-0.1529699831142105
 31
0.0
  0
LINE
  5
B41A
  8
0
 62
     0
 10
0.12960901731583
 20
0.4820300168857868
 30
0.0
 11
0.12960901731583
 21
0.5013555426954
 31
0.0
  0
LINE
  5
B41B
  8
0
 62
     0
 10
0.12960901731583
 20
0.3550300168857867
 30
0.0
 11
0.12960901731583
 21
0.4185300168857867
 31
0.0
  0
LINE
  5
B41C
  8
0
 62
     0
 10
0.12960901731583
 20
0.2280300168857867
 30
0.0
 11
0.12960901731583
 21
0.2915300168857868
 31
0.0
  0
LINE
  5
B41D
  8
0
 62
     0
 10
0.12960901731583
 20
0.1147036537372479
 30
0.0
 11
0.12960901731583
 21
0.1645300168857867
 31
0.0
  0
LINE
  5
B41E
  8
0
 62
     0
 10
0.1296090173158299
 20
-0.1529699831142135
 30
0.0
 11
0.1296090173158299
 21
-0.0894699831142135
 31
0.0
  0
LINE
  5
B41F
  8
0
 62
     0
 10
0.0661090173158288
 20
0.2915300168857884
 30
0.0
 11
0.0661090173158288
 21
0.3550300168857884
 31
0.0
  0
LINE
  5
B420
  8
0
 62
     0
 10
0.0661090173158288
 20
0.1645300168857884
 30
0.0
 11
0.0661090173158288
 21
0.2280300168857884
 31
0.0
  0
LINE
  5
B421
  8
0
 62
     0
 10
0.0661090173158288
 20
0.0375300168857884
 30
0.0
 11
0.0661090173158288
 21
0.1010300168857884
 31
0.0
  0
LINE
  5
B422
  8
0
 62
     0
 10
0.0661090173158287
 20
-0.0894699831142123
 30
0.0
 11
0.0661090173158287
 21
-0.0657888888894149
 31
0.0
  0
LINE
  5
B423
  8
0
 62
     0
 10
0.0661090173158287
 20
-0.2105222222226075
 30
0.0
 11
0.0661090173158287
 21
-0.1529699831142123
 31
0.0
  0
LINE
  5
B424
  8
0
 62
     0
 10
0.0026090173158275
 20
0.22803001688579
 30
0.0
 11
0.0026090173158275
 21
0.2674288552921062
 31
0.0
  0
LINE
  5
B425
  8
0
 62
     0
 10
0.0026090173158275
 20
0.10103001688579
 30
0.0
 11
0.0026090173158275
 21
0.16453001688579
 31
0.0
  0
LINE
  5
B426
  8
0
 62
     0
 10
0.0026090173158275
 20
-0.02596998311421
 30
0.0
 11
0.0026090173158275
 21
0.0375300168857901
 31
0.0
  0
LINE
  5
B427
  8
0
 62
     0
 10
0.0026090173158275
 20
-0.1529699831142099
 30
0.0
 11
0.0026090173158275
 21
-0.08946998311421
 31
0.0
  0
LINE
  5
B428
  8
0
 62
     0
 10
-0.0608909826841701
 20
0.4185300168857868
 30
0.0
 11
-0.0608909826841701
 21
0.4820300168857869
 31
0.0
  0
LINE
  5
B429
  8
0
 62
     0
 10
-0.0608909826841702
 20
0.0375300168857871
 30
0.0
 11
-0.0608909826841702
 21
0.101030016885787
 31
0.0
  0
LINE
  5
B42A
  8
0
 62
     0
 10
-0.0608909826841702
 20
-0.089469983114213
 30
0.0
 11
-0.0608909826841702
 21
-0.025969983114213
 31
0.0
  0
LINE
  5
B42B
  8
0
 62
     0
 10
-0.0608909826841702
 20
-0.2164699831142129
 30
0.0
 11
-0.0608909826841702
 21
-0.1529699831142129
 31
0.0
  0
LINE
  5
B42C
  8
0
 62
     0
 10
-0.1243909826841713
 20
0.4820300168857874
 30
0.0
 11
-0.1243909826841713
 21
0.4999999999989769
 31
0.0
  0
LINE
  5
B42D
  8
0
 62
     0
 10
-0.1243909826841713
 20
0.3550300168857874
 30
0.0
 11
-0.1243909826841713
 21
0.4185300168857875
 31
0.0
  0
LINE
  5
B42E
  8
0
 62
     0
 10
-0.1243909826841713
 20
0.2357470068116125
 30
0.0
 11
-0.1243909826841713
 21
0.2915300168857874
 31
0.0
  0
LINE
  5
B42F
  8
0
 62
     0
 10
-0.1243909826841714
 20
-0.0259699831142124
 30
0.0
 11
-0.1243909826841714
 21
-0.0164052643999995
 31
0.0
  0
LINE
  5
B430
  8
0
 62
     0
 10
-0.1243909826841714
 20
-0.1529699831142124
 30
0.0
 11
-0.1243909826841714
 21
-0.0894699831142124
 31
0.0
  0
LINE
  5
B431
  8
0
 62
     0
 10
-0.1243909826841714
 20
-0.2799699831142124
 30
0.0
 11
-0.1243909826841714
 21
-0.2164699831142124
 31
0.0
  0
LINE
  5
B432
  8
0
 62
     0
 10
-0.1243909826841714
 20
-0.4030606270906479
 30
0.0
 11
-0.1243909826841714
 21
-0.3434699831142124
 31
0.0
  0
LINE
  5
B433
  8
0
 62
     0
 10
-0.1878909826841726
 20
0.4185300168857891
 30
0.0
 11
-0.1878909826841726
 21
0.4783504748785284
 31
0.0
  0
LINE
  5
B434
  8
0
 62
     0
 10
-0.1878909826841726
 20
0.2915300168857891
 30
0.0
 11
-0.1878909826841726
 21
0.355030016885789
 31
0.0
  0
LINE
  5
B435
  8
0
 62
     0
 10
-0.1878909826841726
 20
0.164530016885789
 30
0.0
 11
-0.1878909826841726
 21
0.2280300168857891
 31
0.0
  0
LINE
  5
B436
  8
0
 62
     0
 10
-0.1878909826841726
 20
0.0849554500833847
 30
0.0
 11
-0.1878909826841726
 21
0.101030016885789
 31
0.0
  0
LINE
  5
B437
  8
0
 62
     0
 10
-0.1878909826841726
 20
-0.2164699831142107
 30
0.0
 11
-0.1878909826841726
 21
-0.1583223242460523
 31
0.0
  0
LINE
  5
B438
  8
0
 62
     0
 10
-0.1878909826841726
 20
-0.3434699831142107
 30
0.0
 11
-0.1878909826841726
 21
-0.2799699831142107
 31
0.0
  0
LINE
  5
B439
  8
0
 62
     0
 10
-0.1878909826841726
 20
-0.4704699831142108
 30
0.0
 11
-0.1878909826841726
 21
-0.4069699831142107
 31
0.0
  0
LINE
  5
B43A
  8
0
 62
     0
 10
-0.2513909826841703
 20
0.2280300168857872
 30
0.0
 11
-0.2513909826841703
 21
0.2915300168857872
 31
0.0
  0
LINE
  5
B43B
  8
0
 62
     0
 10
-0.2513909826841703
 20
0.1010300168857872
 30
0.0
 11
-0.2513909826841703
 21
0.1645300168857872
 31
0.0
  0
LINE
  5
B43C
  8
0
 62
     0
 10
-0.2513909826841703
 20
-0.0259699831142128
 30
0.0
 11
-0.2513909826841703
 21
0.0375300168857872
 31
0.0
  0
LINE
  5
B43D
  8
0
 62
     0
 10
-0.2513909826841703
 20
-0.4069699831142131
 30
0.0
 11
-0.2513909826841703
 21
-0.343469983114213
 31
0.0
  0
LINE
  5
B43E
  8
0
 62
     0
 10
-0.2513909826841703
 20
-0.4736777777778798
 30
0.0
 11
-0.2513909826841703
 21
-0.4704699831142131
 31
0.0
  0
LINE
  5
B43F
  8
0
 62
     0
 10
-0.3148909826841715
 20
0.1645300168857888
 30
0.0
 11
-0.3148909826841715
 21
0.1766465498894068
 31
0.0
  0
LINE
  5
B440
  8
0
 62
     0
 10
-0.3148909826841715
 20
0.0375300168857888
 30
0.0
 11
-0.3148909826841715
 21
0.1010300168857888
 31
0.0
  0
LINE
  5
B441
  8
0
 62
     0
 10
-0.3148909826841715
 20
-0.0894699831142112
 30
0.0
 11
-0.3148909826841715
 21
-0.0259699831142112
 31
0.0
  0
LINE
  5
B442
  8
0
 62
     0
 10
-0.3148909826841715
 20
-0.2164699831142112
 30
0.0
 11
-0.3148909826841715
 21
-0.1529699831142112
 31
0.0
  0
LINE
  5
B443
  8
0
 62
     0
 10
-0.3148909826841715
 20
-0.4704699831142126
 30
0.0
 11
-0.3148909826841715
 21
-0.442156443938158
 31
0.0
  0
LINE
  5
B444
  8
0
 62
     0
 10
-0.3783909826841727
 20
-0.0259699831142106
 30
0.0
 11
-0.3783909826841727
 21
0.0257945873948451
 31
0.0
  0
LINE
  5
B445
  8
0
 62
     0
 10
-0.3783909826841727
 20
-0.1529699831142106
 30
0.0
 11
-0.3783909826841727
 21
-0.0894699831142106
 31
0.0
  0
LINE
  5
B446
  8
0
 62
     0
 10
-0.3783909826841727
 20
-0.2799699831142106
 30
0.0
 11
-0.3783909826841727
 21
-0.2164699831142106
 31
0.0
  0
LINE
  5
B447
  8
0
 62
     0
 10
-0.3783909826841727
 20
-0.3674192201013007
 30
0.0
 11
-0.3783909826841727
 21
-0.3434699831142106
 31
0.0
  0
LINE
  5
B448
  8
0
 62
     0
 10
-0.4418909826841705
 20
-0.0894699831142125
 30
0.0
 11
-0.4418909826841705
 21
-0.0830845675548915
 31
0.0
  0
LINE
  5
B449
  8
0
 62
     0
 10
-0.4418909826841705
 20
-0.2164699831142125
 30
0.0
 11
-0.4418909826841705
 21
-0.1529699831142125
 31
0.0
  0
LINE
  5
B44A
  8
0
 62
     0
 10
-0.4418909826841705
 20
-0.3434699831142125
 30
0.0
 11
-0.4418909826841705
 21
-0.2799699831142125
 31
0.0
  0
LINE
  5
B44B
  8
0
 62
     0
 10
-0.4418909826841705
 20
-0.4704699831142126
 30
0.0
 11
-0.4418909826841705
 21
-0.4069699831142125
 31
0.0
  0
LINE
  5
B44C
  8
0
 62
     0
 10
-0.5053909826841716
 20
-0.0259699831142124
 30
0.0
 11
-0.5053909826841716
 21
0.0375300168857876
 31
0.0
  0
LINE
  5
B44D
  8
0
 62
     0
 10
-0.5053909826841716
 20
-0.1529699831142124
 30
0.0
 11
-0.5053909826841716
 21
-0.0894699831142124
 31
0.0
  0
LINE
  5
B44E
  8
0
 62
     0
 10
-0.5053909826841716
 20
-0.2799699831142124
 30
0.0
 11
-0.5053909826841716
 21
-0.2164699831142124
 31
0.0
  0
LINE
  5
B44F
  8
0
 62
     0
 10
-0.5688909826841729
 20
0.1645300168857895
 30
0.0
 11
-0.5688909826841729
 21
0.2280300168857895
 31
0.0
  0
LINE
  5
B450
  8
0
 62
     0
 10
-0.5688909826841729
 20
0.0375300168857895
 30
0.0
 11
-0.5688909826841729
 21
0.1010300168857895
 31
0.0
  0
LINE
  5
B451
  8
0
 62
     0
 10
-0.5688909826841729
 20
-0.0894699831142105
 30
0.0
 11
-0.5688909826841729
 21
-0.0259699831142105
 31
0.0
  0
LINE
  5
B452
  8
0
 62
     0
 10
-0.6323909826841705
 20
0.3550300168857878
 30
0.0
 11
-0.6323909826841705
 21
0.4185300168857879
 31
0.0
  0
LINE
  5
B453
  8
0
 62
     0
 10
-0.6323909826841705
 20
0.2280300168857878
 30
0.0
 11
-0.6323909826841705
 21
0.2915300168857878
 31
0.0
  0
LINE
  5
B454
  8
0
 62
     0
 10
-0.6323909826841705
 20
0.1010300168857878
 30
0.0
 11
-0.6323909826841705
 21
0.1645300168857878
 31
0.0
  0
LINE
  5
B455
  8
0
 62
     0
 10
-0.6323909826841705
 20
0.027253513882517
 30
0.0
 11
-0.6323909826841705
 21
0.0375300168857878
 31
0.0
  0
LINE
  5
B456
  8
0
 62
     0
 10
-0.6958909826841717
 20
0.4185300168857891
 30
0.0
 11
-0.6958909826841717
 21
0.4601048244029649
 31
0.0
  0
LINE
  5
B457
  8
0
 62
     0
 10
-0.6958909826841717
 20
0.2915300168857891
 30
0.0
 11
-0.6958909826841717
 21
0.355030016885789
 31
0.0
  0
LINE
  5
B458
  8
0
 62
     0
 10
-0.6958909826841717
 20
0.164530016885789
 30
0.0
 11
-0.6958909826841717
 21
0.2280300168857891
 31
0.0
  0
LINE
  5
B459
  8
0
 62
     0
 10
-0.6958909826841717
 20
0.0637831747561233
 30
0.0
 11
-0.6958909826841717
 21
0.101030016885789
 31
0.0
  0
LINE
  5
B45A
  8
0
 62
     0
 10
-0.7593909826841694
 20
0.2280300168857854
 30
0.0
 11
-0.7593909826841694
 21
0.291204333059941
 31
0.0
  0
LINE
  5
B45B
  8
0
 62
     0
 10
-0.7593909826841694
 20
0.1010300168857854
 30
0.0
 11
-0.7593909826841694
 21
0.1645300168857854
 31
0.0
  0
LINE
  5
B45C
  8
0
 62
     0
 10
-0.7593909826841694
 20
-0.0259699831142146
 30
0.0
 11
-0.7593909826841694
 21
0.0375300168857854
 31
0.0
  0
LINE
  5
B45D
  8
0
 62
     0
 10
-0.7593909826841694
 20
-0.1050875100468573
 30
0.0
 11
-0.7593909826841694
 21
-0.0894699831142146
 31
0.0
  0
LINE
  5
B45E
  8
0
 62
     0
 10
-0.8228909826841706
 20
0.0375300168857871
 30
0.0
 11
-0.8228909826841706
 21
0.101030016885787
 31
0.0
  0
LINE
  5
B45F
  8
0
 62
     0
 10
-0.8228909826841706
 20
-0.089469983114213
 30
0.0
 11
-0.8228909826841706
 21
-0.025969983114213
 31
0.0
  0
LINE
  5
B460
  8
0
 62
     0
 10
-0.8228909826841706
 20
-0.2164699831142129
 30
0.0
 11
-0.8228909826841706
 21
-0.1529699831142129
 31
0.0
  0
LINE
  5
B461
  8
0
 62
     0
 10
-0.8863909826841718
 20
-0.1529699831142113
 30
0.0
 11
-0.8863909826841718
 21
-0.0894699831142113
 31
0.0
  0
LINE
  5
B462
  8
0
 62
     0
 10
-0.8863909826841718
 20
-0.2799699831142113
 30
0.0
 11
-0.8863909826841718
 21
-0.2164699831142113
 31
0.0
  0
LINE
  5
B463
  8
0
 62
     0
 10
-0.8863909826841718
 20
-0.4069699831142114
 30
0.0
 11
-0.8863909826841718
 21
-0.3434699831142113
 31
0.0
  0
LINE
  5
B464
  8
0
 62
     0
 10
-0.9498909826841694
 20
-0.0894699831142136
 30
0.0
 11
-0.9498909826841694
 21
-0.0259699831142136
 31
0.0
  0
LINE
  5
B465
  8
0
 62
     0
 10
-0.9498909826841694
 20
-0.2164699831142136
 30
0.0
 11
-0.9498909826841694
 21
-0.1529699831142136
 31
0.0
  0
LINE
  5
B466
  8
0
 62
     0
 10
-0.9498909826841694
 20
-0.3434699831142136
 30
0.0
 11
-0.9498909826841694
 21
-0.2799699831142136
 31
0.0
  0
LINE
  5
B467
  8
0
 62
     0
 10
-1.01339098268417
 20
0.1010300168857865
 30
0.0
 11
-1.01339098268417
 21
0.1439490119120883
 31
0.0
  0
LINE
  5
B468
  8
0
 62
     0
 10
-1.01339098268417
 20
-0.0259699831142135
 30
0.0
 11
-1.01339098268417
 21
0.0375300168857865
 31
0.0
  0
LINE
  5
B469
  8
0
 62
     0
 10
-1.01339098268417
 20
-0.1529699831142135
 30
0.0
 11
-1.01339098268417
 21
-0.0894699831142135
 31
0.0
  0
LINE
  5
B46A
  8
0
 62
     0
 10
-1.01339098268417
 20
-0.2494673234332048
 30
0.0
 11
-1.01339098268417
 21
-0.2164699831142135
 31
0.0
  0
LINE
  5
B46B
  8
0
 62
     0
 10
-1.076890982684171
 20
0.2915300168857877
 30
0.0
 11
-1.076890982684171
 21
0.294735215050725
 31
0.0
  0
LINE
  5
B46C
  8
0
 62
     0
 10
-1.076890982684171
 20
0.1645300168857877
 30
0.0
 11
-1.076890982684171
 21
0.2280300168857877
 31
0.0
  0
LINE
  5
B46D
  8
0
 62
     0
 10
-1.076890982684171
 20
0.0375300168857877
 30
0.0
 11
-1.076890982684171
 21
0.1010300168857877
 31
0.0
  0
LINE
  5
B46E
  8
0
 62
     0
 10
-1.076890982684171
 20
-0.0894699831142123
 30
0.0
 11
-1.076890982684171
 21
-0.0259699831142123
 31
0.0
  0
LINE
  5
B46F
  8
0
 62
     0
 10
-1.076890982684171
 20
-0.4704699831142108
 30
0.0
 11
-1.076890982684171
 21
-0.4069699831142107
 31
0.0
  0
LINE
  5
B470
  8
0
 62
     0
 10
-1.1403909826841689
 20
0.3550300168857861
 30
0.0
 11
-1.1403909826841689
 21
0.4185300168857861
 31
0.0
  0
LINE
  5
B471
  8
0
 62
     0
 10
-1.1403909826841689
 20
0.2280300168857861
 30
0.0
 11
-1.1403909826841689
 21
0.291530016885786
 31
0.0
  0
LINE
  5
B472
  8
0
 62
     0
 10
-1.1403909826841689
 20
0.1010300168857861
 30
0.0
 11
-1.1403909826841689
 21
0.164530016885786
 31
0.0
  0
LINE
  5
B473
  8
0
 62
     0
 10
-1.1403909826841689
 20
-0.2799699831142131
 30
0.0
 11
-1.1403909826841689
 21
-0.2187164983799725
 31
0.0
  0
LINE
  5
B474
  8
0
 62
     0
 10
-1.1403909826841689
 20
-0.4069699831142131
 30
0.0
 11
-1.1403909826841689
 21
-0.343469983114213
 31
0.0
  0
LINE
  5
B475
  8
0
 62
     0
 10
-1.1403909826841689
 20
-0.4736777777778798
 30
0.0
 11
-1.1403909826841689
 21
-0.4704699831142131
 31
0.0
  0
LINE
  5
B476
  8
0
 62
     0
 10
-1.2038909826841699
 20
0.418530016885788
 30
0.0
 11
-1.2038909826841699
 21
0.482030016885788
 31
0.0
  0
LINE
  5
B477
  8
0
 62
     0
 10
-1.2038909826841699
 20
0.2915300168857879
 30
0.0
 11
-1.2038909826841699
 21
0.355030016885788
 31
0.0
  0
LINE
  5
B478
  8
0
 62
     0
 10
-1.2038909826841699
 20
0.2029073467514841
 30
0.0
 11
-1.2038909826841699
 21
0.2280300168857879
 31
0.0
  0
LINE
  5
B479
  8
0
 62
     0
 10
-1.2038909826841699
 20
-0.0894699831142118
 30
0.0
 11
-1.2038909826841699
 21
-0.0767641883948631
 31
0.0
  0
LINE
  5
B47A
  8
0
 62
     0
 10
-1.2038909826841699
 20
-0.2164699831142118
 30
0.0
 11
-1.2038909826841699
 21
-0.1529699831142118
 31
0.0
  0
LINE
  5
B47B
  8
0
 62
     0
 10
-1.2038909826841699
 20
-0.3434699831142118
 30
0.0
 11
-1.2038909826841699
 21
-0.2799699831142118
 31
0.0
  0
LINE
  5
B47C
  8
0
 62
     0
 10
-1.2038909826841699
 20
-0.4634955059841755
 30
0.0
 11
-1.2038909826841699
 21
-0.4069699831142119
 31
0.0
  0
LINE
  5
B47D
  8
0
 62
     0
 10
-1.2673909826841721
 20
0.4820300168857892
 30
0.0
 11
-1.2673909826841721
 21
0.4999999999989769
 31
0.0
  0
LINE
  5
B47E
  8
0
 62
     0
 10
-1.2673909826841721
 20
0.3550300168857892
 30
0.0
 11
-1.2673909826841721
 21
0.4185300168857892
 31
0.0
  0
LINE
  5
B47F
  8
0
 62
     0
 10
-1.2673909826841721
 20
-0.0259699831142106
 30
0.0
 11
-1.2673909826841721
 21
0.0375300168857894
 31
0.0
  0
LINE
  5
B480
  8
0
 62
     0
 10
-1.2673909826841721
 20
-0.1529699831142106
 30
0.0
 11
-1.2673909826841721
 21
-0.0894699831142106
 31
0.0
  0
LINE
  5
B481
  8
0
 62
     0
 10
-1.2673909826841721
 20
-0.2799699831142106
 30
0.0
 11
-1.2673909826841721
 21
-0.2164699831142106
 31
0.0
  0
LINE
  5
B482
  8
0
 62
     0
 10
-1.3308909826841691
 20
0.1645300168857859
 30
0.0
 11
-1.3308909826841691
 21
0.2071404315753558
 31
0.0
  0
LINE
  5
B483
  8
0
 62
     0
 10
-1.3308909826841691
 20
0.037530016885786
 30
0.0
 11
-1.3308909826841691
 21
0.1010300168857859
 31
0.0
  0
LINE
  5
B484
  8
0
 62
     0
 10
-1.3308909826841691
 20
-0.0894699831142141
 30
0.0
 11
-1.3308909826841691
 21
-0.0259699831142141
 31
0.0
  0
LINE
  5
B485
  8
0
 62
     0
 10
-1.3308909826841691
 20
-0.2105222222226075
 30
0.0
 11
-1.3308909826841691
 21
-0.152969983114214
 31
0.0
  0
LINE
  5
B486
  8
0
 62
     0
 10
-1.3943909826841701
 20
0.2280300168857872
 30
0.0
 11
-1.3943909826841701
 21
0.2915300168857872
 31
0.0
  0
LINE
  5
B487
  8
0
 62
     0
 10
-1.3943909826841701
 20
0.1010300168857872
 30
0.0
 11
-1.3943909826841701
 21
0.1645300168857872
 31
0.0
  0
LINE
  5
B488
  8
0
 62
     0
 10
-1.3943909826841701
 20
-0.0259699831142128
 30
0.0
 11
-1.3943909826841701
 21
0.0375300168857872
 31
0.0
  0
LINE
  5
B489
  8
0
 62
     0
 10
-1.3943909826841701
 20
-0.1529699831142117
 30
0.0
 11
-1.3943909826841701
 21
-0.0894699831142117
 31
0.0
  0
LINE
  5
B48A
  8
0
 62
     0
 10
-1.4578909826841719
 20
0.4185300168857891
 30
0.0
 11
-1.4578909826841719
 21
0.4820300168857891
 31
0.0
  0
LINE
  5
B48B
  8
0
 62
     0
 10
-1.4578909826841719
 20
0.2915300168857891
 30
0.0
 11
-1.4578909826841719
 21
0.355030016885789
 31
0.0
  0
LINE
  5
B48C
  8
0
 62
     0
 10
-1.4578909826841719
 20
0.164530016885789
 30
0.0
 11
-1.4578909826841719
 21
0.2280300168857891
 31
0.0
  0
LINE
  5
B48D
  8
0
 62
     0
 10
-1.4578909826841719
 20
-0.0894699831142105
 30
0.0
 11
-1.4578909826841719
 21
-0.0657888888894149
 31
0.0
  0
LINE
  5
B48E
  8
0
 62
     0
 10
-1.4578909826841719
 20
-0.2105222222226075
 30
0.0
 11
-1.4578909826841719
 21
-0.1529699831142105
 31
0.0
  0
LINE
  5
B48F
  8
0
 62
     0
 10
-1.5213909826841689
 20
0.3550300168857861
 30
0.0
 11
-1.5213909826841689
 21
0.4185300168857861
 31
0.0
  0
LINE
  5
B490
  8
0
 62
     0
 10
-1.5213909826841689
 20
0.2280300168857861
 30
0.0
 11
-1.5213909826841689
 21
0.291530016885786
 31
0.0
  0
LINE
  5
B491
  8
0
 62
     0
 10
-1.5213909826841689
 20
0.1010300168857861
 30
0.0
 11
-1.5213909826841689
 21
0.164530016885786
 31
0.0
  0
LINE
  5
B492
  8
0
 62
     0
 10
-1.5213909826841689
 20
0.0329592510005448
 30
0.0
 11
-1.5213909826841689
 21
0.0375300168857861
 31
0.0
  0
LINE
  5
B493
  8
0
 62
     0
 10
-1.5213909826841689
 20
-0.1529699831142135
 30
0.0
 11
-1.5213909826841689
 21
-0.0894699831142135
 31
0.0
  0
LINE
  5
B494
  8
0
 62
     0
 10
-1.5848909826841711
 20
0.1645300168857877
 30
0.0
 11
-1.5848909826841711
 21
0.2280300168857877
 31
0.0
  0
LINE
  5
B495
  8
0
 62
     0
 10
-1.5848909826841711
 20
0.0375300168857877
 30
0.0
 11
-1.5848909826841711
 21
0.1010300168857877
 31
0.0
  0
LINE
  5
B496
  8
0
 62
     0
 10
-1.5848909826841711
 20
-0.0894699831142123
 30
0.0
 11
-1.5848909826841711
 21
-0.0259699831142123
 31
0.0
  0
LINE
  5
B497
  8
0
 62
     0
 10
-1.5848909826841711
 20
-0.2105222222226075
 30
0.0
 11
-1.5848909826841711
 21
-0.1529699831142123
 31
0.0
  0
LINE
  5
B498
  8
0
 62
     0
 10
-1.6483909826841721
 20
0.1010300168857883
 30
0.0
 11
-1.6483909826841721
 21
0.1357677298568021
 31
0.0
  0
LINE
  5
B499
  8
0
 62
     0
 10
-1.6483909826841721
 20
-0.0259699831142117
 30
0.0
 11
-1.6483909826841721
 21
0.0375300168857883
 31
0.0
  0
LINE
  5
B49A
  8
0
 62
     0
 10
-1.6483909826841721
 20
-0.1529699831142117
 30
0.0
 11
-1.6483909826841721
 21
-0.0894699831142117
 31
0.0
  0
LINE
  5
B49B
  8
0
 62
     0
 10
-1.6483909826841721
 20
-0.2508708472199963
 30
0.0
 11
-1.6483909826841721
 21
-0.2164699831142117
 31
0.0
  0
LINE
  5
B49C
  8
0
 62
     0
 10
-1.7118909826841691
 20
-0.0894699831142136
 30
0.0
 11
-1.7118909826841691
 21
-0.0259699831142136
 31
0.0
  0
LINE
  5
B49D
  8
0
 62
     0
 10
-1.7118909826841691
 20
-0.2164699831142136
 30
0.0
 11
-1.7118909826841691
 21
-0.1529699831142136
 31
0.0
  0
LINE
  5
B49E
  8
0
 62
     0
 10
-1.7118909826841691
 20
-0.3434699831142136
 30
0.0
 11
-1.7118909826841691
 21
-0.2799699831142136
 31
0.0
  0
LINE
  5
B49F
  8
0
 62
     0
 10
-1.7753909826841709
 20
-0.1529699831142113
 30
0.0
 11
-1.7753909826841709
 21
-0.1481104484052853
 31
0.0
  0
LINE
  5
B4A0
  8
0
 62
     0
 10
-1.7753909826841709
 20
-0.2799699831142113
 30
0.0
 11
-1.7753909826841709
 21
-0.2164699831142113
 31
0.0
  0
LINE
  5
B4A1
  8
0
 62
     0
 10
-1.7753909826841709
 20
-0.4069699831142114
 30
0.0
 11
-1.7753909826841709
 21
-0.3434699831142113
 31
0.0
  0
LINE
  5
B4A2
  8
0
 62
     0
 10
-1.7753909826841709
 20
-0.4736777777778798
 30
0.0
 11
-1.7753909826841709
 21
-0.4704699831142113
 31
0.0
  0
LINE
  5
B4A3
  8
0
 62
     0
 10
-1.8388909826841719
 20
0.4324064165695774
 30
0.0
 11
-1.8388909826841719
 21
0.4820300168857893
 31
0.0
  0
LINE
  5
B4A4
  8
0
 62
     0
 10
-1.8388909826841719
 20
-0.3434699831142107
 30
0.0
 11
-1.8388909826841719
 21
-0.2900495375363281
 31
0.0
  0
LINE
  5
B4A5
  8
0
 62
     0
 10
-1.8388909826841719
 20
-0.4704699831142108
 30
0.0
 11
-1.8388909826841719
 21
-0.4069699831142107
 31
0.0
  0
LINE
  5
B4A6
  8
0
 62
     0
 10
-1.9023909826841701
 20
0.4820300168857874
 30
0.0
 11
-1.9023909826841701
 21
0.4999999999989769
 31
0.0
  0
LINE
  5
B4A7
  8
0
 62
     0
 10
-1.9023909826841701
 20
0.3550300168857874
 30
0.0
 11
-1.9023909826841701
 21
0.4185300168857875
 31
0.0
  0
LINE
  5
B4A8
  8
0
 62
     0
 10
-1.9023909826841701
 20
-0.4069699831142131
 30
0.0
 11
-1.9023909826841701
 21
-0.343469983114213
 31
0.0
  0
LINE
  5
B4A9
  8
0
 62
     0
 10
-1.9023909826841701
 20
-0.4736777777778798
 30
0.0
 11
-1.9023909826841701
 21
-0.4704699831142131
 31
0.0
  0
LINE
  5
B4AA
  8
0
 62
     0
 10
-1.9658909826841711
 20
0.418530016885788
 30
0.0
 11
-1.9658909826841711
 21
0.482030016885788
 31
0.0
  0
LINE
  5
B4AB
  8
0
 62
     0
 10
-1.9658909826841711
 20
0.2915300168857879
 30
0.0
 11
-1.9658909826841711
 21
0.355030016885788
 31
0.0
  0
LINE
  5
B4AC
  8
0
 62
     0
 10
-1.9658909826841711
 20
-0.3434699831142125
 30
0.0
 11
-1.9658909826841711
 21
-0.2799699831142125
 31
0.0
  0
LINE
  5
B4AD
  8
0
 62
     0
 10
-1.9658909826841711
 20
-0.4704699831142126
 30
0.0
 11
-1.9658909826841711
 21
-0.4069699831142125
 31
0.0
  0
LINE
  5
B4AE
  8
0
 62
     0
 10
-2.0293909826841721
 20
0.3550300168857885
 30
0.0
 11
-2.0293909826841721
 21
0.4185300168857885
 31
0.0
  0
LINE
  5
B4AF
  8
0
 62
     0
 10
-2.0293909826841721
 20
0.2280300168857885
 30
0.0
 11
-2.0293909826841721
 21
0.2915300168857885
 31
0.0
  0
LINE
  5
B4B0
  8
0
 62
     0
 10
-2.0293909826841721
 20
-0.1529699831142113
 30
0.0
 11
-2.0293909826841721
 21
-0.1283783417781201
 31
0.0
  0
LINE
  5
B4B1
  8
0
 62
     0
 10
-2.0293909826841721
 20
-0.2799699831142113
 30
0.0
 11
-2.0293909826841721
 21
-0.2164699831142113
 31
0.0
  0
LINE
  5
B4B2
  8
0
 62
     0
 10
-2.0293909826841721
 20
-0.4069699831142114
 30
0.0
 11
-2.0293909826841721
 21
-0.3434699831142113
 31
0.0
  0
LINE
  5
B4B3
  8
0
 62
     0
 10
-2.0928909826841702
 20
0.2915300168857873
 30
0.0
 11
-2.0928909826841702
 21
0.3550300168857873
 31
0.0
  0
LINE
  5
B4B4
  8
0
 62
     0
 10
-2.0928909826841702
 20
0.1645300168857873
 30
0.0
 11
-2.0928909826841702
 21
0.2280300168857873
 31
0.0
  0
LINE
  5
B4B5
  8
0
 62
     0
 10
-2.0928909826841702
 20
-0.089469983114213
 30
0.0
 11
-2.0928909826841702
 21
-0.0342926794194565
 31
0.0
  0
LINE
  5
B4B6
  8
0
 62
     0
 10
-2.0928909826841702
 20
-0.2164699831142129
 30
0.0
 11
-2.0928909826841702
 21
-0.1529699831142129
 31
0.0
  0
LINE
  5
B4B7
  8
0
 62
     0
 10
-2.0928909826841702
 20
-0.3166287330803694
 30
0.0
 11
-2.0928909826841702
 21
-0.279969983114213
 31
0.0
  0
LINE
  5
B4B8
  8
0
 62
     0
 10
-2.156390982684171
 20
0.2280300168857883
 30
0.0
 11
-2.156390982684171
 21
0.286529158501958
 31
0.0
  0
LINE
  5
B4B9
  8
0
 62
     0
 10
-2.156390982684171
 20
0.1010300168857883
 30
0.0
 11
-2.156390982684171
 21
0.1645300168857883
 31
0.0
  0
LINE
  5
B4BA
  8
0
 62
     0
 10
-2.156390982684171
 20
-0.0259699831142117
 30
0.0
 11
-2.156390982684171
 21
0.0375300168857883
 31
0.0
  0
LINE
  5
B4BB
  8
0
 62
     0
 10
-2.156390982684171
 20
-0.1529699831142117
 30
0.0
 11
-2.156390982684171
 21
-0.0894699831142117
 31
0.0
  0
LINE
  5
B4BC
  8
0
 62
     0
 10
-2.156390982684171
 20
-0.2225426680193596
 30
0.0
 11
-2.156390982684171
 21
-0.2164699831142117
 31
0.0
  0
LINE
  5
B4BD
  8
0
 62
     0
 10
-2.2198909826841722
 20
0.1645300168857895
 30
0.0
 11
-2.2198909826841722
 21
0.20655729425423
 31
0.0
  0
LINE
  5
B4BE
  8
0
 62
     0
 10
-2.2198909826841722
 20
0.0375300168857895
 30
0.0
 11
-2.2198909826841722
 21
0.1010300168857895
 31
0.0
  0
LINE
  5
B4BF
  8
0
 62
     0
 10
-2.2198909826841722
 20
-0.0894699831142105
 30
0.0
 11
-2.2198909826841722
 21
-0.0259699831142105
 31
0.0
  0
LINE
  5
B4C0
  8
0
 62
     0
 10
-2.2833909826841698
 20
0.1010300168857872
 30
0.0
 11
-2.2833909826841698
 21
0.1265854300065001
 31
0.0
  0
LINE
  5
B4C1
  8
0
 62
     0
 10
-2.2833909826841698
 20
-0.0259699831142128
 30
0.0
 11
-2.2833909826841698
 21
0.0375300168857872
 31
0.0
  0
LINE
  5
B4C2
  8
0
 62
     0
 10
-2.3468909826841711
 20
0.4185300168857875
 30
0.0
 11
-2.3468909826841711
 21
0.4820300168857875
 31
0.0
  0
LINE
  5
B4C3
  8
0
 62
     0
 10
-2.3468909826841711
 20
0.2915300168857875
 30
0.0
 11
-2.3468909826841711
 21
0.3550300168857875
 31
0.0
  0
LINE
  5
B4C4
  8
0
 62
     0
 10
-2.3468909826841711
 20
0.1645300168857875
 30
0.0
 11
-2.3468909826841711
 21
0.2280300168857875
 31
0.0
  0
LINE
  5
B4C5
  8
0
 62
     0
 10
-2.3468909826841711
 20
0.0375300168857875
 30
0.0
 11
-2.3468909826841711
 21
0.1010300168857875
 31
0.0
  0
LINE
  5
B4C6
  8
0
 62
     0
 10
-2.3468909826841711
 20
-0.0894699831142125
 30
0.0
 11
-2.3468909826841711
 21
-0.0259699831142125
 31
0.0
  0
LINE
  5
B4C7
  8
0
 62
     0
 10
-2.3468909826841711
 20
-0.2164699831142125
 30
0.0
 11
-2.3468909826841711
 21
-0.1529699831142125
 31
0.0
  0
LINE
  5
B4C8
  8
0
 62
     0
 10
-2.3468909826841711
 20
-0.3434699831142125
 30
0.0
 11
-2.3468909826841711
 21
-0.2799699831142125
 31
0.0
  0
LINE
  5
B4C9
  8
0
 62
     0
 10
-2.3468909826841711
 20
-0.4704699831142126
 30
0.0
 11
-2.3468909826841711
 21
-0.4069699831142125
 31
0.0
  0
LINE
  5
B4CA
  8
0
 62
     0
 10
-2.4103909826841718
 20
0.4820300168857888
 30
0.0
 11
-2.4103909826841718
 21
0.4999999999989769
 31
0.0
  0
LINE
  5
B4CB
  8
0
 62
     0
 10
-2.4103909826841718
 20
0.3550300168857887
 30
0.0
 11
-2.4103909826841718
 21
0.4185300168857888
 31
0.0
  0
LINE
  5
B4CC
  8
0
 62
     0
 10
-2.4103909826841718
 20
0.2280300168857887
 30
0.0
 11
-2.4103909826841718
 21
0.2915300168857887
 31
0.0
  0
LINE
  5
B4CD
  8
0
 62
     0
 10
-2.4103909826841718
 20
0.1010300168857887
 30
0.0
 11
-2.4103909826841718
 21
0.1645300168857887
 31
0.0
  0
LINE
  5
B4CE
  8
0
 62
     0
 10
-2.4103909826841718
 20
-0.0259699831142113
 30
0.0
 11
-2.4103909826841718
 21
0.0375300168857887
 31
0.0
  0
LINE
  5
B4CF
  8
0
 62
     0
 10
-2.4103909826841718
 20
-0.1529699831142113
 30
0.0
 11
-2.4103909826841718
 21
-0.0894699831142113
 31
0.0
  0
LINE
  5
B4D0
  8
0
 62
     0
 10
-2.4103909826841718
 20
-0.2799699831142113
 30
0.0
 11
-2.4103909826841718
 21
-0.2164699831142113
 31
0.0
  0
LINE
  5
B4D1
  8
0
 62
     0
 10
-2.4103909826841718
 20
-0.4069699831142114
 30
0.0
 11
-2.4103909826841718
 21
-0.3434699831142113
 31
0.0
  0
LINE
  5
B4D2
  8
0
 62
     0
 10
-2.4103909826841718
 20
-0.4736777777778798
 30
0.0
 11
-2.4103909826841718
 21
-0.4704699831142113
 31
0.0
  0
LINE
  5
B4D3
  8
0
 62
     0
 10
-2.47389098268417
 20
0.4185300168857875
 30
0.0
 11
-2.47389098268417
 21
0.4820300168857875
 31
0.0
  0
LINE
  5
B4D4
  8
0
 62
     0
 10
-2.47389098268417
 20
0.2915300168857875
 30
0.0
 11
-2.47389098268417
 21
0.3550300168857875
 31
0.0
  0
LINE
  5
B4D5
  8
0
 62
     0
 10
-2.47389098268417
 20
0.1645300168857875
 30
0.0
 11
-2.47389098268417
 21
0.2280300168857875
 31
0.0
  0
LINE
  5
B4D6
  8
0
 62
     0
 10
-2.47389098268417
 20
0.0375300168857875
 30
0.0
 11
-2.47389098268417
 21
0.1010300168857875
 31
0.0
  0
LINE
  5
B4D7
  8
0
 62
     0
 10
-2.47389098268417
 20
-0.0894699831142125
 30
0.0
 11
-2.47389098268417
 21
-0.0259699831142125
 31
0.0
  0
LINE
  5
B4D8
  8
0
 62
     0
 10
-2.47389098268417
 20
-0.2164699831142125
 30
0.0
 11
-2.47389098268417
 21
-0.1529699831142125
 31
0.0
  0
LINE
  5
B4D9
  8
0
 62
     0
 10
-2.47389098268417
 20
-0.3434699831142125
 30
0.0
 11
-2.47389098268417
 21
-0.2799699831142125
 31
0.0
  0
LINE
  5
B4DA
  8
0
 62
     0
 10
-2.47389098268417
 20
-0.4704699831142126
 30
0.0
 11
-2.47389098268417
 21
-0.4069699831142125
 31
0.0
  0
LINE
  5
B4DB
  8
0
 62
     0
 10
-0.4453211085968718
 20
-0.4704699831142119
 30
0.0
 11
-0.441890982684169
 21
-0.4704699831142119
 31
0.0
  0
LINE
  5
B4DC
  8
0
 62
     0
 10
-0.2513909826841736
 20
-0.4704699831142119
 30
0.0
 11
-0.1878909826841736
 21
-0.4704699831142119
 31
0.0
  0
LINE
  5
B4DD
  8
0
 62
     0
 10
-0.3275597184910524
 20
-0.4704699831142119
 30
0.0
 11
-0.3148909826841736
 21
-0.4704699831142119
 31
0.0
  0
LINE
  5
B4DE
  8
0
 62
     0
 10
1.399609017315826
 20
-0.4704699831142119
 30
0.0
 11
1.4631090173158261
 21
-0.4704699831142119
 31
0.0
  0
LINE
  5
B4DF
  8
0
 62
     0
 10
1.2726090173158271
 20
-0.4704699831142119
 30
0.0
 11
1.3361090173158261
 21
-0.4704699831142119
 31
0.0
  0
LINE
  5
B4E0
  8
0
 62
     0
 10
1.2039077980806141
 20
-0.4704699831142119
 30
0.0
 11
1.209109017315827
 21
-0.4704699831142119
 31
0.0
  0
LINE
  5
B4E1
  8
0
 62
     0
 10
-1.1403909826841649
 20
-0.4704699831142119
 30
0.0
 11
-1.0768909826841651
 21
-0.4704699831142119
 31
0.0
  0
LINE
  5
B4E2
  8
0
 62
     0
 10
1.907609017315832
 20
-0.4704699831142119
 30
0.0
 11
1.947333333333886
 21
-0.4704699831142119
 31
0.0
  0
LINE
  5
B4E3
  8
0
 62
     0
 10
1.789444444445152
 20
-0.4704699831142119
 30
0.0
 11
1.8441090173158321
 21
-0.4704699831142119
 31
0.0
  0
LINE
  5
B4E4
  8
0
 62
     0
 10
-1.7753909826841701
 20
-0.4704699831142119
 30
0.0
 11
-1.7466705199642549
 21
-0.4704699831142119
 31
0.0
  0
LINE
  5
B4E5
  8
0
 62
     0
 10
-1.9023909826841701
 20
-0.4704699831142119
 30
0.0
 11
-1.83889098268417
 21
-0.4704699831142119
 31
0.0
  0
LINE
  5
B4E6
  8
0
 62
     0
 10
-1.989061373370461
 20
-0.4704699831142119
 30
0.0
 11
-1.96589098268417
 21
-0.4704699831142119
 31
0.0
  0
LINE
  5
B4E7
  8
0
 62
     0
 10
2.47367087242728
 20
-0.4704699831142119
 30
0.0
 11
2.479109017315833
 21
-0.4704699831142119
 31
0.0
  0
LINE
  5
B4E8
  8
0
 62
     0
 10
-2.4103909826841758
 20
-0.4704699831142119
 30
0.0
 11
-2.346890982684176
 21
-0.4704699831142119
 31
0.0
  0
LINE
  5
B4E9
  8
0
 62
     0
 10
-2.4999999999950009
 20
-0.4704699831142119
 30
0.0
 11
-2.4738909826841762
 21
-0.4704699831142119
 31
0.0
  0
LINE
  5
B4EA
  8
0
 62
     0
 10
-0.1878909826841724
 20
-0.4069699831142124
 30
0.0
 11
-0.1261405783713094
 21
-0.4069699831142124
 31
0.0
  0
LINE
  5
B4EB
  8
0
 62
     0
 10
-0.2991469962688349
 20
-0.4069699831142124
 30
0.0
 11
-0.2513909826841724
 21
-0.4069699831142124
 31
0.0
  0
LINE
  5
B4EC
  8
0
 62
     0
 10
-0.4418909826841631
 20
-0.4069699831142124
 30
0.0
 11
-0.395046248441826
 21
-0.4069699831142124
 31
0.0
  0
LINE
  5
B4ED
  8
0
 62
     0
 10
0.7011090173158328
 20
-0.4069699831142124
 30
0.0
 11
0.7646090173158328
 21
-0.4069699831142124
 31
0.0
  0
LINE
  5
B4EE
  8
0
 62
     0
 10
0.5741090173158328
 20
-0.4069699831142124
 30
0.0
 11
0.6376090173158328
 21
-0.4069699831142124
 31
0.0
  0
LINE
  5
B4EF
  8
0
 62
     0
 10
0.4471090173158327
 20
-0.4069699831142124
 30
0.0
 11
0.5106090173158328
 21
-0.4069699831142124
 31
0.0
  0
LINE
  5
B4F0
  8
0
 62
     0
 10
0.3629465254195416
 20
-0.4069699831142124
 30
0.0
 11
0.3836090173158327
 21
-0.4069699831142124
 31
0.0
  0
LINE
  5
B4F1
  8
0
 62
     0
 10
-0.9470648626629447
 20
-0.4069699831142124
 30
0.0
 11
-0.8863909826841704
 21
-0.4069699831142124
 31
0.0
  0
LINE
  5
B4F2
  8
0
 62
     0
 10
1.5901090173158321
 20
-0.4069699831142124
 30
0.0
 11
1.596793752223947
 21
-0.4069699831142124
 31
0.0
  0
LINE
  5
B4F3
  8
0
 62
     0
 10
1.4631090173158321
 20
-0.4069699831142124
 30
0.0
 11
1.526609017315832
 21
-0.4069699831142124
 31
0.0
  0
LINE
  5
B4F4
  8
0
 62
     0
 10
1.3361090173158321
 20
-0.4069699831142124
 30
0.0
 11
1.399609017315832
 21
-0.4069699831142124
 31
0.0
  0
LINE
  5
B4F5
  8
0
 62
     0
 10
1.2091090173158321
 20
-0.4069699831142124
 30
0.0
 11
1.272609017315832
 21
-0.4069699831142124
 31
0.0
  0
LINE
  5
B4F6
  8
0
 62
     0
 10
1.1047618033345079
 20
-0.4069699831142124
 30
0.0
 11
1.1456090173158331
 21
-0.4069699831142124
 31
0.0
  0
LINE
  5
B4F7
  8
0
 62
     0
 10
-1.0768909826841671
 20
-0.4069699831142124
 30
0.0
 11
-1.056178923846395
 21
-0.4069699831142124
 31
0.0
  0
LINE
  5
B4F8
  8
0
 62
     0
 10
-1.2038909826841671
 20
-0.4069699831142124
 30
0.0
 11
-1.1403909826841661
 21
-0.4069699831142124
 31
0.0
  0
LINE
  5
B4F9
  8
0
 62
     0
 10
1.8441090173158341
 20
-0.4069699831142124
 30
0.0
 11
1.907609017315834
 21
-0.4069699831142124
 31
0.0
  0
LINE
  5
B4FA
  8
0
 62
     0
 10
-1.8388909826841711
 20
-0.4069699831142124
 30
0.0
 11
-1.7753909826841709
 21
-0.4069699831142124
 31
0.0
  0
LINE
  5
B4FB
  8
0
 62
     0
 10
-1.9658909826841711
 20
-0.4069699831142124
 30
0.0
 11
-1.902390982684171
 21
-0.4069699831142124
 31
0.0
  0
LINE
  5
B4FC
  8
0
 62
     0
 10
-2.031918410673331
 20
-0.4069699831142124
 30
0.0
 11
-2.0293909826841712
 21
-0.4069699831142124
 31
0.0
  0
LINE
  5
B4FD
  8
0
 62
     0
 10
2.4791090173158321
 20
-0.4069699831142124
 30
0.0
 11
2.5
 21
-0.4069699831142124
 31
0.0
  0
LINE
  5
B4FE
  8
0
 62
     0
 10
-2.3468909826841671
 20
-0.4069699831142124
 30
0.0
 11
-2.342111111106274
 21
-0.4069699831142124
 31
0.0
  0
LINE
  5
B4FF
  8
0
 62
     0
 10
-2.473890982684166
 20
-0.4069699831142124
 30
0.0
 11
-2.4103909826841661
 21
-0.4069699831142124
 31
0.0
  0
LINE
  5
B500
  8
0
 62
     0
 10
-0.3783909826841689
 20
-0.3434699831142129
 30
0.0
 11
-0.368305692886274
 21
-0.3434699831142129
 31
0.0
  0
LINE
  5
B501
  8
0
 62
     0
 10
-0.4930541856013591
 20
-0.3434699831142129
 30
0.0
 11
-0.441890982684169
 21
-0.3434699831142129
 31
0.0
  0
LINE
  5
B502
  8
0
 62
     0
 10
-0.12439098268417
 20
-0.3434699831142129
 30
0.0
 11
-0.0977217478878778
 21
-0.3434699831142129
 31
0.0
  0
LINE
  5
B503
  8
0
 62
     0
 10
-0.25139098268417
 20
-0.3434699831142129
 30
0.0
 11
-0.18789098268417
 21
-0.3434699831142129
 31
0.0
  0
LINE
  5
B504
  8
0
 62
     0
 10
-0.8863909826841752
 20
-0.3434699831142129
 30
0.0
 11
-0.8490293178246837
 21
-0.3434699831142129
 31
0.0
  0
LINE
  5
B505
  8
0
 62
     0
 10
-0.9738054182185003
 20
-0.3434699831142129
 30
0.0
 11
-0.949890982684175
 21
-0.3434699831142129
 31
0.0
  0
LINE
  5
B506
  8
0
 62
     0
 10
0.7646090173158351
 20
-0.3434699831142129
 30
0.0
 11
0.828109017315835
 21
-0.3434699831142129
 31
0.0
  0
LINE
  5
B507
  8
0
 62
     0
 10
0.6376090173158352
 20
-0.3434699831142129
 30
0.0
 11
0.7011090173158351
 21
-0.3434699831142129
 31
0.0
  0
LINE
  5
B508
  8
0
 62
     0
 10
0.5106090173158351
 20
-0.3434699831142129
 30
0.0
 11
0.5741090173158351
 21
-0.3434699831142129
 31
0.0
  0
LINE
  5
B509
  8
0
 62
     0
 10
0.3836090173158351
 20
-0.3434699831142129
 30
0.0
 11
0.4471090173158351
 21
-0.3434699831142129
 31
0.0
  0
LINE
  5
B50A
  8
0
 62
     0
 10
-1.1403909826841689
 20
-0.3434699831142129
 30
0.0
 11
-1.08458459051306
 21
-0.3434699831142129
 31
0.0
  0
LINE
  5
B50B
  8
0
 62
     0
 10
-1.2575566059559831
 20
-0.3434699831142129
 30
0.0
 11
-1.2038909826841691
 21
-0.3434699831142129
 31
0.0
  0
LINE
  5
B50C
  8
0
 62
     0
 10
1.5266090173158311
 20
-0.3434699831142129
 30
0.0
 11
1.5901090173158301
 21
-0.3434699831142129
 31
0.0
  0
LINE
  5
B50D
  8
0
 62
     0
 10
1.3996090173158311
 20
-0.3434699831142129
 30
0.0
 11
1.463109017315831
 21
-0.3434699831142129
 31
0.0
  0
LINE
  5
B50E
  8
0
 62
     0
 10
1.2726090173158311
 20
-0.3434699831142129
 30
0.0
 11
1.336109017315831
 21
-0.3434699831142129
 31
0.0
  0
LINE
  5
B50F
  8
0
 62
     0
 10
1.1456090173158311
 20
-0.3434699831142129
 30
0.0
 11
1.209109017315831
 21
-0.3434699831142129
 31
0.0
  0
LINE
  5
B510
  8
0
 62
     0
 10
1.0549358166322369
 20
-0.3434699831142129
 30
0.0
 11
1.082109017315831
 21
-0.3434699831142129
 31
0.0
  0
LINE
  5
B511
  8
0
 62
     0
 10
-1.7753909826841641
 20
-0.3434699831142129
 30
0.0
 11
-1.711890982684164
 21
-0.3434699831142129
 31
0.0
  0
LINE
  5
B512
  8
0
 62
     0
 10
-1.8627899545245761
 20
-0.3434699831142129
 30
0.0
 11
-1.838890982684164
 21
-0.3434699831142129
 31
0.0
  0
LINE
  5
B513
  8
0
 62
     0
 10
1.907609017315832
 20
-0.3434699831142129
 30
0.0
 11
1.9473333333338789
 21
-0.3434699831142129
 31
0.0
  0
LINE
  5
B514
  8
0
 62
     0
 10
1.789444444445152
 20
-0.3434699831142129
 30
0.0
 11
1.8441090173158321
 21
-0.3434699831142129
 31
0.0
  0
LINE
  5
B515
  8
0
 62
     0
 10
-1.902390982684165
 20
-0.3434699831142129
 30
0.0
 11
-1.884222007067301
 21
-0.3434699831142129
 31
0.0
  0
LINE
  5
B516
  8
0
 62
     0
 10
-2.029390982684165
 20
-0.3434699831142129
 30
0.0
 11
-1.9658909826841651
 21
-0.3434699831142129
 31
0.0
  0
LINE
  5
B517
  8
0
 62
     0
 10
2.4156090173158269
 20
-0.3434699831142129
 30
0.0
 11
2.4791090173158268
 21
-0.3434699831142129
 31
0.0
  0
LINE
  5
B518
  8
0
 62
     0
 10
-2.4103909826841621
 20
-0.3434699831142129
 30
0.0
 11
-2.3468909826841622
 21
-0.3434699831142129
 31
0.0
  0
LINE
  5
B519
  8
0
 62
     0
 10
-2.4999999999950009
 20
-0.3434699831142129
 30
0.0
 11
-2.4738909826841611
 21
-0.3434699831142129
 31
0.0
  0
LINE
  5
B51A
  8
0
 62
     0
 10
-0.1878909826841688
 20
-0.2799699831142117
 30
0.0
 11
-0.1243909826841688
 21
-0.2799699831142117
 31
0.0
  0
LINE
  5
B51B
  8
0
 62
     0
 10
0.4471090173158268
 20
-0.2799699831142117
 30
0.0
 11
0.4791568866475871
 21
-0.2799699831142117
 31
0.0
  0
LINE
  5
B51C
  8
0
 62
     0
 10
0.3201090173158267
 20
-0.2799699831142117
 30
0.0
 11
0.3836090173158268
 21
-0.2799699831142117
 31
0.0
  0
LINE
  5
B51D
  8
0
 62
     0
 10
-0.4418909826841773
 20
-0.2799699831142117
 30
0.0
 11
-0.3783909826841772
 21
-0.2799699831142117
 31
0.0
  0
LINE
  5
B51E
  8
0
 62
     0
 10
-0.5169207241036027
 20
-0.2799699831142117
 30
0.0
 11
-0.5053909826841773
 21
-0.2799699831142117
 31
0.0
  0
LINE
  5
B51F
  8
0
 62
     0
 10
0.8281090173158293
 20
-0.2799699831142117
 30
0.0
 11
0.8916090173158293
 21
-0.2799699831142117
 31
0.0
  0
LINE
  5
B520
  8
0
 62
     0
 10
0.7358002816480253
 20
-0.2799699831142117
 30
0.0
 11
0.7646090173158294
 21
-0.2799699831142117
 31
0.0
  0
LINE
  5
B521
  8
0
 62
     0
 10
-0.9498909826841728
 20
-0.2799699831142117
 30
0.0
 11
-0.8863909826841728
 21
-0.2799699831142117
 31
0.0
  0
LINE
  5
B522
  8
0
 62
     0
 10
1.082109017315827
 20
-0.2799699831142117
 30
0.0
 11
1.1456090173158271
 21
-0.2799699831142117
 31
0.0
  0
LINE
  5
B523
  8
0
 62
     0
 10
-1.2038909826841699
 20
-0.2799699831142117
 30
0.0
 11
-1.1403909826841701
 21
-0.2799699831142117
 31
0.0
  0
LINE
  5
B524
  8
0
 62
     0
 10
-1.2859486262219759
 20
-0.2799699831142117
 30
0.0
 11
-1.2673909826841701
 21
-0.2799699831142117
 31
0.0
  0
LINE
  5
B525
  8
0
 62
     0
 10
1.590109017315829
 20
-0.2799699831142117
 30
0.0
 11
1.6536090173158291
 21
-0.2799699831142117
 31
0.0
  0
LINE
  5
B526
  8
0
 62
     0
 10
1.496631419072826
 20
-0.2799699831142117
 30
0.0
 11
1.5266090173158291
 21
-0.2799699831142117
 31
0.0
  0
LINE
  5
B527
  8
0
 62
     0
 10
-1.7118909826841691
 20
-0.2799699831142117
 30
0.0
 11
-1.6614140285139669
 21
-0.2799699831142117
 31
0.0
  0
LINE
  5
B528
  8
0
 62
     0
 10
-1.834381642024574
 20
-0.2799699831142117
 30
0.0
 11
-1.775390982684169
 21
-0.2799699831142117
 31
0.0
  0
LINE
  5
B529
  8
0
 62
     0
 10
1.844109017315827
 20
-0.2799699831142117
 30
0.0
 11
1.9076090173158271
 21
-0.2799699831142117
 31
0.0
  0
LINE
  5
B52A
  8
0
 62
     0
 10
-1.965890982684166
 20
-0.2799699831142117
 30
0.0
 11
-1.927079227805446
 21
-0.2799699831142117
 31
0.0
  0
LINE
  5
B52B
  8
0
 62
     0
 10
-2.0928909826841662
 20
-0.2799699831142117
 30
0.0
 11
-2.0293909826841658
 21
-0.2799699831142117
 31
0.0
  0
LINE
  5
B52C
  8
0
 62
     0
 10
2.4791090173158259
 20
-0.2799699831142117
 30
0.0
 11
2.499999999999996
 21
-0.2799699831142117
 31
0.0
  0
LINE
  5
B52D
  8
0
 62
     0
 10
2.3521090173158261
 20
-0.2799699831142117
 30
0.0
 11
2.415609017315826
 21
-0.2799699831142117
 31
0.0
  0
LINE
  5
B52E
  8
0
 62
     0
 10
-2.3468909826841742
 20
-0.2799699831142117
 30
0.0
 11
-2.342111111106274
 21
-0.2799699831142117
 31
0.0
  0
LINE
  5
B52F
  8
0
 62
     0
 10
-2.4738909826841731
 20
-0.2799699831142117
 30
0.0
 11
-2.4103909826841741
 21
-0.2799699831142117
 31
0.0
  0
LINE
  5
B530
  8
0
 62
     0
 10
-0.124390982684164
 20
-0.2164699831142123
 30
0.0
 11
-0.060890982684164
 21
-0.2164699831142123
 31
0.0
  0
LINE
  5
B531
  8
0
 62
     0
 10
-0.2139088296021754
 20
-0.2164699831142123
 30
0.0
 11
-0.187890982684164
 21
-0.2164699831142123
 31
0.0
  0
LINE
  5
B532
  8
0
 62
     0
 10
0.3836090173158315
 20
-0.2164699831142123
 30
0.0
 11
0.4471090173158316
 21
-0.2164699831142123
 31
0.0
  0
LINE
  5
B533
  8
0
 62
     0
 10
0.277770464621554
 20
-0.2164699831142123
 30
0.0
 11
0.3201090173158315
 21
-0.2164699831142123
 31
0.0
  0
LINE
  5
B534
  8
0
 62
     0
 10
-0.3783909826841607
 20
-0.2164699831142123
 30
0.0
 11
-0.3148909826841607
 21
-0.2164699831142123
 31
0.0
  0
LINE
  5
B535
  8
0
 62
     0
 10
-0.5053909826841608
 20
-0.2164699831142123
 30
0.0
 11
-0.4418909826841607
 21
-0.2164699831142123
 31
0.0
  0
LINE
  5
B536
  8
0
 62
     0
 10
0.8916090173158316
 20
-0.2164699831142123
 30
0.0
 11
0.9156972640025244
 21
-0.2164699831142123
 31
0.0
  0
LINE
  5
B537
  8
0
 62
     0
 10
0.7646090173158318
 20
-0.2164699831142123
 30
0.0
 11
0.8281090173158316
 21
-0.2164699831142123
 31
0.0
  0
LINE
  5
B538
  8
0
 62
     0
 10
-0.8863909826841634
 20
-0.2164699831142123
 30
0.0
 11
-0.8228909826841633
 21
-0.2164699831142123
 31
0.0
  0
LINE
  5
B539
  8
0
 62
     0
 10
-1.0133909826841629
 20
-0.2164699831142123
 30
0.0
 11
-0.9498909826841634
 21
-0.2164699831142123
 31
0.0
  0
LINE
  5
B53A
  8
0
 62
     0
 10
1.145609017315836
 20
-0.2164699831142123
 30
0.0
 11
1.1771048418047481
 21
-0.2164699831142123
 31
0.0
  0
LINE
  5
B53B
  8
0
 62
     0
 10
1.018609017315836
 20
-0.2164699831142123
 30
0.0
 11
1.0821090173158361
 21
-0.2164699831142123
 31
0.0
  0
LINE
  5
B53C
  8
0
 62
     0
 10
-1.2673909826841681
 20
-0.2164699831142123
 30
0.0
 11
-1.2038909826841679
 21
-0.2164699831142123
 31
0.0
  0
LINE
  5
B53D
  8
0
 62
     0
 10
1.6536090173158351
 20
-0.2164699831142123
 30
0.0
 11
1.6851853181998739
 21
-0.2164699831142123
 31
0.0
  0
LINE
  5
B53E
  8
0
 62
     0
 10
1.5266090173158351
 20
-0.2164699831142123
 30
0.0
 11
1.590109017315835
 21
-0.2164699831142123
 31
0.0
  0
LINE
  5
B53F
  8
0
 62
     0
 10
-1.6483909826841669
 20
-0.2164699831142123
 30
0.0
 11
-1.6329951980305351
 21
-0.2164699831142123
 31
0.0
  0
LINE
  5
B540
  8
0
 62
     0
 10
-1.775390982684167
 20
-0.2164699831142123
 30
0.0
 11
-1.7118909826841671
 21
-0.2164699831142123
 31
0.0
  0
LINE
  5
B541
  8
0
 62
     0
 10
1.907609017315832
 20
-0.2164699831142123
 30
0.0
 11
1.947333333333886
 21
-0.2164699831142123
 31
0.0
  0
LINE
  5
B542
  8
0
 62
     0
 10
1.789444444445152
 20
-0.2164699831142123
 30
0.0
 11
1.8441090173158321
 21
-0.2164699831142123
 31
0.0
  0
LINE
  5
B543
  8
0
 62
     0
 10
-2.0293909826841681
 20
-0.2164699831142123
 30
0.0
 11
-1.969936448543592
 21
-0.2164699831142123
 31
0.0
  0
LINE
  5
B544
  8
0
 62
     0
 10
-2.156390982684167
 20
-0.2164699831142123
 30
0.0
 11
-2.0928909826841671
 21
-0.2164699831142123
 31
0.0
  0
LINE
  5
B545
  8
0
 62
     0
 10
2.4156090173158282
 20
-0.2164699831142123
 30
0.0
 11
2.4791090173158281
 21
-0.2164699831142123
 31
0.0
  0
LINE
  5
B546
  8
0
 62
     0
 10
2.288609017315828
 20
-0.2164699831142123
 30
0.0
 11
2.3521090173158279
 21
-0.2164699831142123
 31
0.0
  0
LINE
  5
B547
  8
0
 62
     0
 10
-2.4103909826841692
 20
-0.2164699831142123
 30
0.0
 11
-2.3468909826841688
 21
-0.2164699831142123
 31
0.0
  0
LINE
  5
B548
  8
0
 62
     0
 10
-2.4999999999950009
 20
-0.2164699831142123
 30
0.0
 11
-2.4738909826841691
 21
-0.2164699831142123
 31
0.0
  0
LINE
  5
B549
  8
0
 62
     0
 10
0.3201090173158336
 20
-0.1529699831142128
 30
0.0
 11
0.3836090173158336
 21
-0.1529699831142128
 31
0.0
  0
LINE
  5
B54A
  8
0
 62
     0
 10
0.1931090173158336
 20
-0.1529699831142128
 30
0.0
 11
0.2566090173158336
 21
-0.1529699831142128
 31
0.0
  0
LINE
  5
B54B
  8
0
 62
     0
 10
0.0661090173158336
 20
-0.1529699831142128
 30
0.0
 11
0.1296090173158336
 21
-0.1529699831142128
 31
0.0
  0
LINE
  5
B54C
  8
0
 62
     0
 10
-0.0608909826841664
 20
-0.1529699831142128
 30
0.0
 11
0.0026090173158336
 21
-0.1529699831142128
 31
0.0
  0
LINE
  5
B54D
  8
0
 62
     0
 10
-0.1854961073799544
 20
-0.1529699831142128
 30
0.0
 11
-0.1243909826841664
 21
-0.1529699831142128
 31
0.0
  0
LINE
  5
B54E
  8
0
 62
     0
 10
0.8281090173158293
 20
-0.1529699831142128
 30
0.0
 11
0.8916090173158293
 21
-0.1529699831142128
 31
0.0
  0
LINE
  5
B54F
  8
0
 62
     0
 10
0.7557777777793647
 20
-0.1529699831142128
 30
0.0
 11
0.7646090173158294
 21
-0.1529699831142128
 31
0.0
  0
LINE
  5
B550
  8
0
 62
     0
 10
-0.3148909826841666
 20
-0.1529699831142128
 30
0.0
 11
-0.2880840262196003
 21
-0.1529699831142128
 31
0.0
  0
LINE
  5
B551
  8
0
 62
     0
 10
-0.4418909826841667
 20
-0.1529699831142128
 30
0.0
 11
-0.3783909826841666
 21
-0.1529699831142128
 31
0.0
  0
LINE
  5
B552
  8
0
 62
     0
 10
-0.5646538011080864
 20
-0.1529699831142128
 30
0.0
 11
-0.5053909826841667
 21
-0.1529699831142128
 31
0.0
  0
LINE
  5
B553
  8
0
 62
     0
 10
1.082109017315837
 20
-0.1529699831142128
 30
0.0
 11
1.1456090173158371
 21
-0.1529699831142128
 31
0.0
  0
LINE
  5
B554
  8
0
 62
     0
 10
1.0157777777792589
 20
-0.1529699831142128
 30
0.0
 11
1.0186090173158371
 21
-0.1529699831142128
 31
0.0
  0
LINE
  5
B555
  8
0
 62
     0
 10
-0.8228909826841658
 20
-0.1529699831142128
 30
0.0
 11
-0.7773961032491991
 21
-0.1529699831142128
 31
0.0
  0
LINE
  5
B556
  8
0
 62
     0
 10
-0.9498909826841657
 20
-0.1529699831142128
 30
0.0
 11
-0.8863909826841657
 21
-0.1529699831142128
 31
0.0
  0
LINE
  5
B557
  8
0
 62
     0
 10
-1.0540270848851661
 20
-0.1529699831142128
 30
0.0
 11
-1.0133909826841649
 21
-0.1529699831142128
 31
0.0
  0
LINE
  5
B558
  8
0
 62
     0
 10
1.5901090173158261
 20
-0.1529699831142128
 30
0.0
 11
1.6536090173158251
 21
-0.1529699831142128
 31
0.0
  0
LINE
  5
B559
  8
0
 62
     0
 10
1.5257777777792569
 20
-0.1529699831142128
 30
0.0
 11
1.526609017315826
 21
-0.1529699831142128
 31
0.0
  0
LINE
  5
B55A
  8
0
 62
     0
 10
-1.2038909826841699
 20
-0.1529699831142128
 30
0.0
 11
-1.1698015905130541
 21
-0.1529699831142128
 31
0.0
  0
LINE
  5
B55B
  8
0
 62
     0
 10
-1.3308909826841699
 20
-0.1529699831142128
 30
0.0
 11
-1.2673909826841701
 21
-0.1529699831142128
 31
0.0
  0
LINE
  5
B55C
  8
0
 62
     0
 10
-1.4578909826841699
 20
-0.1529699831142128
 30
0.0
 11
-1.3943909826841701
 21
-0.1529699831142128
 31
0.0
  0
LINE
  5
B55D
  8
0
 62
     0
 10
-1.5848909826841699
 20
-0.1529699831142128
 30
0.0
 11
-1.5213909826841701
 21
-0.1529699831142128
 31
0.0
  0
LINE
  5
B55E
  8
0
 62
     0
 10
-1.7118909826841691
 20
-0.1529699831142128
 30
0.0
 11
-1.6483909826841701
 21
-0.1529699831142128
 31
0.0
  0
LINE
  5
B55F
  8
0
 62
     0
 10
-1.777565017024578
 20
-0.1529699831142128
 30
0.0
 11
-1.775390982684169
 21
-0.1529699831142128
 31
0.0
  0
LINE
  5
B560
  8
0
 62
     0
 10
1.8441090173158341
 20
-0.1529699831142128
 30
0.0
 11
1.907609017315834
 21
-0.1529699831142128
 31
0.0
  0
LINE
  5
B561
  8
0
 62
     0
 10
-2.0928909826841702
 20
-0.1529699831142128
 30
0.0
 11
-2.0293909826841698
 21
-0.1529699831142128
 31
0.0
  0
LINE
  5
B562
  8
0
 62
     0
 10
-2.203346559884813
 20
-0.1529699831142128
 30
0.0
 11
-2.1563909826841701
 21
-0.1529699831142128
 31
0.0
  0
LINE
  5
B563
  8
0
 62
     0
 10
2.4791090173158339
 20
-0.1529699831142128
 30
0.0
 11
2.4999999999999991
 21
-0.1529699831142128
 31
0.0
  0
LINE
  5
B564
  8
0
 62
     0
 10
2.3521090173158341
 20
-0.1529699831142128
 30
0.0
 11
2.415609017315834
 21
-0.1529699831142128
 31
0.0
  0
LINE
  5
B565
  8
0
 62
     0
 10
2.2251090173158339
 20
-0.1529699831142128
 30
0.0
 11
2.2886090173158342
 21
-0.1529699831142128
 31
0.0
  0
LINE
  5
B566
  8
0
 62
     0
 10
-2.3468909826841671
 20
-0.1529699831142128
 30
0.0
 11
-2.342111111106266
 21
-0.1529699831142128
 31
0.0
  0
LINE
  5
B567
  8
0
 62
     0
 10
-2.473890982684166
 20
-0.1529699831142128
 30
0.0
 11
-2.4103909826841661
 21
-0.1529699831142128
 31
0.0
  0
LINE
  5
B568
  8
0
 62
     0
 10
0.3836090173158253
 20
-0.0894699831142116
 30
0.0
 11
0.3939313731988854
 21
-0.0894699831142116
 31
0.0
  0
LINE
  5
B569
  8
0
 62
     0
 10
0.2566090173158253
 20
-0.0894699831142116
 30
0.0
 11
0.3201090173158253
 21
-0.0894699831142116
 31
0.0
  0
LINE
  5
B56A
  8
0
 62
     0
 10
0.1296090173158253
 20
-0.0894699831142116
 30
0.0
 11
0.1931090173158253
 21
-0.0894699831142116
 31
0.0
  0
LINE
  5
B56B
  8
0
 62
     0
 10
0.0026090173158253
 20
-0.0894699831142116
 30
0.0
 11
0.0661090173158253
 21
-0.0894699831142116
 31
0.0
  0
LINE
  5
B56C
  8
0
 62
     0
 10
-0.1243909826841747
 20
-0.0894699831142116
 30
0.0
 11
-0.0608909826841747
 21
-0.0894699831142116
 31
0.0
  0
LINE
  5
B56D
  8
0
 62
     0
 10
-0.3783909826841689
 20
-0.0894699831142116
 30
0.0
 11
-0.3148909826841689
 21
-0.0894699831142116
 31
0.0
  0
LINE
  5
B56E
  8
0
 62
     0
 10
0.8916090173158316
 20
-0.0894699831142116
 30
0.0
 11
0.915777777779354
 21
-0.0894699831142116
 31
0.0
  0
LINE
  5
B56F
  8
0
 62
     0
 10
0.7646090173158318
 20
-0.0894699831142116
 30
0.0
 11
0.8281090173158316
 21
-0.0894699831142116
 31
0.0
  0
LINE
  5
B570
  8
0
 62
     0
 10
-0.505390982684175
 20
-0.0894699831142116
 30
0.0
 11
-0.4418909826841749
 21
-0.0894699831142116
 31
0.0
  0
LINE
  5
B571
  8
0
 62
     0
 10
-0.5885203396103301
 20
-0.0894699831142116
 30
0.0
 11
-0.568890982684175
 21
-0.0894699831142116
 31
0.0
  0
LINE
  5
B572
  8
0
 62
     0
 10
1.1456090173158251
 20
-0.0894699831142116
 30
0.0
 11
1.175777777779256
 21
-0.0894699831142116
 31
0.0
  0
LINE
  5
B573
  8
0
 62
     0
 10
1.0186090173158251
 20
-0.0894699831142116
 30
0.0
 11
1.0821090173158261
 21
-0.0894699831142116
 31
0.0
  0
LINE
  5
B574
  8
0
 62
     0
 10
-0.7593909826841681
 20
-0.0894699831142116
 30
0.0
 11
-0.7535183650573707
 21
-0.0894699831142116
 31
0.0
  0
LINE
  5
B575
  8
0
 62
     0
 10
-0.8863909826841681
 20
-0.0894699831142116
 30
0.0
 11
-0.8228909826841681
 21
-0.0894699831142116
 31
0.0
  0
LINE
  5
B576
  8
0
 62
     0
 10
1.6536090173158351
 20
-0.0894699831142116
 30
0.0
 11
1.685777777779268
 21
-0.0894699831142116
 31
0.0
  0
LINE
  5
B577
  8
0
 62
     0
 10
1.5266090173158351
 20
-0.0894699831142116
 30
0.0
 11
1.590109017315835
 21
-0.0894699831142116
 31
0.0
  0
LINE
  5
B578
  8
0
 62
     0
 10
-1.01339098268417
 20
-0.0894699831142116
 30
0.0
 11
-0.9498909826841707
 21
-0.0894699831142116
 31
0.0
  0
LINE
  5
B579
  8
0
 62
     0
 10
-1.080767640440722
 20
-0.0894699831142116
 30
0.0
 11
-1.0768909826841699
 21
-0.0894699831142116
 31
0.0
  0
LINE
  5
B57A
  8
0
 62
     0
 10
1.907609017315832
 20
-0.0894699831142116
 30
0.0
 11
1.947333333333886
 21
-0.0894699831142116
 31
0.0
  0
LINE
  5
B57B
  8
0
 62
     0
 10
1.789444444445152
 20
-0.0894699831142116
 30
0.0
 11
1.8441090173158321
 21
-0.0894699831142116
 31
0.0
  0
LINE
  5
B57C
  8
0
 62
     0
 10
-1.2673909826841689
 20
-0.0894699831142116
 30
0.0
 11
-1.2038909826841691
 21
-0.0894699831142116
 31
0.0
  0
LINE
  5
B57D
  8
0
 62
     0
 10
-1.3943909826841689
 20
-0.0894699831142116
 30
0.0
 11
-1.3308909826841691
 21
-0.0894699831142116
 31
0.0
  0
LINE
  5
B57E
  8
0
 62
     0
 10
-1.5213909826841681
 20
-0.0894699831142116
 30
0.0
 11
-1.4578909826841691
 21
-0.0894699831142116
 31
0.0
  0
LINE
  5
B57F
  8
0
 62
     0
 10
-1.6483909826841681
 20
-0.0894699831142116
 30
0.0
 11
-1.5848909826841679
 21
-0.0894699831142116
 31
0.0
  0
LINE
  5
B580
  8
0
 62
     0
 10
-1.7491567045245759
 20
-0.0894699831142116
 30
0.0
 11
-1.711890982684168
 21
-0.0894699831142116
 31
0.0
  0
LINE
  5
B581
  8
0
 62
     0
 10
2.2886090173158289
 20
-0.0894699831142116
 30
0.0
 11
2.3384782986892381
 21
-0.0894699831142116
 31
0.0
  0
LINE
  5
B582
  8
0
 62
     0
 10
2.1616090173158291
 20
-0.0894699831142116
 30
0.0
 11
2.225109017315829
 21
-0.0894699831142116
 31
0.0
  0
LINE
  5
B583
  8
0
 62
     0
 10
-2.1563909826841638
 20
-0.0894699831142116
 30
0.0
 11
-2.092890982684164
 21
-0.0894699831142116
 31
0.0
  0
LINE
  5
B584
  8
0
 62
     0
 10
-2.2462035971876828
 20
-0.0894699831142116
 30
0.0
 11
-2.2198909826841642
 21
-0.0894699831142116
 31
0.0
  0
LINE
  5
B585
  8
0
 62
     0
 10
2.4156090173158269
 20
-0.0894699831142116
 30
0.0
 11
2.4791090173158268
 21
-0.0894699831142116
 31
0.0
  0
LINE
  5
B586
  8
0
 62
     0
 10
2.3421111111112651
 20
-0.0894699831142116
 30
0.0
 11
2.352109017315827
 21
-0.0894699831142116
 31
0.0
  0
LINE
  5
B587
  8
0
 62
     0
 10
-2.4103909826841758
 20
-0.0894699831142116
 30
0.0
 11
-2.346890982684176
 21
-0.0894699831142116
 31
0.0
  0
LINE
  5
B588
  8
0
 62
     0
 10
-2.4999999999950009
 20
-0.0894699831142116
 30
0.0
 11
-2.4738909826841762
 21
-0.0894699831142116
 31
0.0
  0
LINE
  5
B589
  8
0
 62
     0
 10
-0.0608909826841628
 20
-0.0259699831142122
 30
0.0
 11
0.0026090173158372
 21
-0.0259699831142122
 31
0.0
  0
LINE
  5
B58A
  8
0
 62
     0
 10
-0.1286706629355159
 20
-0.0259699831142122
 30
0.0
 11
-0.1243909826841628
 21
-0.0259699831142122
 31
0.0
  0
LINE
  5
B58B
  8
0
 62
     0
 10
-0.3148909826841606
 20
-0.0259699831142122
 30
0.0
 11
-0.2513909826841606
 21
-0.0259699831142122
 31
0.0
  0
LINE
  5
B58C
  8
0
 62
     0
 10
-0.4001808896430781
 20
-0.0259699831142122
 30
0.0
 11
-0.3783909826841606
 21
-0.0259699831142122
 31
0.0
  0
LINE
  5
B58D
  8
0
 62
     0
 10
0.320109017315835
 20
-0.0259699831142122
 30
0.0
 11
0.3655228687159884
 21
-0.0259699831142122
 31
0.0
  0
LINE
  5
B58E
  8
0
 62
     0
 10
0.193109017315835
 20
-0.0259699831142122
 30
0.0
 11
0.256609017315835
 21
-0.0259699831142122
 31
0.0
  0
LINE
  5
B58F
  8
0
 62
     0
 10
-0.5688909826841692
 20
-0.0259699831142122
 30
0.0
 11
-0.5053909826841692
 21
-0.0259699831142122
 31
0.0
  0
LINE
  5
B590
  8
0
 62
     0
 10
0.8281090173158364
 20
-0.0259699831142122
 30
0.0
 11
0.8916090173158364
 21
-0.0259699831142122
 31
0.0
  0
LINE
  5
B591
  8
0
 62
     0
 10
0.7557777777793647
 20
-0.0259699831142122
 30
0.0
 11
0.7646090173158365
 21
-0.0259699831142122
 31
0.0
  0
LINE
  5
B592
  8
0
 62
     0
 10
-0.8228909826841668
 20
-0.0259699831142122
 30
0.0
 11
-0.7593909826841668
 21
-0.0259699831142122
 31
0.0
  0
LINE
  5
B593
  8
0
 62
     0
 10
1.0821090173158301
 20
-0.0259699831142122
 30
0.0
 11
1.14560901731583
 21
-0.0259699831142122
 31
0.0
  0
LINE
  5
B594
  8
0
 62
     0
 10
1.0157777777792589
 20
-0.0259699831142122
 30
0.0
 11
1.01860901731583
 21
-0.0259699831142122
 31
0.0
  0
LINE
  5
B595
  8
0
 62
     0
 10
-0.9498909826841645
 20
-0.0259699831142122
 30
0.0
 11
-0.9418336653727832
 21
-0.0259699831142122
 31
0.0
  0
LINE
  5
B596
  8
0
 62
     0
 10
-1.0768909826841639
 20
-0.0259699831142122
 30
0.0
 11
-1.0133909826841641
 21
-0.0259699831142122
 31
0.0
  0
LINE
  5
B597
  8
0
 62
     0
 10
1.5901090173158401
 20
-0.0259699831142122
 30
0.0
 11
1.65360901731584
 21
-0.0259699831142122
 31
0.0
  0
LINE
  5
B598
  8
0
 62
     0
 10
1.5257777777792569
 20
-0.0259699831142122
 30
0.0
 11
1.52660901731584
 21
-0.0259699831142122
 31
0.0
  0
LINE
  5
B599
  8
0
 62
     0
 10
-1.3308909826841619
 20
-0.0259699831142122
 30
0.0
 11
-1.2673909826841621
 21
-0.0259699831142122
 31
0.0
  0
LINE
  5
B59A
  8
0
 62
     0
 10
-1.399586568578115
 20
-0.0259699831142122
 30
0.0
 11
-1.3943909826841621
 21
-0.0259699831142122
 31
0.0
  0
LINE
  5
B59B
  8
0
 62
     0
 10
1.8441090173158341
 20
-0.0259699831142122
 30
0.0
 11
1.907609017315834
 21
-0.0259699831142122
 31
0.0
  0
LINE
  5
B59C
  8
0
 62
     0
 10
-1.5848909826841659
 20
-0.0259699831142122
 30
0.0
 11
-1.5477467647472769
 21
-0.0259699831142122
 31
0.0
  0
LINE
  5
B59D
  8
0
 62
     0
 10
-1.711890982684166
 20
-0.0259699831142122
 30
0.0
 11
-1.6483909826841661
 21
-0.0259699831142122
 31
0.0
  0
LINE
  5
B59E
  8
0
 62
     0
 10
2.2251090173158352
 20
-0.0259699831142122
 30
0.0
 11
2.281861344918648
 21
-0.0259699831142122
 31
0.0
  0
LINE
  5
B59F
  8
0
 62
     0
 10
2.098109017315835
 20
-0.0259699831142122
 30
0.0
 11
2.1616090173158349
 21
-0.0259699831142122
 31
0.0
  0
LINE
  5
B5A0
  8
0
 62
     0
 10
-2.2198909826841651
 20
-0.0259699831142122
 30
0.0
 11
-2.1563909826841652
 21
-0.0259699831142122
 31
0.0
  0
LINE
  5
B5A1
  8
0
 62
     0
 10
-2.2890606344905531
 20
-0.0259699831142122
 30
0.0
 11
-2.283390982684165
 21
-0.0259699831142122
 31
0.0
  0
LINE
  5
B5A2
  8
0
 62
     0
 10
2.4791090173158361
 20
-0.0259699831142122
 30
0.0
 11
2.4999999999999991
 21
-0.0259699831142122
 31
0.0
  0
LINE
  5
B5A3
  8
0
 62
     0
 10
2.3521090173158372
 20
-0.0259699831142122
 30
0.0
 11
2.4156090173158371
 21
-0.0259699831142122
 31
0.0
  0
LINE
  5
B5A4
  8
0
 62
     0
 10
-2.3468909826841671
 20
-0.0259699831142122
 30
0.0
 11
-2.342111111106274
 21
-0.0259699831142122
 31
0.0
  0
LINE
  5
B5A5
  8
0
 62
     0
 10
-2.473890982684166
 20
-0.0259699831142122
 30
0.0
 11
-2.4103909826841661
 21
-0.0259699831142122
 31
0.0
  0
LINE
  5
B5A6
  8
0
 62
     0
 10
0.0026090173158313
 20
0.0375300168857873
 30
0.0
 11
0.0661090173158313
 21
0.0375300168857873
 31
0.0
  0
LINE
  5
B5A7
  8
0
 62
     0
 10
-0.1002579407132984
 20
0.0375300168857873
 30
0.0
 11
-0.0608909826841687
 21
0.0375300168857873
 31
0.0
  0
LINE
  5
B5A8
  8
0
 62
     0
 10
-0.2513909826841665
 20
0.0375300168857873
 30
0.0
 11
-0.2078623595529407
 21
0.0375300168857873
 31
0.0
  0
LINE
  5
B5A9
  8
0
 62
     0
 10
-0.3734510418285666
 20
0.0375300168857873
 30
0.0
 11
-0.3148909826841665
 21
0.0375300168857873
 31
0.0
  0
LINE
  5
B5AA
  8
0
 62
     0
 10
0.2566090173158291
 20
0.0375300168857873
 30
0.0
 11
0.3201090173158291
 21
0.0375300168857873
 31
0.0
  0
LINE
  5
B5AB
  8
0
 62
     0
 10
0.1641245100831981
 20
0.0375300168857873
 30
0.0
 11
0.1931090173158291
 21
0.0375300168857873
 31
0.0
  0
LINE
  5
B5AC
  8
0
 62
     0
 10
-0.5053909826841668
 20
0.0375300168857873
 30
0.0
 11
-0.4872373641605137
 21
0.0375300168857873
 31
0.0
  0
LINE
  5
B5AD
  8
0
 62
     0
 10
-0.6323909826841668
 20
0.0375300168857873
 30
0.0
 11
-0.5688909826841667
 21
0.0375300168857873
 31
0.0
  0
LINE
  5
B5AE
  8
0
 62
     0
 10
0.8916090173158316
 20
0.0375300168857873
 30
0.0
 11
0.9157777777793612
 21
0.0375300168857873
 31
0.0
  0
LINE
  5
B5AF
  8
0
 62
     0
 10
0.7646090173158318
 20
0.0375300168857873
 30
0.0
 11
0.8281090173158316
 21
0.0375300168857873
 31
0.0
  0
LINE
  5
B5B0
  8
0
 62
     0
 10
-0.7593909826841692
 20
0.0375300168857873
 30
0.0
 11
-0.7057628886737249
 21
0.0375300168857873
 31
0.0
  0
LINE
  5
B5B1
  8
0
 62
     0
 10
-0.854762635833147
 20
0.0375300168857873
 30
0.0
 11
-0.8228909826841691
 21
0.0375300168857873
 31
0.0
  0
LINE
  5
B5B2
  8
0
 62
     0
 10
1.1456090173158331
 20
0.0375300168857873
 30
0.0
 11
1.1757777777792631
 21
0.0375300168857873
 31
0.0
  0
LINE
  5
B5B3
  8
0
 62
     0
 10
1.0186090173158331
 20
0.0375300168857873
 30
0.0
 11
1.082109017315833
 21
0.0375300168857873
 31
0.0
  0
LINE
  5
B5B4
  8
0
 62
     0
 10
-1.0133909826841669
 20
0.0375300168857873
 30
0.0
 11
-0.9685751703385465
 21
0.0375300168857873
 31
0.0
  0
LINE
  5
B5B5
  8
0
 62
     0
 10
-1.1342487515518369
 20
0.0375300168857873
 30
0.0
 11
-1.0768909826841671
 21
0.0375300168857873
 31
0.0
  0
LINE
  5
B5B6
  8
0
 62
     0
 10
1.653609017315828
 20
0.0375300168857873
 30
0.0
 11
1.685777777779254
 21
0.0375300168857873
 31
0.0
  0
LINE
  5
B5B7
  8
0
 62
     0
 10
1.526609017315828
 20
0.0375300168857873
 30
0.0
 11
1.5901090173158281
 21
0.0375300168857873
 31
0.0
  0
LINE
  5
B5B8
  8
0
 62
     0
 10
-1.2673909826841629
 20
0.0375300168857873
 30
0.0
 11
-1.2550185905130351
 21
0.0375300168857873
 31
0.0
  0
LINE
  5
B5B9
  8
0
 62
     0
 10
-1.3943909826841629
 20
0.0375300168857873
 30
0.0
 11
-1.3308909826841631
 21
0.0375300168857873
 31
0.0
  0
LINE
  5
B5BA
  8
0
 62
     0
 10
1.907609017315832
 20
0.0375300168857873
 30
0.0
 11
1.9473333333338789
 21
0.0375300168857873
 31
0.0
  0
LINE
  5
B5BB
  8
0
 62
     0
 10
1.789444444445152
 20
0.0375300168857873
 30
0.0
 11
1.8441090173158321
 21
0.0375300168857873
 31
0.0
  0
LINE
  5
B5BC
  8
0
 62
     0
 10
-1.5213909826841641
 20
0.0375300168857873
 30
0.0
 11
-1.5193467322990619
 21
0.0375300168857873
 31
0.0
  0
LINE
  5
B5BD
  8
0
 62
     0
 10
-1.6483909826841641
 20
0.0375300168857873
 30
0.0
 11
-1.584890982684164
 21
0.0375300168857873
 31
0.0
  0
LINE
  5
B5BE
  8
0
 62
     0
 10
2.16160901731583
 20
0.0375300168857873
 30
0.0
 11
2.2251090173158299
 21
0.0375300168857873
 31
0.0
  0
LINE
  5
B5BF
  8
0
 62
     0
 10
2.0346090173158311
 20
0.0375300168857873
 30
0.0
 11
2.0981090173158301
 21
0.0375300168857873
 31
0.0
  0
LINE
  5
B5C0
  8
0
 62
     0
 10
-2.1563909826841661
 20
0.0375300168857873
 30
0.0
 11
-2.141365331496178
 21
0.0375300168857873
 31
0.0
  0
LINE
  5
B5C1
  8
0
 62
     0
 10
-2.2833909826841658
 20
0.0375300168857873
 30
0.0
 11
-2.219890982684166
 21
0.0375300168857873
 31
0.0
  0
LINE
  5
B5C2
  8
0
 62
     0
 10
2.415609017315834
 20
0.0375300168857873
 30
0.0
 11
2.4791090173158339
 21
0.0375300168857873
 31
0.0
  0
LINE
  5
B5C3
  8
0
 62
     0
 10
2.3421111111112651
 20
0.0375300168857873
 30
0.0
 11
2.3521090173158341
 21
0.0375300168857873
 31
0.0
  0
LINE
  5
B5C4
  8
0
 62
     0
 10
-2.4103909826841621
 20
0.0375300168857873
 30
0.0
 11
-2.3468909826841622
 21
0.0375300168857873
 31
0.0
  0
LINE
  5
B5C5
  8
0
 62
     0
 10
-2.4999999999950009
 20
0.0375300168857873
 30
0.0
 11
-2.4738909826841611
 21
0.0375300168857873
 31
0.0
  0
LINE
  5
B5C6
  8
0
 62
     0
 10
0.0661090173158265
 20
0.1010300168857885
 30
0.0
 11
0.101164411258658
 21
0.1010300168857885
 31
0.0
  0
LINE
  5
B5C7
  8
0
 62
     0
 10
-0.0608909826841735
 20
0.1010300168857885
 30
0.0
 11
0.0026090173158265
 21
0.1010300168857885
 31
0.0
  0
LINE
  5
B5C8
  8
0
 62
     0
 10
-0.1878909826841748
 20
0.1010300168857885
 30
0.0
 11
-0.1811218039973887
 21
0.1010300168857885
 31
0.0
  0
LINE
  5
B5C9
  8
0
 62
     0
 10
-0.3148909826841748
 20
0.1010300168857885
 30
0.0
 11
-0.2513909826841748
 21
0.1010300168857885
 31
0.0
  0
LINE
  5
B5CA
  8
0
 62
     0
 10
0.1931090173158314
 20
0.1010300168857885
 30
0.0
 11
0.2566090173158314
 21
0.1010300168857885
 31
0.0
  0
LINE
  5
B5CB
  8
0
 62
     0
 10
-0.5688909826841727
 20
0.1010300168857885
 30
0.0
 11
-0.5111108885531231
 21
0.1010300168857885
 31
0.0
  0
LINE
  5
B5CC
  8
0
 62
     0
 10
-0.6601199551170575
 20
0.1010300168857885
 30
0.0
 11
-0.6323909826841727
 21
0.1010300168857885
 31
0.0
  0
LINE
  5
B5CD
  8
0
 62
     0
 10
0.8281090173158293
 20
0.1010300168857885
 30
0.0
 11
0.8916090173158293
 21
0.1010300168857885
 31
0.0
  0
LINE
  5
B5CE
  8
0
 62
     0
 10
0.7557777777793647
 20
0.1010300168857885
 30
0.0
 11
0.7646090173158294
 21
0.1010300168857885
 31
0.0
  0
LINE
  5
B5CF
  8
0
 62
     0
 10
-0.6958909826841775
 20
0.1010300168857885
 30
0.0
 11
-0.6818851504819002
 21
0.1010300168857885
 31
0.0
  0
LINE
  5
B5D0
  8
0
 62
     0
 10
-0.8228909826841775
 20
0.1010300168857885
 30
0.0
 11
-0.7593909826841775
 21
0.1010300168857885
 31
0.0
  0
LINE
  5
B5D1
  8
0
 62
     0
 10
1.082109017315823
 20
0.1010300168857885
 30
0.0
 11
1.1456090173158231
 21
0.1010300168857885
 31
0.0
  0
LINE
  5
B5D2
  8
0
 62
     0
 10
1.0157777777792589
 20
0.1010300168857885
 30
0.0
 11
1.0186090173158231
 21
0.1010300168857885
 31
0.0
  0
LINE
  5
B5D3
  8
0
 62
     0
 10
-1.076890982684171
 20
0.1010300168857885
 30
0.0
 11
-1.013390982684172
 21
0.1010300168857885
 31
0.0
  0
LINE
  5
B5D4
  8
0
 62
     0
 10
-1.160989307107392
 20
0.1010300168857885
 30
0.0
 11
-1.1403909826841709
 21
0.1010300168857885
 31
0.0
  0
LINE
  5
B5D5
  8
0
 62
     0
 10
1.590109017315833
 20
0.1010300168857885
 30
0.0
 11
1.6536090173158331
 21
0.1010300168857885
 31
0.0
  0
LINE
  5
B5D6
  8
0
 62
     0
 10
1.5257777777792569
 20
0.1010300168857885
 30
0.0
 11
1.5266090173158331
 21
0.1010300168857885
 31
0.0
  0
LINE
  5
B5D7
  8
0
 62
     0
 10
-1.3308909826841691
 20
0.1010300168857885
 30
0.0
 11
-1.283424257179703
 21
0.1010300168857885
 31
0.0
  0
LINE
  5
B5D8
  8
0
 62
     0
 10
-1.456386633474529
 20
0.1010300168857885
 30
0.0
 11
-1.3943909826841689
 21
0.1010300168857885
 31
0.0
  0
LINE
  5
B5D9
  8
0
 62
     0
 10
1.844109017315827
 20
0.1010300168857885
 30
0.0
 11
1.9076090173158271
 21
0.1010300168857885
 31
0.0
  0
LINE
  5
B5DA
  8
0
 62
     0
 10
-1.5848909826841671
 20
0.1010300168857885
 30
0.0
 11
-1.5213909826841669
 21
0.1010300168857885
 31
0.0
  0
LINE
  5
B5DB
  8
0
 62
     0
 10
-1.6639317670245779
 20
0.1010300168857885
 30
0.0
 11
-1.6483909826841669
 21
0.1010300168857885
 31
0.0
  0
LINE
  5
B5DC
  8
0
 62
     0
 10
2.0981090173158301
 20
0.1010300168857885
 30
0.0
 11
2.1616090173158291
 21
0.1010300168857885
 31
0.0
  0
LINE
  5
B5DD
  8
0
 62
     0
 10
1.9711090173158301
 20
0.1010300168857885
 30
0.0
 11
2.0346090173158302
 21
0.1010300168857885
 31
0.0
  0
LINE
  5
B5DE
  8
0
 62
     0
 10
-2.2198909826841722
 20
0.1010300168857885
 30
0.0
 11
-2.1563909826841718
 21
0.1010300168857885
 31
0.0
  0
LINE
  5
B5DF
  8
0
 62
     0
 10
-2.303682728392864
 20
0.1010300168857885
 30
0.0
 11
-2.2833909826841721
 21
0.1010300168857885
 31
0.0
  0
LINE
  5
B5E0
  8
0
 62
     0
 10
2.479109017315829
 20
0.1010300168857885
 30
0.0
 11
2.4999999999999991
 21
0.1010300168857885
 31
0.0
  0
LINE
  5
B5E1
  8
0
 62
     0
 10
2.3521090173158301
 20
0.1010300168857885
 30
0.0
 11
2.4156090173158291
 21
0.1010300168857885
 31
0.0
  0
LINE
  5
B5E2
  8
0
 62
     0
 10
-2.3468909826841742
 20
0.1010300168857885
 30
0.0
 11
-2.342111111106274
 21
0.1010300168857885
 31
0.0
  0
LINE
  5
B5E3
  8
0
 62
     0
 10
-2.4738909826841731
 20
0.1010300168857885
 30
0.0
 11
-2.4103909826841741
 21
0.1010300168857885
 31
0.0
  0
LINE
  5
B5E4
  8
0
 62
     0
 10
0.2566090173158348
 20
0.1645300168857879
 30
0.0
 11
0.2802973552672974
 21
0.1645300168857879
 31
0.0
  0
LINE
  5
B5E5
  8
0
 62
     0
 10
0.1296090173158348
 20
0.1645300168857879
 30
0.0
 11
0.1931090173158349
 21
0.1645300168857879
 31
0.0
  0
LINE
  5
B5E6
  8
0
 62
     0
 10
0.0026090173158349
 20
0.1645300168857879
 30
0.0
 11
0.0661090173158349
 21
0.1645300168857879
 31
0.0
  0
LINE
  5
B5E7
  8
0
 62
     0
 10
-0.2513909826841665
 20
0.1645300168857879
 30
0.0
 11
-0.1878909826841665
 21
0.1645300168857879
 31
0.0
  0
LINE
  5
B5E8
  8
0
 62
     0
 10
-0.3199913461995436
 20
0.1645300168857879
 30
0.0
 11
-0.3148909826841665
 21
0.1645300168857879
 31
0.0
  0
LINE
  5
B5E9
  8
0
 62
     0
 10
0.8916090173158316
 20
0.1645300168857879
 30
0.0
 11
0.9157777777793612
 21
0.1645300168857879
 31
0.0
  0
LINE
  5
B5EA
  8
0
 62
     0
 10
0.7646090173158318
 20
0.1645300168857879
 30
0.0
 11
0.8281090173158316
 21
0.1645300168857879
 31
0.0
  0
LINE
  5
B5EB
  8
0
 62
     0
 10
-0.6323909826841692
 20
0.1645300168857879
 30
0.0
 11
-0.5688909826841692
 21
0.1645300168857879
 31
0.0
  0
LINE
  5
B5EC
  8
0
 62
     0
 10
-0.7593909826841692
 20
0.1645300168857879
 30
0.0
 11
-0.6958909826841692
 21
0.1645300168857879
 31
0.0
  0
LINE
  5
B5ED
  8
0
 62
     0
 10
1.1456090173158331
 20
0.1645300168857879
 30
0.0
 11
1.175777777779256
 21
0.1645300168857879
 31
0.0
  0
LINE
  5
B5EE
  8
0
 62
     0
 10
1.0186090173158331
 20
0.1645300168857879
 30
0.0
 11
1.082109017315833
 21
0.1645300168857879
 31
0.0
  0
LINE
  5
B5EF
  8
0
 62
     0
 10
-1.1403909826841621
 20
0.1645300168857879
 30
0.0
 11
-1.0768909826841619
 21
0.1645300168857879
 31
0.0
  0
LINE
  5
B5F0
  8
0
 62
     0
 10
1.653609017315832
 20
0.1645300168857879
 30
0.0
 11
1.6857777777792571
 21
0.1645300168857879
 31
0.0
  0
LINE
  5
B5F1
  8
0
 62
     0
 10
1.526609017315832
 20
0.1645300168857879
 30
0.0
 11
1.5901090173158321
 21
0.1645300168857879
 31
0.0
  0
LINE
  5
B5F2
  8
0
 62
     0
 10
-1.3943909826841661
 20
0.1645300168857879
 30
0.0
 11
-1.3308909826841659
 21
0.1645300168857879
 31
0.0
  0
LINE
  5
B5F3
  8
0
 62
     0
 10
-1.5213909826841661
 20
0.1645300168857879
 30
0.0
 11
-1.4578909826841659
 21
0.1645300168857879
 31
0.0
  0
LINE
  5
B5F4
  8
0
 62
     0
 10
-1.6355234545245769
 20
0.1645300168857879
 30
0.0
 11
-1.5848909826841659
 21
0.1645300168857879
 31
0.0
  0
LINE
  5
B5F5
  8
0
 62
     0
 10
2.0346090173158311
 20
0.1645300168857879
 30
0.0
 11
2.098109017315831
 21
0.1645300168857879
 31
0.0
  0
LINE
  5
B5F6
  8
0
 62
     0
 10
1.907609017315832
 20
0.1645300168857879
 30
0.0
 11
1.9711090173158321
 21
0.1645300168857879
 31
0.0
  0
LINE
  5
B5F7
  8
0
 62
     0
 10
1.789444444445152
 20
0.1645300168857879
 30
0.0
 11
1.8441090173158321
 21
0.1645300168857879
 31
0.0
  0
LINE
  5
B5F8
  8
0
 62
     0
 10
-2.1563909826841638
 20
0.1645300168857879
 30
0.0
 11
-2.092890982684164
 21
0.1645300168857879
 31
0.0
  0
LINE
  5
B5F9
  8
0
 62
     0
 10
-2.2532618705332901
 20
0.1645300168857879
 30
0.0
 11
-2.2198909826841642
 21
0.1645300168857879
 31
0.0
  0
LINE
  5
B5FA
  8
0
 62
     0
 10
2.415609017315834
 20
0.1645300168857879
 30
0.0
 11
2.4791090173158339
 21
0.1645300168857879
 31
0.0
  0
LINE
  5
B5FB
  8
0
 62
     0
 10
2.3421111111112651
 20
0.1645300168857879
 30
0.0
 11
2.3521090173158341
 21
0.1645300168857879
 31
0.0
  0
LINE
  5
B5FC
  8
0
 62
     0
 10
-2.4103909826841692
 20
0.1645300168857879
 30
0.0
 11
-2.3468909826841688
 21
0.1645300168857879
 31
0.0
  0
LINE
  5
B5FD
  8
0
 62
     0
 10
-2.4999999999950009
 20
0.1645300168857879
 30
0.0
 11
-2.4738909826841691
 21
0.1645300168857879
 31
0.0
  0
LINE
  5
B5FE
  8
0
 62
     0
 10
0.1931090173158325
 20
0.2280300168857874
 30
0.0
 11
0.2518888507843933
 21
0.2280300168857874
 31
0.0
  0
LINE
  5
B5FF
  8
0
 62
     0
 10
0.0661090173158325
 20
0.2280300168857874
 30
0.0
 11
0.1296090173158325
 21
0.2280300168857874
 31
0.0
  0
LINE
  5
B600
  8
0
 62
     0
 10
-0.0150197740466389
 20
0.2280300168857874
 30
0.0
 11
0.0026090173158325
 21
0.2280300168857874
 31
0.0
  0
LINE
  5
B601
  8
0
 62
     0
 10
-0.1878909826841724
 20
0.2280300168857874
 30
0.0
 11
-0.1276406928862706
 21
0.2280300168857874
 31
0.0
  0
LINE
  5
B602
  8
0
 62
     0
 10
-0.2932614983850321
 20
0.2280300168857874
 30
0.0
 11
-0.2513909826841724
 21
0.2280300168857874
 31
0.0
  0
LINE
  5
B603
  8
0
 62
     0
 10
0.8281090173158293
 20
0.2280300168857874
 30
0.0
 11
0.8916090173158293
 21
0.2280300168857874
 31
0.0
  0
LINE
  5
B604
  8
0
 62
     0
 10
0.7557777777793647
 20
0.2280300168857874
 30
0.0
 11
0.7646090173158294
 21
0.2280300168857874
 31
0.0
  0
LINE
  5
B605
  8
0
 62
     0
 10
-0.5688909826841715
 20
0.2280300168857874
 30
0.0
 11
-0.5588579373383169
 21
0.2280300168857874
 31
0.0
  0
LINE
  5
B606
  8
0
 62
     0
 10
-0.6958909826841716
 20
0.2280300168857874
 30
0.0
 11
-0.6323909826841715
 21
0.2280300168857874
 31
0.0
  0
LINE
  5
B607
  8
0
 62
     0
 10
-0.7831420626553438
 20
0.2280300168857874
 30
0.0
 11
-0.7593909826841716
 21
0.2280300168857874
 31
0.0
  0
LINE
  5
B608
  8
0
 62
     0
 10
1.082109017315837
 20
0.2280300168857874
 30
0.0
 11
1.1456090173158371
 21
0.2280300168857874
 31
0.0
  0
LINE
  5
B609
  8
0
 62
     0
 10
1.0157777777792589
 20
0.2280300168857874
 30
0.0
 11
1.0186090173158371
 21
0.2280300168857874
 31
0.0
  0
LINE
  5
B60A
  8
0
 62
     0
 10
-1.0768909826841671
 20
0.2280300168857874
 30
0.0
 11
-1.048799685235827
 21
0.2280300168857874
 31
0.0
  0
LINE
  5
B60B
  8
0
 62
     0
 10
-1.2038909826841671
 20
0.2280300168857874
 30
0.0
 11
-1.1403909826841661
 21
0.2280300168857874
 31
0.0
  0
LINE
  5
B60C
  8
0
 62
     0
 10
1.590109017315829
 20
0.2280300168857874
 30
0.0
 11
1.6536090173158291
 21
0.2280300168857874
 31
0.0
  0
LINE
  5
B60D
  8
0
 62
     0
 10
1.5257777777792609
 20
0.2280300168857874
 30
0.0
 11
1.5266090173158291
 21
0.2280300168857874
 31
0.0
  0
LINE
  5
B60E
  8
0
 62
     0
 10
-1.4578909826841699
 20
0.2280300168857874
 30
0.0
 11
-1.3943909826841701
 21
0.2280300168857874
 31
0.0
  0
LINE
  5
B60F
  8
0
 62
     0
 10
-1.5848909826841699
 20
0.2280300168857874
 30
0.0
 11
-1.5213909826841701
 21
0.2280300168857874
 31
0.0
  0
LINE
  5
B610
  8
0
 62
     0
 10
1.9711090173158341
 20
0.2280300168857874
 30
0.0
 11
2.0346090173158342
 21
0.2280300168857874
 31
0.0
  0
LINE
  5
B611
  8
0
 62
     0
 10
1.8441090173158341
 20
0.2280300168857874
 30
0.0
 11
1.907609017315834
 21
0.2280300168857874
 31
0.0
  0
LINE
  5
B612
  8
0
 62
     0
 10
-2.0928909826841702
 20
0.2280300168857874
 30
0.0
 11
-2.0293909826841698
 21
0.2280300168857874
 31
0.0
  0
LINE
  5
B613
  8
0
 62
     0
 10
-2.2028410126737148
 20
0.2280300168857874
 30
0.0
 11
-2.1563909826841701
 21
0.2280300168857874
 31
0.0
  0
LINE
  5
B614
  8
0
 62
     0
 10
2.479109017315829
 20
0.2280300168857874
 30
0.0
 11
2.4999999999999991
 21
0.2280300168857874
 31
0.0
  0
LINE
  5
B615
  8
0
 62
     0
 10
2.3521090173158301
 20
0.2280300168857874
 30
0.0
 11
2.4156090173158291
 21
0.2280300168857874
 31
0.0
  0
LINE
  5
B616
  8
0
 62
     0
 10
-2.3468909826841671
 20
0.2280300168857874
 30
0.0
 11
-2.342111111106266
 21
0.2280300168857874
 31
0.0
  0
LINE
  5
B617
  8
0
 62
     0
 10
-2.473890982684166
 20
0.2280300168857874
 30
0.0
 11
-2.4103909826841661
 21
0.2280300168857874
 31
0.0
  0
LINE
  5
B618
  8
0
 62
     0
 10
0.1296090173158302
 20
0.2915300168857868
 30
0.0
 11
0.1931090173158302
 21
0.2915300168857868
 31
0.0
  0
LINE
  5
B619
  8
0
 62
     0
 10
0.0133929481755821
 20
0.2915300168857868
 30
0.0
 11
0.0661090173158302
 21
0.2915300168857868
 31
0.0
  0
LINE
  5
B61A
  8
0
 62
     0
 10
-0.1243909826841736
 20
0.2915300168857868
 30
0.0
 11
-0.1009001373307115
 21
0.2915300168857868
 31
0.0
  0
LINE
  5
B61B
  8
0
 62
     0
 10
-0.2513909826841736
 20
0.2915300168857868
 30
0.0
 11
-0.1878909826841736
 21
0.2915300168857868
 31
0.0
  0
LINE
  5
B61C
  8
0
 62
     0
 10
0.8916090173158316
 20
0.2915300168857868
 30
0.0
 11
0.9157777777793612
 21
0.2915300168857868
 31
0.0
  0
LINE
  5
B61D
  8
0
 62
     0
 10
0.7646090173158318
 20
0.2915300168857868
 30
0.0
 11
0.8281090173158316
 21
0.2915300168857868
 31
0.0
  0
LINE
  5
B61E
  8
0
 62
     0
 10
-0.6323909826841703
 20
0.2915300168857868
 30
0.0
 11
-0.5827314617309121
 21
0.2915300168857868
 31
0.0
  0
LINE
  5
B61F
  8
0
 62
     0
 10
-0.7592685382627417
 20
0.2915300168857868
 30
0.0
 11
-0.6958909826841703
 21
0.2915300168857868
 31
0.0
  0
LINE
  5
B620
  8
0
 62
     0
 10
1.1456090173158251
 20
0.2915300168857868
 30
0.0
 11
1.175777777779256
 21
0.2915300168857868
 31
0.0
  0
LINE
  5
B621
  8
0
 62
     0
 10
1.0186090173158251
 20
0.2915300168857868
 30
0.0
 11
1.0821090173158261
 21
0.2915300168857868
 31
0.0
  0
LINE
  5
B622
  8
0
 62
     0
 10
-1.1403909826841689
 20
0.2915300168857868
 30
0.0
 11
-1.0768909826841691
 21
0.2915300168857868
 31
0.0
  0
LINE
  5
B623
  8
0
 62
     0
 10
-1.2412109737740591
 20
0.2915300168857868
 30
0.0
 11
-1.2038909826841691
 21
0.2915300168857868
 31
0.0
  0
LINE
  5
B624
  8
0
 62
     0
 10
1.653609017315832
 20
0.2915300168857868
 30
0.0
 11
1.6857777777792571
 21
0.2915300168857868
 31
0.0
  0
LINE
  5
B625
  8
0
 62
     0
 10
1.526609017315832
 20
0.2915300168857868
 30
0.0
 11
1.5901090173158321
 21
0.2915300168857868
 31
0.0
  0
LINE
  5
B626
  8
0
 62
     0
 10
-1.3943909826841689
 20
0.2915300168857868
 30
0.0
 11
-1.3686412571797031
 21
0.2915300168857868
 31
0.0
  0
LINE
  5
B627
  8
0
 62
     0
 10
-1.5213909826841689
 20
0.2915300168857868
 30
0.0
 11
-1.4578909826841691
 21
0.2915300168857868
 31
0.0
  0
LINE
  5
B628
  8
0
 62
     0
 10
1.907609017315832
 20
0.2915300168857868
 30
0.0
 11
1.9711090173158321
 21
0.2915300168857868
 31
0.0
  0
LINE
  5
B629
  8
0
 62
     0
 10
1.789444444445152
 20
0.2915300168857868
 30
0.0
 11
1.8441090173158321
 21
0.2915300168857868
 31
0.0
  0
LINE
  5
B62A
  8
0
 62
     0
 10
-2.0293909826841761
 20
0.2915300168857868
 30
0.0
 11
-1.9658909826841759
 21
0.2915300168857868
 31
0.0
  0
LINE
  5
B62B
  8
0
 62
     0
 10
-2.1524201548141408
 20
0.2915300168857868
 30
0.0
 11
-2.0928909826841751
 21
0.2915300168857868
 31
0.0
  0
LINE
  5
B62C
  8
0
 62
     0
 10
2.4156090173158269
 20
0.2915300168857868
 30
0.0
 11
2.4791090173158268
 21
0.2915300168857868
 31
0.0
  0
LINE
  5
B62D
  8
0
 62
     0
 10
2.3421111111112651
 20
0.2915300168857868
 30
0.0
 11
2.352109017315827
 21
0.2915300168857868
 31
0.0
  0
LINE
  5
B62E
  8
0
 62
     0
 10
-2.4103909826841758
 20
0.2915300168857868
 30
0.0
 11
-2.346890982684176
 21
0.2915300168857868
 31
0.0
  0
LINE
  5
B62F
  8
0
 62
     0
 10
-2.4999999999950009
 20
0.2915300168857868
 30
0.0
 11
-2.4738909826841762
 21
0.2915300168857868
 31
0.0
  0
LINE
  5
B630
  8
0
 62
     0
 10
0.1931090173158361
 20
0.3550300168857881
 30
0.0
 11
0.1950718418185886
 21
0.3550300168857881
 31
0.0
  0
LINE
  5
B631
  8
0
 62
     0
 10
0.0661090173158361
 20
0.3550300168857881
 30
0.0
 11
0.1296090173158361
 21
0.3550300168857881
 31
0.0
  0
LINE
  5
B632
  8
0
 62
     0
 10
-0.1878909826841724
 20
0.3550300168857881
 30
0.0
 11
-0.1243909826841724
 21
0.3550300168857881
 31
0.0
  0
LINE
  5
B633
  8
0
 62
     0
 10
0.8281090173158364
 20
0.3550300168857881
 30
0.0
 11
0.8916090173158364
 21
0.3550300168857881
 31
0.0
  0
LINE
  5
B634
  8
0
 62
     0
 10
0.7557777777793647
 20
0.3550300168857881
 30
0.0
 11
0.7646090173158365
 21
0.3550300168857881
 31
0.0
  0
LINE
  5
B635
  8
0
 62
     0
 10
-0.6958909826841609
 20
0.3550300168857881
 30
0.0
 11
-0.6323909826841608
 21
0.3550300168857881
 31
0.0
  0
LINE
  5
B636
  8
0
 62
     0
 10
1.0821090173158301
 20
0.3550300168857881
 30
0.0
 11
1.14560901731583
 21
0.3550300168857881
 31
0.0
  0
LINE
  5
B637
  8
0
 62
     0
 10
1.0157777777792589
 20
0.3550300168857881
 30
0.0
 11
1.01860901731583
 21
0.3550300168857881
 31
0.0
  0
LINE
  5
B638
  8
0
 62
     0
 10
-1.2038909826841671
 20
0.3550300168857881
 30
0.0
 11
-1.1403909826841669
 21
0.3550300168857881
 31
0.0
  0
LINE
  5
B639
  8
0
 62
     0
 10
-1.267951529329614
 20
0.3550300168857881
 30
0.0
 11
-1.2673909826841669
 21
0.3550300168857881
 31
0.0
  0
LINE
  5
B63A
  8
0
 62
     0
 10
1.5901090173158361
 20
0.3550300168857881
 30
0.0
 11
1.653609017315836
 21
0.3550300168857881
 31
0.0
  0
LINE
  5
B63B
  8
0
 62
     0
 10
1.5257777777792609
 20
0.3550300168857881
 30
0.0
 11
1.526609017315836
 21
0.3550300168857881
 31
0.0
  0
LINE
  5
B63C
  8
0
 62
     0
 10
-1.4578909826841651
 20
0.3550300168857881
 30
0.0
 11
-1.3970469238463601
 21
0.3550300168857881
 31
0.0
  0
LINE
  5
B63D
  8
0
 62
     0
 10
-1.5502985170245791
 20
0.3550300168857881
 30
0.0
 11
-1.5213909826841641
 21
0.3550300168857881
 31
0.0
  0
LINE
  5
B63E
  8
0
 62
     0
 10
1.8441090173158341
 20
0.3550300168857881
 30
0.0
 11
1.907609017315834
 21
0.3550300168857881
 31
0.0
  0
LINE
  5
B63F
  8
0
 62
     0
 10
-1.9658909826841631
 20
0.3550300168857881
 30
0.0
 11
-1.902390982684163
 21
0.3550300168857881
 31
0.0
  0
LINE
  5
B640
  8
0
 62
     0
 10
-2.0928909826841631
 20
0.3550300168857881
 30
0.0
 11
-2.0293909826841632
 21
0.3550300168857881
 31
0.0
  0
LINE
  5
B641
  8
0
 62
     0
 10
2.4791090173158361
 20
0.3550300168857881
 30
0.0
 11
2.4999999999999991
 21
0.3550300168857881
 31
0.0
  0
LINE
  5
B642
  8
0
 62
     0
 10
2.3521090173158372
 20
0.3550300168857881
 30
0.0
 11
2.4156090173158371
 21
0.3550300168857881
 31
0.0
  0
LINE
  5
B643
  8
0
 62
     0
 10
-2.3468909826841671
 20
0.3550300168857881
 30
0.0
 11
-2.342111111106274
 21
0.3550300168857881
 31
0.0
  0
LINE
  5
B644
  8
0
 62
     0
 10
-2.473890982684166
 20
0.3550300168857881
 30
0.0
 11
-2.4103909826841661
 21
0.3550300168857881
 31
0.0
  0
LINE
  5
B645
  8
0
 62
     0
 10
0.1296090173158337
 20
0.4185300168857875
 30
0.0
 11
0.1666633373356845
 21
0.4185300168857875
 31
0.0
  0
LINE
  5
B646
  8
0
 62
     0
 10
-0.1243909826841711
 20
0.4185300168857875
 30
0.0
 11
-0.0608909826841712
 21
0.4185300168857875
 31
0.0
  0
LINE
  5
B647
  8
0
 62
     0
 10
-0.2130719549414977
 20
0.4185300168857875
 30
0.0
 11
-0.1878909826841711
 21
0.4185300168857875
 31
0.0
  0
LINE
  5
B648
  8
0
 62
     0
 10
0.8916090173158316
 20
0.4185300168857875
 30
0.0
 11
0.9157777777793612
 21
0.4185300168857875
 31
0.0
  0
LINE
  5
B649
  8
0
 62
     0
 10
0.7646090173158318
 20
0.4185300168857875
 30
0.0
 11
0.8281090173158316
 21
0.4185300168857875
 31
0.0
  0
LINE
  5
B64A
  8
0
 62
     0
 10
-0.6323909826841668
 20
0.4185300168857875
 30
0.0
 11
-0.6304785105161203
 21
0.4185300168857875
 31
0.0
  0
LINE
  5
B64B
  8
0
 62
     0
 10
-0.7115214894775406
 20
0.4185300168857875
 30
0.0
 11
-0.6958909826841668
 21
0.4185300168857875
 31
0.0
  0
LINE
  5
B64C
  8
0
 62
     0
 10
1.1456090173158331
 20
0.4185300168857875
 30
0.0
 11
1.1757777777792631
 21
0.4185300168857875
 31
0.0
  0
LINE
  5
B64D
  8
0
 62
     0
 10
1.0186090173158331
 20
0.4185300168857875
 30
0.0
 11
1.082109017315833
 21
0.4185300168857875
 31
0.0
  0
LINE
  5
B64E
  8
0
 62
     0
 10
-1.1403909826841641
 20
0.4185300168857875
 30
0.0
 11
-1.129024200133109
 21
0.4185300168857875
 31
0.0
  0
LINE
  5
B64F
  8
0
 62
     0
 10
-1.2673909826841641
 20
0.4185300168857875
 30
0.0
 11
-1.2038909826841639
 21
0.4185300168857875
 31
0.0
  0
LINE
  5
B650
  8
0
 62
     0
 10
1.653609017315832
 20
0.4185300168857875
 30
0.0
 11
1.6857777777792571
 21
0.4185300168857875
 31
0.0
  0
LINE
  5
B651
  8
0
 62
     0
 10
1.526609017315832
 20
0.4185300168857875
 30
0.0
 11
1.5901090173158321
 21
0.4185300168857875
 31
0.0
  0
LINE
  5
B652
  8
0
 62
     0
 10
-1.5213909826841729
 20
0.4185300168857875
 30
0.0
 11
-1.4578909826841731
 21
0.4185300168857875
 31
0.0
  0
LINE
  5
B653
  8
0
 62
     0
 10
1.789444444445152
 20
0.4185300168857875
 30
0.0
 11
1.8441090173158321
 21
0.4185300168857875
 31
0.0
  0
LINE
  5
B654
  8
0
 62
     0
 10
-1.902390982684165
 20
0.4185300168857875
 30
0.0
 11
-1.8499087321949761
 21
0.4185300168857875
 31
0.0
  0
LINE
  5
B655
  8
0
 62
     0
 10
-2.029390982684165
 20
0.4185300168857875
 30
0.0
 11
-1.9658909826841651
 21
0.4185300168857875
 31
0.0
  0
LINE
  5
B656
  8
0
 62
     0
 10
2.415609017315834
 20
0.4185300168857875
 30
0.0
 11
2.4791090173158339
 21
0.4185300168857875
 31
0.0
  0
LINE
  5
B657
  8
0
 62
     0
 10
2.3421111111112651
 20
0.4185300168857875
 30
0.0
 11
2.3521090173158341
 21
0.4185300168857875
 31
0.0
  0
LINE
  5
B658
  8
0
 62
     0
 10
-2.4103909826841621
 20
0.4185300168857875
 30
0.0
 11
-2.3468909826841622
 21
0.4185300168857875
 31
0.0
  0
LINE
  5
B659
  8
0
 62
     0
 10
-2.4999999999950009
 20
0.4185300168857875
 30
0.0
 11
-2.4738909826841611
 21
0.4185300168857875
 31
0.0
  0
LINE
  5
B65A
  8
0
 62
     0
 10
0.0986311148422381
 20
0.482030016885787
 30
0.0
 11
0.129609017315835
 21
0.482030016885787
 31
0.0
  0
LINE
  5
B65B
  8
0
 62
     0
 10
-0.0608909826841699
 20
0.482030016885787
 30
0.0
 11
-0.0206784706640413
 21
0.482030016885787
 31
0.0
  0
LINE
  5
B65C
  8
0
 62
     0
 10
-0.1863421071269862
 20
0.482030016885787
 30
0.0
 11
-0.1243909826841699
 21
0.482030016885787
 31
0.0
  0
LINE
  5
B65D
  8
0
 62
     0
 10
0.8281090173158293
 20
0.482030016885787
 30
0.0
 11
0.8916090173158293
 21
0.482030016885787
 31
0.0
  0
LINE
  5
B65E
  8
0
 62
     0
 10
0.7557777777793647
 20
0.482030016885787
 30
0.0
 11
0.7646090173158294
 21
0.482030016885787
 31
0.0
  0
LINE
  5
B65F
  8
0
 62
     0
 10
-0.6876479650849383
 20
0.482030016885787
 30
0.0
 11
-0.6543520349087295
 21
0.482030016885787
 31
0.0
  0
LINE
  5
B660
  8
0
 62
     0
 10
1.082109017315823
 20
0.482030016885787
 30
0.0
 11
1.1456090173158231
 21
0.482030016885787
 31
0.0
  0
LINE
  5
B661
  8
0
 62
     0
 10
1.0157777777792589
 20
0.482030016885787
 30
0.0
 11
1.0186090173158231
 21
0.482030016885787
 31
0.0
  0
LINE
  5
B662
  8
0
 62
     0
 10
-1.2038909826841671
 20
0.482030016885787
 30
0.0
 11
-1.1557657050988721
 21
0.482030016885787
 31
0.0
  0
LINE
  5
B663
  8
0
 62
     0
 10
-1.3214326404407251
 20
0.482030016885787
 30
0.0
 11
-1.2673909826841669
 21
0.482030016885787
 31
0.0
  0
LINE
  5
B664
  8
0
 62
     0
 10
1.590109017315829
 20
0.482030016885787
 30
0.0
 11
1.6536090173158291
 21
0.482030016885787
 31
0.0
  0
LINE
  5
B665
  8
0
 62
     0
 10
1.5257777777792609
 20
0.482030016885787
 30
0.0
 11
1.5266090173158291
 21
0.482030016885787
 31
0.0
  0
LINE
  5
B666
  8
0
 62
     0
 10
-1.4578909826841751
 20
0.482030016885787
 30
0.0
 11
-1.4538582571796921
 21
0.482030016885787
 31
0.0
  0
LINE
  5
B667
  8
0
 62
     0
 10
-1.838890982684164
 20
0.482030016885787
 30
0.0
 11
-1.799490243979075
 21
0.482030016885787
 31
0.0
  0
LINE
  5
B668
  8
0
 62
     0
 10
-1.965890982684164
 20
0.482030016885787
 30
0.0
 11
-1.902390982684163
 21
0.482030016885787
 31
0.0
  0
LINE
  5
B669
  8
0
 62
     0
 10
2.479109017315829
 20
0.482030016885787
 30
0.0
 11
2.4999999999999991
 21
0.482030016885787
 31
0.0
  0
LINE
  5
B66A
  8
0
 62
     0
 10
2.3521090173158301
 20
0.482030016885787
 30
0.0
 11
2.4156090173158291
 21
0.482030016885787
 31
0.0
  0
LINE
  5
B66B
  8
0
 62
     0
 10
-2.3468909826841742
 20
0.482030016885787
 30
0.0
 11
-2.342111111106274
 21
0.482030016885787
 31
0.0
  0
LINE
  5
B66C
  8
0
 62
     0
 10
-2.4738909826841731
 20
0.482030016885787
 30
0.0
 11
-2.4103909826841741
 21
0.482030016885787
 31
0.0
  0
ENDBLK
  5
B66E
  8
0
  0
BLOCK
  8
0
  2
*U158
 70
     1
 10
0.0
 20
0.0
 30
0.0
  3
*U158
  1

  0
TEXT
  5
B670
  8
1DIM
 62
   201
 10
-905.55836462903665
 20
-1472.2868244160829
 30
0.0
 40
1.75
  1
26
  0
ENDBLK
  5
B672
  8
0
  0
BLOCK
  8
0
  2
*U159
 70
     1
 10
0.0
 20
0.0
 30
0.0
  3
*U159
  1

  0
TEXT
  5
B674
  8
1DIM
 62
   201
 10
-912.26669796237002
 20
-1478.75007191383
 30
0.0
 40
1.75
  1
12
  0
ENDBLK
  5
B676
  8
0
  0
BLOCK
  8
0
  2
*U160
 70
     1
 10
0.0
 20
0.0
 30
0.0
  3
*U160
  1

  0
TEXT
  5
B678
  8
1DIM
 62
   201
 10
-880.05836462903665
 20
-1489.076276130867
 30
0.0
 40
1.75
  1
25
  0
ENDBLK
  5
B67A
  8
0
  0
BLOCK
  8
0
  2
*U161
 70
     1
 10
0.0
 20
0.0
 30
0.0
  3
*U161
  1

  0
TEXT
  5
B67C
  8
1DIM
 62
   201
 10
-881.97503129570327
 20
-1493.2307353844351
 30
0.0
 40
1.75
  1
23.5
  0
ENDBLK
  5
B67E
  8
0
  0
BLOCK
  8
0
  2
*U162
 70
     1
 10
0.0
 20
0.0
 30
0.0
  3
*U162
  1

  0
TEXT
  5
B680
  8
1DIM
 62
   201
 10
-927.48790340612095
 20
-1500.6334579223269
 30
0.0
 40
1.75
  1
37
 50
90.0
  0
ENDBLK
  5
B682
  8
0
  0
BLOCK
  8
0
  2
*U163
 70
     1
 10
0.0
 20
0.0
 30
0.0
  3
*U163
  1

  0
TEXT
  5
B684
  8
1DIM
 62
   201
 10
-923.17679034763717
 20
-1495.8001245889941
 30
0.0
 40
1.75
  1
(25)
 50
90.0
  0
ENDBLK
  5
B686
  8
0
  0
BLOCK
  8
0
  2
*U164
 70
     1
 10
0.0
 20
0.0
 30
0.0
  3
*U164
  1

  0
TEXT
  5
B688
  8
1DIM
 62
   201
 10
-919.86819123580165
 20
-1513.6470463957451
 30
0.0
 40
1.75
  1
R17
 50
34.121163469845037
  0
ENDBLK
  5
B68A
  8
0
  0
BLOCK
  8
0
  2
*U165
 70
     1
 10
0.0
 20
0.0
 30
0.0
  3
*U165
  1

  0
TEXT
  5
B68C
  8
1DIM
 62
   201
 10
-902.64015323080605
 20
-1490.7644785174789
 30
0.0
 40
1.75
  1
R5
 50
286.33605286095519
  0
ENDBLK
  5
B68E
  8
0
  0
BLOCK
  8
0
  2
*U166
 70
     1
 10
0.0
 20
0.0
 30
0.0
  3
*U166
  1

  0
TEXT
  5
B690
  8
1DIM
 62
   201
 10
-923.27262368097047
 20
-1515.393874588993
 30
0.0
 40
1.75
  1
12 
 50
90.0
  0
TEXT
  5
B691
  8
1DIM
 62
   201
 10
-924.35179034763712
 20
-1511.4272079223269
 30
0.0
 40
1.2250000000000001
  1
+0.2 
 50
90.0
  0
TEXT
  5
B692
  8
1DIM
 62
   201
 10
-922.71845701430391
 20
-1511.4272079223269
 30
0.0
 40
1.2250000000000001
  1
 0 
 50
90.0
  0
ENDBLK
  5
B694
  8
0
  0
BLOCK
  8
0
  2
*U167
 70
     1
 10
0.0
 20
0.0
 30
0.0
  3
*U167
  1

  0
TEXT
  5
B696
  8
1DIM
 62
   201
 10
-835.23666850741893
 20
-1540.199289187057
 30
0.0
 40
1.75
  1
1.8
 50
90.0
  0
ENDBLK
  5
B698
  8
0
  0
BLOCK
  8
0
  2
*U168
 70
     1
 10
0.0
 20
0.0
 30
0.0
  3
*U168
  1

  0
TEXT
  5
B69A
  8
1DIM
 62
   201
 10
-832.56692498374775
 20
-1541.9992891870579
 30
0.0
 40
1.75
  1
1.8
 50
90.0
  0
ENDBLK
  5
B69C
  8
0
  0
BLOCK
  8
0
  2
*U169
 70
     1
 10
0.0
 20
0.0
 30
0.0
  3
*U169
  1

  0
TEXT
  5
B69E
  8
1DIM
 62
   201
 10
-829.61113702016655
 20
-1543.7992891870581
 30
0.0
 40
1.75
  1
1.8
 50
90.0
  0
ENDBLK
  5
B6A0
  8
0
  0
BLOCK
  8
0
  2
*U170
 70
     1
 10
0.0
 20
0.0
 30
0.0
  3
*U170
  1

  0
TEXT
  5
B6A2
  8
1DIM
 62
   201
 10
-826.51232683663
 20
-1545.5992891870569
 30
0.0
 40
1.75
  1
1.8
 50
90.0
  0
ENDBLK
  5
B6A4
  8
0
  0
BLOCK
  8
0
  2
*U171
 70
     1
 10
0.0
 20
0.0
 30
0.0
  3
*U171
  1

  0
TEXT
  5
B6A6
  8
1DIM
 62
   201
 10
-832.1193013932957
 20
-1528.482622520391
 30
0.0
 40
1.75
  1
1.8
 50
90.0
  0
ENDBLK
  5
B6A8
  8
0
  0
BLOCK
  8
0
  2
*U172
 70
     1
 10
0.0
 20
0.0
 30
0.0
  3
*U172
  1

  0
TEXT
  5
B6AA
  8
1DIM
 62
   201
 10
-829.14847522185255
 20
-1526.6826225203911
 30
0.0
 40
1.75
  1
1.8
 50
90.0
  0
ENDBLK
  5
B6AC
  8
0
  0
BLOCK
  8
0
  2
*U173
 70
     1
 10
0.0
 20
0.0
 30
0.0
  3
*U173
  1

  0
TEXT
  5
B6AE
  8
1DIM
 62
   201
 10
-826.65843323768115
 20
-1524.8826225203909
 30
0.0
 40
1.75
  1
1.8
 50
90.0
  0
ENDBLK
  5
B6B0
  8
0
  0
BLOCK
  8
0
  2
*U174
 70
     1
 10
0.0
 20
0.0
 30
0.0
  3
*U174
  1

  0
TEXT
  5
B6B2
  8
1DIM
 62
   201
 10
-824.03087656871674
 20
-1523.0826225203909
 30
0.0
 40
1.75
  1
1.8
 50
90.0
  0
ENDBLK
  5
B6B4
  8
0
  0
BLOCK
  8
0
  2
*U175
 70
     1
 10
0.0
 20
0.0
 30
0.0
  3
*U175
  1

  0
TEXT
  5
B6B6
  8
1DIM
 62
   201
 10
-790.59153571118088
 20
-1532.7504396304651
 30
0.0
 40
1.75
  1
22 
 50
90.0
  0
TEXT
  5
B6B7
  8
1DIM
 62
   201
 10
-791.67070237784765
 20
-1528.2004396304651
 30
0.0
 40
1.2250000000000001
  1
+0.2 
 50
90.0
  0
TEXT
  5
B6B8
  8
1DIM
 62
   201
 10
-790.03736904451432
 20
-1528.2004396304651
 30
0.0
 40
1.2250000000000001
  1
 0 
 50
90.0
  0
ENDBLK
  5
B6BA
  8
0
  0
BLOCK
  8
0
  2
*U176
 70
     1
 10
0.0
 20
0.0
 30
0.0
  3
*U176
  1

  0
TEXT
  5
B6BC
  8
1DIM
 62
   201
 10
-763.65449670690634
 20
-1460.7551275442829
 30
0.0
 40
1.75
  1
(18)
 50
90.0
  0
ENDBLK
  5
B6BE
  8
0
  0
BLOCK
  8
0
  2
*U177
 70
     1
 10
0.0
 20
0.0
 30
0.0
  3
*U177
  1

  0
TEXT
  5
B6C0
  8
1DIM
 62
   201
 10
-789.919172181607
 20
-1465.6856445581041
 30
0.0
 40
1.75
  1
R4
 50
31.024186242553341
  0
ENDBLK
  5
B6C2
  8
0
  0
BLOCK
  8
0
  2
*U178
 70
     1
 10
0.0
 20
0.0
 30
0.0
  3
*U178
  1

  0
TEXT
  5
B6C4
  8
1DIM
 62
   201
 10
-770.33241133661716
 20
-1470.421792314613
 30
0.0
 40
1.75
  1
R1
 50
310.13390836707549
  0
ENDBLK
  5
B6C6
  8
0
  0
BLOCK
  8
0
  2
*U179
 70
     1
 10
0.0
 20
0.0
 30
0.0
  3
*U179
  1

  0
TEXT
  5
B6C8
  8
1DIM
 62
   201
 10
-769.5830221717315
 20
-1457.5997097902059
 30
0.0
 40
1.75
  1
R1
 50
43.460911325074093
  0
ENDBLK
  5
B6CA
  8
0
  0
BLOCK
  8
0
  2
*U180
 70
     1
 10
0.0
 20
0.0
 30
0.0
  3
*U180
  1

  0
TEXT
  5
B6CC
  8
1DIM
 62
   201
 10
-768.76112202735078
 20
-1447.319776719939
 30
0.0
 40
1.75
  1
4-R1
 50
12.333996066996241
  0
ENDBLK
  5
B6CE
  8
0
  0
BLOCK
  8
0
  2
*U181
 70
     1
 10
0.0
 20
0.0
 30
0.0
  3
*U181
  1

  0
TEXT
  5
B6D0
  8
1DIM
 62
   201
 10
-831.69916110423537
 20
-1487.862624588993
 30
0.0
 40
1.75
  1
(10)
 50
90.0
  0
ENDBLK
  5
B6D2
  8
0
  0
BLOCK
  8
0
  2
*U182
 70
     1
 10
0.0
 20
0.0
 30
0.0
  3
*U182
  1

  0
TEXT
  5
B6D4
  8
1DIM
 62
   201
 10
-767.85029735902231
 20
-1486.6959579223269
 30
0.0
 40
1.75
  1
10
 50
90.0
  0
ENDBLK
  5
B6D6
  8
0
  0
BLOCK
  8
0
  2
*U183
 70
     1
 10
0.0
 20
0.0
 30
0.0
  3
*U183
  1

  0
TEXT
  5
B6D8
  8
1DIM
 62
   201
 10
-780.07922861860845
 20
-1472.5598552801559
 30
0.0
 40
1.75
  1
(7.5)
  0
ENDBLK
  5
B6DA
  8
0
  0
BLOCK
  8
0
  2
*U184
 70
     1
 10
0.0
 20
0.0
 30
0.0
  3
*U184
  1

  0
TEXT
  5
B6DC
  8
1DIM
 62
   201
 10
-784.86913621862459
 20
-1473.0142529597881
 30
0.0
 40
1.75
  1
1.5
 50
90.0
  0
ENDBLK
  5
B6DE
  8
0
  0
BLOCK
  8
0
  2
*U185
 70
     1
 10
0.0
 20
0.0
 30
0.0
  3
*U185
  1

  0
TEXT
  5
B6E0
  8
1DIM
 62
   201
 10
-778.91256195194569
 20
-1446.2179317604341
 30
0.0
 40
1.75
  1
(8)
  0
ENDBLK
  5
B6E2
  8
0
  0
BLOCK
  8
0
  2
*U186
 70
     1
 10
0.0
 20
0.0
 30
0.0
  3
*U186
  1

  0
TEXT
  5
B6E4
  8
1DIM
 62
   201
 10
-820.02793766854563
 20
-1447.2581676266459
 30
0.0
 40
1.75
  1
*19.7 
 50
90.0
  0
TEXT
  5
B6E5
  8
1DIM
 62
   201
 10
-820.29043766854556
 20
-1439.2081676266459
 30
0.0
 40
1.2250000000000001
  1
±0.1
 50
90.0
  0
ENDBLK
  5
B6E7
  8
0
  0
BLOCK
  8
0
  2
*U187
 70
     1
 10
0.0
 20
0.0
 30
0.0
  3
*U187
  1

  0
TEXT
  5
B6E9
  8
1DIM
 62
   201
 10
-871.99508920874825
 20
-1527.880357306633
 30
0.0
 40
1.75
  1
*9.7 
 50
90.0
  0
TEXT
  5
B6EA
  8
1DIM
 62
   201
 10
-872.2575892087483
 20
-1520.9970239732991
 30
0.0
 40
1.2250000000000001
  1
±0.1
 50
90.0
  0
ENDBLK
  5
B6EC
  8
0
  0
BLOCK
  8
0
  2
*U188
 70
     1
 10
0.0
 20
0.0
 30
0.0
  3
*U188
  1

  0
TEXT
  5
B6EE
  8
1DIM
 62
   201
 10
-885.34052869277104
 20
-1528.135780894745
 30
0.0
 40
1.75
  1
1.15
 50
90.0
  0
ENDBLK
  5
B6F0
  8
0
  0
BLOCK
  8
0
  2
*U189
 70
     1
 10
0.0
 20
0.0
 30
0.0
  3
*U189
  1

  0
TEXT
  5
B6F2
  8
1DIM
 62
   201
 10
-794.59203191930294
 20
-1505.169442976701
 30
0.0
 40
1.75
  1
R0.5
 50
26.212640693500351
  0
ENDBLK
  5
B6F4
  8
0
  0
BLOCK
  8
0
  2
*U190
 70
     1
 10
0.0
 20
0.0
 30
0.0
  3
*U190
  1

  0
TEXT
  5
B6F6
  8
1DIM
 62
   201
 10
-888.90122097457095
 20
-1504.271169090714
 30
0.0
 40
1.75
  1
周R0.3
 50
27.64506081391027
  0
ENDBLK
  5
B6F8
  8
0
  0
BLOCK
  8
0
  2
*U191
 70
     1
 10
0.0
 20
0.0
 30
0.0
  3
*U191
  1

  0
TEXT
  5
B6FA
  8
1DIM
 62
   201
 10
-829.56551483695966
 20
-1467.494328274038
 30
0.0
 40
1.75
  1
18.7
 50
90.0
  0
ENDBLK
  5
B6FC
  8
0
  0
BLOCK
  8
0
  2
*U192
 70
     1
 10
0.0
 20
0.0
 30
0.0
  3
*U192
  1

  0
TEXT
  5
B6FE
  8
1DIM
 62
   201
 10
-863.26515230526695
 20
-1513.425124589
 30
0.0
 40
1.75
  1
8.7
 50
90.0
  0
ENDBLK
  5
B700
  8
0
  0
BLOCK
  8
0
  2
*U193
 70
     1
 10
0.0
 20
0.0
 30
0.0
  3
*U193
  1

  0
TEXT
  5
B702
  8
1DIM
 62
   201
 10
-794.08339528527915
 20
-1500.431733449019
 30
0.0
 40
1.75
  1
0.5
  0
ENDBLK
  5
B704
  8
0
  0
BLOCK
  8
0
  2
*U194
 70
     1
 10
0.0
 20
0.0
 30
0.0
  3
*U194
  1

  0
TEXT
  5
B706
  8
1DIM
 62
   201
 10
-850.41016942052568
 20
-1529.982967422452
 30
0.0
 40
1.75
  1
R0.5
 50
80.200079002945856
  0
ENDBLK
  5
B708
  8
0
  0
BLOCK
  8
0
  2
*U195
 70
     1
 10
0.0
 20
0.0
 30
0.0
  3
*U195
  1

  0
TEXT
  5
B70A
  8
1DIM
 62
   201
 10
-843.69151076577089
 20
-1529.4775414654259
 30
0.0
 40
1.75
  1
R0.5
 50
77.877559177666456
  0
ENDBLK
  5
B70C
  8
0
  0
BLOCK
  8
0
  2
*U196
 70
     1
 10
0.0
 20
0.0
 30
0.0
  3
*U196
  1

  0
TEXT
  5
B70E
  8
1DIM
 62
   201
 10
-847.29900688350961
 20
-1528.6246793237819
 30
0.0
 40
1.75
  1
R0.4
 50
69.616675245914394
  0
ENDBLK
  5
B710
  8
0
  0
BLOCK
  8
0
  2
*U197
 70
     1
 10
0.0
 20
0.0
 30
0.0
  3
*U197
  1

  0
TEXT
  5
B712
  8
1DIM
 62
   201
 10
-853.24058281420457
 20
-1528.724511718648
 30
0.0
 40
1.75
  1
R0.4
 50
74.868938438833268
  0
ENDBLK
  5
B714
  8
0
  0
BLOCK
  8
0
  2
*U198
 70
     1
 10
0.0
 20
0.0
 30
0.0
  3
*U198
  1

  0
TEXT
  5
B716
  8
1DIM
 62
   201
 10
-865.06512032829585
 20
-1518.199134081508
 30
0.0
 40
1.75
  1
0.4
  0
ENDBLK
  5
B718
  8
0
  0
BLOCK
  8
0
  2
*U199
 70
     1
 10
0.0
 20
0.0
 30
0.0
  3
*U199
  1

  0
TEXT
  5
B71A
  8
1DIM
 62
   201
 10
-858.13893077164914
 20
-1526.9991536579621
 30
0.0
 40
1.75
  1
0.4
 50
90.0
  0
ENDBLK
  5
B71C
  8
0
  0
BLOCK
  8
0
  2
*U200
 70
     1
 10
0.0
 20
0.0
 30
0.0
  3
*U200
  1

  0
TEXT
  5
B71E
  8
1DIM
 62
   201
 10
-837.78199184090408
 20
-1549.2884847463961
 30
0.0
 40
1.75
  1
SR0.5
 50
28.595136109832168
  0
ENDBLK
  5
B720
  8
0
  0
BLOCK
  8
0
  2
*U201
 70
     1
 10
0.0
 20
0.0
 30
0.0
  3
*U201
  1

  0
TEXT
  5
B722
  8
1DIM
 62
   201
 10
-823.47727963414263
 20
-1516.511122422346
 30
0.0
 40
1.75
  1
SR0.5
 50
291.92738270522131
  0
ENDBLK
  5
B724
  8
0
  0
BLOCK
  8
0
  2
*U202
 70
     1
 10
0.0
 20
0.0
 30
0.0
  3
*U202
  1

  0
TEXT
  5
B726
  8
1DIM
 62
   201
 10
-841.18413613781308
 20
-1534.5891826616651
 30
0.0
 40
1.75
  1
R0.5
 50
5.5920371099943029
  0
ENDBLK
  5
B728
  8
0
  0
BLOCK
  8
0
  2
*U203
 70
     1
 10
0.0
 20
0.0
 30
0.0
  3
*U203
  1

  0
TEXT
  5
B72A
  8
1DIM
 62
   201
 10
-849.21851284737136
 20
-1536.285410760154
 30
0.0
 40
1.75
  1
SR0.4
 50
3.8597503762655392
  0
ENDBLK
  5
B72C
  8
0
  0
BLOCK
  8
0
  2
*U204
 70
     1
 10
0.0
 20
0.0
 30
0.0
  3
*U204
  1

  0
TEXT
  5
B72E
  8
1DIM
 62
   201
 10
-843.77940592201037
 20
-1532.459016600732
 30
0.0
 40
1.75
  1
SR0.4
 50
12.782373888838499
  0
ENDBLK
  5
B730
  8
0
  0
BLOCK
  8
0
  2
*U205
 70
     1
 10
0.0
 20
0.0
 30
0.0
  3
*U205
  1

  0
TEXT
  5
B732
  8
1DIM
 62
   201
 10
-851.67181701281481
 20
-1479.2883083163049
 30
0.0
 40
1.75
  1
R1
 50
68.01948042394919
  0
ENDBLK
  5
B734
  8
0
  0
BLOCK
  8
0
  2
*U206
 70
     1
 10
0.0
 20
0.0
 30
0.0
  3
*U206
  1

  0
TEXT
  5
B736
  8
1DIM
 62
   201
 10
-836.5838539042245
 20
-1517.943112353684
 30
0.0
 40
1.75
  1
R0.5
 50
287.47065437036792
  0
ENDBLK
  5
B738
  8
0
  0
BLOCK
  8
0
  2
*U207
 70
     1
 10
0.0
 20
0.0
 30
0.0
  3
*U207
  1

  0
TEXT
  5
B73A
  8
1DIM
 62
   201
 10
-833.57573022472036
 20
-1504.5345598307961
 30
0.0
 40
1.75
  1
R0.5
 50
44.577147912903477
  0
ENDBLK
  5
B73C
  8
0
  0
BLOCK
  8
0
  2
*U208
 70
     1
 10
0.0
 20
0.0
 30
0.0
  3
*U208
  1

  0
TEXT
  5
B73E
  8
1DIM
 62
   201
 10
-834.48091254215183
 20
-1508.7119966785549
 30
0.0
 40
1.75
  1
R0.4
 50
33.6937929256367
  0
ENDBLK
  5
B740
  8
0
  0
BLOCK
  8
0
  2
*U209
 70
     1
 10
0.0
 20
0.0
 30
0.0
  3
*U209
  1

  0
TEXT
  5
B742
  8
1DIM
 62
   201
 10
-788.47506195194569
 20
-1479.367991338705
 30
0.0
 40
1.75
  1
20
  0
ENDBLK
  5
B744
  8
0
  0
BLOCK
  8
0
  2
*U210
 70
     1
 10
0.0
 20
0.0
 30
0.0
  3
*U210
  1

  0
TEXT
  5
B746
  8
1DIM
 62
   201
 10
-764.65512356101101
 20
-1487.8417912556599
 30
0.0
 40
1.75
  1
12
 50
90.0
  0
ENDBLK
  5
B748
  8
0
  0
BLOCK
  8
0
  2
*U211
 70
     1
 10
0.0
 20
0.0
 30
0.0
  3
*U211
  1

  0
TEXT
  5
B74A
  8
1DIM
 62
   201
 10
-865.04683917480475
 20
-1520.79669445338
 30
0.0
 40
1.75
  1
SR0.5
 50
290.61705969453971
  0
ENDBLK
  5
B74C
  8
0
  0
BLOCK
  8
0
  2
*U212
 70
     1
 10
0.0
 20
0.0
 30
0.0
  3
*U212
  1

  0
TEXT
  5
B74E
  8
1DIM
 62
   201
 10
-863.98718167556592
 20
-1506.811342973597
 30
0.0
 40
1.75
  1
SR0.4
 50
47.293800468937441
  0
ENDBLK
  5
B750
  8
0
  0
BLOCK
  8
0
  2
*U213
 70
     1
 10
0.0
 20
0.0
 30
0.0
  3
*U213
  1

  0
TEXT
  5
B752
  8
1DIM
 62
   201
 10
-864.20145857907892
 20
-1502.4394886808179
 30
0.0
 40
1.75
  1
SR0.5
 50
59.243526559210622
  0
ENDBLK
  5
B754
  8
0
  0
BLOCK
  8
0
  2
*U214
 70
     1
 10
0.0
 20
0.0
 30
0.0
  3
*U214
  1

  0
TEXT
  5
B756
  8
1DIM
 62
   201
 10
-778.97089528528056
 20
-1475.579916040756
 30
0.0
 40
1.75
  1
φ5
  0
ENDBLK
  5
B758
  8
0
  0
BLOCK
  8
0
  2
*U215
 70
     1
 10
0.0
 20
0.0
 30
0.0
  3
*U215
  1

  0
TEXT
  5
B75A
  8
1DIM
 62
   201
 10
-779.05839528528077
 20
-1478.3404315922201
 30
0.0
 40
1.75
  1
90°
  0
ENDBLK
  5
B75C
  8
0
  0
BLOCK
  8
0
  2
*U216
 70
     1
 10
0.0
 20
0.0
 30
0.0
  3
*U216
  1

  0
TEXT
  5
B75E
  8
1DIM
 62
   201
 10
-828.75554108570793
 20
-1474.823565757566
 30
0.0
 40
1.75
  1
SR0.5
 50
48.552433580823902
  0
ENDBLK
  5
B760
  8
0
  0
BLOCK
  8
0
  2
*U217
 70
     1
 10
0.0
 20
0.0
 30
0.0
  3
*U217
  1

  0
TEXT
  5
B762
  8
1DIM
 62
   201
 10
-837.99658671292696
 20
-1451.185188071865
 30
0.0
 40
1.75
  1
SR0.5
 50
1.006917619763646
  0
ENDBLK
  5
B764
  8
0
  0
BLOCK
  8
0
  2
*U218
 70
     1
 10
0.0
 20
0.0
 30
0.0
  3
*U218
  1

  0
TEXT
  5
B766
  8
1DIM
 62
   201
 10
-840.49156127202195
 20
-1460.060543970071
 30
0.0
 40
1.75
  1
SR0.5
 50
5.5920371099954984
  0
ENDBLK
  5
B768
  8
0
  0
BLOCK
  8
0
  2
*U219
 70
     1
 10
0.0
 20
0.0
 30
0.0
  3
*U219
  1

  0
TEXT
  5
B76A
  8
1DIM
 62
   201
 10
-849.2185128473717
 20
-1461.824582450713
 30
0.0
 40
1.75
  1
SR0.4
 50
3.8597503762665819
  0
ENDBLK
  5
B76C
  8
0
  0
BLOCK
  8
0
  2
*U220
 70
     1
 10
0.0
 20
0.0
 30
0.0
  3
*U220
  1

  0
TEXT
  5
B76E
  8
1DIM
 62
   201
 10
-843.77940592201037
 20
-1457.9981882912909
 30
0.0
 40
1.75
  1
SR0.4
 50
12.782373888838499
  0
ENDBLK
  5
B770
  8
0
  0
BLOCK
  8
0
  2
*U221
 70
     1
 10
0.0
 20
0.0
 30
0.0
  3
*U221
  1

  0
TEXT
  5
B772
  8
1DIM
 62
   201
 10
-832.25704221004764
 20
-1513.425124588993
 30
0.0
 40
1.75
  1
4.7
 50
90.0
  0
ENDBLK
  5
B774
  8
0
  0
BLOCK
  8
0
  2
*U222
 70
     1
 10
0.0
 20
0.0
 30
0.0
  3
*U222
  1

  0
TEXT
  5
B776
  8
1DIM
 62
   201
 10
-849.97740170267912
 20
-1502.1295093529479
 30
0.0
 40
1.75
  1
14.7
  0
ENDBLK
  5
B778
  8
0
  0
BLOCK
  8
0
  2
*U223
 70
     1
 10
0.0
 20
0.0
 30
0.0
  3
*U223
  1

  0
TEXT
  5
B77A
  8
1HATCH
 62
   201
 10
-834.54434254480009
 20
-1500.8246096415969
 30
0.0
 40
1.75
  1
R0.5
 50
45.488824211644257
  0
ENDBLK
  5
B77C
  8
0
  0
BLOCK
  8
0
  2
*U224
 70
     1
 10
0.0
 20
0.0
 30
0.0
  3
*U224
  1

  0
TEXT
  5
B77E
  8
1HATCH
 62
   201
 10
-862.81304304017181
 20
-1489.235820704331
 30
0.0
 40
1.75
  1
R0.5
 50
294.78973608473132
  0
ENDBLK
  5
B780
  8
0
  0
BLOCK
  8
0
  2
*U225
 70
     1
 10
0.0
 20
0.0
 30
0.0
  3
*U225
  1

  0
TEXT
  5
B782
  8
1DIM
 62
   201
 10
-1646.100865543227
 20
-1431.4557169955431
 30
0.0
 40
1.75
  1
26
  0
ENDBLK
  5
B784
  8
0
  0
BLOCK
  8
0
  2
*U226
 70
     1
 10
0.0
 20
0.0
 30
0.0
  3
*U226
  1

  0
TEXT
  5
B786
  8
1DIM
 62
   201
 10
-1652.80919887656
 20
-1437.9189644932901
 30
0.0
 40
1.75
  1
12
  0
ENDBLK
  5
B788
  8
0
  0
BLOCK
  8
0
  2
*U227
 70
     1
 10
0.0
 20
0.0
 30
0.0
  3
*U227
  1

  0
TEXT
  5
B78A
  8
1DIM
 62
   201
 10
-1620.600865543227
 20
-1448.2451687103271
 30
0.0
 40
1.75
  1
25
  0
ENDBLK
  5
B78C
  8
0
  0
BLOCK
  8
0
  2
*U228
 70
     1
 10
0.0
 20
0.0
 30
0.0
  3
*U228
  1

  0
TEXT
  5
B78E
  8
1DIM
 62
   201
 10
-1622.5175322098939
 20
-1452.399627963895
 30
0.0
 40
1.75
  1
23.5
  0
ENDBLK
  5
B790
  8
0
  0
BLOCK
  8
0
  2
*U229
 70
     1
 10
0.0
 20
0.0
 30
0.0
  3
*U229
  1

  0
TEXT
  5
B792
  8
1DIM
 62
   201
 10
-1668.0304043203109
 20
-1459.802350501787
 30
0.0
 40
1.75
  1
37
 50
90.0
  0
ENDBLK
  5
B794
  8
0
  0
BLOCK
  8
0
  2
*U230
 70
     1
 10
0.0
 20
0.0
 30
0.0
  3
*U230
  1

  0
TEXT
  5
B796
  8
1DIM
 62
   201
 10
-1663.7192912618279
 20
-1454.969017168454
 30
0.0
 40
1.75
  1
(25)
 50
90.0
  0
ENDBLK
  5
B798
  8
0
  0
BLOCK
  8
0
  2
*U231
 70
     1
 10
0.0
 20
0.0
 30
0.0
  3
*U231
  1

  0
TEXT
  5
B79A
  8
1DIM
 62
   201
 10
-1660.410692149992
 20
-1472.815938975205
 30
0.0
 40
1.75
  1
R17
 50
34.121163469845293
  0
ENDBLK
  5
B79C
  8
0
  0
BLOCK
  8
0
  2
*U232
 70
     1
 10
0.0
 20
0.0
 30
0.0
  3
*U232
  1

  0
TEXT
  5
B79E
  8
1DIM
 62
   201
 10
-1643.1826541449959
 20
-1449.9333710969399
 30
0.0
 40
1.75
  1
R5
 50
286.33605286095337
  0
ENDBLK
  5
B7A0
  8
0
  0
BLOCK
  8
0
  2
*U233
 70
     1
 10
0.0
 20
0.0
 30
0.0
  3
*U233
  1

  0
TEXT
  5
B7A2
  8
1DIM
 62
   201
 10
-1663.815124595161
 20
-1474.562767168454
 30
0.0
 40
1.75
  1
12 
 50
90.0
  0
TEXT
  5
B7A3
  8
1DIM
 62
   201
 10
-1664.8942912618279
 20
-1470.5961005017871
 30
0.0
 40
1.2250000000000001
  1
+0.2 
 50
90.0
  0
TEXT
  5
B7A4
  8
1DIM
 62
   201
 10
-1663.2609579284949
 20
-1470.5961005017871
 30
0.0
 40
1.2250000000000001
  1
 0 
 50
90.0
  0
ENDBLK
  5
B7A6
  8
0
  0
BLOCK
  8
0
  2
*U234
 70
     1
 10
0.0
 20
0.0
 30
0.0
  3
*U234
  1

  0
TEXT
  5
B7A8
  8
1DIM
 62
   201
 10
-1575.77916942161
 20
-1499.3681817665181
 30
0.0
 40
1.75
  1
1.8
 50
90.0
  0
ENDBLK
  5
B7AA
  8
0
  0
BLOCK
  8
0
  2
*U235
 70
     1
 10
0.0
 20
0.0
 30
0.0
  3
*U235
  1

  0
TEXT
  5
B7AC
  8
1DIM
 62
   201
 10
-1573.1094258979381
 20
-1501.168181766518
 30
0.0
 40
1.75
  1
1.8
 50
90.0
  0
ENDBLK
  5
B7AE
  8
0
  0
BLOCK
  8
0
  2
*U236
 70
     1
 10
0.0
 20
0.0
 30
0.0
  3
*U236
  1

  0
TEXT
  5
B7B0
  8
1DIM
 62
   201
 10
-1570.153637934357
 20
-1502.968181766518
 30
0.0
 40
1.75
  1
1.8
 50
90.0
  0
ENDBLK
  5
B7B2
  8
0
  0
BLOCK
  8
0
  2
*U237
 70
     1
 10
0.0
 20
0.0
 30
0.0
  3
*U237
  1

  0
TEXT
  5
B7B4
  8
1DIM
 62
   201
 10
-1567.054827750821
 20
-1504.768181766518
 30
0.0
 40
1.75
  1
1.8
 50
90.0
  0
ENDBLK
  5
B7B6
  8
0
  0
BLOCK
  8
0
  2
*U238
 70
     1
 10
0.0
 20
0.0
 30
0.0
  3
*U238
  1

  0
TEXT
  5
B7B8
  8
1DIM
 62
   201
 10
-1572.6618023074859
 20
-1487.6515150998521
 30
0.0
 40
1.75
  1
1.8
 50
90.0
  0
ENDBLK
  5
B7BA
  8
0
  0
BLOCK
  8
0
  2
*U239
 70
     1
 10
0.0
 20
0.0
 30
0.0
  3
*U239
  1

  0
TEXT
  5
B7BC
  8
1DIM
 62
   201
 10
-1569.690976136043
 20
-1485.8515150998519
 30
0.0
 40
1.75
  1
1.8
 50
90.0
  0
ENDBLK
  5
B7BE
  8
0
  0
BLOCK
  8
0
  2
*U240
 70
     1
 10
0.0
 20
0.0
 30
0.0
  3
*U240
  1

  0
TEXT
  5
B7C0
  8
1DIM
 62
   201
 10
-1567.2009341518719
 20
-1484.0515150998519
 30
0.0
 40
1.75
  1
1.8
 50
90.0
  0
ENDBLK
  5
B7C2
  8
0
  0
BLOCK
  8
0
  2
*U241
 70
     1
 10
0.0
 20
0.0
 30
0.0
  3
*U241
  1

  0
TEXT
  5
B7C4
  8
1DIM
 62
   201
 10
-1564.5733774829071
 20
-1482.251515099852
 30
0.0
 40
1.75
  1
1.8
 50
90.0
  0
ENDBLK
  5
B7C6
  8
0
  0
BLOCK
  8
0
  2
*U242
 70
     1
 10
0.0
 20
0.0
 30
0.0
  3
*U242
  1

  0
TEXT
  5
B7C8
  8
1DIM
 62
   201
 10
-1531.1340366253719
 20
-1491.9193322099261
 30
0.0
 40
1.75
  1
22 
 50
90.0
  0
TEXT
  5
B7C9
  8
1DIM
 62
   201
 10
-1532.2132032920381
 20
-1487.3693322099259
 30
0.0
 40
1.2250000000000001
  1
+0.2 
 50
90.0
  0
TEXT
  5
B7CA
  8
1DIM
 62
   201
 10
-1530.5798699587051
 20
-1487.3693322099259
 30
0.0
 40
1.2250000000000001
  1
 0 
 50
90.0
  0
ENDBLK
  5
B7CC
  8
0
  0
BLOCK
  8
0
  2
*U243
 70
     1
 10
0.0
 20
0.0
 30
0.0
  3
*U243
  1

  0
TEXT
  5
B7CE
  8
1DIM
 62
   201
 10
-1504.1969976210969
 20
-1419.924020123743
 30
0.0
 40
1.75
  1
(18)
 50
90.0
  0
ENDBLK
  5
B7D0
  8
0
  0
BLOCK
  8
0
  2
*U244
 70
     1
 10
0.0
 20
0.0
 30
0.0
  3
*U244
  1

  0
TEXT
  5
B7D2
  8
1DIM
 62
   201
 10
-1530.461673095798
 20
-1424.854537137564
 30
0.0
 40
1.75
  1
R4
 50
31.024186242554389
  0
ENDBLK
  5
B7D4
  8
0
  0
BLOCK
  8
0
  2
*U245
 70
     1
 10
0.0
 20
0.0
 30
0.0
  3
*U245
  1

  0
TEXT
  5
B7D6
  8
1DIM
 62
   201
 10
-1510.8749122508079
 20
-1429.590684894072
 30
0.0
 40
1.75
  1
R1
 50
310.1339083670839
  0
ENDBLK
  5
B7D8
  8
0
  0
BLOCK
  8
0
  2
*U246
 70
     1
 10
0.0
 20
0.0
 30
0.0
  3
*U246
  1

  0
TEXT
  5
B7DA
  8
1DIM
 62
   201
 10
-1510.1255230859219
 20
-1416.768602369667
 30
0.0
 40
1.75
  1
R1
 50
43.460911325073589
  0
ENDBLK
  5
B7DC
  8
0
  0
BLOCK
  8
0
  2
*U247
 70
     1
 10
0.0
 20
0.0
 30
0.0
  3
*U247
  1

  0
TEXT
  5
B7DE
  8
1DIM
 62
   201
 10
-1509.3036229415411
 20
-1406.4886692993989
 30
0.0
 40
1.75
  1
4-R1
 50
12.333996066993389
  0
ENDBLK
  5
B7E0
  8
0
  0
BLOCK
  8
0
  2
*U248
 70
     1
 10
0.0
 20
0.0
 30
0.0
  3
*U248
  1

  0
TEXT
  5
B7E2
  8
1DIM
 62
   201
 10
-1572.241662018426
 20
-1447.031517168454
 30
0.0
 40
1.75
  1
(10)
 50
90.0
  0
ENDBLK
  5
B7E4
  8
0
  0
BLOCK
  8
0
  2
*U249
 70
     1
 10
0.0
 20
0.0
 30
0.0
  3
*U249
  1

  0
TEXT
  5
B7E6
  8
1DIM
 62
   201
 10
-1508.392798273213
 20
-1445.864850501787
 30
0.0
 40
1.75
  1
10
 50
90.0
  0
ENDBLK
  5
B7E8
  8
0
  0
BLOCK
  8
0
  2
*U250
 70
     1
 10
0.0
 20
0.0
 30
0.0
  3
*U250
  1

  0
TEXT
  5
B7EA
  8
1DIM
 62
   201
 10
-1520.621729532799
 20
-1431.728747859617
 30
0.0
 40
1.75
  1
(7.5)
  0
ENDBLK
  5
B7EC
  8
0
  0
BLOCK
  8
0
  2
*U251
 70
     1
 10
0.0
 20
0.0
 30
0.0
  3
*U251
  1

  0
TEXT
  5
B7EE
  8
1DIM
 62
   201
 10
-1525.411637132815
 20
-1432.1831455392489
 30
0.0
 40
1.75
  1
1.5
 50
90.0
  0
ENDBLK
  5
B7F0
  8
0
  0
BLOCK
  8
0
  2
*U252
 70
     1
 10
0.0
 20
0.0
 30
0.0
  3
*U252
  1

  0
TEXT
  5
B7F2
  8
1DIM
 62
   201
 10
-1519.4550628661359
 20
-1405.386824339894
 30
0.0
 40
1.75
  1
(8)
  0
ENDBLK
  5
B7F4
  8
0
  0
BLOCK
  8
0
  2
*U253
 70
     1
 10
0.0
 20
0.0
 30
0.0
  3
*U253
  1

  0
TEXT
  5
B7F6
  8
1DIM
 62
   201
 10
-1560.570438582736
 20
-1406.4270602061069
 30
0.0
 40
1.75
  1
*19.7 
 50
90.0
  0
TEXT
  5
B7F7
  8
1DIM
 62
   201
 10
-1560.832938582736
 20
-1398.3770602061061
 30
0.0
 40
1.2250000000000001
  1
±0.1
 50
90.0
  0
ENDBLK
  5
B7F9
  8
0
  0
BLOCK
  8
0
  2
*U254
 70
     1
 10
0.0
 20
0.0
 30
0.0
  3
*U254
  1

  0
TEXT
  5
B7FB
  8
1DIM
 62
   201
 10
-1612.537590122939
 20
-1487.0492498860931
 30
0.0
 40
1.75
  1
*9.7 
 50
90.0
  0
TEXT
  5
B7FC
  8
1DIM
 62
   201
 10
-1612.8000901229391
 20
-1480.1659165527601
 30
0.0
 40
1.2250000000000001
  1
±0.1
 50
90.0
  0
ENDBLK
  5
B7FE
  8
0
  0
BLOCK
  8
0
  2
*U255
 70
     1
 10
0.0
 20
0.0
 30
0.0
  3
*U255
  1

  0
TEXT
  5
B800
  8
1DIM
 62
   201
 10
-1625.8830296069609
 20
-1487.3046734742049
 30
0.0
 40
1.75
  1
1.15
 50
90.0
  0
ENDBLK
  5
B802
  8
0
  0
BLOCK
  8
0
  2
*U256
 70
     1
 10
0.0
 20
0.0
 30
0.0
  3
*U256
  1

  0
TEXT
  5
B804
  8
1DIM
 62
   201
 10
-1535.1345328334939
 20
-1464.3383355561609
 30
0.0
 40
1.75
  1
R0.5
 50
26.212640693500351
  0
ENDBLK
  5
B806
  8
0
  0
BLOCK
  8
0
  2
*U257
 70
     1
 10
0.0
 20
0.0
 30
0.0
  3
*U257
  1

  0
TEXT
  5
B808
  8
1DIM
 62
   201
 10
-1629.4437218887599
 20
-1463.440061670176
 30
0.0
 40
1.75
  1
周R0.3
 50
27.645060813871801
  0
ENDBLK
  5
B80A
  8
0
  0
BLOCK
  8
0
  2
*U258
 70
     1
 10
0.0
 20
0.0
 30
0.0
  3
*U258
  1

  0
TEXT
  5
B80C
  8
1DIM
 62
   201
 10
-1570.1080157511501
 20
-1426.6632208534991
 30
0.0
 40
1.75
  1
18.7
 50
90.0
  0
ENDBLK
  5
B80E
  8
0
  0
BLOCK
  8
0
  2
*U259
 70
     1
 10
0.0
 20
0.0
 30
0.0
  3
*U259
  1

  0
TEXT
  5
B810
  8
1DIM
 62
   201
 10
-1603.807653219458
 20
-1472.5940171684599
 30
0.0
 40
1.75
  1
8.7
 50
90.0
  0
ENDBLK
  5
B812
  8
0
  0
BLOCK
  8
0
  2
*U260
 70
     1
 10
0.0
 20
0.0
 30
0.0
  3
*U260
  1

  0
TEXT
  5
B814
  8
1DIM
 62
   201
 10
-1534.6258961994699
 20
-1459.6006260284789
 30
0.0
 40
1.75
  1
0.5
  0
ENDBLK
  5
B816
  8
0
  0
BLOCK
  8
0
  2
*U261
 70
     1
 10
0.0
 20
0.0
 30
0.0
  3
*U261
  1

  0
TEXT
  5
B818
  8
1DIM
 62
   201
 10
-1590.9526703347201
 20
-1489.151860001911
 30
0.0
 40
1.75
  1
R0.5
 50
80.200079002928575
  0
ENDBLK
  5
B81A
  8
0
  0
BLOCK
  8
0
  2
*U262
 70
     1
 10
0.0
 20
0.0
 30
0.0
  3
*U262
  1

  0
TEXT
  5
B81C
  8
1DIM
 62
   201
 10
-1584.234011679958
 20
-1488.646434044887
 30
0.0
 40
1.75
  1
R0.5
 50
77.877559177679245
  0
ENDBLK
  5
B81E
  8
0
  0
BLOCK
  8
0
  2
*U263
 70
     1
 10
0.0
 20
0.0
 30
0.0
  3
*U263
  1

  0
TEXT
  5
B820
  8
1DIM
 62
   201
 10
-1587.841507797694
 20
-1487.7935719032439
 30
0.0
 40
1.75
  1
R0.4
 50
69.616675245941039
  0
ENDBLK
  5
B822
  8
0
  0
BLOCK
  8
0
  2
*U264
 70
     1
 10
0.0
 20
0.0
 30
0.0
  3
*U264
  1

  0
TEXT
  5
B824
  8
1DIM
 62
   201
 10
-1593.7830837284021
 20
-1487.8934042981059
 30
0.0
 40
1.75
  1
R0.4
 50
74.868938438801777
  0
ENDBLK
  5
B826
  8
0
  0
BLOCK
  8
0
  2
*U265
 70
     1
 10
0.0
 20
0.0
 30
0.0
  3
*U265
  1

  0
TEXT
  5
B828
  8
1DIM
 62
   201
 10
-1605.6076212424859
 20
-1477.3680266609681
 30
0.0
 40
1.75
  1
0.4
  0
ENDBLK
  5
B82A
  8
0
  0
BLOCK
  8
0
  2
*U266
 70
     1
 10
0.0
 20
0.0
 30
0.0
  3
*U266
  1

  0
TEXT
  5
B82C
  8
1DIM
 62
   201
 10
-1598.6814316858399
 20
-1486.1680462374229
 30
0.0
 40
1.75
  1
0.4
 50
90.0
  0
ENDBLK
  5
B82E
  8
0
  0
BLOCK
  8
0
  2
*U267
 70
     1
 10
0.0
 20
0.0
 30
0.0
  3
*U267
  1

  0
TEXT
  5
B830
  8
1DIM
 62
   201
 10
-1578.3244927550941
 20
-1508.457377325856
 30
0.0
 40
1.75
  1
SR0.5
 50
28.595136109832168
  0
ENDBLK
  5
B832
  8
0
  0
BLOCK
  8
0
  2
*U268
 70
     1
 10
0.0
 20
0.0
 30
0.0
  3
*U268
  1

  0
TEXT
  5
B834
  8
1DIM
 62
   201
 10
-1564.0197805483331
 20
-1475.6800150018059
 30
0.0
 40
1.75
  1
SR0.5
 50
291.92738270522131
  0
ENDBLK
  5
B836
  8
0
  0
BLOCK
  8
0
  2
*U269
 70
     1
 10
0.0
 20
0.0
 30
0.0
  3
*U269
  1

  0
TEXT
  5
B838
  8
1DIM
 62
   201
 10
-1581.726637052004
 20
-1493.758075241125
 30
0.0
 40
1.75
  1
R0.5
 50
5.5920371099930168
  0
ENDBLK
  5
B83A
  8
0
  0
BLOCK
  8
0
  2
*U270
 70
     1
 10
0.0
 20
0.0
 30
0.0
  3
*U270
  1

  0
TEXT
  5
B83C
  8
1DIM
 62
   201
 10
-1589.7610137615629
 20
-1495.454303339598
 30
0.0
 40
1.75
  1
SR0.4
 50
3.8597503762330092
  0
ENDBLK
  5
B83E
  8
0
  0
BLOCK
  8
0
  2
*U271
 70
     1
 10
0.0
 20
0.0
 30
0.0
  3
*U271
  1

  0
TEXT
  5
B840
  8
1DIM
 62
   201
 10
-1584.321906836198
 20
-1491.6279091802071
 30
0.0
 40
1.75
  1
SR0.4
 50
12.782373888873829
  0
ENDBLK
  5
B842
  8
0
  0
BLOCK
  8
0
  2
*U272
 70
     1
 10
0.0
 20
0.0
 30
0.0
  3
*U272
  1

  0
TEXT
  5
B844
  8
1DIM
 62
   201
 10
-1592.2143179270061
 20
-1438.457200895765
 30
0.0
 40
1.75
  1
R1
 50
68.019480423950355
  0
ENDBLK
  5
B846
  8
0
  0
BLOCK
  8
0
  2
*U273
 70
     1
 10
0.0
 20
0.0
 30
0.0
  3
*U273
  1

  0
TEXT
  5
B848
  8
1DIM
 62
   201
 10
-1577.1263548184149
 20
-1477.1120049331439
 30
0.0
 40
1.75
  1
R0.5
 50
287.47065437036792
  0
ENDBLK
  5
B84A
  8
0
  0
BLOCK
  8
0
  2
*U274
 70
     1
 10
0.0
 20
0.0
 30
0.0
  3
*U274
  1

  0
TEXT
  5
B84C
  8
1DIM
 62
   201
 10
-1574.1182311389121
 20
-1463.7034524102539
 30
0.0
 40
1.75
  1
R0.5
 50
44.577147912921717
  0
ENDBLK
  5
B84E
  8
0
  0
BLOCK
  8
0
  2
*U275
 70
     1
 10
0.0
 20
0.0
 30
0.0
  3
*U275
  1

  0
TEXT
  5
B850
  8
1DIM
 62
   201
 10
-1575.023413456343
 20
-1467.880889258015
 30
0.0
 40
1.75
  1
R0.4
 50
33.693792925654819
  0
ENDBLK
  5
B852
  8
0
  0
BLOCK
  8
0
  2
*U276
 70
     1
 10
0.0
 20
0.0
 30
0.0
  3
*U276
  1

  0
TEXT
  5
B854
  8
1DIM
 62
   201
 10
-1529.0175628661359
 20
-1438.5368839181649
 30
0.0
 40
1.75
  1
20
  0
ENDBLK
  5
B856
  8
0
  0
BLOCK
  8
0
  2
*U277
 70
     1
 10
0.0
 20
0.0
 30
0.0
  3
*U277
  1

  0
TEXT
  5
B858
  8
1DIM
 62
   201
 10
-1505.1976244752011
 20
-1447.010683835121
 30
0.0
 40
1.75
  1
12
 50
90.0
  0
ENDBLK
  5
B85A
  8
0
  0
BLOCK
  8
0
  2
*U278
 70
     1
 10
0.0
 20
0.0
 30
0.0
  3
*U278
  1

  0
TEXT
  5
B85C
  8
1DIM
 62
   201
 10
-1605.589340088997
 20
-1479.9655870328411
 30
0.0
 40
1.75
  1
SR0.5
 50
290.61705969452743
  0
ENDBLK
  5
B85E
  8
0
  0
BLOCK
  8
0
  2
*U279
 70
     1
 10
0.0
 20
0.0
 30
0.0
  3
*U279
  1

  0
TEXT
  5
B860
  8
1DIM
 62
   201
 10
-1604.529682589759
 20
-1465.980235553056
 30
0.0
 40
1.75
  1
SR0.4
 50
47.293800468959503
  0
ENDBLK
  5
B862
  8
0
  0
BLOCK
  8
0
  2
*U280
 70
     1
 10
0.0
 20
0.0
 30
0.0
  3
*U280
  1

  0
TEXT
  5
B864
  8
1DIM
 62
   201
 10
-1604.74395949327
 20
-1461.608381260279
 30
0.0
 40
1.75
  1
SR0.5
 50
59.243526559212732
  0
ENDBLK
  5
B866
  8
0
  0
BLOCK
  8
0
  2
*U281
 70
     1
 10
0.0
 20
0.0
 30
0.0
  3
*U281
  1

  0
TEXT
  5
B868
  8
1DIM
 62
   201
 10
-1519.5133961994709
 20
-1434.748808620217
 30
0.0
 40
1.75
  1
φ5
  0
ENDBLK
  5
B86A
  8
0
  0
BLOCK
  8
0
  2
*U282
 70
     1
 10
0.0
 20
0.0
 30
0.0
  3
*U282
  1

  0
TEXT
  5
B86C
  8
1DIM
 62
   201
 10
-1519.600896199471
 20
-1437.50932417168
 30
0.0
 40
1.75
  1
90°
  0
ENDBLK
  5
B86E
  8
0
  0
BLOCK
  8
0
  2
*U283
 70
     1
 10
0.0
 20
0.0
 30
0.0
  3
*U283
  1

  0
TEXT
  5
B870
  8
1DIM
 62
   201
 10
-1569.2980419998989
 20
-1433.9924583370271
 30
0.0
 40
1.75
  1
SR0.5
 50
48.552433580823902
  0
ENDBLK
  5
B872
  8
0
  0
BLOCK
  8
0
  2
*U284
 70
     1
 10
0.0
 20
0.0
 30
0.0
  3
*U284
  1

  0
TEXT
  5
B874
  8
1DIM
 62
   201
 10
-1578.5390876271181
 20
-1410.354080651317
 30
0.0
 40
1.75
  1
SR0.5
 50
1.0069176197378329
  0
ENDBLK
  5
B876
  8
0
  0
BLOCK
  8
0
  2
*U285
 70
     1
 10
0.0
 20
0.0
 30
0.0
  3
*U285
  1

  0
TEXT
  5
B878
  8
1DIM
 62
   201
 10
-1581.0340621862131
 20
-1419.2294365495311
 30
0.0
 40
1.75
  1
SR0.5
 50
5.5920371099930168
  0
ENDBLK
  5
B87A
  8
0
  0
BLOCK
  8
0
  2
*U286
 70
     1
 10
0.0
 20
0.0
 30
0.0
  3
*U286
  1

  0
TEXT
  5
B87C
  8
1DIM
 62
   201
 10
-1589.7610137615609
 20
-1420.99347503019
 30
0.0
 40
1.75
  1
SR0.4
 50
3.8597503763001568
  0
ENDBLK
  5
B87E
  8
0
  0
BLOCK
  8
0
  2
*U287
 70
     1
 10
0.0
 20
0.0
 30
0.0
  3
*U287
  1

  0
TEXT
  5
B880
  8
1DIM
 62
   201
 10
-1584.321906836198
 20
-1417.1670808707661
 30
0.0
 40
1.75
  1
SR0.4
 50
12.782373888873829
  0
ENDBLK
  5
B882
  8
0
  0
BLOCK
  8
0
  2
*U288
 70
     1
 10
0.0
 20
0.0
 30
0.0
  3
*U288
  1

  0
TEXT
  5
B884
  8
1DIM
 62
   201
 10
-1572.799543124238
 20
-1472.5940171684531
 30
0.0
 40
1.75
  1
4.7
 50
90.0
  0
ENDBLK
  5
B886
  8
0
  0
BLOCK
  8
0
  2
*U289
 70
     1
 10
0.0
 20
0.0
 30
0.0
  3
*U289
  1

  0
TEXT
  5
B888
  8
1DIM
 62
   201
 10
-1590.5199026168691
 20
-1461.2984019324081
 30
0.0
 40
1.75
  1
14.7
  0
ENDBLK
  5
B88A
  8
0
  0
BLOCK
  8
0
  2
*U290
 70
     1
 10
0.0
 20
0.0
 30
0.0
  3
*U290
  1

  0
TEXT
  5
B88C
  8
1HATCH
 62
   201
 10
-1575.08684345899
 20
-1459.9935022210591
 30
0.0
 40
1.75
  1
R0.5
 50
45.488824211635247
  0
ENDBLK
  5
B88E
  8
0
  0
BLOCK
  8
0
  2
*U291
 70
     1
 10
0.0
 20
0.0
 30
0.0
  3
*U291
  1

  0
TEXT
  5
B890
  8
1HATCH
 62
   201
 10
-1603.3555439543591
 20
-1448.40471328379
 30
0.0
 40
1.75
  1
R0.5
 50
294.78973608471949
  0
ENDBLK
  5
B892
  8
0
  0
BLOCK
  8
0
  2
*U292
 70
     1
 10
0.0
 20
0.0
 30
0.0
  3
*U292
  1

  0
TEXT
  5
B894
  8
1DIM
 62
   201
 10
-1917.7574101707489
 20
-1615.699794429552
 30
0.0
 40
7.0
  1
37
 50
90.0
  0
ENDBLK
  5
B896
  8
0
  0
BLOCK
  8
0
  2
*U293
 70
     1
 10
0.0
 20
0.0
 30
0.0
  3
*U293
  1

  0
TEXT
  5
B898
  8
1DIM
 62
   201
 10
-1995.7477912275201
 20
-1574.183127762886
 30
0.0
 40
7.0
  1
12
 50
90.0
  0
ENDBLK
  5
B89A
  8
0
  0
BLOCK
  8
0
  2
*U294
 70
     1
 10
0.0
 20
0.0
 30
0.0
  3
*U294
  1

  0
TEXT
  5
B89C
  8
1DIM
 62
   201
 10
-1983.362419221598
 20
-1456.768933591128
 30
0.0
 40
7.0
  1
22
 50
90.0
  0
ENDBLK
  5
B89E
  8
0
  0
BLOCK
  8
0
  2
*U295
 70
     1
 10
0.0
 20
0.0
 30
0.0
  3
*U295
  1

  0
TEXT
  5
B8A0
  8
1DIM
 62
   201
 10
-1927.7574101707501
 20
-1484.3689335911281
 30
0.0
 40
7.0
  1
22
 50
90.0
  0
ENDBLK
  5
B8A2
  8
0
  0
BLOCK
  8
0
  2
*U296
 70
     1
 10
0.0
 20
0.0
 30
0.0
  3
*U296
  1

  0
TEXT
  5
B8A4
  8
1DIM
 62
   201
 10
-1933.4637097612419
 20
-1621.699794429552
 30
0.0
 40
7.0
  1
25
 50
90.0
  0
ENDBLK
  5
B8A6
  8
0
  0
BLOCK
  8
0
  2
*U297
 70
     1
 10
0.0
 20
0.0
 30
0.0
  3
*U297
  1

  0
TEXT
  5
B8A8
  8
1DIM
 62
   201
 10
-1951.690743504083
 20
-1661.495862121639
 30
0.0
 40
7.0
  1
6
  0
ENDBLK
  5
B8AA
  8
0
  0
BLOCK
  8
0
  2
*U298
 70
     1
 10
0.0
 20
0.0
 30
0.0
  3
*U298
  1

  0
TEXT
  5
B8AC
  8
1DIM
 62
   201
 10
-2807.690743504083
 20
-1661.495862121639
 30
0.0
 40
7.0
  1
6
  0
ENDBLK
  5
B8AE
  8
0
  0
BLOCK
  8
0
  2
*U299
 70
     1
 10
0.0
 20
0.0
 30
0.0
  3
*U299
  1

  0
TEXT
  5
B8B0
  8
1DIM
 62
   201
 10
-2389.60741017075
 20
-1661.495862121639
 30
0.0
 40
7.0
  1
P850
  0
ENDBLK
  5
B8B2
  8
0
  0
BLOCK
  8
0
  2
*U300
 70
     1
 10
0.0
 20
0.0
 30
0.0
  3
*U300
  1

  0
TEXT
  5
B8B4
  8
1DIM
 62
   201
 10
-2386.690743504083
 20
-1646.9664610962191
 30
0.0
 40
7.0
  1
838
  0
ENDBLK
  5
B8B6
  8
0
  0
BLOCK
  8
0
  2
*U301
 70
     1
 10
0.0
 20
0.0
 30
0.0
  3
*U301
  1

  0
TEXT
  5
B8B8
  8
1DIM
 62
   201
 10
-2386.6907435040821
 20
-1508.135600257795
 30
0.0
 40
7.0
  1
862
  0
ENDBLK
  5
B8BA
  8
0
  0
ENDSEC
  0
SECTION
  2
ENTITIES
  0
LINE
  5
8A45
  8
1CENTER
 10
-1895.3574101707491
 20
-1629.784638782817
 30
0.0
 11
-1895.3574101707491
 21
-1618.366461096218
 31
0.0
  0
LINE
  5
8A66
  8
1CENTER
 10
-1952.3574101707491
 20
-1618.366461096218
 30
0.0
 11
-1952.3574101707491
 21
-1630.366461096218
 31
0.0
  0
LINE
  5
8A67
  8
1CENTER
 10
-2802.3574101707491
 20
-1618.366461096218
 30
0.0
 11
-2802.3574101707491
 21
-1630.366461096218
 31
0.0
  0
LINE
  5
8A69
  8
1DIM
 10
-2809.3908737848078
 20
-1721.3664610962189
 30
0.0
 11
-2661.3908737848078
 21
-1721.3664610962201
 31
0.0
  0
TEXT
  5
8A6B
  8
1TEXT
 10
-2795.886111880046
 20
-1690.3664610962189
 30
0.0
 40
8.0
  1
表面処理：
 72
     1
 11
-2774.5908737848081
 21
-1690.3664610962189
 31
0.0
  0
TEXT
  5
8A6C
  8
1TEXT
 10
-2793.2575404514751
 20
-1704.0370384152679
 30
0.0
 40
8.0
  1
クローム
 72
     1
 11
-2774.5908737848081
 21
-1704.0370384152679
 31
0.0
  0
LINE
  5
8A6D
  8
1DIM
 10
-2809.3908737848078
 20
-1679.3664610962189
 30
0.0
 11
-2661.3908737848069
 21
-1679.3664610962189
 31
0.0
  0
LINE
  5
8A6E
  8
1DIM
 10
-2809.3908737848078
 20
-1693.3664610962189
 30
0.0
 11
-2661.3908737848069
 21
-1693.3664610962201
 31
0.0
  0
LINE
  5
8A6F
  8
1DIM
 10
-2809.3908737848078
 20
-1707.3664610962189
 30
0.0
 11
-2669.3908737848069
 21
-1707.3664610962189
 31
0.0
  0
LINE
  5
8A70
  8
1DIM
 10
-2809.3908737848078
 20
-1707.3664610962189
 30
0.0
 11
-2661.3908737848069
 21
-1707.3664610962201
 31
0.0
  0
LINE
  5
8A71
  8
1DIM
 10
-2739.3908737848078
 20
-1679.3664610962189
 30
0.0
 11
-2739.3908737848078
 21
-1721.3664610962201
 31
0.0
  0
TEXT
  5
8A72
  8
1TEXT
 10
-2729.9242071181402
 20
-1704.7951750635179
 30
0.0
 40
8.0
  1
PC415C85
 72
     1
 11
-2700.5908737848058
 21
-1704.7951750635179
 31
0.0
  0
TEXT
  5
8A74
  8
1TEXT
 10
-2714.190873784808
 20
-1690.3664610962189
 30
0.0
 40
8.0
  1
コード
 72
     1
 11
-2700.5908737848081
 21
-1690.3664610962189
 31
0.0
  0
TEXT
  5
8A76
  8
1TEXT
 10
-2807.1242071181418
 20
-1717.9882883193609
 30
0.0
 40
8.0
  1
サテンニッケル
 72
     1
 11
-2774.5908737848081
 21
-1717.9882883193609
 31
0.0
  0
TEXT
  5
8A77
  8
1TEXT
 10
-2729.9242071181402
 20
-1718.7951750635179
 30
0.0
 40
8.0
  1
PC415N85
 72
     1
 11
-2700.5908737848058
 21
-1718.7951750635179
 31
0.0
  0
LINE
  5
8A78
  8
1DIM
 10
-2809.3908737848078
 20
-1721.3664610962201
 30
0.0
 11
-2809.3908737848078
 21
-1679.3664610962189
 31
0.0
  0
LINE
  5
8A79
  8
1DIM
 10
-2661.3908737848069
 20
-1721.3664610962201
 30
0.0
 11
-2661.3908737848069
 21
-1679.3664610962189
 31
0.0
  0
TEXT
  5
8A7A
  8
1TEXT
 10
-2808.1510049805438
 20
-1459.5356002577951
 30
0.0
 40
8.0
  1
PC415-85
  0
LINE
  5
AAE3
  8
01
 10
-2796.3574101707491
 20
-1628.366461096218
 30
0.0
 11
-2808.35741017075
 21
-1628.3664610962189
 31
0.0
  0
LINE
  5
AAE4
  8
01
 10
-2782.6574101707488
 20
-1603.3664610962189
 30
0.0
 11
-2791.3574101707491
 21
-1603.3664610962189
 31
0.0
  0
ARC
  5
AAE5
  8
01
 10
-2791.3574101707491
 20
-1608.3664610962189
 30
0.0
 40
5.0
 50
90.0
 51
180.0
  0
LINE
  5
AAE6
  8
01
 10
-2782.6574101707488
 20
-1591.3664610962189
 30
0.0
 11
-2791.3574101707491
 21
-1591.3664610962189
 31
0.0
  0
ARC
  5
AAE7
  8
01
 10
-2782.6574101707488
 20
-1591.6664610962191
 30
0.0
 40
0.3
 50
0.0
 51
90.0
  0
ARC
  5
AAE8
  8
01
 10
-2791.3574101707491
 20
-1608.3664610962189
 30
0.0
 40
17.0
 50
90.0
 51
180.0
  0
LINE
  5
AAEA
  8
01
 10
-2808.35741017075
 20
-1628.3664610962189
 30
0.0
 11
-2808.35741017075
 21
-1608.3664610962189
 31
0.0
  0
LINE
  5
AAEB
  8
01
 10
-2796.3574101707491
 20
-1628.3664610962189
 30
0.0
 11
-2796.3574101707491
 21
-1608.3664610962189
 31
0.0
  0
LINE
  5
AAEC
  8
01
 10
-2782.35741017075
 20
-1603.3664610962189
 30
0.0
 11
-2782.35741017075
 21
-1591.3664610962189
 31
0.0
  0
ARC
  5
AAED
  8
01
 10
-2782.6574101707488
 20
-1603.066461096219
 30
0.0
 40
0.3
 50
270.0
 51
0.0
  0
LINE
  5
AB07
  8
01
 10
-1958.35741017075
 20
-1628.366461096218
 30
0.0
 11
-1946.3574101707491
 21
-1628.3664610962189
 31
0.0
  0
LINE
  5
AB08
  8
01
 10
-1972.0574101707491
 20
-1603.3664610962189
 30
0.0
 11
-1963.35741017075
 21
-1603.3664610962189
 31
0.0
  0
ARC
  5
AB09
  8
01
 10
-1963.35741017075
 20
-1608.3664610962189
 30
0.0
 40
5.0
 50
0.0
 51
90.0
  0
LINE
  5
AB0A
  8
01
 10
-1972.05741017075
 20
-1591.3664610962189
 30
0.0
 11
-1963.35741017075
 21
-1591.3664610962189
 31
0.0
  0
ARC
  5
AB0B
  8
01
 10
-1972.05741017075
 20
-1591.6664610962191
 30
0.0
 40
0.3
 50
90.0
 51
180.0
  0
ARC
  5
AB0C
  8
01
 10
-1963.35741017075
 20
-1608.3664610962189
 30
0.0
 40
17.0
 50
0.0
 51
90.0
  0
LINE
  5
AB0D
  8
01
 10
-1946.3574101707491
 20
-1628.3664610962189
 30
0.0
 11
-1946.3574101707491
 21
-1608.3664610962189
 31
0.0
  0
LINE
  5
AB0E
  8
01
 10
-1958.35741017075
 20
-1628.3664610962189
 30
0.0
 11
-1958.35741017075
 21
-1608.3664610962189
 31
0.0
  0
LINE
  5
AB0F
  8
01
 10
-1972.3574101707491
 20
-1603.3664610962189
 30
0.0
 11
-1972.3574101707491
 21
-1591.3664610962189
 31
0.0
  0
ARC
  5
AB10
  8
01
 10
-1972.0574101707491
 20
-1603.066461096219
 30
0.0
 40
0.3
 50
180.0
 51
270.0
  0
LINE
  5
AB13
  8
01
 10
-2782.35741017075
 20
-1591.3664610962139
 30
0.0
 11
-1972.3574101707491
 21
-1591.3664610962189
 31
0.0
  0
LINE
  5
AB14
  8
01
 10
-1972.3574101707491
 20
-1603.3664610962189
 30
0.0
 11
-2782.35741017075
 21
-1603.3664610962189
 31
0.0
  0
LINE
  5
AB16
  8
01
 10
-1906.3574101707491
 20
-1592.3664610962189
 30
0.0
 11
-1906.35741017075
 21
-1628.3664610962189
 31
0.0
  0
LINE
  5
AB18
  8
01
 10
-1947.3574101707491
 20
-1489.5356002577951
 30
0.0
 11
-1971.8574101707491
 21
-1489.5356002577951
 31
0.0
  0
LINE
  5
AB19
  8
01
 10
-1947.3574101707491
 20
-1467.5356002577951
 30
0.0
 11
-1971.8574101707491
 21
-1467.5356002577951
 31
0.0
  0
LINE
  5
AB1A
  8
01
 10
-2782.35741017075
 20
-1489.5356002577951
 30
0.0
 11
-2782.35741017075
 21
-1467.5356002577951
 31
0.0
  0
LINE
  5
AB1B
  8
01
 10
-1972.3574101707491
 20
-1489.5356002577951
 30
0.0
 11
-1972.3574101707491
 21
-1467.5356002577951
 31
0.0
  0
LINE
  5
AB1C
  8
01
 10
-1946.3574101707491
 20
-1488.5356002577951
 30
0.0
 11
-1946.3574101707491
 21
-1468.5356002577951
 31
0.0
  0
ARC
  5
AB1D
  8
01
 10
-1971.8574101707491
 20
-1489.0356002577951
 30
0.0
 40
0.5
 50
180.0
 51
270.00000000000011
  0
ARC
  5
AB1E
  8
01
 10
-1971.8574101707491
 20
-1468.0356002577951
 30
0.0
 40
0.5
 50
90.0
 51
180.0
  0
LINE
  5
AB20
  8
01
 10
-2782.35741017075
 20
-1489.5356002577951
 30
0.0
 11
-1972.3574101707491
 21
-1489.5356002577951
 31
0.0
  0
LINE
  5
AB21
  8
01
 10
-2782.35741017075
 20
-1467.5356002577951
 30
0.0
 11
-1972.3574101707491
 21
-1467.5356002577951
 31
0.0
  0
LINE
  5
AB22
  8
01
 10
-2807.3574101707482
 20
-1489.5356002577951
 30
0.0
 11
-2782.85741017075
 21
-1489.5356002577951
 31
0.0
  0
LINE
  5
AB23
  8
01
 10
-2807.35741017075
 20
-1467.5356002577951
 30
0.0
 11
-2782.85741017075
 21
-1467.5356002577951
 31
0.0
  0
ARC
  5
AB24
  8
01
 10
-2782.85741017075
 20
-1468.0356002577951
 30
0.0
 40
0.5
 50
0.0
 51
90.0
  0
ARC
  5
AB25
  8
01
 10
-2782.85741017075
 20
-1489.0356002577951
 30
0.0
 40
0.5
 50
270.0
 51
0.0
  0
LINE
  5
AB26
  8
01
 10
-2808.3574101707491
 20
-1488.5356002577951
 30
0.0
 11
-2808.35741017075
 21
-1468.5356002577951
 31
0.0
  0
LINE
  5
AB84
  8
01
 10
-1884.3574101707491
 20
-1592.3664610962189
 30
0.0
 11
-1884.3574101707491
 21
-1628.366461096218
 31
0.0
  0
LINE
  5
AB85
  8
01
 10
-1905.3574101707491
 20
-1591.366461096218
 30
0.0
 11
-1885.3574101707491
 21
-1591.3664610962189
 31
0.0
  0
LINE
  5
AB86
  8
01
 10
-1906.35741017075
 20
-1628.3664610962189
 30
0.0
 11
-1884.3574101707491
 21
-1628.366461096218
 31
0.0
  0
ARC
  5
AB87
  8
01
 10
-1905.3574101707491
 20
-1592.3664610962189
 30
0.0
 40
1.0
 50
90.0
 51
179.99999999999849
  0
ARC
  5
AB88
  8
01
 10
-1885.3574101707491
 20
-1592.3664610962189
 30
0.0
 40
1.0
 50
359.99999999999898
 51
89.999999999999545
  0
ARC
  5
ABC4
  8
01
 10
-1947.3574101707491
 20
-1488.5356002577951
 30
0.0
 40
1.0
 50
270.00000000000051
 51
359.99999999999881
  0
ARC
  5
ABC5
  8
01
 10
-1947.3574101707491
 20
-1468.5356002577951
 30
0.0
 40
1.0
 50
359.9999999999992
 51
90.0
  0
ARC
  5
ABC6
  8
01
 10
-2807.35741017075
 20
-1468.5356002577951
 30
0.0
 40
1.0
 50
90.0
 51
180.00000000000239
  0
ARC
  5
ABC7
  8
01
 10
-2807.3574101707482
 20
-1488.5356002577951
 30
0.0
 40
1.0
 50
180.00000000000239
 51
270.0
  0
LINE
  5
ABDC
  8
1CENTER
 10
-1952.3574101707491
 20
-1481.5356002577951
 30
0.0
 11
-1952.3574101707491
 21
-1475.5356002577951
 31
0.0
  0
LINE
  5
ABDD
  8
1CENTER
 10
-1955.35741017075
 20
-1478.5356002577951
 30
0.0
 11
-1949.3574101707491
 21
-1478.5356002577951
 31
0.0
  0
LINE
  5
ABDE
  8
1CENTER
 10
-2802.3574101707491
 20
-1481.5356002577951
 30
0.0
 11
-2802.3574101707491
 21
-1475.5356002577951
 31
0.0
  0
LINE
  5
ABDF
  8
1CENTER
 10
-2799.3574101707491
 20
-1478.5356002577951
 30
0.0
 11
-2805.35741017075
 21
-1478.5356002577951
 31
0.0
  0
SOLID
  5
B0A7
  8
1DIM
 10
-1893.769913792288
 20
-1632.0979888922859
 30
0.0
 11
-1895.3574101707479
 21
-1628.366461096218
 31
0.0
 12
-1892.645499176183
 22
-1631.381420996782
 32
0.0
 13
-1892.645499176183
 23
-1631.381420996782
 33
0.0
1001
ACAD
1000
DSTYLE
1002
{
1070
    40
1040
2.0
1002
}
  0
SOLID
  5
B0C3
  8
1HATCH
 10
-2781.663668546606
 20
-1588.6432639346649
 30
0.0
 11
-2784.769351556331
 21
-1591.250787182413
 31
0.0
 12
-2782.677226519374
 22
-1587.7769625935509
 32
0.0
 13
-2782.677226519374
 23
-1587.7769625935509
 33
0.0
1001
ACAD
1000
DSTYLE
1002
{
1070
    40
1040
2.0
1002
}
  0
SOLID
  5
B0C5
  8
1DIM
 10
-2068.3347619174792
 20
-1588.7272060489231
 30
0.0
 11
-2071.1859756973731
 21
-1591.610784455311
 31
0.0
 12
-2069.4240961995451
 22
-1587.958357169302
 32
0.0
 13
-2069.4240961995451
 23
-1587.958357169302
 33
0.0
1001
ACAD
1000
DSTYLE
1002
{
1070
    40
1040
2.0
1002
}
  0
LINE
  5
B2B8
  8
1DIM
 10
-2068.879429058512
 20
-1588.342781609113
 30
0.0
 11
-2043.9422379157961
 21
-1553.0108224553101
 31
0.0
1001
ACAD
1000
DSTYLE
1002
{
1070
    40
1040
2.0
1002
}
  0
LINE
  5
B2B9
  8
1DIM
 10
-2043.9422379157961
 20
-1553.0108224553101
 30
0.0
 11
-1964.8089045824629
 21
-1553.0108224553101
 31
0.0
1001
ACAD
1000
DSTYLE
1002
{
1070
    40
1040
2.0
1002
}
  0
LINE
  5
B2BA
  8
1HATCH
 10
-2782.1704475329898
 20
-1588.210113264108
 30
0.0
 11
-2752.6321690945638
 21
-1553.650825182415
 31
0.0
1001
ACAD
1000
DSTYLE
1002
{
1070
    40
1040
2.0
1002
}
  0
LINE
  5
B2BB
  8
1HATCH
 10
-2752.6321690945638
 20
-1553.650825182415
 30
0.0
 11
-2657.7771875401818
 21
-1553.650825182415
 31
0.0
1001
ACAD
1000
DSTYLE
1002
{
1070
    40
1040
2.0
1002
}
  0
LINE
  5
B2BC
  8
1DIM
 10
-1893.207706484236
 20
-1631.739704944534
 30
0.0
 11
-1868.9739832311111
 21
-1669.7664610962181
 31
0.0
1001
ACAD
1000
DSTYLE
1002
{
1070
    40
1040
2.0
1002
}
  0
LINE
  5
B2BD
  8
1DIM
 10
-1868.9739832311111
 20
-1669.7664610962181
 30
0.0
 11
-1828.131181926017
 21
-1669.7664610962181
 31
0.0
1001
ACAD
1000
DSTYLE
1002
{
1070
    40
1040
2.0
1002
}
  0
TEXT
  5
B2BE
  8
1DIM
 10
-2038.542237915796
 20
-1539.9441557886439
 30
0.0
 40
7.0
  1
材質：ステンレス
  0
TEXT
  5
B2BF
  8
1DIM
 10
-2038.542237915796
 20
-1551.6108224553111
 30
0.0
 40
7.0
  1
仕上げ：ヘアライン
  0
LINE
  5
B2C0
  8
1DIM
 10
-1946.3574101707491
 20
-1628.3664610962189
 30
0.0
 11
-1914.3574101707491
 21
-1628.3664610962189
 31
0.0
  0
LINE
  5
B2C1
  8
1DIM
 10
-1963.35741017075
 20
-1591.3664610962189
 30
0.0
 11
-1914.3574101707491
 21
-1591.3664610962189
 31
0.0
  0
LINE
  5
B2C2
  8
1DIM
 10
-1916.3574101707491
 20
-1624.3664610962189
 30
0.0
 11
-1916.3574101707491
 21
-1595.3664610962189
 31
0.0
  0
LINE
  5
B2C6
  8
1DIM
 10
-1946.3574101707491
 20
-1628.3664610962189
 30
0.0
 11
-1930.063709761243
 21
-1628.3664610962189
 31
0.0
  0
LINE
  5
B2C7
  8
1DIM
 10
-1963.35741017075
 20
-1603.3664610962189
 30
0.0
 11
-1930.063709761243
 21
-1603.3664610962189
 31
0.0
  0
LINE
  5
B2C8
  8
1DIM
 10
-1932.0637097612421
 20
-1624.3664610962189
 30
0.0
 11
-1932.0637097612421
 21
-1607.3664610962189
 31
0.0
  0
LINE
  5
B2CC
  8
1DIM
 10
-1947.35741017075
 20
-1467.5356002577951
 30
0.0
 11
-1924.35741017075
 21
-1467.5356002577951
 31
0.0
  0
LINE
  5
B2CD
  8
1DIM
 10
-1947.35741017075
 20
-1489.5356002577951
 30
0.0
 11
-1924.35741017075
 21
-1489.5356002577951
 31
0.0
  0
LINE
  5
B2CE
  8
1DIM
 10
-1926.35741017075
 20
-1471.5356002577951
 30
0.0
 11
-1926.35741017075
 21
-1485.5356002577951
 31
0.0
  0
LINE
  5
B2D2
  8
1DIM
 10
-2808.3574101707491
 20
-1488.5356002577951
 30
0.0
 11
-2808.3574101707491
 21
-1511.5356002577951
 31
0.0
  0
LINE
  5
B2D3
  8
1DIM
 10
-1946.3574101707491
 20
-1488.5356002577951
 30
0.0
 11
-1946.3574101707491
 21
-1511.5356002577951
 31
0.0
  0
LINE
  5
B2D4
  8
1DIM
 10
-2804.3574101707491
 20
-1509.5356002577951
 30
0.0
 11
-1950.3574101707491
 21
-1509.5356002577951
 31
0.0
  0
LINE
  5
B2D8
  8
1DIM
 10
-2796.3574101707491
 20
-1628.3664610962189
 30
0.0
 11
-2796.3574101707491
 21
-1650.366461096218
 31
0.0
  0
LINE
  5
B2D9
  8
1DIM
 10
-1958.35741017075
 20
-1628.366461096218
 30
0.0
 11
-1958.35741017075
 21
-1650.366461096218
 31
0.0
  0
LINE
  5
B2DA
  8
1DIM
 10
-2792.3574101707491
 20
-1648.3664610962189
 30
0.0
 11
-1962.3574101707491
 21
-1648.3664610962189
 31
0.0
  0
LINE
  5
B2DE
  8
1DIM
 10
-1946.3574101707491
 20
-1628.366461096218
 30
0.0
 11
-1946.3574101707491
 21
-1664.8958621216391
 31
0.0
  0
LINE
  5
B2DF
  8
1DIM
 10
-1952.3574101707491
 20
-1630.366461096218
 30
0.0
 11
-1952.3574101707491
 21
-1664.8958621216391
 31
0.0
  0
LINE
  5
B2E0
  8
1DIM
 10
-1942.3574101707491
 20
-1662.8958621216391
 30
0.0
 11
-1938.3574101707491
 21
-1662.8958621216391
 31
0.0
  0
LINE
  5
B2E1
  8
1DIM
 10
-1956.3574101707491
 20
-1662.8958621216391
 30
0.0
 11
-1960.3574101707491
 21
-1662.8958621216391
 31
0.0
  0
LINE
  5
B2E2
  8
1DIM
 10
-1946.3574101707491
 20
-1662.8958621216391
 30
0.0
 11
-1952.3574101707491
 21
-1662.8958621216391
 31
0.0
  0
LINE
  5
B2E6
  8
1DIM
 10
-2808.35741017075
 20
-1628.3664610962189
 30
0.0
 11
-2808.35741017075
 21
-1664.8958621216391
 31
0.0
  0
LINE
  5
B2E7
  8
1DIM
 10
-2802.3574101707491
 20
-1630.1081308470209
 30
0.0
 11
-2802.3574101707491
 21
-1664.8958621216391
 31
0.0
  0
LINE
  5
B2E8
  8
1DIM
 10
-2812.35741017075
 20
-1662.8958621216391
 30
0.0
 11
-2816.35741017075
 21
-1662.8958621216391
 31
0.0
  0
LINE
  5
B2E9
  8
1DIM
 10
-2798.35741017075
 20
-1662.8958621216391
 30
0.0
 11
-2794.35741017075
 21
-1662.8958621216391
 31
0.0
  0
LINE
  5
B2EA
  8
1DIM
 10
-2808.35741017075
 20
-1662.8958621216391
 30
0.0
 11
-2802.3574101707491
 21
-1662.8958621216391
 31
0.0
  0
LINE
  5
B2EE
  8
1DIM
 10
-2802.3574101707491
 20
-1630.366461096218
 30
0.0
 11
-2802.3574101707491
 21
-1664.8958621216391
 31
0.0
  0
LINE
  5
B2EF
  8
1DIM
 10
-1952.3574101707491
 20
-1630.366461096218
 30
0.0
 11
-1952.3574101707491
 21
-1664.8958621216391
 31
0.0
  0
LINE
  5
B2F0
  8
1DIM
 10
-2798.35741017075
 20
-1662.8958621216391
 30
0.0
 11
-1956.3574101707491
 21
-1662.8958621216391
 31
0.0
  0
LINE
  5
B2F4
  8
1DIM
 10
-1994.34779122752
 20
-1599.3664610962189
 30
0.0
 11
-1994.34779122752
 21
-1595.3664610962189
 31
0.0
  0
LINE
  5
B2F5
  8
1DIM
 10
-1994.34779122752
 20
-1591.3664610962189
 30
0.0
 11
-1994.34779122752
 21
-1562.949794429552
 31
0.0
  0
LINE
  5
B2F9
  8
1DIM
 10
-1981.962419221599
 20
-1485.5356002577951
 30
0.0
 11
-1981.962419221599
 21
-1471.5356002577951
 31
0.0
  0
LINE
  5
B2FA
  8
1DIM
 10
-1981.962419221599
 20
-1467.5356002577951
 30
0.0
 11
-1981.962419221599
 21
-1443.8689335911281
 31
0.0
  0
TEXT
  5
B2FE
  8
1HATCH
 10
-2747.2321690945651
 20
-1552.2508251824149
 30
0.0
 40
7.0
  1
材質：亜鉛ダイキャスト
  0
TEXT
  5
B2FF
  8
1DIM
 10
-1863.5739832311119
 20
-1668.366461096218
 30
0.0
 40
7.0
  1
M4-10
  0
TEXT
  5
B300
  8
1DIM
 10
-1983.362419221598
 20
-1456.768933591128
 30
0.0
 40
7.0
  1
22
 50
90.0
  0
LINE
  5
B301
  8
0
  6
BYBLOCK
 10
-1983.034215981598
 20
-1471.5356002577951
 30
0.0
 11
-1981.962419221599
 21
-1467.5356002577951
 31
0.0
  0
LINE
  5
B302
  8
0
  6
BYBLOCK
 10
-1981.962419221599
 20
-1467.5356002577951
 30
0.0
 11
-1980.8906224615989
 21
-1471.5356002577951
 31
0.0
  0
LINE
  5
B303
  8
0
  6
BYBLOCK
 10
-1981.962419221599
 20
-1467.5356002577951
 30
0.0
 11
-1981.962419221599
 21
-1471.5356002577951
 31
0.0
  0
LINE
  5
B304
  8
0
  6
BYBLOCK
 10
-1980.8906224615989
 20
-1485.5356002577951
 30
0.0
 11
-1981.962419221599
 21
-1489.5356002577951
 31
0.0
  0
LINE
  5
B305
  8
0
  6
BYBLOCK
 10
-1981.962419221599
 20
-1489.5356002577951
 30
0.0
 11
-1983.034215981598
 21
-1485.5356002577951
 31
0.0
  0
LINE
  5
B306
  8
0
  6
BYBLOCK
 10
-1981.962419221599
 20
-1489.5356002577951
 30
0.0
 11
-1981.962419221599
 21
-1485.5356002577951
 31
0.0
  0
TEXT
  5
B307
  8
1DIM
 10
-1995.7477912275201
 20
-1574.183127762886
 30
0.0
 40
7.0
  1
12
 50
90.0
  0
LINE
  5
B308
  8
0
  6
BYBLOCK
 10
-1995.4195879875199
 20
-1595.3664610962189
 30
0.0
 11
-1994.34779122752
 21
-1591.3664610962189
 31
0.0
  0
LINE
  5
B309
  8
0
  6
BYBLOCK
 10
-1994.34779122752
 20
-1591.3664610962189
 30
0.0
 11
-1993.2759944675199
 21
-1595.3664610962189
 31
0.0
  0
LINE
  5
B30A
  8
0
  6
BYBLOCK
 10
-1994.34779122752
 20
-1591.3664610962189
 30
0.0
 11
-1994.34779122752
 21
-1595.3664610962189
 31
0.0
  0
LINE
  5
B30B
  8
0
  6
BYBLOCK
 10
-1993.2759944675199
 20
-1599.3664610962189
 30
0.0
 11
-1994.34779122752
 21
-1603.3664610962189
 31
0.0
  0
LINE
  5
B30C
  8
0
  6
BYBLOCK
 10
-1994.34779122752
 20
-1603.3664610962189
 30
0.0
 11
-1995.4195879875199
 21
-1599.3664610962189
 31
0.0
  0
LINE
  5
B30D
  8
0
  6
BYBLOCK
 10
-1994.34779122752
 20
-1603.3664610962189
 30
0.0
 11
-1994.34779122752
 21
-1599.3664610962189
 31
0.0
  0
TEXT
  5
B30E
  8
1DIM
 10
-2389.60741017075
 20
-1661.495862121639
 30
0.0
 40
7.0
  1
P850
  0
LINE
  5
B30F
  8
0
  6
BYBLOCK
 10
-1956.3574101707491
 20
-1661.824065361639
 30
0.0
 11
-1952.3574101707491
 21
-1662.8958621216391
 31
0.0
  0
LINE
  5
B310
  8
0
  6
BYBLOCK
 10
-1952.3574101707491
 20
-1662.8958621216391
 30
0.0
 11
-1956.3574101707491
 21
-1663.967658881639
 31
0.0
  0
LINE
  5
B311
  8
0
  6
BYBLOCK
 10
-1952.3574101707491
 20
-1662.8958621216391
 30
0.0
 11
-1956.3574101707491
 21
-1662.8958621216391
 31
0.0
  0
LINE
  5
B312
  8
0
  6
BYBLOCK
 10
-2798.35741017075
 20
-1663.967658881639
 30
0.0
 11
-2802.3574101707491
 21
-1662.8958621216391
 31
0.0
  0
LINE
  5
B313
  8
0
  6
BYBLOCK
 10
-2802.3574101707491
 20
-1662.8958621216391
 30
0.0
 11
-2798.35741017075
 21
-1661.824065361639
 31
0.0
  0
LINE
  5
B314
  8
0
  6
BYBLOCK
 10
-2802.3574101707491
 20
-1662.8958621216391
 30
0.0
 11
-2798.35741017075
 21
-1662.8958621216391
 31
0.0
  0
TEXT
  5
B315
  8
1DIM
 10
-2807.690743504083
 20
-1661.495862121639
 30
0.0
 40
7.0
  1
6
  0
LINE
  5
B316
  8
0
  6
BYBLOCK
 10
-2798.35741017075
 20
-1663.967658881639
 30
0.0
 11
-2802.3574101707491
 21
-1662.8958621216391
 31
0.0
  0
LINE
  5
B317
  8
0
  6
BYBLOCK
 10
-2802.3574101707491
 20
-1662.8958621216391
 30
0.0
 11
-2798.35741017075
 21
-1661.824065361639
 31
0.0
  0
LINE
  5
B318
  8
0
  6
BYBLOCK
 10
-2802.3574101707491
 20
-1662.8958621216391
 30
0.0
 11
-2798.35741017075
 21
-1662.8958621216391
 31
0.0
  0
LINE
  5
B319
  8
0
  6
BYBLOCK
 10
-2812.35741017075
 20
-1661.824065361639
 30
0.0
 11
-2808.35741017075
 21
-1662.8958621216391
 31
0.0
  0
LINE
  5
B31A
  8
0
  6
BYBLOCK
 10
-2808.35741017075
 20
-1662.8958621216391
 30
0.0
 11
-2812.35741017075
 21
-1663.967658881639
 31
0.0
  0
LINE
  5
B31B
  8
0
  6
BYBLOCK
 10
-2808.35741017075
 20
-1662.8958621216391
 30
0.0
 11
-2812.35741017075
 21
-1662.8958621216391
 31
0.0
  0
TEXT
  5
B31C
  8
1DIM
 10
-1951.690743504083
 20
-1661.495862121639
 30
0.0
 40
7.0
  1
6
  0
LINE
  5
B31D
  8
0
  6
BYBLOCK
 10
-1956.3574101707491
 20
-1661.824065361639
 30
0.0
 11
-1952.3574101707491
 21
-1662.8958621216391
 31
0.0
  0
LINE
  5
B31E
  8
0
  6
BYBLOCK
 10
-1952.3574101707491
 20
-1662.8958621216391
 30
0.0
 11
-1956.3574101707491
 21
-1663.967658881639
 31
0.0
  0
LINE
  5
B31F
  8
0
  6
BYBLOCK
 10
-1952.3574101707491
 20
-1662.8958621216391
 30
0.0
 11
-1956.3574101707491
 21
-1662.8958621216391
 31
0.0
  0
LINE
  5
B320
  8
0
  6
BYBLOCK
 10
-1942.3574101707491
 20
-1663.967658881639
 30
0.0
 11
-1946.3574101707491
 21
-1662.8958621216391
 31
0.0
  0
LINE
  5
B321
  8
0
  6
BYBLOCK
 10
-1946.3574101707491
 20
-1662.8958621216391
 30
0.0
 11
-1942.3574101707491
 21
-1661.824065361639
 31
0.0
  0
LINE
  5
B322
  8
0
  6
BYBLOCK
 10
-1946.3574101707491
 20
-1662.8958621216391
 30
0.0
 11
-1942.3574101707491
 21
-1662.8958621216391
 31
0.0
  0
TEXT
  5
B323
  8
1DIM
 10
-2386.690743504083
 20
-1646.9664610962191
 30
0.0
 40
7.0
  1
838
  0
LINE
  5
B324
  8
0
  6
BYBLOCK
 10
-1962.3574101707491
 20
-1647.2946643362179
 30
0.0
 11
-1958.35741017075
 21
-1648.3664610962189
 31
0.0
  0
LINE
  5
B325
  8
0
  6
BYBLOCK
 10
-1958.35741017075
 20
-1648.3664610962189
 30
0.0
 11
-1962.3574101707491
 21
-1649.438257856219
 31
0.0
  0
LINE
  5
B326
  8
0
  6
BYBLOCK
 10
-1958.35741017075
 20
-1648.3664610962189
 30
0.0
 11
-1962.3574101707491
 21
-1648.3664610962189
 31
0.0
  0
LINE
  5
B327
  8
0
  6
BYBLOCK
 10
-2792.3574101707491
 20
-1649.438257856219
 30
0.0
 11
-2796.3574101707491
 21
-1648.3664610962189
 31
0.0
  0
LINE
  5
B328
  8
0
  6
BYBLOCK
 10
-2796.3574101707491
 20
-1648.3664610962189
 30
0.0
 11
-2792.3574101707491
 21
-1647.2946643362179
 31
0.0
  0
LINE
  5
B329
  8
0
  6
BYBLOCK
 10
-2796.3574101707491
 20
-1648.3664610962189
 30
0.0
 11
-2792.3574101707491
 21
-1648.3664610962189
 31
0.0
  0
TEXT
  5
B32A
  8
1DIM
 10
-2386.6907435040821
 20
-1508.135600257795
 30
0.0
 40
7.0
  1
862
  0
LINE
  5
B32B
  8
0
  6
BYBLOCK
 10
-1950.3574101707491
 20
-1508.463803497795
 30
0.0
 11
-1946.3574101707491
 21
-1509.5356002577951
 31
0.0
  0
LINE
  5
B32C
  8
0
  6
BYBLOCK
 10
-1946.3574101707491
 20
-1509.5356002577951
 30
0.0
 11
-1950.3574101707491
 21
-1510.6073970177949
 31
0.0
  0
LINE
  5
B32D
  8
0
  6
BYBLOCK
 10
-1946.3574101707491
 20
-1509.5356002577951
 30
0.0
 11
-1950.3574101707491
 21
-1509.5356002577951
 31
0.0
  0
LINE
  5
B32E
  8
0
  6
BYBLOCK
 10
-2804.3574101707491
 20
-1510.6073970177949
 30
0.0
 11
-2808.3574101707491
 21
-1509.5356002577951
 31
0.0
  0
LINE
  5
B32F
  8
0
  6
BYBLOCK
 10
-2808.3574101707491
 20
-1509.5356002577951
 30
0.0
 11
-2804.3574101707491
 21
-1508.463803497795
 31
0.0
  0
LINE
  5
B330
  8
0
  6
BYBLOCK
 10
-2808.3574101707491
 20
-1509.5356002577951
 30
0.0
 11
-2804.3574101707491
 21
-1509.5356002577951
 31
0.0
  0
TEXT
  5
B331
  8
1DIM
 10
-1927.7574101707501
 20
-1484.3689335911281
 30
0.0
 40
7.0
  1
22
 50
90.0
  0
LINE
  5
B332
  8
0
  6
BYBLOCK
 10
-1925.285613410749
 20
-1485.5356002577951
 30
0.0
 11
-1926.35741017075
 21
-1489.5356002577951
 31
0.0
  0
LINE
  5
B333
  8
0
  6
BYBLOCK
 10
-1926.35741017075
 20
-1489.5356002577951
 30
0.0
 11
-1927.4292069307501
 21
-1485.5356002577951
 31
0.0
  0
LINE
  5
B334
  8
0
  6
BYBLOCK
 10
-1926.35741017075
 20
-1489.5356002577951
 30
0.0
 11
-1926.35741017075
 21
-1485.5356002577951
 31
0.0
  0
LINE
  5
B335
  8
0
  6
BYBLOCK
 10
-1927.4292069307501
 20
-1471.5356002577951
 30
0.0
 11
-1926.35741017075
 21
-1467.5356002577951
 31
0.0
  0
LINE
  5
B336
  8
0
  6
BYBLOCK
 10
-1926.35741017075
 20
-1467.5356002577951
 30
0.0
 11
-1925.285613410749
 21
-1471.5356002577951
 31
0.0
  0
LINE
  5
B337
  8
0
  6
BYBLOCK
 10
-1926.35741017075
 20
-1467.5356002577951
 30
0.0
 11
-1926.35741017075
 21
-1471.5356002577951
 31
0.0
  0
TEXT
  5
B338
  8
1DIM
 10
-1933.4637097612419
 20
-1621.699794429552
 30
0.0
 40
7.0
  1
25
 50
90.0
  0
LINE
  5
B339
  8
0
  6
BYBLOCK
 10
-1933.135506521242
 20
-1607.3664610962189
 30
0.0
 11
-1932.0637097612421
 21
-1603.3664610962189
 31
0.0
  0
LINE
  5
B33A
  8
0
  6
BYBLOCK
 10
-1932.0637097612421
 20
-1603.3664610962189
 30
0.0
 11
-1930.991913001242
 21
-1607.3664610962189
 31
0.0
  0
LINE
  5
B33B
  8
0
  6
BYBLOCK
 10
-1932.0637097612421
 20
-1603.3664610962189
 30
0.0
 11
-1932.0637097612421
 21
-1607.3664610962189
 31
0.0
  0
LINE
  5
B33C
  8
0
  6
BYBLOCK
 10
-1930.991913001242
 20
-1624.3664610962189
 30
0.0
 11
-1932.0637097612421
 21
-1628.3664610962189
 31
0.0
  0
LINE
  5
B33D
  8
0
  6
BYBLOCK
 10
-1932.0637097612421
 20
-1628.3664610962189
 30
0.0
 11
-1933.135506521242
 21
-1624.3664610962189
 31
0.0
  0
LINE
  5
B33E
  8
0
  6
BYBLOCK
 10
-1932.0637097612421
 20
-1628.3664610962189
 30
0.0
 11
-1932.0637097612421
 21
-1624.3664610962189
 31
0.0
  0
TEXT
  5
B33F
  8
1DIM
 10
-1917.7574101707489
 20
-1615.699794429552
 30
0.0
 40
7.0
  1
37
 50
90.0
  0
LINE
  5
B340
  8
0
  6
BYBLOCK
 10
-1917.4292069307501
 20
-1595.3664610962189
 30
0.0
 11
-1916.3574101707491
 21
-1591.3664610962189
 31
0.0
  0
LINE
  5
B341
  8
0
  6
BYBLOCK
 10
-1916.3574101707491
 20
-1591.3664610962189
 30
0.0
 11
-1915.285613410749
 21
-1595.3664610962189
 31
0.0
  0
LINE
  5
B342
  8
0
  6
BYBLOCK
 10
-1916.3574101707491
 20
-1591.3664610962189
 30
0.0
 11
-1916.3574101707491
 21
-1595.3664610962189
 31
0.0
  0
LINE
  5
B343
  8
0
  6
BYBLOCK
 10
-1915.285613410749
 20
-1624.3664610962189
 30
0.0
 11
-1916.3574101707491
 21
-1628.3664610962189
 31
0.0
  0
LINE
  5
B344
  8
0
  6
BYBLOCK
 10
-1916.3574101707491
 20
-1628.3664610962189
 30
0.0
 11
-1917.4292069307501
 21
-1624.3664610962189
 31
0.0
  0
LINE
  5
B345
  8
0
  6
BYBLOCK
 10
-1916.3574101707491
 20
-1628.3664610962189
 30
0.0
 11
-1916.3574101707491
 21
-1624.3664610962189
 31
0.0
  0
VIEWPORT
  5
57
 67
     1
  8
0
 10
-12.71820606546885
 20
14.184887304638661
 30
0.0
 40
411.04501445510459
 41
291.0345504133017
 68
     1
 69
     1
1001
ACAD
1000
MVIEW
1002
{
1070
    16
1010
0.0
1020
0.0
1030
0.0
1010
0.0
1020
0.0
1030
1.0
1040
0.0
1040
291.0345504133017
1040
-12.71820606546885
1040
14.184887304638661
1040
50.0
1040
0.0
1040
0.0
1070
     0
1070
   100
1070
     1
1070
     1
1070
     0
1070
     0
1070
     0
1070
     0
1040
0.0
1040
0.0
1040
0.0
1040
10.0
1040
10.0
1040
10.0
1040
10.0
1070
     0
1002
{
1002
}
1002
}
  0
ENDSEC
  0
EOF
