  0
SECTION
  2
HEADER
  9
$ACADVER
  1
AC1009
  9
$DWGCODEPAGE
  3
ansi_932
  9
$INSBASE
 10
0.0
 20
0.0
 30
0.0
  9
$EXTMIN
 10
1350.188935856112
 20
-595.3646599850061
 30
0.0
  9
$EXTMAX
 10
1683.320200843582
 20
-354.652242041707
 30
0.0000000000002274
  9
$LIMMIN
 10
0.0
 20
0.0
  9
$LIMMAX
 10
420.0
 20
297.0
  9
$ORTHOMODE
 70
     0
  9
$REGENMODE
 70
     1
  9
$FILLMODE
 70
     1
  9
$QTEXTMODE
 70
     0
  9
$MIRRTEXT
 70
     0
  9
$DRAGMODE
 70
     2
  9
$LTSCALE
 40
0.5
  9
$OSMODE
 70
  6271
  9
$ATTMODE
 70
     1
  9
$TEXTSIZE
 40
4.0
  9
$TRACEWID
 40
1.0
  9
$TEXTSTYLE
  7
STANDARD
  9
$CLAYER
  8
1TEXT
  9
$CELTYPE
  6
BYLAYER
  9
$CECOLOR
 62
   256
  9
$DIMSCALE
 40
1.0
  9
$DIMASZ
 40
2.0
  9
$DIMEXO
 40
0.0
  9
$DIMDLI
 40
7.0
  9
$DIMRND
 40
0.0
  9
$DIMDLE
 40
0.0
  9
$DIMEXE
 40
1.0
  9
$DIMTP
 40
0.0
  9
$DIMTM
 40
0.0
  9
$DIMTXT
 40
3.5
  9
$DIMCEN
 40
0.0
  9
$DIMTSZ
 40
0.0
  9
$DIMTOL
 70
     0
  9
$DIMLIM
 70
     0
  9
$DIMTIH
 70
     0
  9
$DIMTOH
 70
     0
  9
$DIMSE1
 70
     0
  9
$DIMSE2
 70
     0
  9
$DIMTAD
 70
     1
  9
$DIMZIN
 70
     8
  9
$DIMBLK
  1

  9
$DIMASO
 70
     1
  9
$DIMSHO
 70
     1
  9
$DIMPOST
  1
 
  9
$DIMAPOST
  1

  9
$DIMALT
 70
     0
  9
$DIMALTD
 70
     2
  9
$DIMALTF
 40
25.4
  9
$DIMLFAC
 40
1.0
  9
$DIMTOFL
 70
     1
  9
$DIMTVP
 40
0.0
  9
$DIMTIX
 70
     0
  9
$DIMSOXD
 70
     0
  9
$DIMSAH
 70
     1
  9
$DIMBLK1
  1
OPEN30
  9
$DIMBLK2
  1
OPEN30
  9
$DIMSTYLE
  2
NEWX10
  9
$DIMCLRD
 70
   256
  9
$DIMCLRE
 70
   256
  9
$DIMCLRT
 70
   201
  9
$DIMTFAC
 40
0.7
  9
$DIMGAP
 40
0.7
  9
$LUNITS
 70
     2
  9
$LUPREC
 70
     4
  9
$SKETCHINC
 40
1.0
  9
$FILLETRAD
 40
0.0
  9
$AUNITS
 70
     0
  9
$AUPREC
 70
     2
  9
$MENU
  1
acad
  9
$ELEVATION
 40
0.0
  9
$PELEVATION
 40
0.0
  9
$THICKNESS
 40
0.0
  9
$LIMCHECK
 70
     0
  9
$CHAMFERA
 40
10.0
  9
$CHAMFERB
 40
10.0
  9
$SKPOLY
 70
     0
  9
$TDCREATE
 40
2451318.621352917
  9
$TDUPDATE
 40
2460406.476711435
  9
$TDINDWG
 40
1.7019729514
  9
$TDUSRTIMER
 40
1.7019729514
  9
$USRTIMER
 70
     1
  9
$ANGBASE
 50
0.0
  9
$ANGDIR
 70
     0
  9
$PDMODE
 70
     0
  9
$PDSIZE
 40
0.0
  9
$PLINEWID
 40
0.0
  9
$COORDS
 70
     2
  9
$SPLFRAME
 70
     0
  9
$SPLINETYPE
 70
     6
  9
$SPLINESEGS
 70
     8
  9
$ATTDIA
 70
     0
  9
$ATTREQ
 70
     1
  9
$HANDLING
 70
     1
  9
$HANDSEED
  5
1D237
  9
$SURFTAB1
 70
     6
  9
$SURFTAB2
 70
     6
  9
$SURFTYPE
 70
     6
  9
$SURFU
 70
     6
  9
$SURFV
 70
     6
  9
$UCSNAME
  2

  9
$UCSORG
 10
0.0
 20
0.0
 30
0.0
  9
$UCSXDIR
 10
1.0
 20
0.0
 30
0.0
  9
$UCSYDIR
 10
0.0
 20
1.0
 30
0.0
  9
$PUCSNAME
  2

  9
$PUCSORG
 10
0.0
 20
0.0
 30
0.0
  9
$PUCSXDIR
 10
1.0
 20
0.0
 30
0.0
  9
$PUCSYDIR
 10
0.0
 20
1.0
 30
0.0
  9
$USERI1
 70
     0
  9
$USERI2
 70
     0
  9
$USERI3
 70
     0
  9
$USERI4
 70
     0
  9
$USERI5
 70
     0
  9
$USERR1
 40
0.0
  9
$USERR2
 40
0.0
  9
$USERR3
 40
0.0
  9
$USERR4
 40
0.0
  9
$USERR5
 40
0.0
  9
$WORLDVIEW
 70
     1
  9
$SHADEDGE
 70
     3
  9
$SHADEDIF
 70
    70
  9
$TILEMODE
 70
     1
  9
$MAXACTVP
 70
    48
  9
$PLIMCHECK
 70
     0
  9
$PEXTMIN
 10
1.000000000000000E+20
 20
1.000000000000000E+20
 30
1.000000000000000E+20
  9
$PEXTMAX
 10
-1.000000000000000E+20
 20
-1.000000000000000E+20
 30
-1.000000000000000E+20
  9
$PLIMMIN
 10
0.0
 20
0.0
  9
$PLIMMAX
 10
420.0
 20
297.0
  9
$UNITMODE
 70
     0
  9
$VISRETAIN
 70
     1
  9
$PLINEGEN
 70
     0
  9
$PSLTSCALE
 70
     1
  0
ENDSEC
  0
SECTION
  2
TABLES
  0
TABLE
  2
VPORT
 70
     1
  0
VPORT
  2
*ACTIVE
 70
     0
 10
0.0
 20
0.0
 11
1.0
 21
1.0
 12
1516.754568349847
 22
-475.0084510133566
 13
0.0
 23
0.0
 14
10.0
 24
10.0
 15
10.0
 25
10.0
 16
0.0
 26
0.0
 36
1.0
 17
0.0
 27
0.0
 37
0.0
 40
258.4491224233317
 41
1.832756632064591
 42
50.0
 43
0.0
 44
0.0
 50
0.0
 51
0.0
 71
    16
 72
  1000
 73
     1
 74
     1
 75
     0
 76
     0
 77
     0
 78
     0
  0
ENDTAB
  0
TABLE
  2
LTYPE
 70
    12
  0
LTYPE
  2
CONTINUOUS
 70
     0
  3
Solid line
 72
    65
 73
     0
 40
0.0
  0
LTYPE
  2
PHANTOM2
 70
     0
  3
Phantom (0.5x) ___ _ _ ___ _ _ ___ _ _ ___ _ _
 72
    65
 73
     6
 40
31.75
 49
15.875
 49
-3.175
 49
3.175
 49
-3.175
 49
3.175
 49
-3.175
  0
LTYPE
  2
CENTER2
 70
     0
  3
Center (.5x) ___ _ ___ _ ___ _ ___ _ ___ _ ___
 72
    65
 73
     4
 40
28.575
 49
19.05
 49
-3.175
 49
3.175
 49
-3.175
  0
ENDTAB
  0
TABLE
  2
LAYER
 70
    41
  0
LAYER
  2
0
 70
     0
 62
     7
  6
CONTINUOUS
  0
LAYER
  2
1CENTER
 70
     0
 62
     7
  6
CENTER2
  0
LAYER
  2
1TEXT
 70
     0
 62
     7
  6
CONTINUOUS
  0
LAYER
  2
1DIM
 70
     0
 62
     7
  6
CONTINUOUS
  0
LAYER
  2
1PHANTOM
 70
     0
 62
     7
  6
PHANTOM2
  0
LAYER
  2
01
 70
     0
 62
     1
  6
CONTINUOUS
  0
ENDTAB
  0
TABLE
  2
STYLE
 70
    23
  0
STYLE
  2
STANDARD
 70
     0
 40
0.0
 41
1.0
 50
0.0
 71
     0
 42
4.0
  3
txt.shx
  4
extfont.shx
  0
ENDTAB
  0
TABLE
  2
VIEW
 70
     0
  0
ENDTAB
  0
TABLE
  2
UCS
 70
     5
  0
UCS
  2
U
 70
     0
 10
0.0
 20
0.0
 30
0.0
 11
1.0
 21
0.0
 31
0.0
 12
0.0
 22
2.220446049250313E-16
 32
1.0
  0
UCS
  2
L
 70
     0
 10
0.0
 20
0.0
 30
0.0
 11
-2.220446049250313E-16
 21
-1.0
 31
2.220446049250313E-16
 12
0.0
 22
2.220446049250313E-16
 32
1.0
  0
UCS
  2
R
 70
     0
 10
0.0
 20
0.0
 30
0.0
 11
3.445092848397667E-16
 21
1.0
 31
-2.220446049250313E-16
 12
0.0
 22
2.220446049250313E-16
 32
1.0
  0
UCS
  2
ISOME
 70
     0
 10
0.0
 20
0.0
 30
0.0
 11
0.7071450863198265
 21
-0.7070684729403536
 31
-3.830824619466267E-5
 12
0.4082704059428734
 22
0.4082704077401151
 32
0.8164744636514736
  0
UCS
  2
PERSPECTIVE
 70
     0
 10
0.0
 20
0.0
 30
0.0
 11
0.8191477691768964
 21
-0.5735823260466403
 31
-0.0004974931557765462
 12
0.1584844715982971
 22
0.225502028986108
 32
0.961265575782966
  0
ENDTAB
  0
TABLE
  2
APPID
 70
    26
  0
APPID
  2
ACAD
 70
     0
  0
APPID
  2
DRAWINGVARIABLESXDATA
 70
     0
  0
APPID
  2
CONTENTTABDATA
 70
     0
  0
APPID
  2
CONTENTCURRENTTAB
 70
     0
  0
APPID
  2
CONTENTBLOCKDESCRIPTION
 70
     0
  0
APPID
  2
CONTENTBLOCKICON
 70
     0
  0
APPID
  2
CONTENTLONGBLOCKNAME
 70
     0
  0
APPID
  2
ACAD_PSEXT
 70
     0
  0
APPID
  2
ACAD_MLEADERVER
 70
     0
  0
APPID
  2
ACADANNOTATIVE
 70
     0
  0
APPID
  2
ACDBBLOCKREPETAG
 70
     0
  0
APPID
  2
ACLAYERTOOLS
 70
     0
  0
APPID
  2
ACAD_NAV_VCDISPLAY
 70
     0
  0
APPID
  2
ACAD_OBJECT_CHANGE_GUID
 70
     0
  0
APPID
  2
ACAECLAYERSTANDARD
 70
     0
  0
APPID
  2
ACAD_DSTYLE_DIMRADIAL_EXTE
 70
     0
  0
APPID
  2
ACAD_EXEMPT_FROM_CAD_STAND
 70
     0
  0
APPID
  2
ACAD_DSTYLE_DIMJOGGED_JOGA
 70
     0
  0
APPID
  2
ACAD_DSTYLE_DIMJAG
 70
     0
  0
APPID
  2
ACAD_DSTYLE_DIMTALN
 70
     0
  0
APPID
  2
ACAD_DIMASSOC_CALC_DIMLFAC
 70
     0
  0
APPID
  2
ACAD_DIMASSOC_OVERRIDDEN_D
 70
     0
  0
APPID
  2
ACAD_DIMASSOC_DIMLFAC
 70
     0
  0
APPID
  2
ACAD_DSTYLE_DIM_LINETYPE
 70
     0
  0
APPID
  2
ACAD_DSTYLE_DIM_EXT1_LINET
 70
     0
  0
APPID
  2
ACAD_DSTYLE_DIM_EXT2_LINET
 70
     0
  0
ENDTAB
  0
TABLE
  2
DIMSTYLE
 70
     3
  0
DIMSTYLE
  2
NEWX10
 70
     0
  3
 
  4

  5

  6
OPEN30
  7
OPEN30
 40
1.0
 41
2.0
 42
0.0
 43
7.0
 44
1.0
 45
0.0
 46
0.0
 47
0.0
 48
0.0
140
3.5
141
0.0
142
0.0
143
25.4
144
1.0
145
0.0
146
0.7
147
0.7
 71
     0
 72
     0
 73
     0
 74
     0
 75
     0
 76
     0
 77
     1
 78
     8
170
     0
171
     2
172
     1
173
     1
174
     0
175
     0
176
   256
177
   256
178
   201
  0
DIMSTYLE
  2
ISO-25
 70
     0
  3

  4

  5

  6

  7

 40
1.0
 41
20.0
 42
3.0
 43
3.75
 44
2.0
 45
0.0
 46
0.0
 47
0.0
 48
0.0
140
30.0
141
5.0
142
0.0
143
0.03937
144
1.0
145
0.0
146
1.0
147
8.0
 71
     0
 72
     0
 73
     0
 74
     0
 75
     0
 76
     0
 77
     1
 78
     8
170
     0
171
     3
172
     1
173
     0
174
     0
175
     0
176
     1
177
     1
178
     1
  0
ENDTAB
  0
ENDSEC
  0
SECTION
  2
BLOCKS
  0
BLOCK
  8
0
  2
$MODEL_SPACE
 70
     0
 10
0.0
 20
0.0
 30
0.0
  3
$MODEL_SPACE
  1

  0
ENDBLK
  5
1A
  8
0
  0
BLOCK
 67
     1
  8
0
  2
$PAPER_SPACE
 70
     0
 10
0.0
 20
0.0
 30
0.0
  3
$PAPER_SPACE
  1

  0
ENDBLK
  5
17
 67
     1
  8
0
  0
BLOCK
  8
0
  2
_OPEN30
 70
     0
 10
0.0
 20
0.0
 30
0.0
  3
_OPEN30
  1

  0
LINE
  5
44
  8
0
  6
BYBLOCK
 62
     0
 10
-1.0
 20
0.26794919
 30
0.0
 11
0.0
 21
0.0
 31
0.0
  0
LINE
  5
45
  8
0
  6
BYBLOCK
 62
     0
 10
0.0
 20
0.0
 30
0.0
 11
-1.0
 21
-0.26794919
 31
0.0
  0
LINE
  5
46
  8
0
  6
BYBLOCK
 62
     0
 10
0.0
 20
0.0
 30
0.0
 11
-1.0
 21
0.0
 31
0.0
  0
ENDBLK
  5
47
  8
0
  0
BLOCK
  8
0
  2
A3WAKUKAWAJUN2017_HYOUDAI_
 70
     0
 10
0.0
 20
0.0
 30
0.0
  3
A3WAKUKAWAJUN2017_HYOUDAI_
  1

  0
LINE
  5
19D44
  8
0
 10
13.26299999998673
 20
-0.0001000000000317
 30
0.0
 11
9.236999999990758
 21
8.999899999990987
 31
0.0
1001
ACAD
1000
ASC_BOUNDS
1002
{
1070
    19
1005
19D85
1002
}
  0
LINE
  5
19D45
  8
0
 10
5.657999999994331
 20
0.9999999999989768
 30
0.0
 11
9.236999999990758
 21
8.999999999991019
 31
0.0
1001
ACAD
1000
ASC_BOUNDS
1002
{
1070
    19
1005
19D85
1002
}
  0
LINE
  5
19D46
  8
0
 10
18.59199999998134
 20
-0.2368999999997641
 30
0.0
 11
16.46099999998353
 21
5.432899999994561
 31
0.0
1001
ACAD
1000
ASC_BOUNDS
1002
{
1070
    19
1005
19D86
1002
}
  0
LINE
  5
19D47
  8
0
 10
18.59199999998134
 20
-0.2368999999997641
 30
0.0
 11
22.38199999997767
 21
8.763099999991255
 31
0.0
1001
ACAD
1000
ASC_BOUNDS
1002
{
1070
    19
1005
19D86
1002
}
  0
LINE
  5
19D48
  8
0
 10
14.32899999998563
 20
-0.2368999999997641
 30
0.0
 11
16.46099999998353
 21
5.432899999994561
 31
0.0
1001
ACAD
1000
ASC_BOUNDS
1002
{
1070
    19
1005
19D86
1002
}
  0
LINE
  5
19D49
  8
0
 10
14.32899999998563
 20
-0.2368999999997641
 30
0.0
 11
10.53899999998941
 21
8.763099999991255
 31
0.0
1001
ACAD
1000
ASC_BOUNDS
1002
{
1070
    19
1005
19D86
1002
}
  0
LINE
  5
19D4A
  8
0
 10
19.53899999998043
 20
-0.0001000000000317
 30
0.0
 11
23.56599999997638
 21
8.999899999990987
 31
0.0
1001
ACAD
1000
ASC_BOUNDS
1002
{
1070
    19
1005
19D87
1002
}
  0
LINE
  5
19D4B
  8
0
 10
26.97358892824991
 20
1.383099999991202
 30
0.0
 11
23.56599999997638
 21
8.999899999990987
 31
0.0
1001
ACAD
1000
ASC_BOUNDS
1002
{
1070
    19
1005
19D87
1002
}
  0
LINE
  5
19D4C
  8
0
 10
5.657999999994331
 20
0.9999999999989768
 30
0.0
 11
3.181999999996833
 21
4.668599999995308
 31
0.0
1001
ACAD
1000
ASC_BOUNDS
1002
{
1070
    19
1005
19D85
1002
}
  0
LINE
  5
19D4D
  8
0
 10
4.617999999995391
 20
-0.0001000000000317
 30
0.0
 11
1.420999999998571
 21
4.736799999995242
 31
0.0
1001
ACAD
1000
ASC_BOUNDS
1002
{
1070
    19
1005
19D85
1002
}
  0
LINE
  5
19D4E
  8
0
 10
1.420999999998571
 20
8.763099999991255
 30
0.0
 11
1.420999999998571
 21
0.0
 31
0.0
1001
ACAD
1000
ASC_BOUNDS
1002
{
1070
    19
1005
19D8A
1002
}
  0
LINE
  5
19D4F
  8
0
 10
0.0
 20
8.763099999991255
 30
0.0
 11
0.0
 21
0.0
 31
0.0
1001
ACAD
1000
ASC_BOUNDS
1002
{
1070
    19
1005
19D8A
1002
}
  0
LINE
  5
19D50
  8
0
 10
6.766999999993232
 20
-0.0001000000000317
 30
0.0
 11
7.826999999992154
 21
2.368399999997621
 31
0.0
1001
ACAD
1000
ASC_BOUNDS
1002
{
1070
    19
1005
19D85
1002
}
  0
LINE
  5
19D51
  8
0
 10
0.0
 20
0.0
 30
0.0
 11
1.420999999998571
 21
0.0
 31
0.0
1001
ACAD
1000
ASC_BOUNDS
1002
{
1070
    19
1005
19D8A
1002
}
  0
LINE
  5
19D52
  8
0
 10
4.617999999995391
 20
0.0
 30
0.0
 11
6.766999999993232
 21
0.0
 31
0.0
1001
ACAD
1000
ASC_BOUNDS
1002
{
1070
    19
1005
19D85
1002
}
  0
LINE
  5
19D53
  8
0
 10
11.70599999998831
 20
-0.0001000000000317
 30
0.0
 11
10.64699999998936
 21
2.368399999997621
 31
0.0
1001
ACAD
1000
ASC_BOUNDS
1002
{
1070
    19
1005
19D85
1002
}
  0
LINE
  5
19D54
  8
0
 10
7.826999999992154
 20
2.368399999997621
 30
0.0
 11
10.64699999998936
 21
2.368399999997621
 31
0.0
1001
ACAD
1000
ASC_BOUNDS
1002
{
1070
    19
1005
19D85
1002
}
  0
LINE
  5
19D55
  8
0
 10
11.70599999998831
 20
0.0
 30
0.0
 11
13.26299999998673
 21
0.0
 31
0.0
1001
ACAD
1000
ASC_BOUNDS
1002
{
1070
    19
1005
19D85
1002
}
  0
LINE
  5
19D56
  8
0
 10
22.15599999997789
 20
2.368399999997621
 30
0.0
 11
24.97599999997499
 21
2.368399999997621
 31
0.0
1001
ACAD
1000
ASC_BOUNDS
1002
{
1070
    19
1005
19D87
1002
}
  0
LINE
  5
19D57
  8
0
 10
19.53899999998043
 20
0.0
 30
0.0
 11
21.09599999997886
 21
0.0
 31
0.0
1001
ACAD
1000
ASC_BOUNDS
1002
{
1070
    19
1005
19D87
1002
}
  0
LINE
  5
19D58
  8
0
 10
21.09599999997886
 20
-0.0001000000000317
 30
0.0
 11
22.15599999997789
 21
2.368399999997621
 31
0.0
1001
ACAD
1000
ASC_BOUNDS
1002
{
1070
    19
1005
19D87
1002
}
  0
LINE
  5
19D59
  8
0
 10
26.02015566812236
 20
0.0330999999912365
 30
0.0
 11
24.97599999997499
 21
2.368399999997621
 31
0.0
1001
ACAD
1000
ASC_BOUNDS
1002
{
1070
    19
1005
19D87
1002
}
  0
LINE
  5
19D5A
  8
0
 10
14.32399999998563
 20
3.315799999996671
 30
0.0
 11
16.46099999998353
 21
8.999899999990987
 31
0.0
1001
ACAD
1000
ASC_BOUNDS
1002
{
1070
    19
1005
19D86
1002
}
  0
LINE
  5
19D5B
  8
0
 10
6.432999999993513
 20
8.763099999991255
 30
0.0
 11
3.181999999996833
 21
4.668599999995308
 31
0.0
1001
ACAD
1000
ASC_BOUNDS
1002
{
1070
    19
1005
19D85
1002
}
  0
LINE
  5
19D5C
  8
0
 10
4.617999999995391
 20
8.763099999991255
 30
0.0
 11
1.420999999998571
 21
4.736799999995242
 31
0.0
1001
ACAD
1000
ASC_BOUNDS
1002
{
1070
    19
1005
19D85
1002
}
  0
LINE
  5
19D5D
  8
0
 10
0.0
 20
8.763099999991255
 30
0.0
 11
1.420999999998571
 21
8.763099999991255
 31
0.0
1001
ACAD
1000
ASC_BOUNDS
1002
{
1070
    19
1005
19D8A
1002
}
  0
LINE
  5
19D5E
  8
0
 10
4.617999999995391
 20
8.763099999991255
 30
0.0
 11
6.432999999993513
 21
8.763099999991255
 31
0.0
1001
ACAD
1000
ASC_BOUNDS
1002
{
1070
    19
1005
19D85
1002
}
  0
LINE
  5
19D5F
  8
0
 10
14.32399999998563
 20
3.315799999996671
 30
0.0
 11
12.02999999998792
 21
8.763099999991255
 31
0.0
1001
ACAD
1000
ASC_BOUNDS
1002
{
1070
    19
1005
19D86
1002
}
  0
LINE
  5
19D60
  8
0
 10
10.06399999998996
 20
3.670999999996297
 30
0.0
 11
9.236999999990758
 21
5.5200999999945
 31
0.0
1001
ACAD
1000
ASC_BOUNDS
1002
{
1070
    19
1005
19D85
1002
}
  0
LINE
  5
19D61
  8
0
 10
8.409999999991555
 20
3.670999999996297
 30
0.0
 11
9.236999999990758
 21
5.5200999999945
 31
0.0
1001
ACAD
1000
ASC_BOUNDS
1002
{
1070
    19
1005
19D85
1002
}
  0
LINE
  5
19D62
  8
0
 10
8.409999999991555
 20
3.670999999996297
 30
0.0
 11
10.06399999998996
 21
3.670999999996297
 31
0.0
1001
ACAD
1000
ASC_BOUNDS
1002
{
1070
    19
1005
19D85
1002
}
  0
LINE
  5
19D63
  8
0
 10
10.53899999998941
 20
8.763099999991255
 30
0.0
 11
12.02999999998792
 21
8.763099999991255
 31
0.0
1001
ACAD
1000
ASC_BOUNDS
1002
{
1070
    19
1005
19D86
1002
}
  0
LINE
  5
19D64
  8
0
 10
22.7389999999773
 20
3.670999999996297
 30
0.0
 11
23.56599999997638
 21
5.5200999999945
 31
0.0
1001
ACAD
1000
ASC_BOUNDS
1002
{
1070
    19
1005
19D87
1002
}
  0
LINE
  5
19D65
  8
0
 10
22.7389999999773
 20
3.670999999996297
 30
0.0
 11
24.39299999997559
 21
3.670999999996297
 31
0.0
1001
ACAD
1000
ASC_BOUNDS
1002
{
1070
    19
1005
19D87
1002
}
  0
LINE
  5
19D66
  8
0
 10
18.59799999998143
 20
3.315799999996671
 30
0.0
 11
20.89099999997916
 21
8.763099999991255
 31
0.0
1001
ACAD
1000
ASC_BOUNDS
1002
{
1070
    19
1005
19D86
1002
}
  0
LINE
  5
19D67
  8
0
 10
18.59799999998143
 20
3.315799999996671
 30
0.0
 11
16.46099999998353
 21
8.999899999990987
 31
0.0
1001
ACAD
1000
ASC_BOUNDS
1002
{
1070
    19
1005
19D86
1002
}
  0
LINE
  5
19D68
  8
0
 10
20.89099999997916
 20
8.763099999991255
 30
0.0
 11
22.38199999997767
 21
8.763099999991255
 31
0.0
1001
ACAD
1000
ASC_BOUNDS
1002
{
1070
    19
1005
19D86
1002
}
  0
LINE
  5
19D69
  8
0
 10
24.39299999997559
 20
3.670999999996297
 30
0.0
 11
23.56599999997638
 21
5.5200999999945
 31
0.0
1001
ACAD
1000
ASC_BOUNDS
1002
{
1070
    19
1005
19D87
1002
}
  0
LINE
  5
19D6A
  8
0
 10
44.99999999995498
 20
-0.2368999999997641
 30
0.0
 11
40.02599999995994
 21
5.341799999994635
 31
0.0
1001
ACAD
1000
ASC_BOUNDS
1002
{
1070
    19
1005
19D89
1002
}
  0
LINE
  5
19D6B
  8
0
 10
40.02599999995994
 20
5.341799999994635
 30
0.0
 11
40.02599999995994
 21
0.0
 31
0.0
1001
ACAD
1000
ASC_BOUNDS
1002
{
1070
    19
1005
19D89
1002
}
  0
LINE
  5
19D6C
  8
0
 10
38.60499999996136
 20
8.999999999991019
 30
0.0
 11
38.60499999996136
 21
0.0
 31
0.0
1001
ACAD
1000
ASC_BOUNDS
1002
{
1070
    19
1005
19D89
1002
}
  0
LINE
  5
19D6D
  8
0
 10
44.99999999995498
 20
8.763099999991255
 30
0.0
 11
44.99999999995498
 21
-0.2368999999997641
 31
0.0
1001
ACAD
1000
ASC_BOUNDS
1002
{
1070
    19
1005
19D89
1002
}
  0
LINE
  5
19D6E
  8
0
 10
38.60499999996136
 20
0.0
 30
0.0
 11
40.02599999995994
 21
0.0
 31
0.0
1001
ACAD
1000
ASC_BOUNDS
1002
{
1070
    19
1005
19D89
1002
}
  0
LINE
  5
19D6F
  8
0
 10
43.57899999995641
 20
3.421199999996588
 30
0.0
 11
38.60499999996136
 21
8.999899999990987
 31
0.0
1001
ACAD
1000
ASC_BOUNDS
1002
{
1070
    19
1005
19D89
1002
}
  0
LINE
  5
19D70
  8
0
 10
43.57899999995641
 20
8.763099999991255
 30
0.0
 11
43.57899999995641
 21
3.421199999996588
 31
0.0
1001
ACAD
1000
ASC_BOUNDS
1002
{
1070
    19
1005
19D89
1002
}
  0
LINE
  5
19D71
  8
0
 10
43.57899999995641
 20
8.763099999991255
 30
0.0
 11
44.99999999995498
 21
8.763099999991255
 31
0.0
1001
ACAD
1000
ASC_BOUNDS
1002
{
1070
    19
1005
19D89
1002
}
  0
LINE
  5
19D72
  8
0
 10
37.67199999996831
 20
8.763099999991255
 30
0.0
 11
36.23199999996837
 21
8.763099999991255
 31
0.0
  0
LINE
  5
19D73
  8
0
 10
31.64199999996833
 20
8.763099999991255
 30
0.0
 11
31.64199999996833
 21
2.481619422925121
 31
0.0
  0
LINE
  5
19D74
  8
0
 10
37.67199999996831
 20
8.763099999991255
 30
0.0
 11
37.67199999996831
 21
2.481619422925121
 31
0.0
  0
LINE
  5
19D75
  8
0
 10
36.23199999996837
 20
8.763099999991255
 30
0.0
 11
36.23199999996837
 21
2.481619422925064
 31
0.0
  0
LINE
  5
19D76
  8
0
 10
33.08199999996839
 20
8.763099999991255
 30
0.0
 11
33.08199999996839
 21
2.481619422925121
 31
0.0
  0
ARC
  5
19D77
  8
0
 10
34.65699999996832
 20
3.183099999991214
 30
0.0
 40
3.420000000000007
 50
240.0000000000255
 51
299.9999999999766
  0
ARC
  5
19D78
  8
0
 10
34.65699999996832
 20
3.183099999991214
 30
0.0
 40
1.97999999999999
 50
240.000000000026
 51
299.9999999999703
  0
LINE
  5
19D79
  8
0
 10
33.08199999996828
 20
8.763099999991255
 30
0.0
 11
31.64199999996833
 21
8.763099999991255
 31
0.0
  0
ARC
  5
19D7A
  8
0
 10
35.06199999996829
 20
2.481619422925064
 30
0.0
 40
1.17
 50
299.9999999999699
 51
0.0
  0
ARC
  5
19D7B
  8
0
 10
34.25199999996835
 20
2.481619422925121
 30
0.0
 40
1.17
 50
180.0
 51
240.0000000000238
  0
ARC
  5
19D7C
  8
0
 10
35.06199999996841
 20
2.481619422925121
 30
0.0
 40
2.61
 50
299.9999999999756
 51
0.0
  0
ARC
  5
19D7D
  8
0
 10
34.25199999996835
 20
2.481619422925121
 30
0.0
 40
2.61
 50
180.0
 51
240.0000000000244
  0
LINE
  5
19D7E
  8
0
 10
29.30199999996933
 20
8.763099999991255
 30
0.0
 11
30.74199999996927
 21
8.763099999991255
 31
0.0
1001
ACAD
1000
ASC_BOUNDS
1002
{
1070
    19
1005
19D87
1002
}
  0
LINE
  5
19D7F
  8
0
 10
30.74199999996927
 20
8.763099999991255
 30
0.0
 11
30.74199999996927
 21
2.373099999991211
 31
0.0
1001
ACAD
1000
ASC_BOUNDS
1002
{
1070
    19
1005
19D87
1002
}
  0
LINE
  5
19D80
  8
0
 10
26.02015566812236
 20
0.0330999999912365
 30
0.0
 11
28.40199999996923
 21
0.0330999999912365
 31
0.0
1001
ACAD
1000
ASC_BOUNDS
1002
{
1070
    19
1005
19D87
1002
}
  0
LINE
  5
19D81
  8
0
 10
29.30199999996933
 20
8.763099999991255
 30
0.0
 11
29.30199999996933
 21
2.283099999991236
 31
0.0
1001
ACAD
1000
ASC_BOUNDS
1002
{
1070
    19
1005
19D87
1002
}
  0
LINE
  5
19D82
  8
0
 10
26.97358892824991
 20
1.383099999991202
 30
0.0
 11
28.40199999996923
 21
1.383099999991202
 31
0.0
1001
ACAD
1000
ASC_BOUNDS
1002
{
1070
    19
1005
19D87
1002
}
  0
ARC
  5
19D83
  8
0
 10
28.40199999996923
 20
2.283099999991236
 30
0.0
 40
0.9
 50
270.0
 51
0.0
1001
ACAD
1000
ASC_BOUNDS
1002
{
1070
    19
1005
19D87
1002
}
  0
ARC
  5
19D84
  8
0
 10
28.40199999996923
 20
2.373099999991211
 30
0.0
 40
2.34
 50
270.0
 51
0.0
1001
ACAD
1000
ASC_BOUNDS
1002
{
1070
    19
1005
19D87
1002
}
  0
INSERT
  5
19D85
  8
0
  2
*X119
 10
0.0
 20
0.0
 30
0.0
1001
ACAD
1000
HATCH
1002
{
1070
    19
1000
ANSI37
1040
0.15
1040
0.0
1000
ASC_BOUNDS
1070
     2
1070
     2
1070
    12
1005
19D44
1005
19D45
1005
19D4C
1005
19D5B
1005
19D5E
1005
19D5C
1005
19D4D
1005
19D52
1005
19D50
1005
19D54
1005
19D53
1005
19D55
1070
     2
1070
     3
1005
19D60
1005
19D62
1005
19D61
1000
ASC_SEEDPOINT
1011
3.614004224891801
1021
2.996669441146025
1031
0.0
1021
2.996669441146025
1031
0.0
1000
R14_HATCH_DATA
1000
19D85
1011
1.0
1021
0.0
1031
0.0
1021
0.0
1031
0.0
1011
0.0
1021
1.0
1031
0.0
1021
1.0
1031
0.0
1011
0.0
1021
0.0
1031
1.0
1021
0.0
1031
1.0
1040
0.0
1010
0.0
1020
0.0
1030
1.0
1000
ANSI37
1070
     0
1070
     1
1071
        2
1071
        7
1070
     0
1070
     1
1071
       17
1040
13.26299999998673
1040
-0.0001000000000317
1040
9.236999999990758
1040
8.999899999990987
1040
9.236999999990758
1040
8.999999999991019
1040
5.657999999994331
1040
0.9999999999989768
1040
3.181999999996833
1040
4.668599999995308
1040
6.432999999993513
1040
8.763099999991255
1040
4.617999999995391
1040
8.763099999991255
1040
1.420999999998571
1040
4.736799999995242
1040
4.617999999995391
1040
-0.0001000000000317
1040
4.617999999995391
1040
0.0
1040
6.766999999993232
1040
0.0
1040
6.766999999993232
1040
-0.0001000000000317
1040
7.826999999992154
1040
2.368399999997621
1040
10.64699999998936
1040
2.368399999997621
1040
11.70599999998831
1040
-0.0001000000000317
1040
11.70599999998831
1040
0.0
1040
13.26299999998673
1040
0.0
1071
       12
1005
19D44
1005
19D45
1005
19D4C
1005
19D5B
1005
19D5E
1005
19D5C
1005
19D4D
1005
19D52
1005
19D50
1005
19D54
1005
19D53
1005
19D55
1071
       22
1070
     0
1070
     1
1071
        3
1040
9.236999999990758
1040
5.5200999999945
1040
10.06399999998996
1040
3.670999999996297
1040
8.409999999991555
1040
3.670999999996297
1071
        3
1005
19D60
1005
19D62
1005
19D61
1070
     0
1070
     1
1040
0.0
1040
0.15
1070
     0
1070
     2
1040
0.7853981633974483
1040
49.29960901727088
1040
-10.17736998311392
1040
-0.3367596045400932
1040
0.3367596045400932
1070
     0
1040
2.356194490192345
1040
49.29960901727088
1040
-10.17736998311392
1040
-0.3367596045400932
1040
-0.3367596045400932
1070
     0
1040
0.0110235143455945
1071
        2
1040
3.614004224891801
1040
2.996669441146025
1040
0.0
1040
3.614004224891801
1040
2.996669441146025
1040
0.0
1002
}
  0
INSERT
  5
19D86
  8
0
  2
*X120
 10
0.0
 20
0.0
 30
0.0
1001
ACAD
1000
HATCH
1002
{
1070
    19
1000
ANSI37
1040
0.15
1040
0.0
1000
ASC_BOUNDS
1070
     1
1070
     2
1070
    10
1005
19D46
1005
19D47
1005
19D68
1005
19D66
1005
19D67
1005
19D5A
1005
19D5F
1005
19D63
1005
19D49
1005
19D48
1000
ASC_SEEDPOINT
1011
14.73245321214324
1021
2.798246178283421
1031
0.0
1021
2.798246178283421
1031
0.0
1000
R14_HATCH_DATA
1000
19D86
1011
1.0
1021
0.0
1031
0.0
1021
0.0
1031
0.0
1011
0.0
1021
1.0
1031
0.0
1021
1.0
1031
0.0
1011
0.0
1021
0.0
1031
1.0
1021
0.0
1031
1.0
1040
0.0
1010
0.0
1020
0.0
1030
1.0
1000
ANSI37
1070
     0
1070
     1
1071
        1
1071
        7
1070
     0
1070
     1
1071
       10
1040
16.46099999998353
1040
5.432899999994561
1040
18.59199999998134
1040
-0.2368999999997641
1040
22.38199999997767
1040
8.763099999991255
1040
20.89099999997916
1040
8.763099999991255
1040
18.59799999998143
1040
3.315799999996671
1040
16.46099999998353
1040
8.999899999990987
1040
14.32399999998563
1040
3.315799999996671
1040
12.02999999998792
1040
8.763099999991255
1040
10.53899999998941
1040
8.763099999991255
1040
14.32899999998563
1040
-0.2368999999997641
1071
       10
1005
19D46
1005
19D47
1005
19D68
1005
19D66
1005
19D67
1005
19D5A
1005
19D5F
1005
19D63
1005
19D49
1005
19D48
1070
     0
1070
     1
1040
0.0
1040
0.15
1070
     0
1070
     2
1040
0.7853981633974483
1040
49.29960901727088
1040
-10.17736998311392
1040
-0.3367596045400932
1040
0.3367596045400932
1070
     0
1040
2.356194490192345
1040
49.29960901727088
1040
-10.17736998311392
1040
-0.3367596045400932
1040
-0.3367596045400932
1070
     0
1040
0.0110235143455945
1071
        1
1040
14.73245321214324
1040
2.798246178283421
1040
0.0
1002
}
  0
INSERT
  5
19D87
  8
0
  2
*X121
 10
0.0
 20
0.0
 30
0.0
1001
ACAD
1000
HATCH
1002
{
1070
    19
1000
ANSI37
1040
0.15
1040
0.0
1000
ASC_BOUNDS
1070
     2
1070
     2
1070
    13
1005
19D4A
1005
19D57
1005
19D58
1005
19D56
1005
19D59
1005
19D80
1005
19D84
1005
19D7F
1005
19D7E
1005
19D81
1005
19D83
1005
19D82
1005
19D4B
1070
     2
1070
     3
1005
19D64
1005
19D69
1005
19D65
1000
ASC_SEEDPOINT
1011
21.97929957367762
1021
3.294304244259308
1031
0.0
1021
3.294304244259308
1031
0.0
1000
R14_HATCH_DATA
1000
19D87
1011
1.0
1021
0.0
1031
0.0
1021
0.0
1031
0.0
1011
0.0
1021
1.0
1031
0.0
1021
1.0
1031
0.0
1011
0.0
1021
0.0
1031
1.0
1021
0.0
1031
1.0
1040
0.0
1010
0.0
1020
0.0
1030
1.0
1000
ANSI37
1070
     0
1070
     1
1071
        2
1071
        7
1070
     1
1070
     1
1071
       15
1040
23.56599999997638
1040
8.999899999990987
1040
0.0
1040
19.53899999998043
1040
-0.0001000000000317
1040
0.0
1040
19.53899999998043
1040
0.0
1040
0.0
1040
21.09599999997886
1040
0.0
1040
0.0
1040
21.09599999997886
1040
-0.0001000000000317
1040
0.0
1040
22.15599999997789
1040
2.368399999997621
1040
0.0
1040
24.97599999997499
1040
2.368399999997621
1040
0.0
1040
26.02015566812236
1040
0.0330999999912365
1040
0.0
1040
28.40199999996923
1040
0.0330999999912365
1040
0.414213562373095
1040
30.74199999996923
1040
2.373099999991211
1040
0.0
1040
30.74199999996927
1040
8.763099999991255
1040
0.0
1040
29.30199999996933
1040
8.763099999991255
1040
0.0
1040
29.30199999996933
1040
2.283099999991236
1040
-0.414213562373095
1040
28.40199999996923
1040
1.383099999991237
1040
0.0
1040
26.97358892824991
1040
1.383099999991202
1040
0.0
1071
       13
1005
19D4A
1005
19D57
1005
19D58
1005
19D56
1005
19D59
1005
19D80
1005
19D84
1005
19D7F
1005
19D7E
1005
19D81
1005
19D83
1005
19D82
1005
19D4B
1071
       22
1070
     0
1070
     1
1071
        3
1040
22.7389999999773
1040
3.670999999996297
1040
23.56599999997638
1040
5.5200999999945
1040
24.39299999997559
1040
3.670999999996297
1071
        3
1005
19D64
1005
19D69
1005
19D65
1070
     0
1070
     1
1040
0.0
1040
0.15
1070
     0
1070
     2
1040
0.7853981633974483
1040
49.29960901727088
1040
-10.17736998311392
1040
-0.3367596045400932
1040
0.3367596045400932
1070
     0
1040
2.356194490192345
1040
49.29960901727088
1040
-10.17736998311392
1040
-0.3367596045400932
1040
-0.3367596045400932
1070
     0
1040
0.0110235143455945
1071
        2
1040
21.97929957367762
1040
3.294304244259308
1040
0.0
1040
21.97929957367762
1040
3.294304244259308
1040
0.0
1002
}
  0
INSERT
  5
19D88
  8
0
  2
*X122
 10
0.0
 20
0.0
 30
0.0
1001
ACAD
1000
HATCH
1002
{
1070
    19
1000
ANSI37
1040
0.15
1040
0.0
1000
R14_HATCH_DATA
1000
19D88
1011
1.0
1021
0.0
1031
0.0
1021
0.0
1031
0.0
1011
0.0
1021
1.0
1031
0.0
1021
1.0
1031
0.0
1011
0.0
1021
0.0
1031
1.0
1021
0.0
1031
1.0
1040
0.0
1010
0.0
1020
0.0
1030
1.0
1000
ANSI37
1070
     0
1070
     1
1071
        1
1071
        7
1070
     1
1070
     1
1071
       12
1040
31.64199999996833
1040
2.481619422925121
1040
0.2679491924310942
1040
32.94699999997067
1040
0.2212931190493919
1040
0.2679491924301353
1040
36.36699999995983
1040
0.2212931190459813
1040
0.2679491924321411
1040
37.67199999996831
1040
2.481619422928361
1040
0.0
1040
37.67199999996831
1040
8.763099999991255
1040
0.0
1040
36.23199999996837
1040
8.763099999991255
1040
0.0
1040
36.23199999996837
1040
2.481619422925064
1040
-0.2679491924310291
1040
35.64699999996708
1040
1.468369700498386
1040
-0.267949192430519
1040
33.66699999997093
1040
1.468369700497703
1040
-0.267949192431809
1040
33.08199999996839
1040
2.481619422926997
1040
0.0
1040
33.08199999996839
1040
8.763099999991255
1040
0.0
1040
31.64199999996833
1040
8.763099999991255
1040
0.0
1071
        0
1070
     0
1070
     1
1040
0.0
1040
0.15
1070
     0
1070
     2
1040
0.7853981633974483
1040
49.29960901727088
1040
-10.17736998311392
1040
-0.3367596045400932
1040
0.3367596045400932
1070
     0
1040
2.356194490192345
1040
49.29960901727088
1040
-10.17736998311392
1040
-0.3367596045400932
1040
-0.3367596045400932
1070
     0
1040
0.0110235143455945
1071
        1
1040
32.30357378967278
1040
3.988785755459219
1040
0.0
1002
}
  0
INSERT
  5
19D89
  8
0
  2
*X123
 10
0.0
 20
0.0
 30
0.0
1001
ACAD
1000
HATCH
1002
{
1070
    19
1000
ANSI37
1040
0.15
1040
0.0
1000
ASC_BOUNDS
1070
     1
1070
     2
1070
     8
1005
19D6A
1005
19D6D
1005
19D71
1005
19D70
1005
19D6F
1005
19D6C
1005
19D6E
1005
19D6B
1000
ASC_SEEDPOINT
1011
39.74896370716704
1021
4.484843821435049
1031
0.0
1021
4.484843821435049
1031
0.0
1000
R14_HATCH_DATA
1000
19D89
1011
1.0
1021
0.0
1031
0.0
1021
0.0
1031
0.0
1011
0.0
1021
1.0
1031
0.0
1021
1.0
1031
0.0
1011
0.0
1021
0.0
1031
1.0
1021
0.0
1031
1.0
1040
0.0
1010
0.0
1020
0.0
1030
1.0
1000
ANSI37
1070
     0
1070
     1
1071
        1
1071
        7
1070
     0
1070
     1
1071
        9
1040
40.02599999995994
1040
5.341799999994635
1040
44.99999999995498
1040
-0.2368999999997641
1040
44.99999999995498
1040
8.763099999991255
1040
43.57899999995641
1040
8.763099999991255
1040
43.57899999995641
1040
3.421199999996588
1040
38.60499999996136
1040
8.999899999990987
1040
38.60499999996136
1040
8.999999999991019
1040
38.60499999996136
1040
0.0
1040
40.02599999995994
1040
0.0
1071
        8
1005
19D6A
1005
19D6D
1005
19D71
1005
19D70
1005
19D6F
1005
19D6C
1005
19D6E
1005
19D6B
1070
     0
1070
     1
1040
0.0
1040
0.15
1070
     0
1070
     2
1040
0.7853981633974483
1040
49.29960901727088
1040
-10.17736998311392
1040
-0.3367596045400932
1040
0.3367596045400932
1070
     0
1040
2.356194490192345
1040
49.29960901727088
1040
-10.17736998311392
1040
-0.3367596045400932
1040
-0.3367596045400932
1070
     0
1040
0.0110235143455945
1071
        1
1040
39.74896370716704
1040
4.484843821435049
1040
0.0
1002
}
  0
INSERT
  5
19D8A
  8
0
  2
*X124
 10
0.0
 20
0.0
 30
0.0
1001
ACAD
1000
HATCH
1002
{
1070
    19
1000
ANSI37
1040
0.15
1040
0.0
1000
ASC_BOUNDS
1070
     1
1070
     2
1070
     4
1005
19D4E
1005
19D5D
1005
19D4F
1005
19D51
1000
ASC_SEEDPOINT
1011
1.079051535452663
1021
4.148538732891836
1031
0.0
1021
4.148538732891836
1031
0.0
1000
R14_HATCH_DATA
1000
19D8A
1011
1.0
1021
0.0
1031
0.0
1021
0.0
1031
0.0
1011
0.0
1021
1.0
1031
0.0
1021
1.0
1031
0.0
1011
0.0
1021
0.0
1031
1.0
1021
0.0
1031
1.0
1040
0.0
1010
0.0
1020
0.0
1030
1.0
1000
ANSI37
1070
     0
1070
     1
1071
        1
1071
        7
1070
     0
1070
     1
1071
        4
1040
1.420999999998571
1040
0.0
1040
1.420999999998571
1040
8.763099999991255
1040
0.0
1040
8.763099999991255
1040
0.0
1040
0.0
1071
        4
1005
19D4E
1005
19D5D
1005
19D4F
1005
19D51
1070
     0
1070
     1
1040
0.0
1040
0.15
1070
     0
1070
     2
1040
0.7853981633974483
1040
49.29960901727088
1040
-10.17736998311392
1040
-0.3367596045400932
1040
0.3367596045400932
1070
     0
1040
2.356194490192345
1040
49.29960901727088
1040
-10.17736998311392
1040
-0.3367596045400932
1040
-0.3367596045400932
1070
     0
1040
0.0053004257112761
1071
        1
1040
1.079051535452663
1040
4.148538732891836
1040
0.0
1002
}
  0
ENDBLK
  5
1A551
  8
0
  0
BLOCK
  8
0
  2
*X119
 70
     1
 10
0.0
 20
0.0
 30
0.0
  3
*X119
  1

  0
LINE
  5
1D09E
  8
0
  6
CONTINUOUS
 10
3.418023043697893
 20
7.251849696850613
 30
0.0
 11
4.929273346838536
 21
8.763099999991255
 31
0.0
  0
LINE
  5
1D09F
  8
0
  6
CONTINUOUS
 10
1.483656411257782
 20
4.643963855330318
 30
0.0
 11
5.60279255591872
 21
8.763099999991255
 31
0.0
  0
LINE
  5
1D0A0
  8
0
  6
CONTINUOUS
 10
1.755053947328235
 20
4.241842182320584
 30
0.0
 11
6.276311764998907
 21
8.763099999991255
 31
0.0
  0
LINE
  5
1D0A1
  8
0
  6
CONTINUOUS
 10
2.026451483398688
 20
3.839720509310849
 30
0.0
 11
4.441040904851878
 21
6.254309930764039
 31
0.0
  0
LINE
  5
1D0A2
  8
0
  6
CONTINUOUS
 10
2.297849019469139
 20
3.437598836301114
 30
0.0
 11
3.321765168359338
 21
4.461514985191313
 31
0.0
  0
LINE
  5
1D0A3
  8
0
  6
CONTINUOUS
 10
2.569246555539591
 20
3.03547716329138
 30
0.0
 11
3.593163397972743
 21
4.059394005724531
 31
0.0
  0
LINE
  5
1D0A4
  8
0
  6
CONTINUOUS
 10
2.840644091610043
 20
2.633355490281646
 30
0.0
 11
3.864561627586149
 21
3.657273026257751
 31
0.0
  0
LINE
  5
1D0A5
  8
0
  6
CONTINUOUS
 10
3.112041627680496
 20
2.231233817271911
 30
0.0
 11
4.135959857199554
 21
3.25515204679097
 31
0.0
  0
LINE
  5
1D0A6
  8
0
  6
CONTINUOUS
 10
3.383439163750948
 20
1.829112144262177
 30
0.0
 11
4.40735808681296
 21
2.853031067324189
 31
0.0
  0
LINE
  5
1D0A7
  8
0
  6
CONTINUOUS
 10
3.654836699821399
 20
1.426990471252442
 30
0.0
 11
4.678756316426365
 21
2.450910087857407
 31
0.0
  0
LINE
  5
1D0A8
  8
0
  6
CONTINUOUS
 10
3.926234235891853
 20
1.024868798242709
 30
0.0
 11
4.95015454603977
 21
2.048789108390626
 31
0.0
  0
LINE
  5
1D0A9
  8
0
  6
CONTINUOUS
 10
4.197631771962304
 20
0.6227471252329737
 30
0.0
 11
5.221552775653176
 21
1.646668128923846
 31
0.0
  0
LINE
  5
1D0AA
  8
0
  6
CONTINUOUS
 10
8.715877546767851
 20
7.835069736359266
 30
0.0
 11
9.435953450375058
 21
8.555145639966472
 31
0.0
  0
LINE
  5
1D0AB
  8
0
  6
CONTINUOUS
 10
8.170620868422267
 20
6.616293848933497
 30
0.0
 11
9.644120833743461
 21
8.08979381425469
 31
0.0
  0
LINE
  5
1D0AC
  8
0
  6
CONTINUOUS
 10
7.625364190076684
 20
5.397517961507727
 30
0.0
 11
9.852288217111864
 21
7.624441988542907
 31
0.0
  0
LINE
  5
1D0AD
  8
0
  6
CONTINUOUS
 10
7.080107511731101
 20
4.178742074081957
 30
0.0
 11
10.06045560048027
 21
7.159090162831124
 31
0.0
  0
LINE
  5
1D0AE
  8
0
  6
CONTINUOUS
 10
6.534850833385518
 20
2.959966186656187
 30
0.0
 11
10.26862298384867
 21
6.693738337119342
 31
0.0
  0
LINE
  5
1D0AF
  8
0
  6
CONTINUOUS
 10
4.469029308032756
 20
0.2206254522232385
 30
0.0
 11
5.492951005266582
 21
1.244547149457064
 31
0.0
  0
LINE
  5
1D0B0
  8
0
  6
CONTINUOUS
 10
5.989594155039935
 20
1.741190299230417
 30
0.0
 11
8.806950407233131
 21
4.558546551423613
 31
0.0
  0
LINE
  5
1D0B1
  8
0
  6
CONTINUOUS
 10
9.401251593263643
 20
5.152847737454126
 30
0.0
 11
10.47679036721708
 21
6.228386511407559
 31
0.0
  0
LINE
  5
1D0B2
  8
0
  6
CONTINUOUS
 10
4.921837203428691
 20
-0.0000858614610131
 30
0.0
 11
8.592923064886001
 21
3.670999999996297
 31
0.0
  0
LINE
  5
1D0B3
  8
0
  6
CONTINUOUS
 10
9.609390446785305
 20
4.6874673818956
 30
0.0
 11
10.68495775058548
 21
5.763034685695775
 31
0.0
  0
LINE
  5
1D0B4
  8
0
  6
CONTINUOUS
 10
5.595387755019432
 20
-0.0000545189504582
 30
0.0
 11
7.716137258923768
 21
2.120694984953879
 31
0.0
  0
LINE
  5
1D0B5
  8
0
  6
CONTINUOUS
 10
6.268938306610172
 20
-0.000023176439905
 30
0.0
 11
7.170485805526503
 21
0.9015243224764267
 31
0.0
  0
LINE
  5
1D0B6
  8
0
  6
CONTINUOUS
 10
7.963842273967511
 20
2.368399999997621
 30
0.0
 11
9.266442273966188
 21
3.670999999996297
 31
0.0
  0
LINE
  5
1D0B7
  8
0
  6
CONTINUOUS
 10
8.637361483047696
 20
2.368399999997621
 30
0.0
 11
9.939961483046375
 21
3.670999999996297
 31
0.0
  0
LINE
  5
1D0B8
  8
0
  6
CONTINUOUS
 10
9.817529300306965
 20
4.222087026337075
 30
0.0
 11
10.89312513395388
 21
5.297682859983993
 31
0.0
  0
LINE
  5
1D0B9
  8
0
  6
CONTINUOUS
 10
10.02566815382863
 20
3.756706670778549
 30
0.0
 11
11.10129251732229
 21
4.832331034272211
 31
0.0
  0
LINE
  5
1D0BA
  8
0
  6
CONTINUOUS
 10
9.310880692127883
 20
2.368399999997621
 30
0.0
 11
11.30945990069069
 21
4.366979208560428
 31
0.0
  0
LINE
  5
1D0BB
  8
0
  6
CONTINUOUS
 10
9.98439990120807
 20
2.36839999999762
 30
0.0
 11
11.5176272840591
 21
3.901627382848645
 31
0.0
  0
LINE
  5
1D0BC
  8
0
  6
CONTINUOUS
 10
10.65037369446246
 20
2.36085458417182
 30
0.0
 11
11.7257946674275
 21
3.436275557136862
 31
0.0
  0
LINE
  5
1D0BD
  8
0
  6
CONTINUOUS
 10
10.85847197087848
 20
1.895433651507656
 30
0.0
 11
11.9339620507959
 21
2.97092373142508
 31
0.0
  0
LINE
  5
1D0BE
  8
0
  6
CONTINUOUS
 10
11.0665702472945
 20
1.430012718843491
 30
0.0
 11
12.14212943416431
 21
2.505571905713296
 31
0.0
  0
LINE
  5
1D0BF
  8
0
  6
CONTINUOUS
 10
11.27466852371052
 20
0.9645917861793256
 30
0.0
 11
12.35029681753271
 21
2.040220080001513
 31
0.0
  0
LINE
  5
1D0C0
  8
0
  6
CONTINUOUS
 10
11.48276680012654
 20
0.4991708535151611
 30
0.0
 11
12.55846420090111
 21
1.57486825428973
 31
0.0
  0
LINE
  5
1D0C1
  8
0
  6
CONTINUOUS
 10
11.69086507654257
 20
0.0337499208509957
 30
0.0
 11
12.76663158426952
 21
1.109516428577947
 31
0.0
  0
LINE
  5
1D0C2
  8
0
  6
CONTINUOUS
 10
12.33057447873954
 20
-0.0000598860322123
 30
0.0
 11
12.97479896763792
 21
0.6441646028661663
 31
0.0
  0
LINE
  5
1D0C3
  8
0
  6
CONTINUOUS
 10
13.00413694809395
 20
-0.0000166257579952
 30
0.0
 11
13.18296635100632
 21
0.1788127771543824
 31
0.0
  0
LINE
  5
1D0C4
  8
0
  6
CONTINUOUS
 10
4.772852165289667
 20
-0.000092794222212
 30
0.0
 11
4.296495091028902
 21
0.4762642800385528
 31
0.0
  0
LINE
  5
1D0C5
  8
0
  6
CONTINUOUS
 10
5.446340034776103
 20
-0.0000614546284616
 30
0.0
 11
2.898195908335625
 21
2.548082671812017
 31
0.0
  0
LINE
  5
1D0C6
  8
0
  6
CONTINUOUS
 10
6.119827904262539
 20
-0.0000301150347113
 30
0.0
 11
1.499896725642348
 21
4.61990106358548
 31
0.0
  0
LINE
  5
1D0C7
  8
0
  6
CONTINUOUS
 10
6.775136745476159
 20
0.0181802528318542
 30
0.0
 11
5.699826040202669
 21
1.093490958105344
 31
0.0
  0
LINE
  5
1D0C8
  8
0
  6
CONTINUOUS
 10
6.983376846288489
 20
0.4834593610997118
 30
0.0
 11
5.908008617934405
 21
1.558827589453796
 31
0.0
  0
LINE
  5
1D0C9
  8
0
  6
CONTINUOUS
 10
5.377063484962296
 20
1.416253513345719
 30
0.0
 11
1.702276957014131
 21
5.091040041293883
 31
0.0
  0
LINE
  5
1D0CA
  8
0
  6
CONTINUOUS
 10
3.978745891735324
 20
3.488090315652877
 30
0.0
 11
2.000373521109399
 21
5.466462686278803
 31
0.0
  0
LINE
  5
1D0CB
  8
0
  6
CONTINUOUS
 10
7.191616947100819
 20
0.948738469367568
 30
0.0
 11
6.11619119566614
 21
2.024164220802247
 31
0.0
  0
LINE
  5
1D0CC
  8
0
  6
CONTINUOUS
 10
7.399857047913149
 20
1.414017577635424
 30
0.0
 11
6.324373773397875
 21
2.489500852150698
 31
0.0
  0
LINE
  5
1D0CD
  8
0
  6
CONTINUOUS
 10
7.608097148725479
 20
1.879296685903281
 30
0.0
 11
6.53255635112961
 21
2.95483748349915
 31
0.0
  0
LINE
  5
1D0CE
  8
0
  6
CONTINUOUS
 10
7.816337249537808
 20
2.344575794171138
 30
0.0
 11
6.740738928861345
 21
3.420174114847601
 31
0.0
  0
LINE
  5
1D0CF
  8
0
  6
CONTINUOUS
 10
3.310241080789734
 20
4.830114335678653
 30
0.0
 11
2.298470085204666
 21
5.84188533126372
 31
0.0
  0
LINE
  5
1D0D0
  8
0
  6
CONTINUOUS
 10
3.60832983563551
 20
5.205544789913063
 30
0.0
 11
2.596566649299935
 21
6.217307976248638
 31
0.0
  0
LINE
  5
1D0D1
  8
0
  6
CONTINUOUS
 10
3.906418590481286
 20
5.580975244147473
 30
0.0
 11
2.894663213395203
 21
6.592730621233557
 31
0.0
  0
LINE
  5
1D0D2
  8
0
  6
CONTINUOUS
 10
4.204507345327062
 20
5.956405698381884
 30
0.0
 11
3.192759777490472
 21
6.968153266218474
 31
0.0
  0
LINE
  5
1D0D3
  8
0
  6
CONTINUOUS
 10
8.466032252791512
 20
2.368399999997621
 30
0.0
 11
6.948921506593081
 21
3.885510746196053
 31
0.0
  0
LINE
  5
1D0D4
  8
0
  6
CONTINUOUS
 10
9.139551461871699
 20
2.36839999999762
 30
0.0
 11
7.157104084324816
 21
4.350847377544504
 31
0.0
  0
LINE
  5
1D0D5
  8
0
  6
CONTINUOUS
 10
4.502596100172839
 20
6.331836152616295
 30
0.0
 11
3.49085634158574
 21
7.343575911203393
 31
0.0
  0
LINE
  5
1D0D6
  8
0
  6
CONTINUOUS
 10
4.800684855018615
 20
6.707266606850705
 30
0.0
 11
3.788952905681008
 21
7.718998556188312
 31
0.0
  0
LINE
  5
1D0D7
  8
0
  6
CONTINUOUS
 10
12.18154012887317
 20
-0.0000694579236642
 30
0.0
 11
11.32140332908496
 21
0.8600673418645499
 31
0.0
  0
LINE
  5
1D0D8
  8
0
  6
CONTINUOUS
 10
12.85501608323566
 20
-0.0000262032059659
 30
0.0
 11
10.77672456435345
 21
2.078265315676246
 31
0.0
  0
LINE
  5
1D0D9
  8
0
  6
CONTINUOUS
 10
9.813070670951886
 20
2.36839999999762
 30
0.0
 11
8.51047067095321
 21
3.670999999996297
 31
0.0
  0
LINE
  5
1D0DA
  8
0
  6
CONTINUOUS
 10
10.48658988003207
 20
2.36839999999762
 30
0.0
 11
9.183989880033396
 21
3.670999999996297
 31
0.0
  0
LINE
  5
1D0DB
  8
0
  6
CONTINUOUS
 10
8.441048632286794
 20
3.740422038662712
 30
0.0
 11
7.365286662056551
 21
4.816184008892956
 31
0.0
  0
LINE
  5
1D0DC
  8
0
  6
CONTINUOUS
 10
8.649187485808454
 20
4.205802394221237
 30
0.0
 11
7.573469239788285
 21
5.281520640241407
 31
0.0
  0
LINE
  5
1D0DD
  8
0
  6
CONTINUOUS
 10
5.098773609864391
 20
7.082697061085115
 30
0.0
 11
4.087049469776277
 21
8.09442120117323
 31
0.0
  0
LINE
  5
1D0DE
  8
0
  6
CONTINUOUS
 10
5.396862364710167
 20
7.458127515319526
 30
0.0
 11
4.385146033871544
 21
8.469843846158149
 31
0.0
  0
LINE
  5
1D0DF
  8
0
  6
CONTINUOUS
 10
13.04801363231285
 20
0.4804954567970334
 30
0.0
 11
9.85750908911358
 21
3.670999999996297
 31
0.0
  0
LINE
  5
1D0E0
  8
0
  6
CONTINUOUS
 10
8.857326339330116
 20
4.671182749779763
 30
0.0
 11
7.781651817520021
 21
5.746857271589858
 31
0.0
  0
LINE
  5
1D0E1
  8
0
  6
CONTINUOUS
 10
5.694951119555943
 20
7.833557969553937
 30
0.0
 11
4.765409089118624
 21
8.763099999991255
 31
0.0
  0
LINE
  5
1D0E2
  8
0
  6
CONTINUOUS
 10
12.50286117236978
 20
1.699167125820288
 30
0.0
 11
9.68611877250287
 21
4.515909525687196
 31
0.0
  0
LINE
  5
1D0E3
  8
0
  6
CONTINUOUS
 10
9.065465192851777
 20
5.136563105338288
 30
0.0
 11
7.989834395251757
 21
6.21219390293831
 31
0.0
  0
LINE
  5
1D0E4
  8
0
  6
CONTINUOUS
 10
5.993039874401719
 20
8.208988423788346
 30
0.0
 11
5.43892829819881
 21
8.763099999991255
 31
0.0
  0
LINE
  5
1D0E5
  8
0
  6
CONTINUOUS
 10
11.95770871242671
 20
2.917838794843543
 30
0.0
 11
8.19801697298349
 21
6.677530534286761
 31
0.0
  0
LINE
  5
1D0E6
  8
0
  6
CONTINUOUS
 10
6.291128629247495
 20
8.584418878022756
 30
0.0
 11
6.112447507278997
 21
8.763099999991255
 31
0.0
  0
LINE
  5
1D0E7
  8
0
  6
CONTINUOUS
 10
11.41255625248364
 20
4.136510463866797
 30
0.0
 11
8.406199550715227
 21
7.142867165635211
 31
0.0
  0
LINE
  5
1D0E8
  8
0
  6
CONTINUOUS
 10
10.86740379254057
 20
5.355182132890051
 30
0.0
 11
8.614382128446962
 21
7.608203796983664
 31
0.0
  0
LINE
  5
1D0E9
  8
0
  6
CONTINUOUS
 10
10.3222513325975
 20
6.573853801913305
 30
0.0
 11
8.822564706178696
 21
8.073540428332114
 31
0.0
  0
LINE
  5
1D0EA
  8
0
  6
CONTINUOUS
 10
9.777098872654436
 20
7.792525470936562
 30
0.0
 11
9.030747283910433
 21
8.538877059680566
 31
0.0
  0
ENDBLK
  5
1D22C
  8
0
  0
BLOCK
  8
0
  2
*X120
 70
     1
 10
0.0
 20
0.0
 30
0.0
  3
*X120
  1

  0
LINE
  5
1D0EC
  8
0
  6
CONTINUOUS
 10
10.67292308101235
 20
8.445076852443387
 30
0.0
 11
10.99094622856022
 21
8.763099999991255
 31
0.0
  0
LINE
  5
1D0ED
  8
0
  6
CONTINUOUS
 10
10.87250383178748
 20
7.971138394138331
 30
0.0
 11
11.6644654376404
 21
8.763099999991255
 31
0.0
  0
LINE
  5
1D0EE
  8
0
  6
CONTINUOUS
 10
11.07208458256261
 20
7.497199935833273
 30
0.0
 11
12.12126590876355
 21
8.546381262034211
 31
0.0
  0
LINE
  5
1D0EF
  8
0
  6
CONTINUOUS
 10
11.27166533333774
 20
7.023261477528216
 30
0.0
 11
12.32085164573666
 21
8.072447789927136
 31
0.0
  0
LINE
  5
1D0F0
  8
0
  6
CONTINUOUS
 10
11.47124608411287
 20
6.549323019223158
 30
0.0
 11
12.52043738270977
 21
7.59851431782006
 31
0.0
  0
LINE
  5
1D0F1
  8
0
  6
CONTINUOUS
 10
11.670826834888
 20
6.075384560918101
 30
0.0
 11
12.72002311968288
 21
7.124580845712984
 31
0.0
  0
LINE
  5
1D0F2
  8
0
  6
CONTINUOUS
 10
11.87040758566313
 20
5.601446102613043
 30
0.0
 11
12.91960885665599
 21
6.650647373605907
 31
0.0
  0
LINE
  5
1D0F3
  8
0
  6
CONTINUOUS
 10
12.06998833643825
 20
5.127507644307986
 30
0.0
 11
13.1191945936291
 21
6.176713901498832
 31
0.0
  0
LINE
  5
1D0F4
  8
0
  6
CONTINUOUS
 10
12.26956908721338
 20
4.65356918600293
 30
0.0
 11
13.31878033060221
 21
5.702780429391757
 31
0.0
  0
LINE
  5
1D0F5
  8
0
  6
CONTINUOUS
 10
12.46914983798851
 20
4.179630727697873
 30
0.0
 11
13.51836606757532
 21
5.228846957284683
 31
0.0
  0
LINE
  5
1D0F6
  8
0
  6
CONTINUOUS
 10
12.66873058876364
 20
3.705692269392816
 30
0.0
 11
13.71795180454843
 21
4.754913485177607
 31
0.0
  0
LINE
  5
1D0F7
  8
0
  6
CONTINUOUS
 10
12.86831133953877
 20
3.231753811087759
 30
0.0
 11
13.91753754152154
 21
4.280980013070531
 31
0.0
  0
LINE
  5
1D0F8
  8
0
  6
CONTINUOUS
 10
13.0678920903139
 20
2.757815352782702
 30
0.0
 11
14.11712327849465
 21
3.807046540963456
 31
0.0
  0
LINE
  5
1D0F9
  8
0
  6
CONTINUOUS
 10
13.26747284108903
 20
2.283876894477644
 30
0.0
 11
14.31670901546777
 21
3.333113068856379
 31
0.0
  0
LINE
  5
1D0FA
  8
0
  6
CONTINUOUS
 10
16.36767838827179
 20
8.751678487061342
 30
0.0
 11
16.50332410898388
 21
8.887324207773432
 31
0.0
  0
LINE
  5
1D0FB
  8
0
  6
CONTINUOUS
 10
15.96190732182191
 20
7.67238821153127
 30
0.0
 11
16.68735328004734
 21
8.397834169756699
 31
0.0
  0
LINE
  5
1D0FC
  8
0
  6
CONTINUOUS
 10
15.55613625537202
 20
6.593097936001196
 30
0.0
 11
16.87138245111079
 21
7.908344131739965
 31
0.0
  0
LINE
  5
1D0FD
  8
0
  6
CONTINUOUS
 10
15.15036518892213
 20
5.513807660471122
 30
0.0
 11
17.05541162217424
 21
7.418854093723231
 31
0.0
  0
LINE
  5
1D0FE
  8
0
  6
CONTINUOUS
 10
14.74459412247225
 20
4.434517384941048
 30
0.0
 11
17.2394407932377
 21
6.929364055706499
 31
0.0
  0
LINE
  5
1D0FF
  8
0
  6
CONTINUOUS
 10
14.33882305602236
 20
3.355227109410975
 30
0.0
 11
17.42346996430115
 21
6.439874017689766
 31
0.0
  0
LINE
  5
1D100
  8
0
  6
CONTINUOUS
 10
13.46705359186416
 20
1.809938436172586
 30
0.0
 11
16.0819338255367
 21
4.424818669845129
 31
0.0
  0
LINE
  5
1D101
  8
0
  6
CONTINUOUS
 10
16.63283254238972
 20
4.975717386698149
 30
0.0
 11
17.60749913536461
 21
5.950383979673033
 31
0.0
  0
LINE
  5
1D102
  8
0
  6
CONTINUOUS
 10
13.66663434263929
 20
1.335999977867529
 30
0.0
 11
15.67604797733754
 21
3.345413612565779
 31
0.0
  0
LINE
  5
1D103
  8
0
  6
CONTINUOUS
 10
13.86621509341442
 20
0.8620615195624723
 30
0.0
 11
15.27016212913838
 21
2.26600855528643
 31
0.0
  0
LINE
  5
1D104
  8
0
  6
CONTINUOUS
 10
16.81682257348267
 20
4.486188208710908
 30
0.0
 11
17.79152830642806
 21
5.460893941656299
 31
0.0
  0
LINE
  5
1D105
  8
0
  6
CONTINUOUS
 10
17.00081260457561
 20
3.996659030723667
 30
0.0
 11
17.97555747749151
 21
4.971403903639565
 31
0.0
  0
LINE
  5
1D106
  8
0
  6
CONTINUOUS
 10
20.74362343514722
 20
8.412989070375462
 30
0.0
 11
21.09373436476302
 21
8.763099999991256
 31
0.0
  0
LINE
  5
1D107
  8
0
  6
CONTINUOUS
 10
20.25401257174777
 20
7.249858997895826
 30
0.0
 11
21.7672535738432
 21
8.763099999991255
 31
0.0
  0
LINE
  5
1D108
  8
0
  6
CONTINUOUS
 10
14.06579584418955
 20
0.3881230612574149
 30
0.0
 11
14.86427628093921
 21
1.186603498007082
 31
0.0
  0
LINE
  5
1D109
  8
0
  6
CONTINUOUS
 10
14.26537659496467
 20
-0.0858153970476412
 30
0.0
 11
14.45839043274005
 21
0.1071984407277329
 31
0.0
  0
LINE
  5
1D10A
  8
0
  6
CONTINUOUS
 10
17.18480263566856
 20
3.507129852736426
 30
0.0
 11
18.15958664855496
 21
4.481913865622833
 31
0.0
  0
LINE
  5
1D10B
  8
0
  6
CONTINUOUS
 10
17.3687926667615
 20
3.017600674749186
 30
0.0
 11
18.34361581961842
 21
3.9924238276061
 31
0.0
  0
LINE
  5
1D10C
  8
0
  6
CONTINUOUS
 10
19.76440170834832
 20
6.086728925416191
 30
0.0
 11
22.33924590259489
 21
8.661573119662755
 31
0.0
  0
LINE
  5
1D10D
  8
0
  6
CONTINUOUS
 10
19.27479084494887
 20
4.923598852936555
 30
0.0
 11
21.84929622842713
 21
7.498104236414807
 31
0.0
  0
LINE
  5
1D10E
  8
0
  6
CONTINUOUS
 10
17.55278269785445
 20
2.528071496761945
 30
0.0
 11
18.52764499068187
 21
3.502933789589366
 31
0.0
  0
LINE
  5
1D10F
  8
0
  6
CONTINUOUS
 10
18.78517998154942
 20
3.760468780456919
 30
0.0
 11
21.35934655425936
 21
6.33463535316686
 31
0.0
  0
LINE
  5
1D110
  8
0
  6
CONTINUOUS
 10
17.73677272894739
 20
2.038542318774704
 30
0.0
 11
20.8693968800916
 21
5.171166469918914
 31
0.0
  0
LINE
  5
1D111
  8
0
  6
CONTINUOUS
 10
17.92076276004034
 20
1.549013140787464
 30
0.0
 11
20.37944720592384
 21
4.007697586670968
 31
0.0
  0
LINE
  5
1D112
  8
0
  6
CONTINUOUS
 10
18.10475279113329
 20
1.059483962800223
 30
0.0
 11
19.88949753175608
 21
2.84422870342302
 31
0.0
  0
LINE
  5
1D113
  8
0
  6
CONTINUOUS
 10
18.28874282222623
 20
0.5699547848129822
 30
0.0
 11
19.39954785758832
 21
1.680759820175074
 31
0.0
  0
LINE
  5
1D114
  8
0
  6
CONTINUOUS
 10
18.47273285331918
 20
0.0804256068257416
 30
0.0
 11
18.90959818342056
 21
0.517290936927127
 31
0.0
  0
LINE
  5
1D115
  8
0
  6
CONTINUOUS
 10
14.3590401358224
 20
-0.1570118376323384
 30
0.0
 11
14.24903296539946
 21
-0.0470046672093929
 31
0.0
  0
LINE
  5
1D116
  8
0
  6
CONTINUOUS
 10
14.54309291258661
 20
0.332454594683643
 30
0.0
 11
13.75908329123172
 21
1.116464216038529
 31
0.0
  0
LINE
  5
1D117
  8
0
  6
CONTINUOUS
 10
14.72714568935081
 20
0.8219210269996244
 30
0.0
 11
13.26913361706399
 21
2.27993309928645
 31
0.0
  0
LINE
  5
1D118
  8
0
  6
CONTINUOUS
 10
14.91119846611502
 20
1.311387459315606
 30
0.0
 11
12.77918394289625
 21
3.443401982534371
 31
0.0
  0
LINE
  5
1D119
  8
0
  6
CONTINUOUS
 10
15.09525124287922
 20
1.800853891631587
 30
0.0
 11
12.28923426872852
 21
4.606870865782293
 31
0.0
  0
LINE
  5
1D11A
  8
0
  6
CONTINUOUS
 10
15.27930401964343
 20
2.290320323947569
 30
0.0
 11
11.79928459456078
 21
5.770339749030213
 31
0.0
  0
LINE
  5
1D11B
  8
0
  6
CONTINUOUS
 10
15.46335679640763
 20
2.77978675626355
 30
0.0
 11
14.48885470994921
 21
3.754288842721972
 31
0.0
  0
LINE
  5
1D11C
  8
0
  6
CONTINUOUS
 10
13.88507249233704
 20
4.358071060334137
 30
0.0
 11
11.30933492039305
 21
6.933808632278135
 31
0.0
  0
LINE
  5
1D11D
  8
0
  6
CONTINUOUS
 10
18.75840522805855
 20
0.1582575336928151
 30
0.0
 11
18.25383727664818
 21
0.6628254851031863
 31
0.0
  0
LINE
  5
1D11E
  8
0
  6
CONTINUOUS
 10
15.64740957317184
 20
3.269253188579531
 30
0.0
 11
14.67288388101266
 21
4.243778880738705
 31
0.0
  0
LINE
  5
1D11F
  8
0
  6
CONTINUOUS
 10
13.39509276772158
 20
5.521569994029786
 30
0.0
 11
10.81938524622531
 21
8.097277515526056
 31
0.0
  0
LINE
  5
1D120
  8
0
  6
CONTINUOUS
 10
18.95798597883369
 20
0.6321959919978686
 30
0.0
 11
17.84825644852853
 21
1.741925522303024
 31
0.0
  0
LINE
  5
1D121
  8
0
  6
CONTINUOUS
 10
19.15756672960882
 20
1.106134450302922
 30
0.0
 11
17.44267562040888
 21
2.821025559502861
 31
0.0
  0
LINE
  5
1D122
  8
0
  6
CONTINUOUS
 10
15.83146234993604
 20
3.758719620895513
 30
0.0
 11
14.85691305207612
 21
4.733268918755439
 31
0.0
  0
LINE
  5
1D123
  8
0
  6
CONTINUOUS
 10
16.01551512670025
 20
4.248186053211494
 30
0.0
 11
15.04094222313957
 21
5.222758956772172
 31
0.0
  0
LINE
  5
1D124
  8
0
  6
CONTINUOUS
 10
12.90511304310612
 20
6.685068927725435
 30
0.0
 11
10.8270819708403
 21
8.763099999991255
 31
0.0
  0
LINE
  5
1D125
  8
0
  6
CONTINUOUS
 10
12.41513331849066
 20
7.848567861421083
 30
0.0
 11
11.50060117992049
 21
8.763099999991255
 31
0.0
  0
LINE
  5
1D126
  8
0
  6
CONTINUOUS
 10
19.35714748038395
 20
1.580072908607975
 30
0.0
 11
17.03709479228923
 21
3.900125596702697
 31
0.0
  0
LINE
  5
1D127
  8
0
  6
CONTINUOUS
 10
19.55672823115909
 20
2.054011366913028
 30
0.0
 11
16.63151396416958
 21
4.979225633902534
 31
0.0
  0
LINE
  5
1D128
  8
0
  6
CONTINUOUS
 10
16.19956790346445
 20
4.737652485527476
 30
0.0
 11
15.22497139420302
 21
5.712248994788904
 31
0.0
  0
LINE
  5
1D129
  8
0
  6
CONTINUOUS
 10
16.38362068022866
 20
5.227118917843457
 30
0.0
 11
15.40900056526648
 21
6.201739032805637
 31
0.0
  0
LINE
  5
1D12A
  8
0
  6
CONTINUOUS
 10
19.75630898193422
 20
2.527949825218081
 30
0.0
 11
18.70774536448286
 21
3.576513442669441
 31
0.0
  0
LINE
  5
1D12B
  8
0
  6
CONTINUOUS
 10
19.95588973270936
 20
3.001888283523134
 30
0.0
 11
18.90726987211446
 21
4.050508144118028
 31
0.0
  0
LINE
  5
1D12C
  8
0
  6
CONTINUOUS
 10
20.15547048348449
 20
3.475826741828186
 30
0.0
 11
19.10679437974606
 21
4.524502845566614
 31
0.0
  0
LINE
  5
1D12D
  8
0
  6
CONTINUOUS
 10
20.35505123425962
 20
3.94976520013324
 30
0.0
 11
19.30631888737766
 21
4.998497547015201
 31
0.0
  0
LINE
  5
1D12E
  8
0
  6
CONTINUOUS
 10
20.55463198503475
 20
4.423703658438292
 30
0.0
 11
19.50584339500926
 21
5.472492248463787
 31
0.0
  0
LINE
  5
1D12F
  8
0
  6
CONTINUOUS
 10
18.37481191085755
 20
3.909446896294752
 30
0.0
 11
15.59302973632993
 21
6.691229070822371
 31
0.0
  0
LINE
  5
1D130
  8
0
  6
CONTINUOUS
 10
17.96904084440766
 20
4.988737171824825
 30
0.0
 11
15.77705890739338
 21
7.180719108839104
 31
0.0
  0
LINE
  5
1D131
  8
0
  6
CONTINUOUS
 10
17.56326977795777
 20
6.068027447354899
 30
0.0
 11
15.96108807845684
 21
7.670209146855838
 31
0.0
  0
LINE
  5
1D132
  8
0
  6
CONTINUOUS
 10
17.15749871150789
 20
7.147317722884972
 30
0.0
 11
16.14511724952029
 21
8.15969918487257
 31
0.0
  0
LINE
  5
1D133
  8
0
  6
CONTINUOUS
 10
16.751727645058
 20
8.226607998415046
 30
0.0
 11
16.32914642058374
 21
8.649189222889303
 31
0.0
  0
LINE
  5
1D134
  8
0
  6
CONTINUOUS
 10
20.75421273580989
 20
4.897642116743345
 30
0.0
 11
19.70536790264086
 21
5.946486949912374
 31
0.0
  0
LINE
  5
1D135
  8
0
  6
CONTINUOUS
 10
20.95379348658502
 20
5.371580575048398
 30
0.0
 11
19.90489241027246
 21
6.42048165136096
 31
0.0
  0
LINE
  5
1D136
  8
0
  6
CONTINUOUS
 10
21.15337423736015
 20
5.845519033353452
 30
0.0
 11
20.10441691790406
 21
6.894476352809547
 31
0.0
  0
LINE
  5
1D137
  8
0
  6
CONTINUOUS
 10
21.35295498813529
 20
6.319457491658505
 30
0.0
 11
20.30394142553566
 21
7.368471054258134
 31
0.0
  0
LINE
  5
1D138
  8
0
  6
CONTINUOUS
 10
21.55253573891042
 20
6.793395949963558
 30
0.0
 11
20.50346593316726
 21
7.842465755706721
 31
0.0
  0
LINE
  5
1D139
  8
0
  6
CONTINUOUS
 10
21.75211648968556
 20
7.267334408268612
 30
0.0
 11
20.70299044079886
 21
8.316460457155308
 31
0.0
  0
LINE
  5
1D13A
  8
0
  6
CONTINUOUS
 10
21.95169724046069
 20
7.741272866573663
 30
0.0
 11
20.9298701070431
 21
8.763099999991256
 31
0.0
  0
LINE
  5
1D13B
  8
0
  6
CONTINUOUS
 10
22.15127799123582
 20
8.215211324878716
 30
0.0
 11
21.60338931612328
 21
8.763099999991256
 31
0.0
  0
LINE
  5
1D13C
  8
0
  6
CONTINUOUS
 10
22.35085874201096
 20
8.689149783183769
 30
0.0
 11
22.27690852520347
 21
8.763099999991255
 31
0.0
  0
ENDBLK
  5
1D22E
  8
0
  0
BLOCK
  8
0
  2
*X121
 70
     1
 10
0.0
 20
0.0
 30
0.0
  3
*X121
  1

  0
LINE
  5
1D13E
  8
0
  6
CONTINUOUS
 10
23.19462913593892
 20
8.169917934846424
 30
0.0
 11
23.70775465517246
 21
8.683043454079957
 31
0.0
  0
LINE
  5
1D13F
  8
0
  6
CONTINUOUS
 10
22.64923161835078
 20
6.951001208178088
 30
0.0
 11
23.9159364069932
 21
8.217705996820516
 31
0.0
  0
LINE
  5
1D140
  8
0
  6
CONTINUOUS
 10
22.10383410076263
 20
5.732084481509751
 30
0.0
 11
24.12411815881395
 21
7.752368539561078
 31
0.0
  0
LINE
  5
1D141
  8
0
  6
CONTINUOUS
 10
21.55843658317447
 20
4.513167754841414
 30
0.0
 11
24.3322999106347
 21
7.287031082301639
 31
0.0
  0
LINE
  5
1D142
  8
0
  6
CONTINUOUS
 10
21.01303906558632
 20
3.294251028173077
 30
0.0
 11
24.54048166245544
 21
6.821693625042199
 31
0.0
  0
LINE
  5
1D143
  8
0
  6
CONTINUOUS
 10
20.46764154799817
 20
2.075334301504738
 30
0.0
 11
23.28571549467848
 21
4.89340824818505
 31
0.0
  0
LINE
  5
1D144
  8
0
  6
CONTINUOUS
 10
19.92224403041002
 20
0.8564175748364002
 30
0.0
 11
22.74075865492779
 21
3.674932199354171
 31
0.0
  0
LINE
  5
1D145
  8
0
  6
CONTINUOUS
 10
23.67305085490148
 20
5.280743608408048
 30
0.0
 11
24.74866341427619
 21
6.356356167782759
 31
0.0
  0
LINE
  5
1D146
  8
0
  6
CONTINUOUS
 10
23.88118970842314
 20
4.815363252849522
 30
0.0
 11
24.95684516609694
 21
5.89101871052332
 31
0.0
  0
LINE
  5
1D147
  8
0
  6
CONTINUOUS
 10
19.73925852647308
 20
-0.0000871381807288
 30
0.0
 11
23.4103456646501
 21
3.670999999996297
 31
0.0
  0
LINE
  5
1D148
  8
0
  6
CONTINUOUS
 10
24.0893285619448
 20
4.349982897290997
 30
0.0
 11
25.16502691791769
 21
5.42568125326388
 31
0.0
  0
LINE
  5
1D149
  8
0
  6
CONTINUOUS
 10
20.41282099582748
 20
-0.0000438779065108
 30
0.0
 11
21.64944178675636
 21
1.236576913022366
 31
0.0
  0
LINE
  5
1D14A
  8
0
  6
CONTINUOUS
 10
22.78126487373161
 20
2.36839999999762
 30
0.0
 11
24.08386487373029
 21
3.670999999996297
 31
0.0
  0
LINE
  5
1D14B
  8
0
  6
CONTINUOUS
 10
24.29746741546646
 20
3.884602541732471
 30
0.0
 11
25.37320866973843
 21
4.960343796004441
 31
0.0
  0
LINE
  5
1D14C
  8
0
  6
CONTINUOUS
 10
21.08638346518189
 20
-0.0000006176322938
 30
0.0
 11
21.10379033335899
 21
0.0174062505448083
 31
0.0
  0
LINE
  5
1D14D
  8
0
  6
CONTINUOUS
 10
23.4547840828118
 20
2.36839999999762
 30
0.0
 11
25.58139042155918
 21
4.495006338745002
 31
0.0
  0
LINE
  5
1D14E
  8
0
  6
CONTINUOUS
 10
29.30199999996933
 20
8.215615917155148
 30
0.0
 11
29.84948408280543
 21
8.763099999991255
 31
0.0
  0
LINE
  5
1D14F
  8
0
  6
CONTINUOUS
 10
24.12830329189199
 20
2.36839999999762
 30
0.0
 11
25.78957217337993
 21
4.029668881485562
 31
0.0
  0
LINE
  5
1D150
  8
0
  6
CONTINUOUS
 10
29.30199999996933
 20
7.54209670807496
 30
0.0
 11
30.52300329188562
 21
8.763099999991255
 31
0.0
  0
LINE
  5
1D151
  8
0
  6
CONTINUOUS
 10
24.80182250097217
 20
2.36839999999762
 30
0.0
 11
25.99775392520067
 21
3.564331424226122
 31
0.0
  0
LINE
  5
1D152
  8
0
  6
CONTINUOUS
 10
29.30199999996933
 20
6.868577498994774
 30
0.0
 11
30.74199999996926
 21
8.308577498994712
 31
0.0
  0
LINE
  5
1D153
  8
0
  6
CONTINUOUS
 10
25.13028238392013
 20
2.023340673865392
 30
0.0
 11
26.20593567702142
 21
3.098993966966683
 31
0.0
  0
LINE
  5
1D154
  8
0
  6
CONTINUOUS
 10
25.33838066033617
 20
1.557919741201244
 30
0.0
 11
26.41411742884217
 21
2.633656509707244
 31
0.0
  0
LINE
  5
1D155
  8
0
  6
CONTINUOUS
 10
25.54647893675221
 20
1.092498808537098
 30
0.0
 11
26.62229918066291
 21
2.168319052447804
 31
0.0
  0
LINE
  5
1D156
  8
0
  6
CONTINUOUS
 10
25.75457721316825
 20
0.62707787587295
 30
0.0
 11
26.83048093248366
 21
1.702981595188365
 31
0.0
  0
LINE
  5
1D157
  8
0
  6
CONTINUOUS
 10
29.30199999996933
 20
6.195058289914587
 30
0.0
 11
30.74199999996926
 21
7.635058289914522
 31
0.0
  0
LINE
  5
1D158
  8
0
  6
CONTINUOUS
 10
29.30199999996933
 20
5.521539080834401
 30
0.0
 11
30.74199999996926
 21
6.961539080834331
 31
0.0
  0
LINE
  5
1D159
  8
0
  6
CONTINUOUS
 10
29.30199999996933
 20
4.848019871754214
 30
0.0
 11
30.74199999996925
 21
6.288019871754143
 31
0.0
  0
LINE
  5
1D15A
  8
0
  6
CONTINUOUS
 10
29.30199999996933
 20
4.174500662674028
 30
0.0
 11
30.74199999996925
 21
5.614500662673953
 31
0.0
  0
LINE
  5
1D15B
  8
0
  6
CONTINUOUS
 10
25.96267548958429
 20
0.1616569432088024
 30
0.0
 11
27.18411854636669
 21
1.383099999991207
 31
0.0
  0
LINE
  5
1D15C
  8
0
  6
CONTINUOUS
 10
29.30199999996933
 20
3.500981453593841
 30
0.0
 11
30.74199999996925
 21
4.940981453593762
 31
0.0
  0
LINE
  5
1D15D
  8
0
  6
CONTINUOUS
 10
26.50763775544691
 20
0.0330999999912356
 30
0.0
 11
27.85763775544689
 21
1.383099999991223
 31
0.0
  0
LINE
  5
1D15E
  8
0
  6
CONTINUOUS
 10
29.30199999996933
 20
2.827462244513656
 30
0.0
 11
30.74199999996925
 21
4.267462244513574
 31
0.0
  0
LINE
  5
1D15F
  8
0
  6
CONTINUOUS
 10
27.18115696452709
 20
0.0330999999912356
 30
0.0
 11
28.6224847300034
 21
1.474427765467545
 31
0.0
  0
LINE
  5
1D160
  8
0
  6
CONTINUOUS
 10
29.21067223449293
 20
2.062615269957069
 30
0.0
 11
30.74199999996924
 21
3.593943035433383
 31
0.0
  0
LINE
  5
1D161
  8
0
  6
CONTINUOUS
 10
27.85467617360728
 20
0.0330999999912356
 30
0.0
 11
30.74199999996924
 21
2.920423826353195
 31
0.0
  0
LINE
  5
1D162
  8
0
  6
CONTINUOUS
 10
28.57438609860264
 20
0.0792907159064073
 30
0.0
 11
30.69580928405405
 21
2.200713901357819
 31
0.0
  0
LINE
  5
1D163
  8
0
  6
CONTINUOUS
 10
29.49443044814297
 20
0.3258158563665496
 30
0.0
 11
30.44928414359389
 21
1.280669551817477
 31
0.0
  0
LINE
  5
1D164
  8
0
  6
CONTINUOUS
 10
19.59027867740337
 20
-0.0000967065718083
 30
0.0
 11
19.55485265190471
 21
0.035329318926844
 31
0.0
  0
LINE
  5
1D165
  8
0
  6
CONTINUOUS
 10
20.26375463176586
 20
-0.0000534518541091
 30
0.0
 11
19.76305575737534
 21
0.5006454225364014
 31
0.0
  0
LINE
  5
1D166
  8
0
  6
CONTINUOUS
 10
20.93723058612834
 20
-0.0000101971364099
 30
0.0
 11
19.97125886284597
 21
0.965961526145958
 31
0.0
  0
LINE
  5
1D167
  8
0
  6
CONTINUOUS
 10
21.25514828313686
 20
0.355591314935257
 30
0.0
 11
20.1794619683166
 21
1.431277629755512
 31
0.0
  0
LINE
  5
1D168
  8
0
  6
CONTINUOUS
 10
21.46338838394921
 20
0.8208704232030986
 30
0.0
 11
20.38766507378723
 21
1.896593733365069
 31
0.0
  0
LINE
  5
1D169
  8
0
  6
CONTINUOUS
 10
21.67162848476155
 20
1.28614953147094
 30
0.0
 11
20.59586817925786
 21
2.361909836974626
 31
0.0
  0
LINE
  5
1D16A
  8
0
  6
CONTINUOUS
 10
21.8798685855739
 20
1.751428639738782
 30
0.0
 11
20.80407128472849
 21
2.827225940584183
 31
0.0
  0
LINE
  5
1D16B
  8
0
  6
CONTINUOUS
 10
22.08810868638624
 20
2.216707748006623
 30
0.0
 11
21.01227439019912
 21
3.292542044193739
 31
0.0
  0
LINE
  5
1D16C
  8
0
  6
CONTINUOUS
 10
22.60993564347543
 20
2.36839999999762
 30
0.0
 11
21.22047749566975
 21
3.757858147803296
 31
0.0
  0
LINE
  5
1D16D
  8
0
  6
CONTINUOUS
 10
23.28345485255561
 20
2.36839999999762
 30
0.0
 11
21.42868060114038
 21
4.223174251412853
 31
0.0
  0
LINE
  5
1D16E
  8
0
  6
CONTINUOUS
 10
26.29227406164219
 20
0.0330999999912356
 30
0.0
 11
25.80009199592872
 21
0.5252820657046957
 31
0.0
  0
LINE
  5
1D16F
  8
0
  6
CONTINUOUS
 10
23.9569740616358
 20
2.36839999999762
 30
0.0
 11
21.63688370661101
 21
4.688490355022409
 31
0.0
  0
LINE
  5
1D170
  8
0
  6
CONTINUOUS
 10
26.96579327072237
 20
0.0330999999912356
 30
0.0
 11
25.2554132311971
 21
1.743480039516508
 31
0.0
  0
LINE
  5
1D171
  8
0
  6
CONTINUOUS
 10
24.63049327071599
 20
2.36839999999762
 30
0.0
 11
23.32789327071731
 21
3.670999999996297
 31
0.0
  0
LINE
  5
1D172
  8
0
  6
CONTINUOUS
 10
22.92098674744635
 20
4.077906523267254
 30
0.0
 11
21.84508681208164
 21
5.153806458631966
 31
0.0
  0
LINE
  5
1D173
  8
0
  6
CONTINUOUS
 10
27.63931247980256
 20
0.0330999999912356
 30
0.0
 11
24.0014124797975
 21
3.670999999996297
 31
0.0
  0
LINE
  5
1D174
  8
0
  6
CONTINUOUS
 10
23.129125600968
 20
4.5432868788258
 30
0.0
 11
22.05328991755227
 21
5.619122562241522
 31
0.0
  0
LINE
  5
1D175
  8
0
  6
CONTINUOUS
 10
28.31283168888275
 20
0.0330999999912356
 30
0.0
 11
24.16488385994816
 21
4.181047828925828
 31
0.0
  0
LINE
  5
1D176
  8
0
  6
CONTINUOUS
 10
23.33726445448964
 20
5.008667234384345
 30
0.0
 11
22.2614930230229
 21
6.084438665851079
 31
0.0
  0
LINE
  5
1D177
  8
0
  6
CONTINUOUS
 10
28.86286302309502
 20
0.1565878748591523
 30
0.0
 11
27.63635089796295
 21
1.383099999991217
 31
0.0
  0
LINE
  5
1D178
  8
0
  6
CONTINUOUS
 10
26.43704649509776
 20
2.582404402856405
 30
0.0
 11
23.61992702019732
 21
5.399523877756844
 31
0.0
  0
LINE
  5
1D179
  8
0
  6
CONTINUOUS
 10
23.54540330801128
 20
5.47404758994289
 30
0.0
 11
22.46969612849353
 21
6.549754769460635
 31
0.0
  0
LINE
  5
1D17A
  8
0
  6
CONTINUOUS
 10
29.39405087596853
 20
0.2989192310658284
 30
0.0
 11
28.30987010704312
 21
1.383099999991234
 31
0.0
  0
LINE
  5
1D17B
  8
0
  6
CONTINUOUS
 10
25.89179548232307
 20
3.801174624711282
 30
0.0
 11
22.67789923396416
 21
7.015070873070191
 31
0.0
  0
LINE
  5
1D17C
  8
0
  6
CONTINUOUS
 10
29.79594438047407
 20
0.570544935640473
 30
0.0
 11
28.81310432793121
 21
1.553384988183336
 31
0.0
  0
LINE
  5
1D17D
  8
0
  6
CONTINUOUS
 10
25.34654446954838
 20
5.01994484656616
 30
0.0
 11
22.88610233943479
 21
7.480386976679748
 31
0.0
  0
LINE
  5
1D17E
  8
0
  6
CONTINUOUS
 10
30.13270398501416
 20
0.9073045401805646
 30
0.0
 11
29.14234640337737
 21
1.897662121817355
 31
0.0
  0
LINE
  5
1D17F
  8
0
  6
CONTINUOUS
 10
24.80129345677369
 20
6.238715068421037
 30
0.0
 11
23.09430544490542
 21
7.945703080289305
 31
0.0
  0
LINE
  5
1D180
  8
0
  6
CONTINUOUS
 10
30.44581292956759
 20
1.26771480470732
 30
0.0
 11
29.30199999996933
 21
2.411527734305588
 31
0.0
  0
LINE
  5
1D181
  8
0
  6
CONTINUOUS
 10
30.58814428577427
 20
1.798902657580827
 30
0.0
 11
29.30199999996933
 21
3.085046943385775
 31
0.0
  0
LINE
  5
1D182
  8
0
  6
CONTINUOUS
 10
24.256042443999
 20
7.457485290275915
 30
0.0
 11
23.30250855037605
 21
8.411019183898862
 31
0.0
  0
LINE
  5
1D183
  8
0
  6
CONTINUOUS
 10
23.71079143122431
 20
8.676255512130794
 30
0.0
 11
23.51071165584668
 21
8.876335287508418
 31
0.0
  0
LINE
  5
1D184
  8
0
  6
CONTINUOUS
 10
30.73047564198095
 20
2.330090510454333
 30
0.0
 11
29.30199999996933
 21
3.758566152465961
 31
0.0
  0
LINE
  5
1D185
  8
0
  6
CONTINUOUS
 10
30.74199999996924
 20
2.992085361546236
 30
0.0
 11
29.30199999996933
 21
4.432085361546148
 31
0.0
  0
LINE
  5
1D186
  8
0
  6
CONTINUOUS
 10
30.74199999996924
 20
3.665604570626419
 30
0.0
 11
29.30199999996933
 21
5.105604570626333
 31
0.0
  0
LINE
  5
1D187
  8
0
  6
CONTINUOUS
 10
30.74199999996925
 20
4.339123779706602
 30
0.0
 11
29.30199999996933
 21
5.77912377970652
 31
0.0
  0
LINE
  5
1D188
  8
0
  6
CONTINUOUS
 10
30.74199999996925
 20
5.012642988786785
 30
0.0
 11
29.30199999996933
 21
6.452642988786707
 31
0.0
  0
LINE
  5
1D189
  8
0
  6
CONTINUOUS
 10
30.74199999996925
 20
5.68616219786697
 30
0.0
 11
29.30199999996933
 21
7.126162197866894
 31
0.0
  0
LINE
  5
1D18A
  8
0
  6
CONTINUOUS
 10
30.74199999996925
 20
6.359681406947153
 30
0.0
 11
29.30199999996933
 21
7.799681406947081
 31
0.0
  0
LINE
  5
1D18B
  8
0
  6
CONTINUOUS
 10
30.74199999996926
 20
7.033200616027337
 30
0.0
 11
29.30199999996933
 21
8.473200616027269
 31
0.0
  0
LINE
  5
1D18C
  8
0
  6
CONTINUOUS
 10
30.74199999996926
 20
7.706719825107518
 30
0.0
 11
29.68561982508552
 21
8.763099999991255
 31
0.0
  0
LINE
  5
1D18D
  8
0
  6
CONTINUOUS
 10
30.74199999996926
 20
8.380239034187703
 30
0.0
 11
30.35913903416571
 21
8.763099999991255
 31
0.0
  0
ENDBLK
  5
1D230
  8
0
  0
BLOCK
  8
0
  2
*X122
 70
     1
 10
0.0
 20
0.0
 30
0.0
  3
*X122
  1

  0
LINE
  5
1D18F
  8
0
  6
CONTINUOUS
 10
31.64199999996833
 20
8.5350582899136
 30
0.0
 11
31.87004171004599
 21
8.763099999991255
 31
0.0
  0
LINE
  5
1D190
  8
0
  6
CONTINUOUS
 10
31.64199999996833
 20
7.861539080833413
 30
0.0
 11
32.54356091912618
 21
8.763099999991255
 31
0.0
  0
LINE
  5
1D191
  8
0
  6
CONTINUOUS
 10
31.64199999996833
 20
7.188019871753227
 30
0.0
 11
33.08199999996839
 21
8.628019871753281
 31
0.0
  0
LINE
  5
1D192
  8
0
  6
CONTINUOUS
 10
31.64199999996833
 20
6.514500662673041
 30
0.0
 11
33.08199999996839
 21
7.954500662673095
 31
0.0
  0
LINE
  5
1D193
  8
0
  6
CONTINUOUS
 10
31.64199999996833
 20
5.840981453592855
 30
0.0
 11
33.08199999996839
 21
7.28098145359291
 31
0.0
  0
LINE
  5
1D194
  8
0
  6
CONTINUOUS
 10
31.64199999996833
 20
5.167462244512668
 30
0.0
 11
33.08199999996839
 21
6.607462244512723
 31
0.0
  0
LINE
  5
1D195
  8
0
  6
CONTINUOUS
 10
31.64199999996833
 20
4.493943035432482
 30
0.0
 11
33.08199999996839
 21
5.933943035432536
 31
0.0
  0
LINE
  5
1D196
  8
0
  6
CONTINUOUS
 10
31.64199999996833
 20
3.820423826352294
 30
0.0
 11
33.08199999996839
 21
5.260423826352349
 31
0.0
  0
LINE
  5
1D197
  8
0
  6
CONTINUOUS
 10
31.64199999996833
 20
3.146904617272108
 30
0.0
 11
33.08199999996839
 21
4.586904617272163
 31
0.0
  0
LINE
  5
1D198
  8
0
  6
CONTINUOUS
 10
36.23199999996837
 20
8.410423826352327
 30
0.0
 11
36.58467617360729
 21
8.763099999991255
 31
0.0
  0
LINE
  5
1D199
  8
0
  6
CONTINUOUS
 10
36.23199999996837
 20
7.73690461727214
 30
0.0
 11
37.25819538268748
 21
8.763099999991255
 31
0.0
  0
LINE
  5
1D19A
  8
0
  6
CONTINUOUS
 10
31.64323424774199
 20
2.474619655965573
 30
0.0
 11
33.08199999996839
 21
3.913385408191976
 31
0.0
  0
LINE
  5
1D19B
  8
0
  6
CONTINUOUS
 10
31.74419223861915
 20
1.902058437762552
 30
0.0
 11
33.08199999996839
 21
3.239866199111789
 31
0.0
  0
LINE
  5
1D19C
  8
0
  6
CONTINUOUS
 10
36.23199999996837
 20
7.063385408191953
 30
0.0
 11
37.67199999996831
 21
8.503385408191894
 31
0.0
  0
LINE
  5
1D19D
  8
0
  6
CONTINUOUS
 10
36.23199999996837
 20
6.389866199111767
 30
0.0
 11
37.67199999996831
 21
7.829866199111708
 31
0.0
  0
LINE
  5
1D19E
  8
0
  6
CONTINUOUS
 10
31.91111233414976
 20
1.39545932421297
 30
0.0
 11
33.08199999996839
 21
2.566346990031603
 31
0.0
  0
LINE
  5
1D19F
  8
0
  6
CONTINUOUS
 10
36.23199999996837
 20
5.71634699003158
 30
0.0
 11
37.67199999996831
 21
7.156346990031522
 31
0.0
  0
LINE
  5
1D1A0
  8
0
  6
CONTINUOUS
 10
32.1576374746103
 20
0.9684652555933289
 30
0.0
 11
33.20642631446081
 21
2.017254095443838
 31
0.0
  0
LINE
  5
1D1A1
  8
0
  6
CONTINUOUS
 10
36.23199999996837
 20
5.042827780951393
 30
0.0
 11
37.67199999996831
 21
6.482827780951334
 31
0.0
  0
LINE
  5
1D1A2
  8
0
  6
CONTINUOUS
 10
32.47774023927325
 20
0.6150488111760914
 30
0.0
 11
33.49903056428258
 21
1.636339136185419
 31
0.0
  0
LINE
  5
1D1A3
  8
0
  6
CONTINUOUS
 10
36.23199999996837
 20
4.369308571871207
 30
0.0
 11
37.67199999996831
 21
5.809308571871148
 31
0.0
  0
LINE
  5
1D1A4
  8
0
  6
CONTINUOUS
 10
32.84396249154443
 20
0.3077518543670883
 30
0.0
 11
33.93324121824649
 21
1.397030581069146
 31
0.0
  0
LINE
  5
1D1A5
  8
0
  6
CONTINUOUS
 10
36.23199999996837
 20
3.695789362791021
 30
0.0
 11
37.67199999996831
 21
5.135789362790963
 31
0.0
  0
LINE
  5
1D1A6
  8
0
  6
CONTINUOUS
 10
33.30186329036846
 20
0.0921334441109263
 30
0.0
 11
34.46442907112041
 21
1.254699224862875
 31
0.0
  0
LINE
  5
1D1A7
  8
0
  6
CONTINUOUS
 10
36.23199999996837
 20
3.022270153710834
 30
0.0
 11
37.67199999996831
 21
4.462270153710776
 31
0.0
  0
LINE
  5
1D1A8
  8
0
  6
CONTINUOUS
 10
33.79565647746294
 20
-0.0875925778747773
 30
0.0
 11
35.24350171668284
 21
1.360252661345124
 31
0.0
  0
LINE
  5
1D1A9
  8
0
  6
CONTINUOUS
 10
36.18336676155003
 20
2.300117706212308
 30
0.0
 11
37.67199999996831
 21
3.788750944630589
 31
0.0
  0
LINE
  5
1D1AA
  8
0
  6
CONTINUOUS
 10
34.37182574910968
 20
-0.184942515308224
 30
0.0
 11
37.67199999996831
 21
3.115231735550402
 31
0.0
  0
LINE
  5
1D1AB
  8
0
  6
CONTINUOUS
 10
35.0453449581892
 20
-0.1849425153088955
 30
0.0
 11
37.66345697088136
 21
2.433169497383271
 31
0.0
  0
LINE
  5
1D1AC
  8
0
  6
CONTINUOUS
 10
35.98667157609191
 20
0.0828648935136398
 30
0.0
 11
37.51927401744566
 21
1.615467334867382
 31
0.0
  0
LINE
  5
1D1AD
  8
0
  6
CONTINUOUS
 10
32.27747408544484
 20
0.7830920669904482
 30
0.0
 11
32.24716210471949
 21
0.8134040477157893
 31
0.0
  0
LINE
  5
1D1AE
  8
0
  6
CONTINUOUS
 10
33.83656881101902
 20
-0.1024834495035494
 30
0.0
 11
31.72538911593758
 21
2.008696245577891
 31
0.0
  0
LINE
  5
1D1AF
  8
0
  6
CONTINUOUS
 10
34.5925470859041
 20
-0.1849425153084434
 30
0.0
 11
31.64199999996833
 21
2.765604570627322
 31
0.0
  0
LINE
  5
1D1B0
  8
0
  6
CONTINUOUS
 10
35.26201302775981
 20
-0.1808892480839752
 30
0.0
 11
31.64199999996833
 21
3.439123779707508
 31
0.0
  0
LINE
  5
1D1B1
  8
0
  6
CONTINUOUS
 10
35.75580621485512
 20
-0.0011632260990879
 30
0.0
 11
34.51294304365551
 21
1.241699945100514
 31
0.0
  0
LINE
  5
1D1B2
  8
0
  6
CONTINUOUS
 10
33.08199999996839
 20
2.672642988787641
 30
0.0
 11
31.64199999996833
 21
4.112642988787695
 31
0.0
  0
LINE
  5
1D1B3
  8
0
  6
CONTINUOUS
 10
36.24959940195042
 20
0.1785627958857976
 30
0.0
 11
35.10501653033629
 21
1.323145667499924
 31
0.0
  0
LINE
  5
1D1B4
  8
0
  6
CONTINUOUS
 10
33.08199999996839
 20
3.346162197867827
 30
0.0
 11
31.64199999996833
 21
4.786162197867881
 31
0.0
  0
LINE
  5
1D1B5
  8
0
  6
CONTINUOUS
 10
36.64615197150552
 20
0.4555294354108876
 30
0.0
 11
35.6362043832099
 21
1.465477023706505
 31
0.0
  0
LINE
  5
1D1B6
  8
0
  6
CONTINUOUS
 10
33.08199999996839
 20
4.019681406948013
 30
0.0
 11
31.64199999996833
 21
5.459681406948068
 31
0.0
  0
LINE
  5
1D1B7
  8
0
  6
CONTINUOUS
 10
37.0123742237774
 20
0.7628263922191891
 30
0.0
 11
35.97691545773309
 21
1.798285158263504
 31
0.0
  0
LINE
  5
1D1B8
  8
0
  6
CONTINUOUS
 10
33.08199999996839
 20
4.6932006160282
 30
0.0
 11
31.64199999996833
 21
6.133200616028255
 31
0.0
  0
LINE
  5
1D1B9
  8
0
  6
CONTINUOUS
 10
37.27491524157143
 20
1.173804583505349
 30
0.0
 11
36.17602012811361
 21
2.272699696963169
 31
0.0
  0
LINE
  5
1D1BA
  8
0
  6
CONTINUOUS
 10
33.08199999996839
 20
5.366719825108387
 30
0.0
 11
31.64199999996833
 21
6.806719825108441
 31
0.0
  0
LINE
  5
1D1BB
  8
0
  6
CONTINUOUS
 10
37.51739996707661
 20
1.604839067080355
 30
0.0
 11
36.23199999996837
 21
2.890239034188595
 31
0.0
  0
LINE
  5
1D1BC
  8
0
  6
CONTINUOUS
 10
37.6183579579535
 20
2.177400285283649
 30
0.0
 11
36.23199999996837
 21
3.563758243268782
 31
0.0
  0
LINE
  5
1D1BD
  8
0
  6
CONTINUOUS
 10
33.08199999996839
 20
6.040239034188573
 30
0.0
 11
31.64199999996833
 21
7.480239034188628
 31
0.0
  0
LINE
  5
1D1BE
  8
0
  6
CONTINUOUS
 10
33.08199999996839
 20
6.713758243268759
 30
0.0
 11
31.64199999996833
 21
8.153758243268815
 31
0.0
  0
LINE
  5
1D1BF
  8
0
  6
CONTINUOUS
 10
37.67199999996831
 20
2.797277452349027
 30
0.0
 11
36.23199999996837
 21
4.237277452348969
 31
0.0
  0
LINE
  5
1D1C0
  8
0
  6
CONTINUOUS
 10
37.67199999996831
 20
3.470796661429214
 30
0.0
 11
36.23199999996837
 21
4.910796661429155
 31
0.0
  0
LINE
  5
1D1C1
  8
0
  6
CONTINUOUS
 10
37.67199999996831
 20
4.1443158705094
 30
0.0
 11
36.23199999996837
 21
5.584315870509341
 31
0.0
  0
LINE
  5
1D1C2
  8
0
  6
CONTINUOUS
 10
33.08199999996839
 20
7.387277452348946
 30
0.0
 11
31.70617745232608
 21
8.763099999991255
 31
0.0
  0
LINE
  5
1D1C3
  8
0
  6
CONTINUOUS
 10
33.08199999996839
 20
8.060796661429134
 30
0.0
 11
32.37969666140626
 21
8.763099999991255
 31
0.0
  0
LINE
  5
1D1C4
  8
0
  6
CONTINUOUS
 10
33.08199999996839
 20
8.734315870509318
 30
0.0
 11
33.05321587048645
 21
8.763099999991255
 31
0.0
  0
LINE
  5
1D1C5
  8
0
  6
CONTINUOUS
 10
37.67199999996831
 20
4.817835079589586
 30
0.0
 11
36.23199999996837
 21
6.257835079589528
 31
0.0
  0
LINE
  5
1D1C6
  8
0
  6
CONTINUOUS
 10
37.67199999996831
 20
5.491354288669772
 30
0.0
 11
36.23199999996837
 21
6.931354288669715
 31
0.0
  0
LINE
  5
1D1C7
  8
0
  6
CONTINUOUS
 10
37.67199999996831
 20
6.164873497749959
 30
0.0
 11
36.23199999996837
 21
7.6048734977499
 31
0.0
  0
LINE
  5
1D1C8
  8
0
  6
CONTINUOUS
 10
37.67199999996831
 20
6.838392706830145
 30
0.0
 11
36.23199999996837
 21
8.278392706830086
 31
0.0
  0
LINE
  5
1D1C9
  8
0
  6
CONTINUOUS
 10
37.67199999996831
 20
7.511911915910333
 30
0.0
 11
36.42081191588738
 21
8.763099999991255
 31
0.0
  0
LINE
  5
1D1CA
  8
0
  6
CONTINUOUS
 10
37.67199999996831
 20
8.185431124990519
 30
0.0
 11
37.09433112496757
 21
8.763099999991255
 31
0.0
  0
ENDBLK
  5
1D232
  8
0
  0
BLOCK
  8
0
  2
*X123
 70
     1
 10
0.0
 20
0.0
 30
0.0
  3
*X123
  1

  0
LINE
  5
1D1CC
  8
0
  6
CONTINUOUS
 10
38.60499999996136
 20
8.762866199104765
 30
0.0
 11
38.71672554182345
 21
8.874591740966855
 31
0.0
  0
LINE
  5
1D1CD
  8
0
  6
CONTINUOUS
 10
38.60499999996136
 20
8.089346990024577
 30
0.0
 11
39.03418785440363
 21
8.518534844466847
 31
0.0
  0
LINE
  5
1D1CE
  8
0
  6
CONTINUOUS
 10
38.60499999996136
 20
7.41582778094439
 30
0.0
 11
39.35165016698382
 21
8.16247794796684
 31
0.0
  0
LINE
  5
1D1CF
  8
0
  6
CONTINUOUS
 10
38.60499999996136
 20
6.742308571864204
 30
0.0
 11
39.66911247956399
 21
7.806421051466834
 31
0.0
  0
LINE
  5
1D1D0
  8
0
  6
CONTINUOUS
 10
38.60499999996136
 20
6.068789362784018
 30
0.0
 11
39.98657479214418
 21
7.450364154966827
 31
0.0
  0
LINE
  5
1D1D1
  8
0
  6
CONTINUOUS
 10
38.60499999996136
 20
5.395270153703832
 30
0.0
 11
40.30403710472435
 21
7.09430725846682
 31
0.0
  0
LINE
  5
1D1D2
  8
0
  6
CONTINUOUS
 10
38.60499999996136
 20
4.721750944623645
 30
0.0
 11
40.62149941730453
 21
6.738250361966813
 31
0.0
  0
LINE
  5
1D1D3
  8
0
  6
CONTINUOUS
 10
38.60499999996136
 20
4.048231735543458
 30
0.0
 11
40.93896172988471
 21
6.382193465466806
 31
0.0
  0
LINE
  5
1D1D4
  8
0
  6
CONTINUOUS
 10
38.60499999996136
 20
3.374712526463272
 30
0.0
 11
40.02599999995994
 21
4.795712526461843
 31
0.0
  0
LINE
  5
1D1D5
  8
0
  6
CONTINUOUS
 10
38.60499999996136
 20
2.701193317383085
 30
0.0
 11
40.02599999995994
 21
4.122193317381657
 31
0.0
  0
LINE
  5
1D1D6
  8
0
  6
CONTINUOUS
 10
40.28339754687704
 20
5.053110073378947
 30
0.0
 11
41.25642404246489
 21
6.026136568966799
 31
0.0
  0
LINE
  5
1D1D7
  8
0
  6
CONTINUOUS
 10
40.60085985945722
 20
4.697053176878939
 30
0.0
 11
41.57388635504507
 21
5.670079672466793
 31
0.0
  0
LINE
  5
1D1D8
  8
0
  6
CONTINUOUS
 10
43.57899999995641
 20
8.348712526458318
 30
0.0
 11
43.99338747348935
 21
8.763099999991255
 31
0.0
  0
LINE
  5
1D1D9
  8
0
  6
CONTINUOUS
 10
43.57899999995641
 20
7.675193317378131
 30
0.0
 11
44.66690668256953
 21
8.763099999991255
 31
0.0
  0
LINE
  5
1D1DA
  8
0
  6
CONTINUOUS
 10
38.60499999996136
 20
2.027674108302898
 30
0.0
 11
40.02599999995994
 21
3.44867410830147
 31
0.0
  0
LINE
  5
1D1DB
  8
0
  6
CONTINUOUS
 10
38.60499999996136
 20
1.354154899222712
 30
0.0
 11
40.02599999995994
 21
2.775154899221284
 31
0.0
  0
LINE
  5
1D1DC
  8
0
  6
CONTINUOUS
 10
38.60499999996136
 20
0.6806356901425255
 30
0.0
 11
40.02599999995994
 21
2.101635690141098
 31
0.0
  0
LINE
  5
1D1DD
  8
0
  6
CONTINUOUS
 10
38.60499999996136
 20
0.0071164810623383
 30
0.0
 11
40.02599999995994
 21
1.428116481060911
 31
0.0
  0
LINE
  5
1D1DE
  8
0
  6
CONTINUOUS
 10
40.9183221720374
 20
4.340996280378933
 30
0.0
 11
41.89134866762525
 21
5.314022775966786
 31
0.0
  0
LINE
  5
1D1DF
  8
0
  6
CONTINUOUS
 10
41.23578448461758
 20
3.984939383878926
 30
0.0
 11
42.20881098020543
 21
4.957965879466778
 31
0.0
  0
LINE
  5
1D1E0
  8
0
  6
CONTINUOUS
 10
41.55324679719776
 20
3.628882487378919
 30
0.0
 11
42.52627329278561
 21
4.601908982966772
 31
0.0
  0
LINE
  5
1D1E1
  8
0
  6
CONTINUOUS
 10
41.87070910977793
 20
3.272825590878912
 30
0.0
 11
42.84373560536579
 21
4.245852086466765
 31
0.0
  0
LINE
  5
1D1E2
  8
0
  6
CONTINUOUS
 10
43.57899999995641
 20
7.001674108297943
 30
0.0
 11
44.99999999995498
 21
8.422674108296516
 31
0.0
  0
LINE
  5
1D1E3
  8
0
  6
CONTINUOUS
 10
43.57899999995641
 20
6.328154899217758
 30
0.0
 11
44.99999999995498
 21
7.749154899216329
 31
0.0
  0
LINE
  5
1D1E4
  8
0
  6
CONTINUOUS
 10
43.57899999995641
 20
5.654635690137571
 30
0.0
 11
44.99999999995498
 21
7.075635690136142
 31
0.0
  0
LINE
  5
1D1E5
  8
0
  6
CONTINUOUS
 10
43.57899999995641
 20
4.981116481057384
 30
0.0
 11
44.99999999995498
 21
6.402116481055955
 31
0.0
  0
LINE
  5
1D1E6
  8
0
  6
CONTINUOUS
 10
39.27140272797921
 20
-0.0000000000000009
 30
0.0
 11
40.02599999995994
 21
0.7545972719807246
 31
0.0
  0
LINE
  5
1D1E7
  8
0
  6
CONTINUOUS
 10
39.9449219370594
 20
-0.0000000000000009
 30
0.0
 11
40.02599999995994
 21
0.0810780629005379
 31
0.0
  0
LINE
  5
1D1E8
  8
0
  6
CONTINUOUS
 10
42.18817142235812
 20
2.916768694378905
 30
0.0
 11
43.16119791794597
 21
3.889795189966758
 31
0.0
  0
LINE
  5
1D1E9
  8
0
  6
CONTINUOUS
 10
42.50563373493829
 20
2.560711797878898
 30
0.0
 11
43.47866023052615
 21
3.533738293466751
 31
0.0
  0
LINE
  5
1D1EA
  8
0
  6
CONTINUOUS
 10
43.57899999995641
 20
4.307597271977198
 30
0.0
 11
44.99999999995498
 21
5.728597271975769
 31
0.0
  0
LINE
  5
1D1EB
  8
0
  6
CONTINUOUS
 10
43.57899999995641
 20
3.634078062897011
 30
0.0
 11
44.99999999995498
 21
5.055078062895582
 31
0.0
  0
LINE
  5
1D1EC
  8
0
  6
CONTINUOUS
 10
42.82309604751848
 20
2.204654901378891
 30
0.0
 11
44.99999999995498
 21
4.381558853815395
 31
0.0
  0
LINE
  5
1D1ED
  8
0
  6
CONTINUOUS
 10
43.14055836009865
 20
1.848598004878885
 30
0.0
 11
44.99999999995498
 21
3.70803964473521
 31
0.0
  0
LINE
  5
1D1EE
  8
0
  6
CONTINUOUS
 10
43.45802067267883
 20
1.492541108378878
 30
0.0
 11
44.99999999995498
 21
3.034520435655023
 31
0.0
  0
LINE
  5
1D1EF
  8
0
  6
CONTINUOUS
 10
43.77548298525902
 20
1.136484211878871
 30
0.0
 11
44.99999999995498
 21
2.361001226574837
 31
0.0
  0
LINE
  5
1D1F0
  8
0
  6
CONTINUOUS
 10
44.09294529783919
 20
0.7804273153788639
 30
0.0
 11
44.99999999995498
 21
1.687482017494649
 31
0.0
  0
LINE
  5
1D1F1
  8
0
  6
CONTINUOUS
 10
44.41040761041938
 20
0.4243704188788566
 30
0.0
 11
44.99999999995498
 21
1.013962808414463
 31
0.0
  0
LINE
  5
1D1F2
  8
0
  6
CONTINUOUS
 10
44.72786992299955
 20
0.0683135223788494
 30
0.0
 11
44.99999999995498
 21
0.340443599334276
 31
0.0
  0
LINE
  5
1D1F3
  8
0
  6
CONTINUOUS
 10
39.12223903415696
 20
-0.0000000000000009
 30
0.0
 11
38.60499999996136
 21
0.5172390341955961
 31
0.0
  0
LINE
  5
1D1F4
  8
0
  6
CONTINUOUS
 10
39.79575824323715
 20
-0.0000000000000009
 30
0.0
 11
38.60499999996136
 21
1.190758243275783
 31
0.0
  0
LINE
  5
1D1F5
  8
0
  6
CONTINUOUS
 10
40.02599999995994
 20
0.443277452357397
 30
0.0
 11
38.60499999996136
 21
1.864277452355969
 31
0.0
  0
LINE
  5
1D1F6
  8
0
  6
CONTINUOUS
 10
40.02599999995994
 20
1.116796661437583
 30
0.0
 11
38.60499999996136
 21
2.537796661436155
 31
0.0
  0
LINE
  5
1D1F7
  8
0
  6
CONTINUOUS
 10
40.02599999995994
 20
1.79031587051777
 30
0.0
 11
38.60499999996136
 21
3.211315870516341
 31
0.0
  0
LINE
  5
1D1F8
  8
0
  6
CONTINUOUS
 10
40.02599999995994
 20
2.463835079597956
 30
0.0
 11
38.60499999996136
 21
3.884835079596527
 31
0.0
  0
LINE
  5
1D1F9
  8
0
  6
CONTINUOUS
 10
40.02599999995994
 20
3.137354288678143
 30
0.0
 11
38.60499999996136
 21
4.558354288676714
 31
0.0
  0
LINE
  5
1D1FA
  8
0
  6
CONTINUOUS
 10
40.02599999995994
 20
3.810873497758329
 30
0.0
 11
38.60499999996136
 21
5.2318734977569
 31
0.0
  0
LINE
  5
1D1FB
  8
0
  6
CONTINUOUS
 10
40.02599999995994
 20
4.484392706838515
 30
0.0
 11
38.60499999996136
 21
5.905392706837086
 31
0.0
  0
LINE
  5
1D1FC
  8
0
  6
CONTINUOUS
 10
44.99999999995498
 20
0.183911915923658
 30
0.0
 11
41.53858364506288
 21
3.64532827081576
 31
0.0
  0
LINE
  5
1D1FD
  8
0
  6
CONTINUOUS
 10
40.02599999995994
 20
5.157911915918703
 30
0.0
 11
38.60499999996136
 21
6.578911915917274
 31
0.0
  0
LINE
  5
1D1FE
  8
0
  6
CONTINUOUS
 10
44.99999999995498
 20
0.8574311250038447
 30
0.0
 11
38.60499999996136
 21
7.25243112499746
 31
0.0
  0
LINE
  5
1D1FF
  8
0
  6
CONTINUOUS
 10
44.99999999995498
 20
1.530950334084031
 30
0.0
 11
38.60499999996136
 21
7.925950334077647
 31
0.0
  0
LINE
  5
1D200
  8
0
  6
CONTINUOUS
 10
44.99999999995498
 20
2.204469543164218
 30
0.0
 11
43.57899999995641
 21
3.625469543162789
 31
0.0
  0
LINE
  5
1D201
  8
0
  6
CONTINUOUS
 10
41.89876730984767
 20
5.305702233271528
 30
0.0
 11
38.60499999996136
 21
8.599469543157834
 31
0.0
  0
LINE
  5
1D202
  8
0
  6
CONTINUOUS
 10
44.99999999995498
 20
2.877988752244405
 30
0.0
 11
43.57899999995641
 21
4.298988752242975
 31
0.0
  0
LINE
  5
1D203
  8
0
  6
CONTINUOUS
 10
44.99999999995498
 20
3.551507961324591
 30
0.0
 11
43.57899999995641
 21
4.972507961323163
 31
0.0
  0
LINE
  5
1D204
  8
0
  6
CONTINUOUS
 10
44.99999999995498
 20
4.225027170404777
 30
0.0
 11
43.57899999995641
 21
5.646027170403348
 31
0.0
  0
LINE
  5
1D205
  8
0
  6
CONTINUOUS
 10
44.99999999995498
 20
4.898546379484964
 30
0.0
 11
43.57899999995641
 21
6.319546379483535
 31
0.0
  0
LINE
  5
1D206
  8
0
  6
CONTINUOUS
 10
44.99999999995498
 20
5.572065588565151
 30
0.0
 11
43.57899999995641
 21
6.993065588563722
 31
0.0
  0
LINE
  5
1D207
  8
0
  6
CONTINUOUS
 10
44.99999999995498
 20
6.245584797645336
 30
0.0
 11
43.57899999995641
 21
7.666584797643908
 31
0.0
  0
LINE
  5
1D208
  8
0
  6
CONTINUOUS
 10
44.99999999995498
 20
6.919104006725522
 30
0.0
 11
43.57899999995641
 21
8.340104006724093
 31
0.0
  0
LINE
  5
1D209
  8
0
  6
CONTINUOUS
 10
44.99999999995498
 20
7.592623215805709
 30
0.0
 11
43.82952321576943
 21
8.763099999991255
 31
0.0
  0
LINE
  5
1D20A
  8
0
  6
CONTINUOUS
 10
44.99999999995498
 20
8.266142424885896
 30
0.0
 11
44.50304242484962
 21
8.763099999991255
 31
0.0
  0
ENDBLK
  5
1D234
  8
0
  0
BLOCK
  8
0
  2
*X124
 70
     1
 10
0.0
 20
0.0
 30
0.0
  3
*X124
  1

  0
LINE
  5
1D20C
  8
0
  6
CONTINUOUS
 10
0.0
 20
8.548461116714023
 30
0.0
 11
0.2146388832772324
 21
8.763099999991255
 31
0.0
  0
LINE
  5
1D20D
  8
0
  6
CONTINUOUS
 10
-0.0000000000000002
 20
7.874941907633837
 30
0.0
 11
0.8881580923574184
 21
8.763099999991255
 31
0.0
  0
LINE
  5
1D20E
  8
0
  6
CONTINUOUS
 10
0.0
 20
7.20142269855365
 30
0.0
 11
1.420999999998572
 21
8.622422698552223
 31
0.0
  0
LINE
  5
1D20F
  8
0
  6
CONTINUOUS
 10
-0.0000000000000001
 20
6.527903489473465
 30
0.0
 11
1.420999999998571
 21
7.948903489472036
 31
0.0
  0
LINE
  5
1D210
  8
0
  6
CONTINUOUS
 10
-0.0000000000000002
 20
5.854384280393278
 30
0.0
 11
1.420999999998571
 21
7.275384280391849
 31
0.0
  0
LINE
  5
1D211
  8
0
  6
CONTINUOUS
 10
-0.0000000000000002
 20
5.180865071313091
 30
0.0
 11
1.420999999998571
 21
6.601865071311663
 31
0.0
  0
LINE
  5
1D212
  8
0
  6
CONTINUOUS
 10
0.0
 20
4.507345862232905
 30
0.0
 11
1.420999999998571
 21
5.928345862231477
 31
0.0
  0
LINE
  5
1D213
  8
0
  6
CONTINUOUS
 10
-0.0000000000000003
 20
3.833826653152718
 30
0.0
 11
1.420999999998571
 21
5.25482665315129
 31
0.0
  0
LINE
  5
1D214
  8
0
  6
CONTINUOUS
 10
-0.0000000000000002
 20
3.160307444072532
 30
0.0
 11
1.420999999998571
 21
4.581307444071103
 31
0.0
  0
LINE
  5
1D215
  8
0
  6
CONTINUOUS
 10
-0.0000000000000001
 20
2.486788234992345
 30
0.0
 11
1.420999999998571
 21
3.907788234990917
 31
0.0
  0
LINE
  5
1D216
  8
0
  6
CONTINUOUS
 10
-0.0000000000000006
 20
1.813269025912159
 30
0.0
 11
1.420999999998571
 21
3.234269025910731
 31
0.0
  0
LINE
  5
1D217
  8
0
  6
CONTINUOUS
 10
0.0
 20
1.139749816831973
 30
0.0
 11
1.420999999998571
 21
2.560749816830544
 31
0.0
  0
LINE
  5
1D218
  8
0
  6
CONTINUOUS
 10
0.0000000000000002
 20
0.466230607751787
 30
0.0
 11
1.420999999998571
 21
1.887230607750358
 31
0.0
  0
LINE
  5
1D219
  8
0
  6
CONTINUOUS
 10
0.2072886013284003
 20
-0.0000000000000009
 30
0.0
 11
1.420999999998571
 21
1.213711398670171
 31
0.0
  0
LINE
  5
1D21A
  8
0
  6
CONTINUOUS
 10
0.8808078104085864
 20
-0.0000000000000009
 30
0.0
 11
1.420999999998571
 21
0.5401921895899839
 31
0.0
  0
LINE
  5
1D21B
  8
0
  6
CONTINUOUS
 10
0.0581249075061505
 20
-0.0000000000000009
 30
0.0
 11
-0.0000000000000002
 21
0.0581249075061496
 31
0.0
  0
LINE
  5
1D21C
  8
0
  6
CONTINUOUS
 10
0.7316441165863372
 20
-0.0000000000000009
 30
0.0
 11
-0.0000000000000002
 21
0.7316441165863363
 31
0.0
  0
LINE
  5
1D21D
  8
0
  6
CONTINUOUS
 10
1.405163325666523
 20
-0.0000000000000009
 30
0.0
 11
-0.0000000000000002
 21
1.405163325666523
 31
0.0
  0
LINE
  5
1D21E
  8
0
  6
CONTINUOUS
 10
1.420999999998572
 20
0.6576825347481381
 30
0.0
 11
-0.0000000000000001
 21
2.07868253474671
 31
0.0
  0
LINE
  5
1D21F
  8
0
  6
CONTINUOUS
 10
1.420999999998571
 20
1.331201743828324
 30
0.0
 11
-0.0000000000000001
 21
2.752201743826896
 31
0.0
  0
LINE
  5
1D220
  8
0
  6
CONTINUOUS
 10
1.420999999998571
 20
2.004720952908511
 30
0.0
 11
-0.0000000000000002
 21
3.425720952907082
 31
0.0
  0
LINE
  5
1D221
  8
0
  6
CONTINUOUS
 10
1.420999999998571
 20
2.678240161988697
 30
0.0
 11
-0.0000000000000001
 21
4.099240161987269
 31
0.0
  0
LINE
  5
1D222
  8
0
  6
CONTINUOUS
 10
1.420999999998572
 20
3.351759371068884
 30
0.0
 11
0.0
 21
4.772759371067455
 31
0.0
  0
LINE
  5
1D223
  8
0
  6
CONTINUOUS
 10
1.420999999998571
 20
4.02527858014907
 30
0.0
 11
-0.0000000000000003
 21
5.446278580147642
 31
0.0
  0
LINE
  5
1D224
  8
0
  6
CONTINUOUS
 10
1.420999999998571
 20
4.698797789229257
 30
0.0
 11
0.0
 21
6.119797789227828
 31
0.0
  0
LINE
  5
1D225
  8
0
  6
CONTINUOUS
 10
1.420999999998571
 20
5.372316998309444
 30
0.0
 11
-0.0000000000000001
 21
6.793316998308015
 31
0.0
  0
LINE
  5
1D226
  8
0
  6
CONTINUOUS
 10
1.420999999998572
 20
6.045836207389629
 30
0.0
 11
-0.0000000000000004
 21
7.466836207388202
 31
0.0
  0
LINE
  5
1D227
  8
0
  6
CONTINUOUS
 10
1.420999999998571
 20
6.719355416469816
 30
0.0
 11
0.0
 21
8.140355416468388
 31
0.0
  0
LINE
  5
1D228
  8
0
  6
CONTINUOUS
 10
1.420999999998571
 20
7.392874625550003
 30
0.0
 11
0.0507746255573185
 21
8.763099999991255
 31
0.0
  0
LINE
  5
1D229
  8
0
  6
CONTINUOUS
 10
1.420999999998571
 20
8.06639383463019
 30
0.0
 11
0.7242938346375052
 21
8.763099999991255
 31
0.0
  0
LINE
  5
1D22A
  8
0
  6
CONTINUOUS
 10
1.420999999998571
 20
8.739913043710375
 30
0.0
 11
1.397813043717691
 21
8.763099999991255
 31
0.0
  0
ENDBLK
  5
1D236
  8
0
  0
ENDSEC
  0
SECTION
  2
ENTITIES
  0
LINE
  5
1B261
  8
1CENTER
 10
1525.68632284074
 20
-397.4190243762368
 30
0.0
 11
1525.68632284074
 21
-518.8700598325671
 31
0.0
  0
LINE
  5
1B26A
  8
1CENTER
 10
1442.718085056581
 20
-458.8788210695331
 30
0.0
 11
1467.076358651835
 21
-458.8788210695331
 31
0.0
  0
LINE
  5
1B26B
  8
1CENTER
 10
1500.511841542548
 20
-458.8788210695331
 30
0.0
 11
1549.530863556711
 21
-458.8788210695331
 31
0.0
  0
LINE
  5
1B271
  8
1CENTER
 10
1378.675815134073
 20
-401.6654364063945
 30
0.0
 11
1378.675815134073
 21
-517.5331395587574
 31
0.0
  0
LINE
  5
1B272
  8
1CENTER
 10
1350.188935856112
 20
-458.878821069533
 30
0.0
 11
1405.54907345833
 21
-458.878821069533
 31
0.0
  0
LINE
  5
1B275
  8
01
 10
1460.368299583957
 20
-571.8326672963778
 30
0.0
 11
1471.329069099416
 21
-571.8326672963778
 31
0.0
  0
LINE
  5
1B276
  8
01
 10
1460.368299583957
 20
-573.2326672963778
 30
0.0
 11
1471.329069099416
 21
-573.2326672963778
 31
0.0
  0
LINE
  5
1B277
  8
1CENTER
 10
1455.489381320933
 20
-572.5326672963779
 30
0.0
 11
1473.82228125102
 21
-572.5326672963779
 31
0.0
  0
LINE
  5
1B278
  8
01
 10
1458.329069099416
 20
-572.5326672963779
 30
0.0
 11
1460.368299583957
 21
-571.8326672963778
 31
0.0
  0
LINE
  5
1B279
  8
01
 10
1458.329069099416
 20
-572.5326672963779
 30
0.0
 11
1460.368299583957
 21
-573.2326672963779
 31
0.0
  0
ARC
  5
1B27A
  8
01
 10
1470.149877692132
 20
-572.5326672963779
 30
0.0
 40
1.987584557952833
 50
306.3900152781545
 51
53.60998472184159
  0
LINE
  5
1B27B
  8
01
 10
1471.329069099416
 20
-570.9326672963779
 30
0.0
 11
1471.329069099416
 21
-574.1326672963779
 31
0.0
  0
LINE
  5
1B27C
  8
01
 10
1460.368299583957
 20
-561.3838356468066
 30
0.0
 11
1471.329069099416
 21
-561.3838356468066
 31
0.0
  0
LINE
  5
1B27D
  8
01
 10
1460.368299583957
 20
-562.7838356468066
 30
0.0
 11
1471.329069099416
 21
-562.7838356468066
 31
0.0
  0
LINE
  5
1B27E
  8
1CENTER
 10
1455.489381320933
 20
-562.0838356468066
 30
0.0
 11
1473.82228125102
 21
-562.0838356468066
 31
0.0
  0
LINE
  5
1B27F
  8
01
 10
1458.329069099416
 20
-562.0838356468066
 30
0.0
 11
1460.368299583957
 21
-561.3838356468066
 31
0.0
  0
LINE
  5
1B280
  8
01
 10
1458.329069099416
 20
-562.0838356468066
 30
0.0
 11
1460.368299583957
 21
-562.7838356468067
 31
0.0
  0
ARC
  5
1B281
  8
01
 10
1470.149877692132
 20
-562.0838356468066
 30
0.0
 40
1.987584557952833
 50
306.3900152781545
 51
53.60998472184159
  0
LINE
  5
1B282
  8
01
 10
1471.329069099416
 20
-560.4838356468066
 30
0.0
 11
1471.329069099416
 21
-563.6838356468066
 31
0.0
  0
TEXT
  5
1B2E0
  8
1TEXT
 10
1354.642609004768
 20
-361.652242041707
 30
0.0
 40
7.0
  1
PC-422-※
 41
1.0098214
  0
LINE
  5
1B2FE
  8
1CENTER
 10
1522.393672063234
 20
-556.4749941406834
 30
0.0
 11
1529.542521234582
 21
-556.4749941406834
 31
0.0
  0
LINE
  5
1B2FF
  8
1CENTER
 10
1525.686322839473
 20
-560.6485444881979
 30
0.0
 11
1525.686322839473
 21
-553.0844667778546
 31
0.0
  0
LINE
  5
1B302
  8
1PHANTOM
 10
1605.923686009495
 20
-496.04945085012
 30
0.0000000000000083
 11
1605.923686009495
 21
-397.4586720986887
 31
0.0000000000000083
  0
LINE
  5
1B303
  8
1PHANTOM
 10
1591.923686009495
 20
-406.8788363289598
 30
0.0000000000000083
 11
1591.923686009495
 21
-510.8788363300525
 31
0.0000000000000083
  0
LINE
  5
1B304
  8
1PHANTOM
 10
1605.923686009495
 20
-515.9943606005045
 30
0.0000000000001426
 11
1605.923686009495
 21
-496.1655925638248
 31
0.0000000000000083
  0
LINE
  5
1B305
  8
1PHANTOM
 10
1627.020032773368
 20
-412.8788363289598
 30
0.0000000000000367
 11
1627.020032773368
 21
-504.8788363300526
 31
0.0000000000000367
  0
ARC
  5
1B306
  8
1PHANTOM
 10
1633.020032773368
 20
-504.8788363300526
 30
0.0
 40
6.0
 50
180.0
 51
270.0
  0
LINE
  5
1B307
  8
1PHANTOM
 10
1661.020032773368
 20
-412.8788363289598
 30
0.0000000000000367
 11
1661.020032773368
 21
-504.8788363300526
 31
0.0000000000000367
  0
TEXT
  5
1B30B
  8
1TEXT
 10
1606.59662705001
 20
-547.5687177148897
 30
0.0
 40
4.0
  1
切欠図(S=1:1)
  0
LINE
  5
1B30C
  8
1PHANTOM
 10
1605.923686009495
 20
-510.8788363300526
 30
0.0
 11
1591.923686009495
 21
-510.8788363300526
 31
0.0
  0
LINE
  5
1B30D
  8
1PHANTOM
 10
1633.020032773368
 20
-510.8788363300526
 30
0.0
 11
1655.020032773368
 21
-510.8788363300526
 31
0.0
  0
LINE
  5
1B30E
  8
1PHANTOM
 10
1605.923686009495
 20
-406.8788363289598
 30
0.0
 11
1591.923686009495
 21
-406.8788363289598
 31
0.0
  0
LINE
  5
1B30F
  8
1PHANTOM
 10
1633.020032773368
 20
-406.8788363289598
 30
0.0
 11
1655.020032773368
 21
-406.8788363289598
 31
0.0
  0
ARC
  5
1B310
  8
1PHANTOM
 10
1633.020032773368
 20
-412.8788363289598
 30
0.0000000000000367
 40
6.0
 50
90.0
 51
180.0
  0
ARC
  5
1B311
  8
1PHANTOM
 10
1655.020032773368
 20
-412.8788363289598
 30
0.0
 40
6.0
 50
0.0
 51
90.0
  0
ARC
  5
1B312
  8
1PHANTOM
 10
1655.020032773368
 20
-504.8788363300526
 30
0.0
 40
6.0
 50
270.0
 51
0.0
  0
LINE
  5
1BECB
  8
01
 10
1510.186322839473
 20
-564.9749940108239
 30
0.0
 11
1541.186322839473
 21
-564.9749940108239
 31
0.0
  0
LINE
  5
1BECC
  8
01
 10
1509.686322839473
 20
-563.1749941419579
 30
0.0
 11
1509.686322839473
 21
-564.4749940108239
 31
0.0
  0
ARC
  5
1BECD
  8
01
 10
1510.186322839473
 20
-564.4749940108239
 30
0.0
 40
0.5
 50
180.0
 51
270.0
  0
LINE
  5
1BECE
  8
01
 10
1541.686322839473
 20
-563.1749941419579
 30
0.0
 11
1541.686322839473
 21
-564.4749940108239
 31
0.0
  0
ARC
  5
1BECF
  8
01
 10
1541.186322839473
 20
-564.4749940108239
 30
0.0
 40
0.5
 50
270.0
 51
0.0
  0
LINE
  5
1BED0
  8
01
 10
1505.68632284074
 20
-551.4749940086384
 30
0.0
 11
1545.68632284074
 21
-551.4749940086384
 31
0.0
  0
LINE
  5
1BED1
  8
01
 10
1505.986322840741
 20
-550.474994030494
 30
0.0
 11
1545.38632284074
 21
-550.474994030494
 31
0.0
  0
LINE
  5
1BED2
  8
01
 10
1505.68632284074
 20
-551.474994030494
 30
0.0
 11
1505.68632284074
 21
-550.7749940304942
 31
0.0
  0
ARC
  5
1BED3
  8
01
 10
1505.986322840741
 20
-550.7749940304942
 30
0.0
 40
0.3
 50
90.0
 51
180.0
  0
LINE
  5
1BED4
  8
01
 10
1545.68632284074
 20
-551.474994030494
 30
0.0
 11
1545.68632284074
 21
-550.7749940304942
 31
0.0
  0
ARC
  5
1BED5
  8
01
 10
1545.38632284074
 20
-550.7749940304942
 30
0.0
 40
0.3
 50
0.0
 51
90.0
  0
CIRCLE
  5
1BED6
  8
01
 10
1525.686322839473
 20
-556.4749941406834
 30
0.0
 40
0.9000000000782331
  0
LINE
  5
1BED7
  8
01
 10
1508.68632284074
 20
-551.4749940086384
 30
0.0
 11
1509.263245911183
 21
-564.9749940108239
 31
0.0
  0
LINE
  5
1BED8
  8
01
 10
1542.18632284074
 20
-563.1749941419579
 30
0.0
 11
1542.68632284074
 21
-551.4749940086384
 31
0.0
  0
LINE
  5
1BED9
  8
01
 10
1507.494656418486
 20
-556.4749999300888
 30
0.0
 11
1508.894656418486
 21
-556.4749999300888
 31
0.0
  0
LINE
  5
1BEDA
  8
01
 10
1507.494656418486
 20
-556.4749999300888
 30
0.0
 11
1508.98546838374
 21
-558.4749997945831
 31
0.0
  0
LINE
  5
1BEDB
  8
01
 10
1543.87798926046
 20
-556.4749999300888
 30
0.0
 11
1542.477989260459
 21
-556.4749999300888
 31
0.0
  0
LINE
  5
1BEDC
  8
01
 10
1543.87798926046
 20
-556.4749999300888
 30
0.0
 11
1542.387177297741
 21
-558.4749997945831
 31
0.0
  0
LINE
  5
1BEDD
  8
01
 10
1510.186322839473
 20
-564.9749940108239
 30
0.0
 11
1509.263245911183
 21
-564.9749940108239
 31
0.0
  0
LINE
  5
1BEDE
  8
01
 10
1542.18632284074
 20
-563.1749941419579
 30
0.0
 11
1509.18632284074
 21
-563.1749941419579
 31
0.0
  0
LINE
  5
1BEDF
  8
01
 10
1510.68632284074
 20
-411.8788210695332
 30
0.0
 11
1510.68632284074
 21
-505.8788210695332
 31
0.0
  0
LINE
  5
1BEE0
  8
01
 10
1533.68632284074
 20
-411.8788210695332
 30
0.0
 11
1533.68632284074
 21
-505.8788210695332
 31
0.0
  0
ARC
  5
1BEE1
  8
01
 10
1532.68632284074
 20
-411.8788210695332
 30
0.0
 40
1.0
 50
0.0
 51
90.0
  0
LINE
  5
1BEE2
  8
01
 10
1545.68632284074
 20
-404.3788210695332
 30
0.0
 11
1545.68632284074
 21
-513.3788210695332
 31
0.0
  0
ARC
  5
1BEE3
  8
01
 10
1545.18632284074
 20
-513.3788210695332
 30
0.0
 40
0.5
 50
270.0
 51
0.0
  0
ARC
  5
1BEE4
  8
01
 10
1545.18632284074
 20
-404.3788210695332
 30
0.0
 40
0.5
 50
0.0
 51
90.0
  0
LINE
  5
1BEE5
  8
01
 10
1505.68632284074
 20
-404.3788210695332
 30
0.0
 11
1505.68632284074
 21
-513.3788210695332
 31
0.0
  0
ARC
  5
1BEE6
  8
01
 10
1506.18632284074
 20
-513.3788210695332
 30
0.0
 40
0.5
 50
180.0
 51
270.0
  0
LINE
  5
1BEE7
  8
01
 10
1511.68632284074
 20
-410.8788210695332
 30
0.0
 11
1532.68632284074
 21
-410.8788210695332
 31
0.0
  0
ARC
  5
1BEE8
  8
01
 10
1511.68632284074
 20
-411.8788210695332
 30
0.0
 40
1.0
 50
90.0
 51
180.0
  0
LINE
  5
1BEE9
  8
01
 10
1506.18632284074
 20
-513.8788210695332
 30
0.0
 11
1545.18632284074
 21
-513.8788210695332
 31
0.0
  0
LINE
  5
1BEEA
  8
01
 10
1506.18632284074
 20
-403.8788210695332
 30
0.0
 11
1545.18632284074
 21
-403.8788210695332
 31
0.0
  0
ARC
  5
1BEEB
  8
01
 10
1506.18632284074
 20
-404.3788210695332
 30
0.0
 40
0.5
 50
90.0
 51
180.0
  0
ARC
  5
1BEEC
  8
01
 10
1532.68632284074
 20
-505.8788210695332
 30
0.0
 40
1.0
 50
270.0
 51
0.0
  0
LINE
  5
1BEED
  8
01
 10
1511.68632284074
 20
-506.8788210695332
 30
0.0
 11
1532.68632284074
 21
-506.8788210695332
 31
0.0
  0
ARC
  5
1BEEE
  8
01
 10
1511.68632284074
 20
-505.8788210695332
 30
0.0
 40
1.0
 50
180.0
 51
270.0
  0
LINE
  5
1BEEF
  8
01
 10
1511.18632284074
 20
-412.3788210695332
 30
0.0
 11
1511.18632284074
 21
-505.3788210695332
 31
0.0
  0
LINE
  5
1BEF0
  8
01
 10
1533.18632284074
 20
-412.3788210695332
 30
0.0
 11
1533.18632284074
 21
-505.3788210695332
 31
0.0
  0
LINE
  5
1BEF1
  8
01
 10
1532.18632284074
 20
-506.3788210695332
 30
0.0
 11
1512.18632284074
 21
-506.3788210695332
 31
0.0
  0
LINE
  5
1BEF2
  8
01
 10
1512.18632284074
 20
-411.3788210695332
 30
0.0
 11
1532.18632284074
 21
-411.3788210695332
 31
0.0
  0
ARC
  5
1BEF3
  8
01
 10
1512.18632284074
 20
-412.3788210695332
 30
0.0
 40
1.0
 50
90.0
 51
180.0
  0
ARC
  5
1BEF4
  8
01
 10
1532.18632284074
 20
-412.3788210695332
 30
0.0
 40
1.0
 50
0.0
 51
90.0
  0
ARC
  5
1BEF5
  8
01
 10
1532.18632284074
 20
-505.3788210695332
 30
0.0
 40
1.0
 50
270.0
 51
0.0
  0
ARC
  5
1BEF6
  8
01
 10
1512.18632284074
 20
-505.3788210695332
 30
0.0
 40
1.0
 50
180.0
 51
270.0
  0
LINE
  5
1BEF7
  8
01
 10
1461.630578912136
 20
-404.178821100131
 30
0.0
 11
1461.630578912135
 21
-513.5788210695334
 31
0.0
  0
ARC
  5
1BEF8
  8
01
 10
1461.330578912136
 20
-513.5788210695334
 30
0.0
 40
0.3
 50
270.0
 51
0.0
  0
ARC
  5
1BEF9
  8
01
 10
1461.330578912136
 20
-404.178821100131
 30
0.0
 40
0.3
 50
0.0
 51
89.99999749549657
  0
LINE
  5
1BEFA
  8
01
 10
1455.630578933991
 20
-494.8788393807179
 30
0.0
 11
1455.630578933991
 21
-492.8788393807179
 31
0.0
  0
LINE
  5
1BEFB
  8
01
 10
1455.630578933991
 20
-494.8788393807179
 30
0.0
 11
1453.630578933991
 21
-493.8788393807179
 31
0.0
  0
LINE
  5
1BEFC
  8
01
 10
1453.630578933991
 20
-493.8788393807179
 30
0.0
 11
1455.630578933991
 21
-492.8788393807179
 31
0.0
  0
LINE
  5
1BEFD
  8
01
 10
1453.630578933991
 20
-493.8788393807179
 30
0.0
 11
1455.630578933991
 21
-493.8788393807179
 31
0.0
  0
LINE
  5
1BEFE
  8
01
 10
1453.630578933991
 20
-423.8788363289598
 30
0.0
 11
1455.630578933991
 21
-423.8788363289598
 31
0.0
  0
LINE
  5
1BEFF
  8
01
 10
1453.630578933991
 20
-423.8788363289598
 30
0.0
 11
1455.630578933991
 21
-422.8788363289598
 31
0.0
  0
LINE
  5
1BF00
  8
01
 10
1455.630578933991
 20
-424.8788363289598
 30
0.0
 11
1453.630578933991
 21
-423.8788363289598
 31
0.0
  0
LINE
  5
1BF01
  8
01
 10
1455.630578933991
 20
-424.8788363289598
 30
0.0
 11
1455.630578933991
 21
-422.8788363289598
 31
0.0
  0
LINE
  5
1BF02
  8
01
 10
1460.630578912135
 20
-513.8788210695332
 30
0.0
 11
1460.630578912136
 21
-403.8788210695332
 31
0.0
  0
LINE
  5
1BF03
  8
01
 10
1460.630578912136
 20
-403.8788210695332
 30
0.0
 11
1461.330578925249
 21
-403.8788211001313
 31
0.0
  0
LINE
  5
1BF04
  8
01
 10
1460.630578912135
 20
-513.8788210695332
 30
0.0
 11
1461.330578912136
 21
-513.8788210695332
 31
0.0
  0
LINE
  5
1BF05
  8
01
 10
1447.13057892962
 20
-408.3784589450595
 30
0.0
 11
1447.13057892962
 21
-509.3791831940591
 31
0.0
  0
LINE
  5
1BF06
  8
01
 10
1448.930578798486
 20
-509.8788210695332
 30
0.0
 11
1447.630578798486
 21
-509.8788210695332
 31
0.0
  0
ARC
  5
1BF07
  8
01
 10
1447.630578798486
 20
-509.3788210695332
 30
0.0
 40
0.5
 50
180.0
 51
270.0
  0
LINE
  5
1BF08
  8
01
 10
1448.930578798486
 20
-407.8788210695332
 30
0.0
 11
1447.630578798486
 21
-407.8788210695332
 31
0.0
  0
ARC
  5
1BF09
  8
01
 10
1447.630578798486
 20
-408.3788210695332
 30
0.0
 40
0.5
 50
90.0
 51
180.0
  0
LINE
  5
1BF0A
  8
01
 10
1448.930578798486
 20
-407.3788363289598
 30
0.0
 11
1460.630578912136
 21
-406.8788363289598
 31
0.0
  0
LINE
  5
1BF0B
  8
01
 10
1448.930578798486
 20
-510.3788363300525
 30
0.0
 11
1460.630578912135
 21
-510.8788363300525
 31
0.0
  0
LINE
  5
1BF0C
  8
01
 10
1447.13057892962
 20
-438.8788210695332
 30
0.0
 11
1448.930578798486
 21
-438.8788210695332
 31
0.0
  0
LINE
  5
1BF0D
  8
01
 10
1447.13057892962
 20
-478.8788210695332
 30
0.0
 11
1448.930578798486
 21
-478.8788210695332
 31
0.0
  0
LINE
  5
1BF0E
  8
01
 10
1447.13057892962
 20
-437.8788210695332
 30
0.0
 11
1448.930578798486
 21
-437.8788210695332
 31
0.0
  0
LINE
  5
1BF0F
  8
01
 10
1447.13057892962
 20
-479.8788210695332
 30
0.0
 11
1448.930578798486
 21
-479.8788210695332
 31
0.0
  0
LINE
  5
1BF10
  8
01
 10
1447.980578798486
 20
-479.8788210695332
 30
0.0
 11
1447.980578798486
 21
-478.8788210695332
 31
0.0
  0
LINE
  5
1BF11
  8
01
 10
1447.980578798486
 20
-438.8788210695332
 30
0.0
 11
1447.980578798486
 21
-437.8788210695332
 31
0.0
  0
LINE
  5
1BF12
  8
01
 10
1447.13057892962
 20
-438.8788210695332
 30
0.0
 11
1447.13057892962
 21
-478.8788210695332
 31
0.0
  0
LINE
  5
1BF13
  8
01
 10
1448.930578798486
 20
-438.8788210695332
 30
0.0
 11
1448.930578798486
 21
-407.3788363289598
 31
0.0
  0
LINE
  5
1BF14
  8
01
 10
1448.930578798486
 20
-510.3788363300525
 30
0.0
 11
1448.930578798486
 21
-478.8788210695332
 31
0.0
  0
LINE
  5
1BF2D
  8
01
 10
1398.675815134073
 20
-404.378821069533
 30
0.0
 11
1398.675815134073
 21
-513.378821069533
 31
0.0
  0
LINE
  5
1BF2E
  8
01
 10
1395.675815134073
 20
-412.8788363289597
 30
0.0
 11
1395.675815134073
 21
-423.0276437565991
 31
0.0
  0
LINE
  5
1BF2F
  8
01
 10
1395.675815134073
 20
-424.7300243598194
 30
0.0
 11
1395.675815134073
 21
-493.0276177792472
 31
0.0
  0
LINE
  5
1BF30
  8
01
 10
1395.675815134073
 20
-494.7299983824674
 30
0.0
 11
1395.675815134073
 21
-504.8788363300524
 31
0.0
  0
ARC
  5
1BF31
  8
01
 10
1389.675815134073
 20
-412.8788363289597
 30
0.0
 40
6.0
 50
0.0
 51
90.0
  0
ARC
  5
1BF32
  8
01
 10
1398.175815134073
 20
-513.378821069533
 30
0.0
 40
0.5
 50
270.0
 51
0.0
  0
ARC
  5
1BF33
  8
01
 10
1398.175815134073
 20
-404.378821069533
 30
0.0
 40
0.5
 50
0.0
 51
90.0
  0
LINE
  5
1BF34
  8
01
 10
1358.675815134073
 20
-404.378821069533
 30
0.0
 11
1358.675815134073
 21
-513.378821069533
 31
0.0
  0
LINE
  5
1BF35
  8
01
 10
1361.675815134073
 20
-412.8788363289597
 30
0.0
 11
1361.675815134073
 21
-423.0276437565991
 31
0.0
  0
LINE
  5
1BF36
  8
01
 10
1361.675815134073
 20
-424.7300243598194
 30
0.0
 11
1361.675815134073
 21
-493.0276177792472
 31
0.0
  0
LINE
  5
1BF37
  8
01
 10
1361.675815134073
 20
-494.7299983824674
 30
0.0
 11
1361.675815134073
 21
-504.8788363300524
 31
0.0
  0
ARC
  5
1BF38
  8
01
 10
1367.675815134073
 20
-504.8788363300524
 30
0.0
 40
6.0
 50
180.0
 51
270.0
  0
ARC
  5
1BF39
  8
01
 10
1367.675815134073
 20
-412.8788363289597
 30
0.0
 40
6.0
 50
90.0
 51
180.0
  0
ARC
  5
1BF3A
  8
01
 10
1367.675815134073
 20
-412.8788363289597
 30
0.0
 40
5.5
 50
90.0
 51
180.0
  0
ARC
  5
1BF3B
  8
01
 10
1359.175815134073
 20
-513.378821069533
 30
0.0
 40
0.5
 50
180.0
 51
270.0
  0
LINE
  5
1BF3C
  8
01
 10
1368.175815132806
 20
-509.878821069533
 30
0.0
 11
1389.175815132806
 21
-509.878821069533
 31
0.0
  0
LINE
  5
1BF3D
  8
01
 10
1368.175815132806
 20
-407.878821069533
 30
0.0
 11
1389.175815132806
 21
-407.878821069533
 31
0.0
  0
LINE
  5
1BF3E
  8
01
 10
1359.175815134073
 20
-513.878821069533
 30
0.0
 11
1398.175815134073
 21
-513.878821069533
 31
0.0
  0
LINE
  5
1BF3F
  8
01
 10
1359.175815134073
 20
-403.878821069533
 30
0.0
 11
1398.175815134073
 21
-403.878821069533
 31
0.0
  0
ARC
  5
1BF40
  8
01
 10
1359.175815134073
 20
-404.378821069533
 30
0.0
 40
0.5
 50
90.0
 51
180.0
  0
LINE
  5
1BF41
  8
01
 10
1367.675815134073
 20
-406.8788363289597
 30
0.0
 11
1389.675815134073
 21
-406.8788363289597
 31
0.0
  0
LINE
  5
1BF42
  8
01
 10
1389.675815134073
 20
-510.8788363300524
 30
0.0
 11
1367.675815134073
 21
-510.8788363300524
 31
0.0
  0
ARC
  5
1BF43
  8
01
 10
1389.675815134073
 20
-504.8788363300524
 30
0.0
 40
6.0
 50
270.0
 51
0.0
  0
LINE
  5
1BF44
  8
01
 10
1362.675815132806
 20
-413.378821069533
 30
0.0
 11
1362.675815132806
 21
-504.378821069533
 31
0.0
  0
ARC
  5
1BF45
  8
01
 10
1368.175815132806
 20
-413.378821069533
 30
0.0
 40
5.5
 50
90.0
 51
180.0
  0
ARC
  5
1BF46
  8
01
 10
1368.175815132806
 20
-504.378821069533
 30
0.0
 40
5.5
 50
180.0
 51
270.0
  0
LINE
  5
1BF47
  8
01
 10
1394.675815132806
 20
-413.378821069533
 30
0.0
 11
1394.675815132806
 21
-437.878821069533
 31
0.0
  0
ARC
  5
1BF48
  8
01
 10
1389.175815132806
 20
-413.378821069533
 30
0.0
 40
5.5
 50
0.0
 51
90.0
  0
ARC
  5
1BF49
  8
01
 10
1389.175815132806
 20
-504.378821069533
 30
0.0
 40
5.5
 50
270.0
 51
0.0
  0
LINE
  5
1BF4A
  8
01
 10
1362.175815134073
 20
-412.8788363289597
 30
0.0
 11
1362.175815134073
 21
-504.8788363300524
 31
0.0
  0
LINE
  5
1BF4B
  8
01
 10
1395.175815134073
 20
-412.8788363289597
 30
0.0
 11
1395.175815134073
 21
-438.878821069533
 31
0.0
  0
LINE
  5
1BF4C
  8
01
 10
1389.675815134073
 20
-510.3788363300524
 30
0.0
 11
1367.675815134073
 21
-510.3788363300524
 31
0.0
  0
LINE
  5
1BF4D
  8
01
 10
1367.675815134073
 20
-407.3788363289597
 30
0.0
 11
1389.675815134073
 21
-407.3788363289597
 31
0.0
  0
ARC
  5
1BF4E
  8
01
 10
1389.675815134073
 20
-412.8788363289597
 30
0.0
 40
5.5
 50
0.0
 51
90.0
  0
ARC
  5
1BF4F
  8
01
 10
1389.675815134073
 20
-504.8788363300524
 30
0.0
 40
5.5
 50
270.0
 51
0.0
  0
ARC
  5
1BF50
  8
01
 10
1367.675815134073
 20
-504.8788363300524
 30
0.0
 40
5.5
 50
180.0
 51
270.0
  0
LINE
  5
1BF51
  8
01
 10
1361.884148711819
 20
-422.8788363289597
 30
0.0
 11
1361.974960677073
 21
-423.878821069533
 31
0.0
  0
LINE
  5
1BF52
  8
01
 10
1361.974960677073
 20
-423.878821069533
 30
0.0
 11
1361.884148711819
 21
-424.8788363289597
 31
0.0
  0
LINE
  5
1BF53
  8
01
 10
1361.884148711819
 20
-424.8788363289597
 30
0.0
 11
1360.484148711819
 21
-423.878821069533
 31
0.0
  0
LINE
  5
1BF54
  8
01
 10
1360.484148711819
 20
-423.878821069533
 30
0.0
 11
1361.884148711819
 21
-422.8788363289597
 31
0.0
  0
LINE
  5
1BF55
  8
01
 10
1360.484148711819
 20
-423.878821069533
 30
0.0
 11
1361.974960677073
 21
-423.878821069533
 31
0.0
  0
LINE
  5
1BF56
  8
01
 10
1361.884148711819
 20
-494.8788058101064
 30
0.0
 11
1361.974960677073
 21
-493.878821069533
 31
0.0
  0
LINE
  5
1BF57
  8
01
 10
1361.974960677073
 20
-493.878821069533
 30
0.0
 11
1361.884148711819
 21
-492.8788058101064
 31
0.0
  0
LINE
  5
1BF58
  8
01
 10
1361.884148711819
 20
-492.8788058101064
 30
0.0
 11
1360.484148711819
 21
-493.878821069533
 31
0.0
  0
LINE
  5
1BF59
  8
01
 10
1360.484148711819
 20
-493.878821069533
 30
0.0
 11
1361.884148711819
 21
-494.8788058101064
 31
0.0
  0
LINE
  5
1BF5A
  8
01
 10
1360.484148711819
 20
-493.878821069533
 30
0.0
 11
1361.974960677073
 21
-493.878821069533
 31
0.0
  0
LINE
  5
1BF5B
  8
01
 10
1395.467481556327
 20
-422.8788363289597
 30
0.0
 11
1395.376669591074
 21
-423.878821069533
 31
0.0
  0
LINE
  5
1BF5C
  8
01
 10
1395.376669591074
 20
-423.878821069533
 30
0.0
 11
1395.467481556327
 21
-424.8788363289597
 31
0.0
  0
LINE
  5
1BF5D
  8
01
 10
1395.467481556327
 20
-424.8788363289597
 30
0.0
 11
1396.867481556327
 21
-423.878821069533
 31
0.0
  0
LINE
  5
1BF5E
  8
01
 10
1396.867481556327
 20
-423.878821069533
 30
0.0
 11
1395.467481556327
 21
-422.8788363289597
 31
0.0
  0
LINE
  5
1BF5F
  8
01
 10
1396.867481556327
 20
-423.878821069533
 30
0.0
 11
1395.376669591074
 21
-423.878821069533
 31
0.0
  0
LINE
  5
1BF60
  8
01
 10
1395.467481556327
 20
-494.8788058101064
 30
0.0
 11
1395.376669591074
 21
-493.878821069533
 31
0.0
  0
LINE
  5
1BF61
  8
01
 10
1395.376669591074
 20
-493.878821069533
 30
0.0
 11
1395.467481556327
 21
-492.8788058101064
 31
0.0
  0
LINE
  5
1BF62
  8
01
 10
1395.467481556327
 20
-492.8788058101064
 30
0.0
 11
1396.867481556327
 21
-493.878821069533
 31
0.0
  0
LINE
  5
1BF63
  8
01
 10
1396.867481556327
 20
-493.878821069533
 30
0.0
 11
1395.467481556327
 21
-494.8788058101064
 31
0.0
  0
LINE
  5
1BF64
  8
01
 10
1396.867481556327
 20
-493.878821069533
 30
0.0
 11
1395.376669591074
 21
-493.878821069533
 31
0.0
  0
LINE
  5
1BF83
  8
01
 10
1393.118122826035
 20
-438.878821069533
 30
0.0
 11
1395.175815134073
 21
-438.878821069533
 31
0.0
  0
LINE
  5
1BF84
  8
01
 10
1393.118122826035
 20
-478.878821069533
 30
0.0
 11
1395.175815134073
 21
-478.878821069533
 31
0.0
  0
LINE
  5
1BF85
  8
01
 10
1392.150375964655
 20
-437.878821069533
 30
0.0
 11
1394.675815132806
 21
-437.878821069533
 31
0.0
  0
LINE
  5
1BF86
  8
01
 10
1392.150375964655
 20
-479.878821069533
 30
0.0
 11
1394.675815132806
 21
-479.878821069533
 31
0.0
  0
LINE
  5
1BF87
  8
01
 10
1395.175815134073
 20
-478.878821069533
 30
0.0
 11
1395.175815134073
 21
-504.8788363300524
 31
0.0
  0
LINE
  5
1BF88
  8
01
 10
1393.118122826035
 20
-438.878821069533
 30
0.0
 11
1393.118122826035
 21
-478.878821069533
 31
0.0
  0
LINE
  5
1BF89
  8
01
 10
1394.675815132806
 20
-479.878821069533
 30
0.0
 11
1394.675815132806
 21
-504.378821069533
 31
0.0
  0
LINE
  5
1BF8A
  8
01
 10
1395.098892057093
 20
-438.878821069533
 30
0.0
 11
1395.098892057093
 21
-478.878821069533
 31
0.0
  0
LINE
  5
1BF8B
  8
01
 10
1392.150375964655
 20
-437.878821069533
 30
0.0
 11
1392.150375964655
 21
-479.878821069533
 31
0.0
  0
LINE
  5
1BF8C
  8
01
 10
1393.806614947717
 20
-437.878821069533
 30
0.0
 11
1393.806614947717
 21
-438.878821069533
 31
0.0
  0
LINE
  5
1BF8D
  8
01
 10
1393.806614947717
 20
-478.878821069533
 30
0.0
 11
1393.806614947717
 21
-479.878821069533
 31
0.0
  0
CIRCLE
  5
1C751
  8
01
 10
1367.175815134073
 20
-412.8788378614907
 30
0.0
 40
3.0
  0
CIRCLE
  5
1C753
  8
01
 10
1367.175815134073
 20
-412.8788378614907
 30
0.0
 40
3.1
  0
CIRCLE
  5
1C754
  8
01
 10
1367.175815134073
 20
-412.878836329506
 30
0.0
 40
3.0
  0
CIRCLE
  5
1C755
  8
01
 10
1367.175815134073
 20
-504.8788347975213
 30
0.0
 40
3.0
  0
CIRCLE
  5
1C757
  8
01
 10
1367.175815134073
 20
-504.8788347975213
 30
0.0
 40
3.1
  0
CIRCLE
  5
1C758
  8
01
 10
1367.175815134073
 20
-504.878836329506
 30
0.0
 40
3.0
  0
LINE
  5
1C759
  8
01
 10
1369.216967007861
 20
-505.4808694493153
 30
0.0
 11
1367.777892090426
 21
-505.4808794946118
 31
0.0
  0
LINE
  5
1C75A
  8
01
 10
1367.777882045189
 20
-506.9199460071721
 30
0.0
 11
1366.57381174531
 21
-506.919954412046
 31
0.0
  0
LINE
  5
1C75B
  8
01
 10
1367.777882045189
 20
-506.9199460071721
 30
0.0
 11
1367.777892090426
 21
-505.4808794946118
 31
0.0
  0
LINE
  5
1C75C
  8
01
 10
1369.216958602987
 20
-504.2767991494372
 30
0.0
 11
1369.216967007861
 21
-505.4808694493153
 31
0.0
  0
LINE
  5
1C75D
  8
01
 10
1369.216958602987
 20
-504.2767991494372
 30
0.0
 11
1367.77790049544
 21
-504.2767891042579
 31
0.0
  0
LINE
  5
1C75E
  8
01
 10
1367.77790049544
 20
-504.2767891042579
 30
0.0
 11
1367.777910540737
 21
-502.8377141865662
 31
0.0
  0
LINE
  5
1C75F
  8
01
 10
1366.573793294941
 20
-504.2767806991265
 30
0.0
 11
1365.134726782381
 21
-504.2767706538887
 31
0.0
  0
LINE
  5
1C760
  8
01
 10
1366.573793294941
 20
-504.2767806991265
 30
0.0
 11
1366.573783249762
 21
-502.8377225918379
 31
0.0
  0
LINE
  5
1C761
  8
01
 10
1366.573783249762
 20
-502.8377225918379
 30
0.0
 11
1367.777910540737
 21
-502.8377141865662
 31
0.0
  0
LINE
  5
1C762
  8
01
 10
1366.573801700073
 20
-505.4808878996259
 30
0.0
 11
1365.134735187652
 21
-505.4808979448638
 31
0.0
  0
LINE
  5
1C763
  8
01
 10
1365.134735187652
 20
-505.4808979448638
 30
0.0
 11
1365.134726782381
 21
-504.2767706538887
 31
0.0
  0
LINE
  5
1C764
  8
01
 10
1366.57381174531
 20
-506.919954412046
 30
0.0
 11
1366.573801700073
 21
-505.4808878996259
 31
0.0
  0
LINE
  5
1C765
  8
01
 10
1369.216967007861
 20
-412.2768032096967
 30
0.0
 11
1367.777892090426
 21
-412.2767931644001
 31
0.0
  0
LINE
  5
1C766
  8
01
 10
1367.777882045189
 20
-410.8377266518399
 30
0.0
 11
1366.57381174531
 21
-410.837718246966
 31
0.0
  0
LINE
  5
1C767
  8
01
 10
1367.777882045189
 20
-410.8377266518399
 30
0.0
 11
1367.777892090426
 21
-412.2767931644001
 31
0.0
  0
LINE
  5
1C768
  8
01
 10
1369.216958602987
 20
-413.4808735095748
 30
0.0
 11
1369.216967007861
 21
-412.2768032096967
 31
0.0
  0
LINE
  5
1C769
  8
01
 10
1369.216958602987
 20
-413.4808735095748
 30
0.0
 11
1367.77790049544
 21
-413.480883554754
 31
0.0
  0
LINE
  5
1C76A
  8
01
 10
1367.77790049544
 20
-413.480883554754
 30
0.0
 11
1367.777910540737
 21
-414.9199584724458
 31
0.0
  0
LINE
  5
1C76B
  8
01
 10
1366.573793294941
 20
-413.4808919598855
 30
0.0
 11
1365.134726782381
 21
-413.4809020051233
 31
0.0
  0
LINE
  5
1C76C
  8
01
 10
1366.573793294941
 20
-413.4808919598855
 30
0.0
 11
1366.573783249762
 21
-414.9199500671741
 31
0.0
  0
LINE
  5
1C76D
  8
01
 10
1366.573783249762
 20
-414.9199500671741
 30
0.0
 11
1367.777910540737
 21
-414.9199584724458
 31
0.0
  0
LINE
  5
1C76E
  8
01
 10
1366.573801700073
 20
-412.276784759386
 30
0.0
 11
1365.134735187652
 21
-412.2767747141482
 31
0.0
  0
LINE
  5
1C76F
  8
01
 10
1365.134735187652
 20
-412.2767747141482
 30
0.0
 11
1365.134726782381
 21
-413.4809020051233
 31
0.0
  0
LINE
  5
1C770
  8
01
 10
1366.57381174531
 20
-410.837718246966
 30
0.0
 11
1366.573801700073
 21
-412.276784759386
 31
0.0
  0
LINE
  5
1CF69
  8
1DIM
 10
1460.368299583957
 20
-571.8326672963778
 30
0.0
 11
1445.452725549693
 21
-571.8326672963778
 31
0.0
1001
ACAD
1000
DSTYLE
1002
{
1070
     3
1000
φ<>
1002
}
  0
LINE
  5
1CF6A
  8
1DIM
 10
1460.368299583957
 20
-573.2326672963779
 30
0.0
 11
1445.452725549693
 21
-573.2326672963779
 31
0.0
1001
ACAD
1000
DSTYLE
1002
{
1070
     3
1000
φ<>
1002
}
  0
LINE
  5
1CF6B
  8
1DIM
 10
1446.452725549693
 20
-573.2326672963779
 30
0.0
 11
1446.452725549693
 21
-590.0160006297115
 31
0.0
1001
ACAD
1000
DSTYLE
1002
{
1070
     3
1000
φ<>
1002
}
  0
LINE
  5
1CF6C
  8
1DIM
 10
1446.452725549693
 20
-571.8326672963778
 30
0.0
 11
1446.452725549693
 21
-573.2326672963779
 31
0.0
1001
ACAD
1000
DSTYLE
1002
{
1070
     3
1000
φ<>
1002
}
  0
LINE
  5
1CF6D
  8
1DIM
 10
1446.452725549693
 20
-569.8326672963778
 30
0.0
 11
1446.452725549693
 21
-567.8326672963778
 31
0.0
1001
ACAD
1000
DSTYLE
1002
{
1070
     3
1000
φ<>
1002
}
  0
LINE
  5
1CF6E
  8
1DIM
 10
1446.452725549693
 20
-575.2326672963779
 30
0.0
 11
1446.452725549693
 21
-577.2326672963779
 31
0.0
1001
ACAD
1000
DSTYLE
1002
{
1070
     3
1000
φ<>
1002
}
  0
LINE
  5
1CF72
  8
1DIM
 10
1471.329069099416
 20
-574.1326672963779
 30
0.0
 11
1471.329069099416
 21
-588.3190223641342
 31
0.0
  0
LINE
  5
1CF73
  8
1DIM
 10
1458.329069099416
 20
-572.5326672963779
 30
0.0
 11
1458.329069099416
 21
-588.3190223641342
 31
0.0
  0
LINE
  5
1CF74
  8
1DIM
 10
1469.329069099416
 20
-587.3190223641342
 30
0.0
 11
1460.329069099416
 21
-587.3190223641342
 31
0.0
  0
TEXT
  5
1CF78
  8
1TEXT
  6
CONTINUOUS
 10
1450.593360925254
 20
-593.9980882149085
 30
0.0000000000002274
 40
4.0
  1
付属品
  0
LINE
  5
1CF79
  8
1DIM
 10
1474.97240921984
 20
-595.3646599850061
 30
0.0
 11
1440.066271955258
 21
-595.3646599850061
 31
0.0
  0
LINE
  5
1CF7A
  8
1DIM
 10
1440.066271955258
 20
-595.3646599850061
 30
0.0
 11
1440.066271955258
 21
-555.9304573026733
 31
0.0
  0
LINE
  5
1CF7B
  8
1DIM
 10
1440.066271955258
 20
-555.9304573026733
 30
0.0
 11
1474.97240921984
 21
-555.9304573026733
 31
0.0
  0
LINE
  5
1CF7C
  8
1DIM
 10
1474.97240921984
 20
-555.9304573026733
 30
0.0
 11
1474.97240921984
 21
-595.3646599850061
 31
0.0
  0
LINE
  5
1CF7D
  8
1DIM
 10
1361.675815134073
 20
-504.8788363300525
 30
0.0
 11
1361.675815134073
 21
-535.707281729976
 31
0.0
  0
LINE
  5
1CF7E
  8
1DIM
 10
1358.675815134073
 20
-513.378821069533
 30
0.0
 11
1358.675815134073
 21
-535.707281729976
 31
0.0
  0
LINE
  5
1CF7F
  8
1DIM
 10
1363.675815134073
 20
-534.707281729976
 30
0.0
 11
1365.675815134073
 21
-534.707281729976
 31
0.0
  0
LINE
  5
1CF80
  8
1DIM
 10
1356.675815134073
 20
-534.707281729976
 30
0.0
 11
1350.94248180074
 21
-534.707281729976
 31
0.0
  0
LINE
  5
1CF81
  8
1DIM
 10
1361.675815134073
 20
-534.707281729976
 30
0.0
 11
1358.675815134073
 21
-534.707281729976
 31
0.0
  0
LINE
  5
1CF85
  8
1DIM
 10
1361.675815134073
 20
-504.8788363300525
 30
0.0
 11
1361.675815134073
 21
-535.707281729976
 31
0.0
  0
LINE
  5
1CF86
  8
1DIM
 10
1395.675815134073
 20
-504.8788363300525
 30
0.0
 11
1395.675815134073
 21
-535.707281729976
 31
0.0
  0
LINE
  5
1CF87
  8
1DIM
 10
1363.675815134073
 20
-534.707281729976
 30
0.0
 11
1393.675815134073
 21
-534.707281729976
 31
0.0
  0
LINE
  5
1CF8B
  8
1DIM
 10
1395.675815134073
 20
-504.8788363300525
 30
0.0
 11
1395.675815134073
 21
-535.707281729976
 31
0.0
  0
LINE
  5
1CF8C
  8
1DIM
 10
1398.675815134073
 20
-513.378821069533
 30
0.0
 11
1398.675815134073
 21
-535.707281729976
 31
0.0
  0
LINE
  5
1CF8D
  8
1DIM
 10
1393.675815134073
 20
-534.707281729976
 30
0.0
 11
1391.675815134073
 21
-534.707281729976
 31
0.0
  0
LINE
  5
1CF8E
  8
1DIM
 10
1400.675815134073
 20
-534.707281729976
 30
0.0
 11
1406.409148467406
 21
-534.707281729976
 31
0.0
  0
LINE
  5
1CF8F
  8
1DIM
 10
1395.675815134073
 20
-534.707281729976
 30
0.0
 11
1398.675815134073
 21
-534.707281729976
 31
0.0
  0
LINE
  5
1CF93
  8
1DIM
 10
1389.675815134073
 20
-510.8788363300525
 30
0.0
 11
1418.269570761075
 21
-510.8788363300526
 31
0.0
  0
LINE
  5
1CF94
  8
1DIM
 10
1398.175815134073
 20
-513.878821069533
 30
0.0
 11
1418.269570761075
 21
-513.878821069533
 31
0.0
  0
LINE
  5
1CF95
  8
1DIM
 10
1417.269570761075
 20
-508.8788363300526
 30
0.0
 11
1417.269570761075
 21
-506.8788363300526
 31
0.0
  0
LINE
  5
1CF96
  8
1DIM
 10
1417.269570761075
 20
-515.878821069533
 30
0.0
 11
1417.269570761075
 21
-521.6121544028664
 31
0.0
  0
LINE
  5
1CF97
  8
1DIM
 10
1417.269570761075
 20
-510.8788363300526
 30
0.0
 11
1417.269570761075
 21
-513.878821069533
 31
0.0
  0
LINE
  5
1CF9B
  8
1DIM
 10
1389.675815134073
 20
-510.8788363300525
 30
0.0
 11
1418.269570761075
 21
-510.8788363300526
 31
0.0
  0
LINE
  5
1CF9C
  8
1DIM
 10
1389.675815134073
 20
-406.8788363289598
 30
0.0
 11
1418.269570761075
 21
-406.8788363289598
 31
0.0
  0
LINE
  5
1CF9D
  8
1DIM
 10
1417.269570761075
 20
-508.8788363300526
 30
0.0
 11
1417.269570761075
 21
-408.8788363289598
 31
0.0
  0
LINE
  5
1CFA1
  8
1DIM
 10
1389.675815134073
 20
-406.8788363289598
 30
0.0
 11
1418.269570761075
 21
-406.8788363289598
 31
0.0
  0
LINE
  5
1CFA2
  8
1DIM
 10
1398.175815134073
 20
-403.8788210695331
 30
0.0
 11
1418.269570761075
 21
-403.8788210695332
 31
0.0
  0
LINE
  5
1CFA3
  8
1DIM
 10
1417.269570761075
 20
-408.8788363289598
 30
0.0
 11
1417.269570761075
 21
-410.8788363289598
 31
0.0
  0
LINE
  5
1CFA4
  8
1DIM
 10
1417.269570761075
 20
-401.8788210695332
 30
0.0
 11
1417.269570761075
 21
-396.1454877361998
 31
0.0
  0
LINE
  5
1CFA5
  8
1DIM
 10
1417.269570761075
 20
-406.8788363289598
 30
0.0
 11
1417.269570761075
 21
-403.8788210695332
 31
0.0
  0
LINE
  5
1CFA9
  8
1DIM
 10
1460.630578912135
 20
-513.878821069533
 30
0.0
 11
1460.630578912135
 21
-535.707281729976
 31
0.0
  0
LINE
  5
1CFAA
  8
1DIM
 10
1447.130578798486
 20
-509.3788210695331
 30
0.0
 11
1447.130578798486
 21
-535.707281729976
 31
0.0
  0
LINE
  5
1CFAB
  8
1DIM
 10
1458.630578912135
 20
-534.707281729976
 30
0.0
 11
1449.130578798486
 21
-534.707281729976
 31
0.0
  0
LINE
  5
1CFAF
  8
1DIM
 10
1460.630578912135
 20
-513.878821069533
 30
0.0
 11
1460.630578912135
 21
-535.707281729976
 31
0.0
  0
LINE
  5
1CFB0
  8
1DIM
 10
1461.630578912135
 20
-513.5788210695331
 30
0.0
 11
1461.630578912135
 21
-535.707281729976
 31
0.0
  0
LINE
  5
1CFB1
  8
1DIM
 10
1458.630578912135
 20
-534.707281729976
 30
0.0
 11
1456.630578912135
 21
-534.707281729976
 31
0.0
  0
LINE
  5
1CFB2
  8
1DIM
 10
1463.630578912135
 20
-534.707281729976
 30
0.0
 11
1467.863912245469
 21
-534.707281729976
 31
0.0
  0
LINE
  5
1CFB3
  8
1DIM
 10
1460.630578912135
 20
-534.707281729976
 30
0.0
 11
1461.630578912135
 21
-534.707281729976
 31
0.0
  0
LINE
  5
1CFB7
  8
1DIM
 10
1505.68632284074
 20
-513.378821069533
 30
0.0
 11
1505.68632284074
 21
-535.707281729976
 31
0.0
  0
LINE
  5
1CFB8
  8
1DIM
 10
1545.68632284074
 20
-513.378821069533
 30
0.0
 11
1545.68632284074
 21
-535.707281729976
 31
0.0
  0
LINE
  5
1CFB9
  8
1DIM
 10
1507.68632284074
 20
-534.707281729976
 30
0.0
 11
1543.68632284074
 21
-534.707281729976
 31
0.0
  0
LINE
  5
1CFBD
  8
1DIM
 10
1510.68632284074
 20
-505.8788210695331
 30
0.0
 11
1510.68632284074
 21
-528.6989144478704
 31
0.0
  0
LINE
  5
1CFBE
  8
1DIM
 10
1505.68632284074
 20
-513.378821069533
 30
0.0
 11
1505.68632284074
 21
-528.6989144478704
 31
0.0
  0
LINE
  5
1CFBF
  8
1DIM
 10
1512.68632284074
 20
-527.6989144478704
 30
0.0
 11
1514.68632284074
 21
-527.6989144478704
 31
0.0
  0
LINE
  5
1CFC0
  8
1DIM
 10
1503.68632284074
 20
-527.6989144478704
 30
0.0
 11
1501.68632284074
 21
-527.6989144478704
 31
0.0
  0
LINE
  5
1CFC1
  8
1DIM
 10
1510.68632284074
 20
-527.6989144478704
 30
0.0
 11
1505.68632284074
 21
-527.6989144478704
 31
0.0
  0
LINE
  5
1CFC5
  8
1DIM
 10
1510.68632284074
 20
-505.8788210695331
 30
0.0
 11
1510.68632284074
 21
-528.6989144478704
 31
0.0
  0
LINE
  5
1CFC6
  8
1DIM
 10
1533.68632284074
 20
-505.8788210695331
 30
0.0
 11
1533.68632284074
 21
-528.6989144478704
 31
0.0
  0
LINE
  5
1CFC7
  8
1DIM
 10
1512.68632284074
 20
-527.6989144478704
 30
0.0
 11
1531.68632284074
 21
-527.6989144478704
 31
0.0
  0
LINE
  5
1CFCB
  8
1DIM
 10
1545.18632284074
 20
-513.878821069533
 30
0.0
 11
1563.007216106179
 21
-513.878821069533
 31
0.0
  0
LINE
  5
1CFCC
  8
1DIM
 10
1545.18632284074
 20
-403.8788210695331
 30
0.0
 11
1563.007216106179
 21
-403.8788210695331
 31
0.0
  0
LINE
  5
1CFCD
  8
1DIM
 10
1562.007216106179
 20
-511.878821069533
 30
0.0
 11
1562.007216106179
 21
-405.8788210695331
 31
0.0
  0
LINE
  5
1CFD1
  8
1DIM
 10
1532.68632284074
 20
-410.8788210695331
 30
0.0
 11
1557.34601388392
 21
-410.8788210695331
 31
0.0
  0
LINE
  5
1CFD2
  8
1DIM
 10
1532.68632284074
 20
-506.8788210695331
 30
0.0
 11
1557.34601388392
 21
-506.8788210695331
 31
0.0
  0
LINE
  5
1CFD3
  8
1DIM
 10
1556.34601388392
 20
-412.8788210695331
 30
0.0
 11
1556.34601388392
 21
-504.8788210695331
 31
0.0
  0
LINE
  5
1CFD7
  8
1DIM
 10
1545.68632284074
 20
-551.4749940304944
 30
0.0
 11
1563.007216106179
 21
-551.4749940304944
 31
0.0
  0
LINE
  5
1CFD8
  8
1DIM
 10
1529.542521234582
 20
-556.4749941406834
 30
0.0
 11
1563.007216106179
 21
-556.4749941406834
 31
0.0
  0
LINE
  5
1CFD9
  8
1DIM
 10
1562.007216106179
 20
-549.4749940304944
 30
0.0
 11
1562.007216106179
 21
-547.4749940304944
 31
0.0
  0
LINE
  5
1CFDA
  8
1DIM
 10
1562.007216106179
 20
-558.4749941406834
 30
0.0
 11
1562.007216106179
 21
-560.4749941406834
 31
0.0
  0
LINE
  5
1CFDB
  8
1DIM
 10
1562.007216106179
 20
-551.4749940304944
 30
0.0
 11
1562.007216106179
 21
-556.4749941406834
 31
0.0
  0
LINE
  5
1CFDF
  8
1DIM
 10
1490.564741683971
 20
-569.1019331079524
 30
0.0
 11
1522.957332820779
 21
-557.4561228164046
 31
0.0
1001
ACAD_DSTYLE_DIMRADIAL_EXTE
1070
   387
1070
     1
1070
   388
1040
0.0
1070
   390
1040
0.0
1001
ACAD
1000
DSTYLE
1002
{
1070
     3
1000
φ<>
1002
}
  0
LINE
  5
1CFE0
  8
1DIM
 10
1528.415312858167
 20
-555.493865464962
 30
0.0
 11
1530.297374939974
 21
-554.8172249989657
 31
0.0
1001
ACAD_DSTYLE_DIMRADIAL_EXTE
1070
   387
1070
     1
1070
   388
1040
0.0
1070
   390
1040
0.0
1001
ACAD
1000
DSTYLE
1002
{
1070
     3
1000
φ<>
1002
}
  0
LINE
  5
1CFE2
  8
1DIM
 10
1526.533250776359
 20
-556.1705059309585
 30
0.0
 11
1524.839394902586
 21
-556.7794823504081
 31
0.0
1001
ACAD_DSTYLE_DIMRADIAL_EXTE
1070
   387
1070
     1
1070
   388
1040
0.0
1070
   390
1040
0.0
1001
ACAD
1000
DSTYLE
1002
{
1070
     3
1000
φ<>
1002
}
  0
LINE
  5
1CFE5
  8
1DIM
 10
1605.923686009495
 20
-515.9943606005045
 30
0.0
 11
1605.923686009495
 21
-535.707281729976
 31
0.0
  0
LINE
  5
1CFE6
  8
1DIM
 10
1591.923686009495
 20
-510.8788363300526
 30
0.0
 11
1591.923686009495
 21
-535.707281729976
 31
0.0
  0
LINE
  5
1CFE7
  8
1DIM
 10
1603.923686009495
 20
-534.707281729976
 30
0.0
 11
1593.923686009495
 21
-534.707281729976
 31
0.0
  0
LINE
  5
1CFEB
  8
1DIM
 10
1627.020032773368
 20
-504.8788363300526
 30
0.0
 11
1627.020032773368
 21
-535.707281729976
 31
0.0
  0
LINE
  5
1CFEC
  8
1DIM
 10
1661.020032773368
 20
-504.8788363300526
 30
0.0
 11
1661.020032773368
 21
-535.707281729976
 31
0.0
  0
LINE
  5
1CFED
  8
1DIM
 10
1629.020032773368
 20
-534.707281729976
 30
0.0
 11
1659.020032773368
 21
-534.707281729976
 31
0.0
  0
LINE
  5
1CFF1
  8
1DIM
 10
1655.020032773368
 20
-510.8788363300526
 30
0.0
 11
1683.320200843582
 21
-510.8788363300526
 31
0.0
  0
LINE
  5
1CFF2
  8
1DIM
 10
1655.020032773368
 20
-406.8788363289598
 30
0.0
 11
1683.320200843582
 21
-406.8788363289598
 31
0.0
  0
LINE
  5
1CFF3
  8
1DIM
 10
1682.320200843582
 20
-508.8788363300526
 30
0.0
 11
1682.320200843582
 21
-408.8788363289598
 31
0.0
  0
LINE
  5
1CFF7
  8
1DIM
 10
1620.058641752235
 20
-515.9816942463008
 30
0.0
 11
1626.944380732211
 21
-510.083300978294
 31
0.0
1001
ACAD_DSTYLE_DIMRADIAL_EXTE
1070
   387
1070
     1
1070
   388
1040
3.141592653589794
1070
   390
1040
4.71238898038469
  0
LINE
  5
1CFF9
  8
1DIM
 10
1633.020032773368
 20
-504.8788363300524
 30
0.0
 11
1628.463293742501
 21
-508.7821848162337
 31
0.0
1001
ACAD_DSTYLE_DIMRADIAL_EXTE
1070
   387
1070
     1
1070
   388
1040
3.141592653589794
1070
   390
1040
4.71238898038469
  0
LINE
  5
1CFFC
  8
1DIM
 10
1462.51394261313
 20
-408.4026134885071
 30
0.0
 11
1471.528401126249
 21
-389.6285327963446
 31
0.0
  0
LINE
  5
1CFFD
  8
1DIM
 10
1471.528401126249
 20
-389.6285327963446
 30
0.0
 11
1518.795067792915
 21
-389.6285327963446
 31
0.0
  0
TEXT
  5
1CFFE
  8
1DIM
  6
CONTINUOUS
 10
1473.995067792915
 20
-388.9285327963446
 30
0.0
 40
3.5
  1
材質：亜鉛ダイキャスト
  0
LINE
  5
1D000
  8
1DIM
 10
1446.471984888176
 20
-408.3241860798552
 30
0.0
 11
1439.728777712076
 21
-389.6285327963446
 31
0.0
  0
LINE
  5
1D001
  8
1DIM
 10
1439.728777712076
 20
-389.6285327963446
 30
0.0
 11
1392.462111045409
 21
-389.6285327963446
 31
0.0
  0
TEXT
  5
1D002
  8
1DIM
  6
CONTINUOUS
 10
1392.228777712076
 20
-388.9285327963446
 30
0.0
 40
3.5
  1
材質：亜鉛ダイキャスト
  0
TEXT
  5
1D003
  8
1DIM
  6
CONTINUOUS
 10
1356.018557216009
 20
-369.231456249413
 30
0.0
 40
3.5
  1
※には色品番が入ります。
  0
LINE
  5
1D004
  8
0
  6
BYBLOCK
 10
1446.988623929693
 20
-569.8326672963778
 30
0.0
 11
1446.452725549693
 21
-571.8326672963778
 31
0.0
  0
LINE
  5
1D005
  8
0
  6
BYBLOCK
 10
1446.452725549693
 20
-571.8326672963778
 30
0.0
 11
1445.916827169693
 21
-569.8326672963778
 31
0.0
  0
LINE
  5
1D006
  8
0
  6
BYBLOCK
 10
1446.452725549693
 20
-571.8326672963778
 30
0.0
 11
1446.452725549693
 21
-569.8326672963778
 31
0.0
  0
LINE
  5
1D007
  8
0
  6
BYBLOCK
 10
1445.916827169693
 20
-575.2326672963779
 30
0.0
 11
1446.452725549693
 21
-573.2326672963779
 31
0.0
  0
LINE
  5
1D008
  8
0
  6
BYBLOCK
 10
1446.452725549693
 20
-573.2326672963779
 30
0.0
 11
1446.988623929693
 21
-575.2326672963779
 31
0.0
  0
LINE
  5
1D009
  8
0
  6
BYBLOCK
 10
1446.452725549693
 20
-573.2326672963779
 30
0.0
 11
1446.452725549693
 21
-575.2326672963779
 31
0.0
  0
TEXT
  5
1D00A
  8
1DIM
  6
CONTINUOUS
 10
1445.752725549693
 20
-589.1660006297113
 30
0.0
 40
3.5
  1
φ1.4
 50
90.0
1001
ACAD
1000
DSTYLE
1002
{
1070
     3
1000
φ<>
1002
}
  0
LINE
  5
1D00B
  8
0
  6
BYBLOCK
 10
1469.329069099416
 20
-586.7831239841341
 30
0.0
 11
1471.329069099416
 21
-587.3190223641342
 31
0.0
  0
LINE
  5
1D00C
  8
0
  6
BYBLOCK
 10
1471.329069099416
 20
-587.3190223641342
 30
0.0
 11
1469.329069099416
 21
-587.8549207441342
 31
0.0
  0
LINE
  5
1D00D
  8
0
  6
BYBLOCK
 10
1471.329069099416
 20
-587.3190223641342
 30
0.0
 11
1469.329069099416
 21
-587.3190223641342
 31
0.0
  0
LINE
  5
1D00E
  8
0
  6
BYBLOCK
 10
1460.329069099416
 20
-587.8549207441342
 30
0.0
 11
1458.329069099416
 21
-587.3190223641342
 31
0.0
  0
LINE
  5
1D00F
  8
0
  6
BYBLOCK
 10
1458.329069099416
 20
-587.3190223641342
 30
0.0
 11
1460.329069099416
 21
-586.7831239841341
 31
0.0
  0
LINE
  5
1D010
  8
0
  6
BYBLOCK
 10
1458.329069099416
 20
-587.3190223641342
 30
0.0
 11
1460.329069099416
 21
-587.3190223641342
 31
0.0
  0
TEXT
  5
1D011
  8
1DIM
  6
CONTINUOUS
 10
1462.495735766083
 20
-586.6190223641341
 30
0.0
 40
3.5
  1
13
  0
LINE
  5
1D012
  8
0
  6
BYBLOCK
 10
1363.675815134073
 20
-535.243180109976
 30
0.0
 11
1361.675815134073
 21
-534.707281729976
 31
0.0
  0
LINE
  5
1D013
  8
0
  6
BYBLOCK
 10
1361.675815134073
 20
-534.707281729976
 30
0.0
 11
1363.675815134073
 21
-534.1713833499759
 31
0.0
  0
LINE
  5
1D014
  8
0
  6
BYBLOCK
 10
1361.675815134073
 20
-534.707281729976
 30
0.0
 11
1363.675815134073
 21
-534.707281729976
 31
0.0
  0
LINE
  5
1D015
  8
0
  6
BYBLOCK
 10
1356.675815134073
 20
-534.1713833499759
 30
0.0
 11
1358.675815134073
 21
-534.707281729976
 31
0.0
  0
LINE
  5
1D016
  8
0
  6
BYBLOCK
 10
1358.675815134073
 20
-534.707281729976
 30
0.0
 11
1356.675815134073
 21
-535.243180109976
 31
0.0
  0
LINE
  5
1D017
  8
0
  6
BYBLOCK
 10
1358.675815134073
 20
-534.707281729976
 30
0.0
 11
1356.675815134073
 21
-534.707281729976
 31
0.0
  0
TEXT
  5
1D018
  8
1DIM
  6
CONTINUOUS
 10
1351.64248180074
 20
-534.007281729976
 30
0.0
 40
3.5
  1
3
  0
LINE
  5
1D019
  8
0
  6
BYBLOCK
 10
1363.675815134073
 20
-535.243180109976
 30
0.0
 11
1361.675815134073
 21
-534.707281729976
 31
0.0
  0
LINE
  5
1D01A
  8
0
  6
BYBLOCK
 10
1361.675815134073
 20
-534.707281729976
 30
0.0
 11
1363.675815134073
 21
-534.1713833499759
 31
0.0
  0
LINE
  5
1D01B
  8
0
  6
BYBLOCK
 10
1361.675815134073
 20
-534.707281729976
 30
0.0
 11
1363.675815134073
 21
-534.707281729976
 31
0.0
  0
LINE
  5
1D01C
  8
0
  6
BYBLOCK
 10
1393.675815134073
 20
-534.1713833499759
 30
0.0
 11
1395.675815134073
 21
-534.707281729976
 31
0.0
  0
LINE
  5
1D01D
  8
0
  6
BYBLOCK
 10
1395.675815134073
 20
-534.707281729976
 30
0.0
 11
1393.675815134073
 21
-535.243180109976
 31
0.0
  0
LINE
  5
1D01E
  8
0
  6
BYBLOCK
 10
1395.675815134073
 20
-534.707281729976
 30
0.0
 11
1393.675815134073
 21
-534.707281729976
 31
0.0
  0
TEXT
  5
1D01F
  8
1DIM
  6
CONTINUOUS
 10
1375.759148467406
 20
-534.007281729976
 30
0.0
 40
3.5
  1
34
  0
LINE
  5
1D020
  8
0
  6
BYBLOCK
 10
1393.675815134073
 20
-534.1713833499759
 30
0.0
 11
1395.675815134073
 21
-534.707281729976
 31
0.0
  0
LINE
  5
1D021
  8
0
  6
BYBLOCK
 10
1395.675815134073
 20
-534.707281729976
 30
0.0
 11
1393.675815134073
 21
-535.243180109976
 31
0.0
  0
LINE
  5
1D022
  8
0
  6
BYBLOCK
 10
1395.675815134073
 20
-534.707281729976
 30
0.0
 11
1393.675815134073
 21
-534.707281729976
 31
0.0
  0
LINE
  5
1D023
  8
0
  6
BYBLOCK
 10
1400.675815134073
 20
-535.243180109976
 30
0.0
 11
1398.675815134073
 21
-534.707281729976
 31
0.0
  0
LINE
  5
1D024
  8
0
  6
BYBLOCK
 10
1398.675815134073
 20
-534.707281729976
 30
0.0
 11
1400.675815134073
 21
-534.1713833499759
 31
0.0
  0
LINE
  5
1D025
  8
0
  6
BYBLOCK
 10
1398.675815134073
 20
-534.707281729976
 30
0.0
 11
1400.675815134073
 21
-534.707281729976
 31
0.0
  0
TEXT
  5
1D026
  8
1DIM
  6
CONTINUOUS
 10
1403.375815134073
 20
-534.007281729976
 30
0.0
 40
3.5
  1
3
  0
LINE
  5
1D027
  8
0
  6
BYBLOCK
 10
1417.805469141075
 20
-508.8788363300526
 30
0.0
 11
1417.269570761075
 21
-510.8788363300526
 31
0.0
  0
LINE
  5
1D028
  8
0
  6
BYBLOCK
 10
1417.269570761075
 20
-510.8788363300526
 30
0.0
 11
1416.733672381075
 21
-508.8788363300526
 31
0.0
  0
LINE
  5
1D029
  8
0
  6
BYBLOCK
 10
1417.269570761075
 20
-510.8788363300526
 30
0.0
 11
1417.269570761075
 21
-508.8788363300526
 31
0.0
  0
LINE
  5
1D02A
  8
0
  6
BYBLOCK
 10
1416.733672381075
 20
-515.878821069533
 30
0.0
 11
1417.269570761075
 21
-513.878821069533
 31
0.0
  0
LINE
  5
1D02B
  8
0
  6
BYBLOCK
 10
1417.269570761075
 20
-513.878821069533
 30
0.0
 11
1417.805469141075
 21
-515.878821069533
 31
0.0
  0
LINE
  5
1D02C
  8
0
  6
BYBLOCK
 10
1417.269570761075
 20
-513.878821069533
 30
0.0
 11
1417.269570761075
 21
-515.878821069533
 31
0.0
  0
TEXT
  5
1D02D
  8
1DIM
  6
CONTINUOUS
 10
1416.569570761075
 20
-520.9121544028662
 30
0.0
 40
3.5
  1
3
 50
90.0
  0
LINE
  5
1D02E
  8
0
  6
BYBLOCK
 10
1417.805469141075
 20
-508.8788363300526
 30
0.0
 11
1417.269570761075
 21
-510.8788363300526
 31
0.0
  0
LINE
  5
1D02F
  8
0
  6
BYBLOCK
 10
1417.269570761075
 20
-510.8788363300526
 30
0.0
 11
1416.733672381075
 21
-508.8788363300526
 31
0.0
  0
LINE
  5
1D030
  8
0
  6
BYBLOCK
 10
1417.269570761075
 20
-510.8788363300526
 30
0.0
 11
1417.269570761075
 21
-508.8788363300526
 31
0.0
  0
LINE
  5
1D031
  8
0
  6
BYBLOCK
 10
1416.733672381075
 20
-408.8788363289598
 30
0.0
 11
1417.269570761075
 21
-406.8788363289598
 31
0.0
  0
LINE
  5
1D032
  8
0
  6
BYBLOCK
 10
1417.269570761075
 20
-406.8788363289598
 30
0.0
 11
1417.805469141075
 21
-408.8788363289598
 31
0.0
  0
LINE
  5
1D033
  8
0
  6
BYBLOCK
 10
1417.269570761075
 20
-406.8788363289598
 30
0.0
 11
1417.269570761075
 21
-408.8788363289598
 31
0.0
  0
TEXT
  5
1D034
  8
1DIM
  6
CONTINUOUS
 10
1416.569570761075
 20
-462.6705029961727
 30
0.0
 40
3.5
  1
104
 50
90.0
  0
LINE
  5
1D035
  8
0
  6
BYBLOCK
 10
1416.733672381075
 20
-408.8788363289598
 30
0.0
 11
1417.269570761075
 21
-406.8788363289598
 31
0.0
  0
LINE
  5
1D036
  8
0
  6
BYBLOCK
 10
1417.269570761075
 20
-406.8788363289598
 30
0.0
 11
1417.805469141075
 21
-408.8788363289598
 31
0.0
  0
LINE
  5
1D037
  8
0
  6
BYBLOCK
 10
1417.269570761075
 20
-406.8788363289598
 30
0.0
 11
1417.269570761075
 21
-408.8788363289598
 31
0.0
  0
LINE
  5
1D038
  8
0
  6
BYBLOCK
 10
1417.805469141075
 20
-401.8788210695332
 30
0.0
 11
1417.269570761075
 21
-403.8788210695332
 31
0.0
  0
LINE
  5
1D039
  8
0
  6
BYBLOCK
 10
1417.269570761075
 20
-403.8788210695332
 30
0.0
 11
1416.733672381075
 21
-401.8788210695332
 31
0.0
  0
LINE
  5
1D03A
  8
0
  6
BYBLOCK
 10
1417.269570761075
 20
-403.8788210695332
 30
0.0
 11
1417.269570761075
 21
-401.8788210695332
 31
0.0
  0
TEXT
  5
1D03B
  8
1DIM
  6
CONTINUOUS
 10
1416.569570761075
 20
-399.1788210695331
 30
0.0
 40
3.5
  1
3
 50
90.0
  0
LINE
  5
1D03C
  8
0
  6
BYBLOCK
 10
1458.630578912135
 20
-534.1713833499759
 30
0.0
 11
1460.630578912135
 21
-534.707281729976
 31
0.0
  0
LINE
  5
1D03D
  8
0
  6
BYBLOCK
 10
1460.630578912135
 20
-534.707281729976
 30
0.0
 11
1458.630578912135
 21
-535.243180109976
 31
0.0
  0
LINE
  5
1D03E
  8
0
  6
BYBLOCK
 10
1460.630578912135
 20
-534.707281729976
 30
0.0
 11
1458.630578912135
 21
-534.707281729976
 31
0.0
  0
LINE
  5
1D03F
  8
0
  6
BYBLOCK
 10
1449.130578798486
 20
-535.243180109976
 30
0.0
 11
1447.130578798486
 21
-534.707281729976
 31
0.0
  0
LINE
  5
1D040
  8
0
  6
BYBLOCK
 10
1447.130578798486
 20
-534.707281729976
 30
0.0
 11
1449.130578798486
 21
-534.1713833499759
 31
0.0
  0
LINE
  5
1D041
  8
0
  6
BYBLOCK
 10
1447.130578798486
 20
-534.707281729976
 30
0.0
 11
1449.130578798486
 21
-534.707281729976
 31
0.0
  0
TEXT
  5
1D042
  8
1DIM
  6
CONTINUOUS
 10
1449.213912188644
 20
-534.0072817299761
 30
0.0
 40
3.5
  1
13.5
  0
LINE
  5
1D043
  8
0
  6
BYBLOCK
 10
1458.630578912135
 20
-534.1713833499759
 30
0.0
 11
1460.630578912135
 21
-534.707281729976
 31
0.0
  0
LINE
  5
1D044
  8
0
  6
BYBLOCK
 10
1460.630578912135
 20
-534.707281729976
 30
0.0
 11
1458.630578912135
 21
-535.243180109976
 31
0.0
  0
LINE
  5
1D045
  8
0
  6
BYBLOCK
 10
1460.630578912135
 20
-534.707281729976
 30
0.0
 11
1458.630578912135
 21
-534.707281729976
 31
0.0
  0
LINE
  5
1D046
  8
0
  6
BYBLOCK
 10
1463.630578912135
 20
-535.243180109976
 30
0.0
 11
1461.630578912135
 21
-534.707281729976
 31
0.0
  0
LINE
  5
1D047
  8
0
  6
BYBLOCK
 10
1461.630578912135
 20
-534.707281729976
 30
0.0
 11
1463.630578912135
 21
-534.1713833499759
 31
0.0
  0
LINE
  5
1D048
  8
0
  6
BYBLOCK
 10
1461.630578912135
 20
-534.707281729976
 30
0.0
 11
1463.630578912135
 21
-534.707281729976
 31
0.0
  0
TEXT
  5
1D049
  8
1DIM
  6
CONTINUOUS
 10
1466.163912245469
 20
-534.007281729976
 30
0.0
 40
3.5
  1
1
  0
LINE
  5
1D04A
  8
0
  6
BYBLOCK
 10
1507.68632284074
 20
-535.243180109976
 30
0.0
 11
1505.68632284074
 21
-534.707281729976
 31
0.0
  0
LINE
  5
1D04B
  8
0
  6
BYBLOCK
 10
1505.68632284074
 20
-534.707281729976
 30
0.0
 11
1507.68632284074
 21
-534.1713833499759
 31
0.0
  0
LINE
  5
1D04C
  8
0
  6
BYBLOCK
 10
1505.68632284074
 20
-534.707281729976
 30
0.0
 11
1507.68632284074
 21
-534.707281729976
 31
0.0
  0
LINE
  5
1D04D
  8
0
  6
BYBLOCK
 10
1543.68632284074
 20
-534.1713833499759
 30
0.0
 11
1545.68632284074
 21
-534.707281729976
 31
0.0
  0
LINE
  5
1D04E
  8
0
  6
BYBLOCK
 10
1545.68632284074
 20
-534.707281729976
 30
0.0
 11
1543.68632284074
 21
-535.243180109976
 31
0.0
  0
LINE
  5
1D04F
  8
0
  6
BYBLOCK
 10
1545.68632284074
 20
-534.707281729976
 30
0.0
 11
1543.68632284074
 21
-534.707281729976
 31
0.0
  0
TEXT
  5
1D050
  8
1DIM
  6
CONTINUOUS
 10
1522.988406174074
 20
-534.007281729976
 30
0.0
 40
3.5
  1
40
  0
LINE
  5
1D051
  8
0
  6
BYBLOCK
 10
1512.68632284074
 20
-528.2348128278704
 30
0.0
 11
1510.68632284074
 21
-527.6989144478704
 31
0.0
  0
LINE
  5
1D052
  8
0
  6
BYBLOCK
 10
1510.68632284074
 20
-527.6989144478704
 30
0.0
 11
1512.68632284074
 21
-527.1630160678703
 31
0.0
  0
LINE
  5
1D053
  8
0
  6
BYBLOCK
 10
1510.68632284074
 20
-527.6989144478704
 30
0.0
 11
1512.68632284074
 21
-527.6989144478704
 31
0.0
  0
LINE
  5
1D054
  8
0
  6
BYBLOCK
 10
1503.68632284074
 20
-527.1630160678703
 30
0.0
 11
1505.68632284074
 21
-527.6989144478704
 31
0.0
  0
LINE
  5
1D055
  8
0
  6
BYBLOCK
 10
1505.68632284074
 20
-527.6989144478704
 30
0.0
 11
1503.68632284074
 21
-528.2348128278704
 31
0.0
  0
LINE
  5
1D056
  8
0
  6
BYBLOCK
 10
1505.68632284074
 20
-527.6989144478704
 30
0.0
 11
1503.68632284074
 21
-527.6989144478704
 31
0.0
  0
TEXT
  5
1D057
  8
1DIM
  6
CONTINUOUS
 10
1507.019656174074
 20
-526.9989144478704
 30
0.0
 40
3.5
  1
5
  0
LINE
  5
1D058
  8
0
  6
BYBLOCK
 10
1512.68632284074
 20
-528.2348128278704
 30
0.0
 11
1510.68632284074
 21
-527.6989144478704
 31
0.0
  0
LINE
  5
1D059
  8
0
  6
BYBLOCK
 10
1510.68632284074
 20
-527.6989144478704
 30
0.0
 11
1512.68632284074
 21
-527.1630160678703
 31
0.0
  0
LINE
  5
1D05A
  8
0
  6
BYBLOCK
 10
1510.68632284074
 20
-527.6989144478704
 30
0.0
 11
1512.68632284074
 21
-527.6989144478704
 31
0.0
  0
LINE
  5
1D05B
  8
0
  6
BYBLOCK
 10
1531.68632284074
 20
-527.1630160678703
 30
0.0
 11
1533.68632284074
 21
-527.6989144478704
 31
0.0
  0
LINE
  5
1D05C
  8
0
  6
BYBLOCK
 10
1533.68632284074
 20
-527.6989144478704
 30
0.0
 11
1531.68632284074
 21
-528.2348128278704
 31
0.0
  0
LINE
  5
1D05D
  8
0
  6
BYBLOCK
 10
1533.68632284074
 20
-527.6989144478704
 30
0.0
 11
1531.68632284074
 21
-527.6989144478704
 31
0.0
  0
TEXT
  5
1D05E
  8
1DIM
  6
CONTINUOUS
 10
1519.269656174074
 20
-526.9989144478703
 30
0.0
 40
3.5
  1
23
  0
LINE
  5
1D05F
  8
0
  6
BYBLOCK
 10
1562.543114486179
 20
-511.878821069533
 30
0.0
 11
1562.007216106179
 21
-513.878821069533
 31
0.0
  0
LINE
  5
1D060
  8
0
  6
BYBLOCK
 10
1562.007216106179
 20
-513.878821069533
 30
0.0
 11
1561.471317726179
 21
-511.878821069533
 31
0.0
  0
LINE
  5
1D061
  8
0
  6
BYBLOCK
 10
1562.007216106179
 20
-513.878821069533
 30
0.0
 11
1562.007216106179
 21
-511.878821069533
 31
0.0
  0
LINE
  5
1D062
  8
0
  6
BYBLOCK
 10
1561.471317726179
 20
-405.8788210695331
 30
0.0
 11
1562.007216106179
 21
-403.8788210695331
 31
0.0
  0
LINE
  5
1D063
  8
0
  6
BYBLOCK
 10
1562.007216106179
 20
-403.8788210695331
 30
0.0
 11
1562.543114486179
 21
-405.8788210695331
 31
0.0
  0
LINE
  5
1D064
  8
0
  6
BYBLOCK
 10
1562.007216106179
 20
-403.8788210695331
 30
0.0
 11
1562.007216106179
 21
-405.8788210695331
 31
0.0
  0
TEXT
  5
1D065
  8
1DIM
  6
CONTINUOUS
 10
1561.307216106179
 20
-462.1600710695327
 30
0.0
 40
3.5
  1
110
 50
90.0
  0
LINE
  5
1D066
  8
0
  6
BYBLOCK
 10
1555.81011550392
 20
-412.8788210695331
 30
0.0
 11
1556.34601388392
 21
-410.8788210695331
 31
0.0
  0
LINE
  5
1D067
  8
0
  6
BYBLOCK
 10
1556.34601388392
 20
-410.8788210695331
 30
0.0
 11
1556.88191226392
 21
-412.8788210695331
 31
0.0
  0
LINE
  5
1D068
  8
0
  6
BYBLOCK
 10
1556.34601388392
 20
-410.8788210695331
 30
0.0
 11
1556.34601388392
 21
-412.8788210695331
 31
0.0
  0
LINE
  5
1D069
  8
0
  6
BYBLOCK
 10
1556.88191226392
 20
-504.8788210695331
 30
0.0
 11
1556.34601388392
 21
-506.8788210695331
 31
0.0
  0
LINE
  5
1D06A
  8
0
  6
BYBLOCK
 10
1556.34601388392
 20
-506.8788210695331
 30
0.0
 11
1555.81011550392
 21
-504.8788210695331
 31
0.0
  0
LINE
  5
1D06B
  8
0
  6
BYBLOCK
 10
1556.34601388392
 20
-506.8788210695331
 30
0.0
 11
1556.34601388392
 21
-504.8788210695331
 31
0.0
  0
TEXT
  5
1D06C
  8
1DIM
  6
CONTINUOUS
 10
1555.64601388392
 20
-461.79710810657
 30
0.0
 40
3.5
  1
96
 50
90.0
  0
LINE
  5
1D06D
  8
0
  6
BYBLOCK
 10
1562.543114486179
 20
-549.4749940304944
 30
0.0
 11
1562.007216106179
 21
-551.4749940304944
 31
0.0
  0
LINE
  5
1D06E
  8
0
  6
BYBLOCK
 10
1562.007216106179
 20
-551.4749940304944
 30
0.0
 11
1561.471317726179
 21
-549.4749940304944
 31
0.0
  0
LINE
  5
1D06F
  8
0
  6
BYBLOCK
 10
1562.007216106179
 20
-551.4749940304944
 30
0.0
 11
1562.007216106179
 21
-549.4749940304944
 31
0.0
  0
LINE
  5
1D070
  8
0
  6
BYBLOCK
 10
1561.471317726179
 20
-558.4749941406834
 30
0.0
 11
1562.007216106179
 21
-556.4749941406834
 31
0.0
  0
LINE
  5
1D071
  8
0
  6
BYBLOCK
 10
1562.007216106179
 20
-556.4749941406834
 30
0.0
 11
1562.543114486179
 21
-558.4749941406834
 31
0.0
  0
LINE
  5
1D072
  8
0
  6
BYBLOCK
 10
1562.007216106179
 20
-556.4749941406834
 30
0.0
 11
1562.007216106179
 21
-558.4749941406834
 31
0.0
  0
TEXT
  5
1D073
  8
1DIM
  6
CONTINUOUS
 10
1561.307216106179
 20
-555.1416607522553
 30
0.0
 40
3.5
  1
5
 50
90.0
  0
TEXT
  5
1D074
  8
1DIM
  6
CONTINUOUS
 10
1491.159161607003
 20
-568.1443618401717
 30
0.0
 40
3.5
  1
φ1.8
 50
19.77456659138242
1001
ACAD_DSTYLE_DIMRADIAL_EXTE
1070
   387
1070
     1
1070
   388
1040
0.0
1070
   390
1040
0.0
1001
ACAD
1000
DSTYLE
1002
{
1070
     3
1000
φ<>
1002
}
  0
LINE
  5
1D075
  8
0
  6
BYBLOCK
 10
1528.596618122951
 20
-555.998162475312
 30
0.0
 11
1526.533250776359
 21
-556.1705059309585
 31
0.0
  0
LINE
  5
1D076
  8
0
  6
BYBLOCK
 10
1526.533250776359
 20
-556.1705059309585
 30
0.0
 11
1528.234007593382
 21
-554.9895684546121
 31
0.0
  0
LINE
  5
1D077
  8
0
  6
BYBLOCK
 10
1526.533250776359
 20
-556.1705059309585
 30
0.0
 11
1528.415312858167
 21
-555.493865464962
 31
0.0
  0
LINE
  5
1D078
  8
0
  6
BYBLOCK
 10
1522.776027555994
 20
-556.9518258060546
 30
0.0
 11
1524.839394902586
 21
-556.7794823504081
 31
0.0
  0
LINE
  5
1D079
  8
0
  6
BYBLOCK
 10
1524.839394902586
 20
-556.7794823504081
 30
0.0
 11
1523.138638085564
 21
-557.9604198267544
 31
0.0
  0
LINE
  5
1D07A
  8
0
  6
BYBLOCK
 10
1524.839394902586
 20
-556.7794823504081
 30
0.0
 11
1522.957332820779
 21
-557.4561228164046
 31
0.0
  0
LINE
  5
1D07B
  8
0
  6
BYBLOCK
 10
1603.923686009495
 20
-534.1713833499759
 30
0.0
 11
1605.923686009495
 21
-534.707281729976
 31
0.0
  0
LINE
  5
1D07C
  8
0
  6
BYBLOCK
 10
1605.923686009495
 20
-534.707281729976
 30
0.0
 11
1603.923686009495
 21
-535.243180109976
 31
0.0
  0
LINE
  5
1D07D
  8
0
  6
BYBLOCK
 10
1605.923686009495
 20
-534.707281729976
 30
0.0
 11
1603.923686009495
 21
-534.707281729976
 31
0.0
  0
LINE
  5
1D07E
  8
0
  6
BYBLOCK
 10
1593.923686009495
 20
-535.243180109976
 30
0.0
 11
1591.923686009495
 21
-534.707281729976
 31
0.0
  0
LINE
  5
1D07F
  8
0
  6
BYBLOCK
 10
1591.923686009495
 20
-534.707281729976
 30
0.0
 11
1593.923686009495
 21
-534.1713833499759
 31
0.0
  0
LINE
  5
1D080
  8
0
  6
BYBLOCK
 10
1591.923686009495
 20
-534.707281729976
 30
0.0
 11
1593.923686009495
 21
-534.707281729976
 31
0.0
  0
TEXT
  5
1D081
  8
1DIM
  6
CONTINUOUS
 10
1596.590352676162
 20
-534.007281729976
 30
0.0
 40
3.5
  1
14
  0
LINE
  5
1D082
  8
0
  6
BYBLOCK
 10
1629.020032773368
 20
-535.243180109976
 30
0.0
 11
1627.020032773368
 21
-534.707281729976
 31
0.0
  0
LINE
  5
1D083
  8
0
  6
BYBLOCK
 10
1627.020032773368
 20
-534.707281729976
 30
0.0
 11
1629.020032773368
 21
-534.1713833499759
 31
0.0
  0
LINE
  5
1D084
  8
0
  6
BYBLOCK
 10
1627.020032773368
 20
-534.707281729976
 30
0.0
 11
1629.020032773368
 21
-534.707281729976
 31
0.0
  0
LINE
  5
1D085
  8
0
  6
BYBLOCK
 10
1659.020032773368
 20
-534.1713833499759
 30
0.0
 11
1661.020032773368
 21
-534.707281729976
 31
0.0
  0
LINE
  5
1D086
  8
0
  6
BYBLOCK
 10
1661.020032773368
 20
-534.707281729976
 30
0.0
 11
1659.020032773368
 21
-535.243180109976
 31
0.0
  0
LINE
  5
1D087
  8
0
  6
BYBLOCK
 10
1661.020032773368
 20
-534.707281729976
 30
0.0
 11
1659.020032773368
 21
-534.707281729976
 31
0.0
  0
TEXT
  5
1D088
  8
1DIM
  6
CONTINUOUS
 10
1641.103366106701
 20
-534.007281729976
 30
0.0
 40
3.5
  1
34
  0
LINE
  5
1D089
  8
0
  6
BYBLOCK
 10
1682.856099223582
 20
-508.8788363300526
 30
0.0
 11
1682.320200843582
 21
-510.8788363300526
 31
0.0
  0
LINE
  5
1D08A
  8
0
  6
BYBLOCK
 10
1682.320200843582
 20
-510.8788363300526
 30
0.0
 11
1681.784302463582
 21
-508.8788363300526
 31
0.0
  0
LINE
  5
1D08B
  8
0
  6
BYBLOCK
 10
1682.320200843582
 20
-510.8788363300526
 30
0.0
 11
1682.320200843582
 21
-508.8788363300526
 31
0.0
  0
LINE
  5
1D08C
  8
0
  6
BYBLOCK
 10
1681.784302463582
 20
-408.8788363289598
 30
0.0
 11
1682.320200843582
 21
-406.8788363289598
 31
0.0
  0
LINE
  5
1D08D
  8
0
  6
BYBLOCK
 10
1682.320200843582
 20
-406.8788363289598
 30
0.0
 11
1682.856099223582
 21
-408.8788363289598
 31
0.0
  0
LINE
  5
1D08E
  8
0
  6
BYBLOCK
 10
1682.320200843582
 20
-406.8788363289598
 30
0.0
 11
1682.320200843582
 21
-408.8788363289598
 31
0.0
  0
TEXT
  5
1D08F
  8
1DIM
  6
CONTINUOUS
 10
1681.620200843583
 20
-462.6705029961727
 30
0.0
 40
3.5
  1
104
 50
90.0
  0
TEXT
  5
1D090
  8
1DIM
  6
CONTINUOUS
 10
1620.071582607019
 20
-515.0488972093974
 30
0.0
 40
3.5
  1
R6
 50
40.58369201654279
1001
ACAD_DSTYLE_DIMRADIAL_EXTE
1070
   387
1070
     1
1070
   388
1040
3.141592653589794
1070
   390
1040
4.71238898038469
  0
LINE
  5
1D091
  8
0
  6
BYBLOCK
 10
1626.595747710492
 20
-509.6763094675066
 30
0.0
 11
1628.463293742501
 21
-508.7821848162337
 31
0.0
  0
LINE
  5
1D092
  8
0
  6
BYBLOCK
 10
1628.463293742501
 20
-508.7821848162337
 30
0.0
 11
1627.293013753932
 21
-510.4902924890814
 31
0.0
  0
LINE
  5
1D093
  8
0
  6
BYBLOCK
 10
1628.463293742501
 20
-508.7821848162337
 30
0.0
 11
1626.944380732212
 21
-510.083300978294
 31
0.0
  0
LINE
  5
1D094
  8
0
  6
BYBLOCK
 10
1462.997038245868
 20
-408.6345740095358
 30
0.0
 11
1461.648254155447
 21
-410.205550951159
 31
0.0
  0
LINE
  5
1D095
  8
0
  6
BYBLOCK
 10
1461.648254155447
 20
-410.205550951159
 30
0.0
 11
1462.030846980392
 21
-408.1706529674785
 31
0.0
  0
LINE
  5
1D096
  8
0
  6
BYBLOCK
 10
1461.648254155447
 20
-410.205550951159
 30
0.0
 11
1462.51394261313
 21
-408.4026134885071
 31
0.0
  0
LINE
  5
1D097
  8
0
  6
BYBLOCK
 10
1446.976095081537
 20
-408.1423620257896
 30
0.0
 11
1447.150561502144
 21
-410.205550951159
 31
0.0
  0
LINE
  5
1D098
  8
0
  6
BYBLOCK
 10
1447.150561502144
 20
-410.205550951159
 30
0.0
 11
1445.967874694816
 21
-408.5060101339208
 31
0.0
  0
LINE
  5
1D099
  8
0
  6
BYBLOCK
 10
1447.150561502144
 20
-410.205550951159
 30
0.0
 11
1446.471984888176
 21
-408.3241860798552
 31
0.0
  0
VIEWPORT
  5
57
 67
     1
  8
0
 10
0.0
 20
0.0
 30
0.0
 40
544.3287197231833
 41
297.0
 68
     1
 69
     1
1001
ACAD
1000
MVIEW
1002
{
1070
    16
1010
0.0
1020
0.0
1030
0.0
1010
0.0
1020
0.0
1030
1.0
1040
0.0
1040
297.0
1040
-4.171999999925333
1040
12.83903210976956
1040
50.0
1040
0.0
1040
0.0
1070
    16
1070
   100
1070
     0
1070
     1
1070
     0
1070
     0
1070
     0
1070
     0
1040
0.0
1040
0.0
1040
0.0
1040
10.0
1040
10.0
1040
10.0
1040
10.0
1070
     0
1002
{
1002
}
1002
}
  0
ENDSEC
  0
EOF
