  0
SECTION
  2
HEADER
  9
$ACADVER
  1
AC1012
  9
$DWGCODEPAGE
  3
ansi_932
  9
$INSBASE
 10
0.0
 20
0.0
 30
0.0
  9
$EXTMIN
 10
-62.5000179438523
 20
-30.99999999999199
 30
0.0
  9
$EXTMAX
 10
94.55838013648477
 20
173.0062367118497
 30
0.0
  9
$LIMMIN
 10
0.0
 20
0.0
  9
$LIMMAX
 10
420.0
 20
297.0
  9
$ORTHOMODE
 70
     0
  9
$REGENMODE
 70
     1
  9
$FILLMODE
 70
     1
  9
$QTEXTMODE
 70
     0
  9
$MIRRTEXT
 70
     0
  9
$DRAGMODE
 70
     2
  9
$LTSCALE
 40
0.5
  9
$OSMODE
 70
 16383
  9
$ATTMODE
 70
     1
  9
$TEXTSIZE
 40
4.0
  9
$TRACEWID
 40
1.0
  9
$TEXTSTYLE
  7
STANDARD
  9
$CLAYER
  8
1TEXT
  9
$CELTYPE
  6
BYLAYER
  9
$CECOLOR
 62
   256
  9
$CELTSCALE
 40
1.0
  9
$DELOBJ
 70
     1
  9
$DISPSILH
 70
     0
  9
$DIMSCALE
 40
1.0
  9
$DIMASZ
 40
2.0
  9
$DIMEXO
 40
0.0
  9
$DIMDLI
 40
7.0
  9
$DIMRND
 40
0.0
  9
$DIMDLE
 40
0.0
  9
$DIMEXE
 40
1.0
  9
$DIMTP
 40
0.0
  9
$DIMTM
 40
0.0
  9
$DIMTXT
 40
3.5
  9
$DIMCEN
 40
0.0
  9
$DIMTSZ
 40
0.0
  9
$DIMTOL
 70
     0
  9
$DIMLIM
 70
     0
  9
$DIMTIH
 70
     0
  9
$DIMTOH
 70
     0
  9
$DIMSE1
 70
     0
  9
$DIMSE2
 70
     0
  9
$DIMTAD
 70
     1
  9
$DIMZIN
 70
     8
  9
$DIMBLK
  1

  9
$DIMASO
 70
     1
  9
$DIMSHO
 70
     1
  9
$DIMPOST
  1
 
  9
$DIMAPOST
  1

  9
$DIMALT
 70
     0
  9
$DIMALTD
 70
     2
  9
$DIMALTF
 40
25.4
  9
$DIMLFAC
 40
1.0
  9
$DIMTOFL
 70
     1
  9
$DIMTVP
 40
0.0
  9
$DIMTIX
 70
     0
  9
$DIMSOXD
 70
     0
  9
$DIMSAH
 70
     1
  9
$DIMBLK1
  1
OPEN30
  9
$DIMBLK2
  1
OPEN30
  9
$DIMSTYLE
  2
NEWX10
  9
$DIMCLRD
 70
   256
  9
$DIMCLRE
 70
   256
  9
$DIMCLRT
 70
   201
  9
$DIMTFAC
 40
0.7
  9
$DIMGAP
 40
0.7
  9
$DIMJUST
 70
     0
  9
$DIMSD1
 70
     0
  9
$DIMSD2
 70
     0
  9
$DIMTOLJ
 70
     1
  9
$DIMTZIN
 70
     8
  9
$DIMALTZ
 70
     0
  9
$DIMALTTZ
 70
     0
  9
$DIMFIT
 70
     2
  9
$DIMUPT
 70
     0
  9
$DIMUNIT
 70
     2
  9
$DIMDEC
 70
     2
  9
$DIMTDEC
 70
     4
  9
$DIMALTU
 70
     2
  9
$DIMALTTD
 70
     2
  9
$DIMTXSTY
  7
STANDARD
  9
$DIMAUNIT
 70
     0
  9
$LUNITS
 70
     2
  9
$LUPREC
 70
     4
  9
$SKETCHINC
 40
1.0
  9
$FILLETRAD
 40
0.0
  9
$AUNITS
 70
     0
  9
$AUPREC
 70
     2
  9
$MENU
  1
acad
  9
$ELEVATION
 40
0.0
  9
$PELEVATION
 40
0.0
  9
$THICKNESS
 40
0.0
  9
$LIMCHECK
 70
     0
  9
$CHAMFERA
 40
10.0
  9
$CHAMFERB
 40
10.0
  9
$CHAMFERC
 40
20.0
  9
$CHAMFERD
 40
0.0
  9
$SKPOLY
 70
     0
  9
$TDCREATE
 40
2451318.621352917
  9
$TDUPDATE
 40
2458726.378130197
  9
$TDINDWG
 40
0.6743940856
  9
$TDUSRTIMER
 40
0.6743940856
  9
$USRTIMER
 70
     1
  9
$ANGBASE
 50
0.0
  9
$ANGDIR
 70
     0
  9
$PDMODE
 70
     0
  9
$PDSIZE
 40
0.0
  9
$PLINEWID
 40
0.0
  9
$COORDS
 70
     2
  9
$SPLFRAME
 70
     0
  9
$SPLINETYPE
 70
     6
  9
$SPLINESEGS
 70
     8
  9
$ATTDIA
 70
     0
  9
$ATTREQ
 70
     1
  9
$HANDLING
 70
     1
  9
$HANDSEED
  5
10723
  9
$SURFTAB1
 70
     6
  9
$SURFTAB2
 70
     6
  9
$SURFTYPE
 70
     6
  9
$SURFU
 70
     6
  9
$SURFV
 70
     6
  9
$UCSNAME
  2

  9
$UCSORG
 10
0.0
 20
0.0
 30
0.0
  9
$UCSXDIR
 10
1.0
 20
0.0
 30
0.0
  9
$UCSYDIR
 10
0.0
 20
1.0
 30
0.0
  9
$PUCSNAME
  2

  9
$PUCSORG
 10
0.0
 20
0.0
 30
0.0
  9
$PUCSXDIR
 10
1.0
 20
0.0
 30
0.0
  9
$PUCSYDIR
 10
0.0
 20
1.0
 30
0.0
  9
$USERI1
 70
     0
  9
$USERI2
 70
     0
  9
$USERI3
 70
     0
  9
$USERI4
 70
     0
  9
$USERI5
 70
     0
  9
$USERR1
 40
0.0
  9
$USERR2
 40
0.0
  9
$USERR3
 40
0.0
  9
$USERR4
 40
0.0
  9
$USERR5
 40
0.0
  9
$WORLDVIEW
 70
     1
  9
$SHADEDGE
 70
     3
  9
$SHADEDIF
 70
    70
  9
$TILEMODE
 70
     1
  9
$MAXACTVP
 70
    48
  9
$PINSBASE
 10
0.0
 20
0.0
 30
0.0
  9
$PLIMCHECK
 70
     0
  9
$PEXTMIN
 10
1.000000000000000E+20
 20
1.000000000000000E+20
 30
1.000000000000000E+20
  9
$PEXTMAX
 10
-1.000000000000000E+20
 20
-1.000000000000000E+20
 30
-1.000000000000000E+20
  9
$PLIMMIN
 10
0.0
 20
0.0
  9
$PLIMMAX
 10
420.0
 20
297.0
  9
$UNITMODE
 70
     0
  9
$VISRETAIN
 70
     1
  9
$PLINEGEN
 70
     0
  9
$PSLTSCALE
 70
     1
  9
$TREEDEPTH
 70
  3020
  9
$PICKSTYLE
 70
     1
  9
$CMLSTYLE
  2
STANDARD
  9
$CMLJUST
 70
     0
  9
$CMLSCALE
 40
20.0
  9
$SAVEIMAGES
 70
     1
  0
ENDSEC
  0
SECTION
  2
CLASSES
  0
CLASS
  1
DICTIONARYVAR
  2
AcDbDictionaryVar
  3
ObjectDBX Classes
 90
        0
280
     0
281
     0
  0
CLASS
  1
IDBUFFER
  2
AcDbIdBuffer
  3
ObjectDBX Classes
 90
    32768
280
     0
281
     0
  0
CLASS
  1
LWPOLYLINE
  2
AcDbPolyline
  3
ObjectDBX Classes
 90
    32768
280
     0
281
     1
  0
CLASS
  1
ACDBDICTIONARYWDFLT
  2
AcDbDictionaryWithDefault
  3
ObjectDBX Classes
 90
    32768
280
     0
281
     0
  0
CLASS
  1
ACDBPLACEHOLDER
  2
AcDbPlaceHolder
  3
ObjectDBX Classes
 90
        0
280
     0
281
     0
  0
CLASS
  1
LAYOUT
  2
AcDbLayout
  3
ObjectDBX Classes
 90
        0
280
     0
281
     0
  0
CLASS
  1
TABLESTYLE
  2
AcDbTableStyle
  3
ObjectDBX Classes
 90
     4095
280
     0
281
     0
  0
CLASS
  1
SORTENTSTABLE
  2
AcDbSortentsTable
  3
ObjectDBX Classes
 90
    32768
280
     0
281
     0
  0
CLASS
  1
MATERIAL
  2
AcDbMaterial
  3
ObjectDBX Classes
 90
     1153
280
     0
281
     0
  0
CLASS
  1
VISUALSTYLE
  2
AcDbVisualStyle
  3
ObjectDBX Classes
 90
     4095
280
     0
281
     0
  0
CLASS
  1
SCALE
  2
AcDbScale
  3
ObjectDBX Classes
 90
     1153
280
     0
281
     0
  0
CLASS
  1
MLEADERSTYLE
  2
AcDbMLeaderStyle
  3
ACDB_MLEADERSTYLE_CLASS
 90
     4095
280
     0
281
     0
  0
CLASS
  1
CELLSTYLEMAP
  2
AcDbCellStyleMap
  3
ObjectDBX Classes
 90
     1152
280
     0
281
     0
  0
CLASS
  1
SUN
  2
AcDbSun
  3
SCENEOE
 90
     1153
280
     0
281
     0
  0
CLASS
  1
XRECORD
  2
AcDbXrecord
  3
ObjectDBX Classes
 90
    32768
280
     0
281
     0
  0
CLASS
  1
HATCH
  2
AcDbHatch
  3
ObjectDBX Classes
 90
    32768
280
     0
281
     1
  0
ENDSEC
  0
SECTION
  2
TABLES
  0
TABLE
  2
VPORT
  5
8
330
0
100
AcDbSymbolTable
 70
     1
  0
VPORT
  5
CFAB
330
8
100
AcDbSymbolTableRecord
100
AcDbViewportTableRecord
  2
*ACTIVE
 70
     0
 10
0.0
 20
0.0
 11
1.0
 21
1.0
 12
16.02918109631624
 22
71.00311835592885
 13
0.0
 23
0.0
 14
10.0
 24
10.0
 15
10.0
 25
10.0
 16
0.0
 26
0.0
 36
1.0
 17
0.0
 27
0.0
 37
0.0
 40
219.0382752063985
 41
2.152122641509434
 42
50.0
 43
0.0
 44
0.0
 50
0.0
 51
0.0
 71
    16
 72
   100
 73
     1
 74
     1
 75
     0
 76
     0
 77
     0
 78
     0
1001
ACAD_NAV_VCDISPLAY
1070
     3
  0
ENDTAB
  0
TABLE
  2
LTYPE
  5
5
330
0
100
AcDbSymbolTable
 70
     2
  0
LTYPE
  5
12
330
5
100
AcDbSymbolTableRecord
100
AcDbLinetypeTableRecord
  2
BYBLOCK
 70
     0
  3

 72
    65
 73
     0
 40
0.0
  0
LTYPE
  5
13
330
5
100
AcDbSymbolTableRecord
100
AcDbLinetypeTableRecord
  2
BYLAYER
 70
     0
  3

 72
    65
 73
     0
 40
0.0
  0
LTYPE
  5
14
330
5
100
AcDbSymbolTableRecord
100
AcDbLinetypeTableRecord
  2
CONTINUOUS
 70
     0
  3
Solid line
 72
    65
 73
     0
 40
0.0
  0
LTYPE
  5
A61B
330
5
100
AcDbSymbolTableRecord
100
AcDbLinetypeTableRecord
  2
CENTER2
 70
     0
  3
Center (.5x) ___ _ ___ _ ___ _ ___ _ ___ _ ___
 72
    65
 73
     4
 40
28.575
 49
19.05
 74
     0
 49
-3.175
 74
     0
 49
3.175
 74
     0
 49
-3.175
 74
     0
  0
ENDTAB
  0
TABLE
  2
LAYER
  5
2
102
{ACAD_XDICTIONARY
360
D16C
102
}
330
0
100
AcDbSymbolTable
 70
     6
  0
LAYER
  5
E
102
{ACAD_XDICTIONARY
360
D0B5
102
}
330
2
100
AcDbSymbolTableRecord
100
AcDbLayerTableRecord
  2
0
 70
     0
 62
     7
  6
CONTINUOUS
  0
LAYER
  5
29
102
{ACAD_XDICTIONARY
360
D0B7
102
}
330
2
100
AcDbSymbolTableRecord
100
AcDbLayerTableRecord
  2
1CENTER
 70
     0
 62
     7
  6
CENTER2
  0
LAYER
  5
31
102
{ACAD_XDICTIONARY
360
D0B9
102
}
330
2
100
AcDbSymbolTableRecord
100
AcDbLayerTableRecord
  2
1TEXT
 70
     0
 62
     7
  6
CONTINUOUS
  0
LAYER
  5
243
102
{ACAD_XDICTIONARY
360
D0BF
102
}
330
2
100
AcDbSymbolTableRecord
100
AcDbLayerTableRecord
  2
01
 70
     0
 62
     1
  6
CONTINUOUS
  0
LAYER
  5
24E
102
{ACAD_XDICTIONARY
360
D0C5
102
}
330
2
100
AcDbSymbolTableRecord
100
AcDbLayerTableRecord
  2
1DIM
 70
     0
 62
     7
  6
CONTINUOUS
  0
LAYER
  5
E240
330
2
100
AcDbSymbolTableRecord
100
AcDbLayerTableRecord
  2
1HATCH
 70
     0
 62
     7
  6
CONTINUOUS
  0
ENDTAB
  0
TABLE
  2
STYLE
  5
3
330
0
100
AcDbSymbolTable
 70
     1
  0
STYLE
  5
F
330
3
100
AcDbSymbolTableRecord
100
AcDbTextStyleTableRecord
  2
STANDARD
 70
     0
 40
0.0
 41
1.0
 50
0.0
 71
     0
 42
4.0
  3
txt.shx
  4
extfont.shx
  0
ENDTAB
  0
TABLE
  2
VIEW
  5
6
330
0
100
AcDbSymbolTable
 70
     0
  0
ENDTAB
  0
TABLE
  2
UCS
  5
7
330
0
100
AcDbSymbolTable
 70
     0
  0
ENDTAB
  0
TABLE
  2
APPID
  5
9
330
0
100
AcDbSymbolTable
 70
    15
  0
APPID
  5
10
330
9
100
AcDbSymbolTableRecord
100
AcDbRegAppTableRecord
  2
ACAD
 70
     0
  0
APPID
  5
21
330
9
100
AcDbSymbolTableRecord
100
AcDbRegAppTableRecord
  2
DRAWINGVARIABLESXDATA
 70
     0
  0
APPID
  5
64
330
9
100
AcDbSymbolTableRecord
100
AcDbRegAppTableRecord
  2
CONTENTTABDATA
 70
     0
  0
APPID
  5
65
330
9
100
AcDbSymbolTableRecord
100
AcDbRegAppTableRecord
  2
CONTENTCURRENTTAB
 70
     0
  0
APPID
  5
66
330
9
100
AcDbSymbolTableRecord
100
AcDbRegAppTableRecord
  2
CONTENTBLOCKDESCRIPTION
 70
     0
  0
APPID
  5
67
330
9
100
AcDbSymbolTableRecord
100
AcDbRegAppTableRecord
  2
CONTENTBLOCKICON
 70
     0
  0
APPID
  5
68
330
9
100
AcDbSymbolTableRecord
100
AcDbRegAppTableRecord
  2
CONTENTLONGBLOCKNAME
 70
     0
  0
APPID
  5
2AE
330
9
100
AcDbSymbolTableRecord
100
AcDbRegAppTableRecord
  2
ACAD_PSEXT
 70
     0
  0
APPID
  5
D09F
330
9
100
AcDbSymbolTableRecord
100
AcDbRegAppTableRecord
  2
ACAD_MLEADERVER
 70
     0
  0
APPID
  5
D7D9
330
9
100
AcDbSymbolTableRecord
100
AcDbRegAppTableRecord
  2
ACAD_EXEMPT_FROM_CAD_STAND
 70
     0
  0
APPID
  5
DB3E
330
9
100
AcDbSymbolTableRecord
100
AcDbRegAppTableRecord
  2
ACAECLAYERSTANDARD
 70
     0
  0
APPID
  5
F0A5
330
9
100
AcDbSymbolTableRecord
100
AcDbRegAppTableRecord
  2
ACAD_DSTYLE_DIMRADIAL_EXTE
 70
     0
  0
APPID
  5
FC4A
330
9
100
AcDbSymbolTableRecord
100
AcDbRegAppTableRecord
  2
ACADANNOTATIVE
 70
     0
  0
APPID
  5
10371
330
9
100
AcDbSymbolTableRecord
100
AcDbRegAppTableRecord
  2
ACAD_NAV_VCDISPLAY
 70
     0
  0
APPID
  5
10372
330
9
100
AcDbSymbolTableRecord
100
AcDbRegAppTableRecord
  2
ACDBBLOCKREPETAG
 70
     0
  0
ENDTAB
  0
TABLE
  2
DIMSTYLE
  5
A
330
0
100
AcDbSymbolTable
 70
     1
  0
DIMSTYLE
105
48
330
A
100
AcDbSymbolTableRecord
100
AcDbDimStyleTableRecord
  2
NEWX10
 70
     0
  3
 
  4

  5

  6
OPEN30
  7
OPEN30
 40
1.0
 41
2.0
 42
0.0
 43
7.0
 44
1.0
 45
0.0
 46
0.0
 47
0.0
 48
0.0
140
3.5
141
0.0
142
0.0
143
25.4
144
1.0
145
0.0
146
0.7
147
0.7
 71
     0
 72
     0
 73
     0
 74
     0
 75
     0
 76
     0
 77
     1
 78
     8
170
     0
171
     2
172
     1
173
     1
174
     0
175
     0
176
   256
177
   256
178
   201
179
     2
270
     2
271
     2
272
     4
273
     2
274
     2
340
F
275
     0
280
     0
281
     0
282
     0
283
     1
284
     8
285
     0
286
     0
287
     2
288
     0
  0
ENDTAB
  0
TABLE
  2
BLOCK_RECORD
  5
1
330
0
100
AcDbSymbolTable
 70
     8
  0
BLOCK_RECORD
  5
18
102
{ACAD_XDICTIONARY
360
88F
102
}
330
1
100
AcDbSymbolTableRecord
100
AcDbBlockTableRecord
  2
*MODEL_SPACE
  0
BLOCK_RECORD
  5
15
330
1
100
AcDbSymbolTableRecord
100
AcDbBlockTableRecord
  2
*PAPER_SPACE
  0
BLOCK_RECORD
  5
42
330
1
100
AcDbSymbolTableRecord
100
AcDbBlockTableRecord
  2
_OPEN30
  0
BLOCK_RECORD
  5
FF19
330
1
100
AcDbSymbolTableRecord
100
AcDbBlockTableRecord
  2
A3WAKUKAWAJUN2017_HYOUDAI_
  0
BLOCK_RECORD
  5
10583
330
1
100
AcDbSymbolTableRecord
100
AcDbBlockTableRecord
  2
*X21
  0
BLOCK_RECORD
  5
105D1
330
1
100
AcDbSymbolTableRecord
100
AcDbBlockTableRecord
  2
*X22
  0
BLOCK_RECORD
  5
10623
330
1
100
AcDbSymbolTableRecord
100
AcDbBlockTableRecord
  2
*X23
  0
BLOCK_RECORD
  5
10674
330
1
100
AcDbSymbolTableRecord
100
AcDbBlockTableRecord
  2
*X24
  0
BLOCK_RECORD
  5
106B1
330
1
100
AcDbSymbolTableRecord
100
AcDbBlockTableRecord
  2
*X25
  0
BLOCK_RECORD
  5
106F1
330
1
100
AcDbSymbolTableRecord
100
AcDbBlockTableRecord
  2
*X26
  0
ENDTAB
  0
ENDSEC
  0
SECTION
  2
BLOCKS
  0
BLOCK
  5
19
330
18
100
AcDbEntity
  8
0
100
AcDbBlockBegin
  2
*MODEL_SPACE
 70
     0
 10
0.0
 20
0.0
 30
0.0
  3
*MODEL_SPACE
  1

  0
ENDBLK
  5
1A
330
18
100
AcDbEntity
  8
0
100
AcDbBlockEnd
  0
BLOCK
  5
16
330
15
100
AcDbEntity
 67
     1
  8
0
100
AcDbBlockBegin
  2
*PAPER_SPACE
 70
     0
 10
0.0
 20
0.0
 30
0.0
  3
*PAPER_SPACE
  1

  0
ENDBLK
  5
17
330
15
100
AcDbEntity
 67
     1
  8
0
100
AcDbBlockEnd
  0
BLOCK
  5
43
330
42
100
AcDbEntity
  8
0
100
AcDbBlockBegin
  2
_OPEN30
 70
     0
 10
0.0
 20
0.0
 30
0.0
  3
_OPEN30
  1

  0
LINE
  5
44
330
42
100
AcDbEntity
  8
0
  6
BYBLOCK
 62
     0
100
AcDbLine
 10
-1.0
 20
0.26794919
 30
0.0
 11
0.0
 21
0.0
 31
0.0
  0
LINE
  5
45
330
42
100
AcDbEntity
  8
0
  6
BYBLOCK
 62
     0
100
AcDbLine
 10
0.0
 20
0.0
 30
0.0
 11
-1.0
 21
-0.26794919
 31
0.0
  0
LINE
  5
46
330
42
100
AcDbEntity
  8
0
  6
BYBLOCK
 62
     0
100
AcDbLine
 10
0.0
 20
0.0
 30
0.0
 11
-1.0
 21
0.0
 31
0.0
  0
ENDBLK
  5
47
330
42
100
AcDbEntity
  8
0
100
AcDbBlockEnd
  0
BLOCK
  5
FF1A
330
FF19
100
AcDbEntity
  8
0
100
AcDbBlockBegin
  2
A3WAKUKAWAJUN2017_HYOUDAI_
 70
     0
 10
0.0
 20
0.0
 30
0.0
  3
A3WAKUKAWAJUN2017_HYOUDAI_
  1

  0
LINE
  5
FF1B
330
FF19
100
AcDbEntity
  8
0
100
AcDbLine
 10
13.26299999998673
 20
-0.0001000000000317
 30
0.0
 11
9.236999999990758
 21
8.999899999990987
 31
0.0
1001
ACAD
1000
ASC_BOUNDS
1002
{
1070
    19
1005
FF5C
1002
}
  0
LINE
  5
FF1C
330
FF19
100
AcDbEntity
  8
0
100
AcDbLine
 10
5.657999999994331
 20
0.9999999999989768
 30
0.0
 11
9.236999999990758
 21
8.999999999991019
 31
0.0
1001
ACAD
1000
ASC_BOUNDS
1002
{
1070
    19
1005
FF5C
1002
}
  0
LINE
  5
FF1D
330
FF19
100
AcDbEntity
  8
0
100
AcDbLine
 10
18.59199999998134
 20
-0.2368999999997641
 30
0.0
 11
16.46099999998353
 21
5.432899999994561
 31
0.0
1001
ACAD
1000
ASC_BOUNDS
1002
{
1070
    19
1005
FF5D
1002
}
  0
LINE
  5
FF1E
330
FF19
100
AcDbEntity
  8
0
100
AcDbLine
 10
18.59199999998134
 20
-0.2368999999997641
 30
0.0
 11
22.38199999997767
 21
8.763099999991255
 31
0.0
1001
ACAD
1000
ASC_BOUNDS
1002
{
1070
    19
1005
FF5D
1002
}
  0
LINE
  5
FF1F
330
FF19
100
AcDbEntity
  8
0
100
AcDbLine
 10
14.32899999998563
 20
-0.2368999999997641
 30
0.0
 11
16.46099999998353
 21
5.432899999994561
 31
0.0
1001
ACAD
1000
ASC_BOUNDS
1002
{
1070
    19
1005
FF5D
1002
}
  0
LINE
  5
FF20
330
FF19
100
AcDbEntity
  8
0
100
AcDbLine
 10
14.32899999998563
 20
-0.2368999999997641
 30
0.0
 11
10.53899999998941
 21
8.763099999991255
 31
0.0
1001
ACAD
1000
ASC_BOUNDS
1002
{
1070
    19
1005
FF5D
1002
}
  0
LINE
  5
FF21
330
FF19
100
AcDbEntity
  8
0
100
AcDbLine
 10
19.53899999998043
 20
-0.0001000000000317
 30
0.0
 11
23.56599999997638
 21
8.999899999990987
 31
0.0
1001
ACAD
1000
ASC_BOUNDS
1002
{
1070
    19
1005
FF5E
1002
}
  0
LINE
  5
FF22
330
FF19
100
AcDbEntity
  8
0
100
AcDbLine
 10
26.97358892824991
 20
1.383099999991202
 30
0.0
 11
23.56599999997638
 21
8.999899999990987
 31
0.0
1001
ACAD
1000
ASC_BOUNDS
1002
{
1070
    19
1005
FF5E
1002
}
  0
LINE
  5
FF23
330
FF19
100
AcDbEntity
  8
0
100
AcDbLine
 10
5.657999999994331
 20
0.9999999999989768
 30
0.0
 11
3.181999999996833
 21
4.668599999995308
 31
0.0
1001
ACAD
1000
ASC_BOUNDS
1002
{
1070
    19
1005
FF5C
1002
}
  0
LINE
  5
FF24
330
FF19
100
AcDbEntity
  8
0
100
AcDbLine
 10
4.617999999995391
 20
-0.0001000000000317
 30
0.0
 11
1.420999999998571
 21
4.736799999995242
 31
0.0
1001
ACAD
1000
ASC_BOUNDS
1002
{
1070
    19
1005
FF5C
1002
}
  0
LINE
  5
FF25
330
FF19
100
AcDbEntity
  8
0
100
AcDbLine
 10
1.420999999998571
 20
8.763099999991255
 30
0.0
 11
1.420999999998571
 21
0.0
 31
0.0
1001
ACAD
1000
ASC_BOUNDS
1002
{
1070
    19
1005
FF61
1002
}
  0
LINE
  5
FF26
330
FF19
100
AcDbEntity
  8
0
100
AcDbLine
 10
0.0
 20
8.763099999991255
 30
0.0
 11
0.0
 21
0.0
 31
0.0
1001
ACAD
1000
ASC_BOUNDS
1002
{
1070
    19
1005
FF61
1002
}
  0
LINE
  5
FF27
330
FF19
100
AcDbEntity
  8
0
100
AcDbLine
 10
6.766999999993232
 20
-0.0001000000000317
 30
0.0
 11
7.826999999992154
 21
2.368399999997621
 31
0.0
1001
ACAD
1000
ASC_BOUNDS
1002
{
1070
    19
1005
FF5C
1002
}
  0
LINE
  5
FF28
330
FF19
100
AcDbEntity
  8
0
100
AcDbLine
 10
0.0
 20
0.0
 30
0.0
 11
1.420999999998571
 21
0.0
 31
0.0
1001
ACAD
1000
ASC_BOUNDS
1002
{
1070
    19
1005
FF61
1002
}
  0
LINE
  5
FF29
330
FF19
100
AcDbEntity
  8
0
100
AcDbLine
 10
4.617999999995391
 20
0.0
 30
0.0
 11
6.766999999993232
 21
0.0
 31
0.0
1001
ACAD
1000
ASC_BOUNDS
1002
{
1070
    19
1005
FF5C
1002
}
  0
LINE
  5
FF2A
330
FF19
100
AcDbEntity
  8
0
100
AcDbLine
 10
11.70599999998831
 20
-0.0001000000000317
 30
0.0
 11
10.64699999998936
 21
2.368399999997621
 31
0.0
1001
ACAD
1000
ASC_BOUNDS
1002
{
1070
    19
1005
FF5C
1002
}
  0
LINE
  5
FF2B
330
FF19
100
AcDbEntity
  8
0
100
AcDbLine
 10
7.826999999992154
 20
2.368399999997621
 30
0.0
 11
10.64699999998936
 21
2.368399999997621
 31
0.0
1001
ACAD
1000
ASC_BOUNDS
1002
{
1070
    19
1005
FF5C
1002
}
  0
LINE
  5
FF2C
330
FF19
100
AcDbEntity
  8
0
100
AcDbLine
 10
11.70599999998831
 20
0.0
 30
0.0
 11
13.26299999998673
 21
0.0
 31
0.0
1001
ACAD
1000
ASC_BOUNDS
1002
{
1070
    19
1005
FF5C
1002
}
  0
LINE
  5
FF2D
330
FF19
100
AcDbEntity
  8
0
100
AcDbLine
 10
22.15599999997789
 20
2.368399999997621
 30
0.0
 11
24.97599999997499
 21
2.368399999997621
 31
0.0
1001
ACAD
1000
ASC_BOUNDS
1002
{
1070
    19
1005
FF5E
1002
}
  0
LINE
  5
FF2E
330
FF19
100
AcDbEntity
  8
0
100
AcDbLine
 10
19.53899999998043
 20
0.0
 30
0.0
 11
21.09599999997886
 21
0.0
 31
0.0
1001
ACAD
1000
ASC_BOUNDS
1002
{
1070
    19
1005
FF5E
1002
}
  0
LINE
  5
FF2F
330
FF19
100
AcDbEntity
  8
0
100
AcDbLine
 10
21.09599999997886
 20
-0.0001000000000317
 30
0.0
 11
22.15599999997789
 21
2.368399999997621
 31
0.0
1001
ACAD
1000
ASC_BOUNDS
1002
{
1070
    19
1005
FF5E
1002
}
  0
LINE
  5
FF30
330
FF19
100
AcDbEntity
  8
0
100
AcDbLine
 10
26.02015566812236
 20
0.0330999999912365
 30
0.0
 11
24.97599999997499
 21
2.368399999997621
 31
0.0
1001
ACAD
1000
ASC_BOUNDS
1002
{
1070
    19
1005
FF5E
1002
}
  0
LINE
  5
FF31
330
FF19
100
AcDbEntity
  8
0
100
AcDbLine
 10
14.32399999998563
 20
3.315799999996671
 30
0.0
 11
16.46099999998353
 21
8.999899999990987
 31
0.0
1001
ACAD
1000
ASC_BOUNDS
1002
{
1070
    19
1005
FF5D
1002
}
  0
LINE
  5
FF32
330
FF19
100
AcDbEntity
  8
0
100
AcDbLine
 10
6.432999999993513
 20
8.763099999991255
 30
0.0
 11
3.181999999996833
 21
4.668599999995308
 31
0.0
1001
ACAD
1000
ASC_BOUNDS
1002
{
1070
    19
1005
FF5C
1002
}
  0
LINE
  5
FF33
330
FF19
100
AcDbEntity
  8
0
100
AcDbLine
 10
4.617999999995391
 20
8.763099999991255
 30
0.0
 11
1.420999999998571
 21
4.736799999995242
 31
0.0
1001
ACAD
1000
ASC_BOUNDS
1002
{
1070
    19
1005
FF5C
1002
}
  0
LINE
  5
FF34
330
FF19
100
AcDbEntity
  8
0
100
AcDbLine
 10
0.0
 20
8.763099999991255
 30
0.0
 11
1.420999999998571
 21
8.763099999991255
 31
0.0
1001
ACAD
1000
ASC_BOUNDS
1002
{
1070
    19
1005
FF61
1002
}
  0
LINE
  5
FF35
330
FF19
100
AcDbEntity
  8
0
100
AcDbLine
 10
4.617999999995391
 20
8.763099999991255
 30
0.0
 11
6.432999999993513
 21
8.763099999991255
 31
0.0
1001
ACAD
1000
ASC_BOUNDS
1002
{
1070
    19
1005
FF5C
1002
}
  0
LINE
  5
FF36
330
FF19
100
AcDbEntity
  8
0
100
AcDbLine
 10
14.32399999998563
 20
3.315799999996671
 30
0.0
 11
12.02999999998792
 21
8.763099999991255
 31
0.0
1001
ACAD
1000
ASC_BOUNDS
1002
{
1070
    19
1005
FF5D
1002
}
  0
LINE
  5
FF37
330
FF19
100
AcDbEntity
  8
0
100
AcDbLine
 10
10.06399999998996
 20
3.670999999996297
 30
0.0
 11
9.236999999990758
 21
5.5200999999945
 31
0.0
1001
ACAD
1000
ASC_BOUNDS
1002
{
1070
    19
1005
FF5C
1002
}
  0
LINE
  5
FF38
330
FF19
100
AcDbEntity
  8
0
100
AcDbLine
 10
8.409999999991555
 20
3.670999999996297
 30
0.0
 11
9.236999999990758
 21
5.5200999999945
 31
0.0
1001
ACAD
1000
ASC_BOUNDS
1002
{
1070
    19
1005
FF5C
1002
}
  0
LINE
  5
FF39
330
FF19
100
AcDbEntity
  8
0
100
AcDbLine
 10
8.409999999991555
 20
3.670999999996297
 30
0.0
 11
10.06399999998996
 21
3.670999999996297
 31
0.0
1001
ACAD
1000
ASC_BOUNDS
1002
{
1070
    19
1005
FF5C
1002
}
  0
LINE
  5
FF3A
330
FF19
100
AcDbEntity
  8
0
100
AcDbLine
 10
10.53899999998941
 20
8.763099999991255
 30
0.0
 11
12.02999999998792
 21
8.763099999991255
 31
0.0
1001
ACAD
1000
ASC_BOUNDS
1002
{
1070
    19
1005
FF5D
1002
}
  0
LINE
  5
FF3B
330
FF19
100
AcDbEntity
  8
0
100
AcDbLine
 10
22.7389999999773
 20
3.670999999996297
 30
0.0
 11
23.56599999997638
 21
5.5200999999945
 31
0.0
1001
ACAD
1000
ASC_BOUNDS
1002
{
1070
    19
1005
FF5E
1002
}
  0
LINE
  5
FF3C
330
FF19
100
AcDbEntity
  8
0
100
AcDbLine
 10
22.7389999999773
 20
3.670999999996297
 30
0.0
 11
24.39299999997559
 21
3.670999999996297
 31
0.0
1001
ACAD
1000
ASC_BOUNDS
1002
{
1070
    19
1005
FF5E
1002
}
  0
LINE
  5
FF3D
330
FF19
100
AcDbEntity
  8
0
100
AcDbLine
 10
18.59799999998143
 20
3.315799999996671
 30
0.0
 11
20.89099999997916
 21
8.763099999991255
 31
0.0
1001
ACAD
1000
ASC_BOUNDS
1002
{
1070
    19
1005
FF5D
1002
}
  0
LINE
  5
FF3E
330
FF19
100
AcDbEntity
  8
0
100
AcDbLine
 10
18.59799999998143
 20
3.315799999996671
 30
0.0
 11
16.46099999998353
 21
8.999899999990987
 31
0.0
1001
ACAD
1000
ASC_BOUNDS
1002
{
1070
    19
1005
FF5D
1002
}
  0
LINE
  5
FF3F
330
FF19
100
AcDbEntity
  8
0
100
AcDbLine
 10
20.89099999997916
 20
8.763099999991255
 30
0.0
 11
22.38199999997767
 21
8.763099999991255
 31
0.0
1001
ACAD
1000
ASC_BOUNDS
1002
{
1070
    19
1005
FF5D
1002
}
  0
LINE
  5
FF40
330
FF19
100
AcDbEntity
  8
0
100
AcDbLine
 10
24.39299999997559
 20
3.670999999996297
 30
0.0
 11
23.56599999997638
 21
5.5200999999945
 31
0.0
1001
ACAD
1000
ASC_BOUNDS
1002
{
1070
    19
1005
FF5E
1002
}
  0
LINE
  5
FF41
330
FF19
100
AcDbEntity
  8
0
100
AcDbLine
 10
44.99999999995498
 20
-0.2368999999997641
 30
0.0
 11
40.02599999995994
 21
5.341799999994635
 31
0.0
1001
ACAD
1000
ASC_BOUNDS
1002
{
1070
    19
1005
FF60
1002
}
  0
LINE
  5
FF42
330
FF19
100
AcDbEntity
  8
0
100
AcDbLine
 10
40.02599999995994
 20
5.341799999994635
 30
0.0
 11
40.02599999995994
 21
0.0
 31
0.0
1001
ACAD
1000
ASC_BOUNDS
1002
{
1070
    19
1005
FF60
1002
}
  0
LINE
  5
FF43
330
FF19
100
AcDbEntity
  8
0
100
AcDbLine
 10
38.60499999996136
 20
8.999999999991019
 30
0.0
 11
38.60499999996136
 21
0.0
 31
0.0
1001
ACAD
1000
ASC_BOUNDS
1002
{
1070
    19
1005
FF60
1002
}
  0
LINE
  5
FF44
330
FF19
100
AcDbEntity
  8
0
100
AcDbLine
 10
44.99999999995498
 20
8.763099999991255
 30
0.0
 11
44.99999999995498
 21
-0.2368999999997641
 31
0.0
1001
ACAD
1000
ASC_BOUNDS
1002
{
1070
    19
1005
FF60
1002
}
  0
LINE
  5
FF45
330
FF19
100
AcDbEntity
  8
0
100
AcDbLine
 10
38.60499999996136
 20
0.0
 30
0.0
 11
40.02599999995994
 21
0.0
 31
0.0
1001
ACAD
1000
ASC_BOUNDS
1002
{
1070
    19
1005
FF60
1002
}
  0
LINE
  5
FF46
330
FF19
100
AcDbEntity
  8
0
100
AcDbLine
 10
43.57899999995641
 20
3.421199999996588
 30
0.0
 11
38.60499999996136
 21
8.999899999990987
 31
0.0
1001
ACAD
1000
ASC_BOUNDS
1002
{
1070
    19
1005
FF60
1002
}
  0
LINE
  5
FF47
330
FF19
100
AcDbEntity
  8
0
100
AcDbLine
 10
43.57899999995641
 20
8.763099999991255
 30
0.0
 11
43.57899999995641
 21
3.421199999996588
 31
0.0
1001
ACAD
1000
ASC_BOUNDS
1002
{
1070
    19
1005
FF60
1002
}
  0
LINE
  5
FF48
330
FF19
100
AcDbEntity
  8
0
100
AcDbLine
 10
43.57899999995641
 20
8.763099999991255
 30
0.0
 11
44.99999999995498
 21
8.763099999991255
 31
0.0
1001
ACAD
1000
ASC_BOUNDS
1002
{
1070
    19
1005
FF60
1002
}
  0
LINE
  5
FF49
330
FF19
100
AcDbEntity
  8
0
100
AcDbLine
 10
37.67199999996831
 20
8.763099999991255
 30
0.0
 11
36.23199999996837
 21
8.763099999991255
 31
0.0
  0
LINE
  5
FF4A
330
FF19
100
AcDbEntity
  8
0
100
AcDbLine
 10
31.64199999996833
 20
8.763099999991255
 30
0.0
 11
31.64199999996833
 21
2.481619422925121
 31
0.0
  0
LINE
  5
FF4B
330
FF19
100
AcDbEntity
  8
0
100
AcDbLine
 10
37.67199999996831
 20
8.763099999991255
 30
0.0
 11
37.67199999996831
 21
2.481619422925121
 31
0.0
  0
LINE
  5
FF4C
330
FF19
100
AcDbEntity
  8
0
100
AcDbLine
 10
36.23199999996837
 20
8.763099999991255
 30
0.0
 11
36.23199999996837
 21
2.481619422925064
 31
0.0
  0
LINE
  5
FF4D
330
FF19
100
AcDbEntity
  8
0
100
AcDbLine
 10
33.08199999996839
 20
8.763099999991255
 30
0.0
 11
33.08199999996839
 21
2.481619422925121
 31
0.0
  0
ARC
  5
FF4E
330
FF19
100
AcDbEntity
  8
0
100
AcDbCircle
 10
34.65699999996832
 20
3.183099999991214
 30
0.0
 40
3.420000000000007
100
AcDbArc
 50
240.0000000000255
 51
299.9999999999766
  0
ARC
  5
FF4F
330
FF19
100
AcDbEntity
  8
0
100
AcDbCircle
 10
34.65699999996832
 20
3.183099999991214
 30
0.0
 40
1.97999999999999
100
AcDbArc
 50
240.000000000026
 51
299.9999999999703
  0
LINE
  5
FF50
330
FF19
100
AcDbEntity
  8
0
100
AcDbLine
 10
33.08199999996828
 20
8.763099999991255
 30
0.0
 11
31.64199999996833
 21
8.763099999991255
 31
0.0
  0
ARC
  5
FF51
330
FF19
100
AcDbEntity
  8
0
100
AcDbCircle
 10
35.06199999996829
 20
2.481619422925064
 30
0.0
 40
1.17
100
AcDbArc
 50
299.9999999999699
 51
0.0
  0
ARC
  5
FF52
330
FF19
100
AcDbEntity
  8
0
100
AcDbCircle
 10
34.25199999996835
 20
2.481619422925121
 30
0.0
 40
1.17
100
AcDbArc
 50
180.0
 51
240.0000000000238
  0
ARC
  5
FF53
330
FF19
100
AcDbEntity
  8
0
100
AcDbCircle
 10
35.06199999996841
 20
2.481619422925121
 30
0.0
 40
2.61
100
AcDbArc
 50
299.9999999999756
 51
0.0
  0
ARC
  5
FF54
330
FF19
100
AcDbEntity
  8
0
100
AcDbCircle
 10
34.25199999996835
 20
2.481619422925121
 30
0.0
 40
2.61
100
AcDbArc
 50
180.0
 51
240.0000000000244
  0
LINE
  5
FF55
330
FF19
100
AcDbEntity
  8
0
100
AcDbLine
 10
29.30199999996933
 20
8.763099999991255
 30
0.0
 11
30.74199999996927
 21
8.763099999991255
 31
0.0
1001
ACAD
1000
ASC_BOUNDS
1002
{
1070
    19
1005
FF5E
1002
}
  0
LINE
  5
FF56
330
FF19
100
AcDbEntity
  8
0
100
AcDbLine
 10
30.74199999996927
 20
8.763099999991255
 30
0.0
 11
30.74199999996927
 21
2.373099999991211
 31
0.0
1001
ACAD
1000
ASC_BOUNDS
1002
{
1070
    19
1005
FF5E
1002
}
  0
LINE
  5
FF57
330
FF19
100
AcDbEntity
  8
0
100
AcDbLine
 10
26.02015566812236
 20
0.0330999999912365
 30
0.0
 11
28.40199999996923
 21
0.0330999999912365
 31
0.0
1001
ACAD
1000
ASC_BOUNDS
1002
{
1070
    19
1005
FF5E
1002
}
  0
LINE
  5
FF58
330
FF19
100
AcDbEntity
  8
0
100
AcDbLine
 10
29.30199999996933
 20
8.763099999991255
 30
0.0
 11
29.30199999996933
 21
2.283099999991236
 31
0.0
1001
ACAD
1000
ASC_BOUNDS
1002
{
1070
    19
1005
FF5E
1002
}
  0
LINE
  5
FF59
330
FF19
100
AcDbEntity
  8
0
100
AcDbLine
 10
26.97358892824991
 20
1.383099999991202
 30
0.0
 11
28.40199999996923
 21
1.383099999991202
 31
0.0
1001
ACAD
1000
ASC_BOUNDS
1002
{
1070
    19
1005
FF5E
1002
}
  0
ARC
  5
FF5A
330
FF19
100
AcDbEntity
  8
0
100
AcDbCircle
 10
28.40199999996923
 20
2.283099999991236
 30
0.0
 40
0.9
100
AcDbArc
 50
270.0
 51
0.0
1001
ACAD
1000
ASC_BOUNDS
1002
{
1070
    19
1005
FF5E
1002
}
  0
ARC
  5
FF5B
330
FF19
100
AcDbEntity
  8
0
100
AcDbCircle
 10
28.40199999996923
 20
2.373099999991211
 30
0.0
 40
2.34
100
AcDbArc
 50
270.0
 51
0.0
1001
ACAD
1000
ASC_BOUNDS
1002
{
1070
    19
1005
FF5E
1002
}
  0
INSERT
  5
FF5C
330
FF19
100
AcDbEntity
  8
0
100
AcDbBlockReference
  2
*X21
 10
0.0
 20
0.0
 30
0.0
1001
ACAD
1000
HATCH
1002
{
1070
    19
1000
ANSI37
1040
0.15
1040
0.0
1000
ASC_BOUNDS
1070
     2
1070
     2
1070
    12
1005
FF1B
1005
FF1C
1005
FF23
1005
FF32
1005
FF35
1005
FF33
1005
FF24
1005
FF29
1005
FF27
1005
FF2B
1005
FF2A
1005
FF2C
1070
     2
1070
     3
1005
FF37
1005
FF39
1005
FF38
1000
ASC_SEEDPOINT
1011
3.614004224891801
1021
2.996669441146025
1031
0.0
1000
R14_HATCH_DATA
1000
FF5C
1011
1.0
1021
0.0
1031
0.0
1011
0.0
1021
1.0
1031
0.0
1011
0.0
1021
0.0
1031
1.0
1040
0.0
1010
0.0
1020
0.0
1030
1.0
1000
ANSI37
1070
     0
1070
     1
1071
        2
1071
        7
1070
     0
1070
     1
1071
       17
1040
13.26299999998673
1040
-0.0001000000000317
1040
9.236999999990758
1040
8.999899999990987
1040
9.236999999990758
1040
8.999999999991019
1040
5.657999999994331
1040
0.9999999999989768
1040
3.181999999996833
1040
4.668599999995308
1040
6.432999999993513
1040
8.763099999991255
1040
4.617999999995391
1040
8.763099999991255
1040
1.420999999998571
1040
4.736799999995242
1040
4.617999999995391
1040
-0.0001000000000317
1040
4.617999999995391
1040
0.0
1040
6.766999999993232
1040
0.0
1040
6.766999999993232
1040
-0.0001000000000317
1040
7.826999999992154
1040
2.368399999997621
1040
10.64699999998936
1040
2.368399999997621
1040
11.70599999998831
1040
-0.0001000000000317
1040
11.70599999998831
1040
0.0
1040
13.26299999998673
1040
0.0
1071
       12
1005
FF1B
1005
FF1C
1005
FF23
1005
FF32
1005
FF35
1005
FF33
1005
FF24
1005
FF29
1005
FF27
1005
FF2B
1005
FF2A
1005
FF2C
1071
       22
1070
     0
1070
     1
1071
        3
1040
9.236999999990758
1040
5.5200999999945
1040
10.06399999998996
1040
3.670999999996297
1040
8.409999999991555
1040
3.670999999996297
1071
        3
1005
FF37
1005
FF39
1005
FF38
1070
     0
1070
     1
1040
0.0
1040
0.15
1070
     0
1070
     2
1040
0.7853981633974483
1040
49.29960901727088
1040
-10.17736998311392
1040
-0.3367596045400932
1040
0.3367596045400932
1070
     0
1040
2.356194490192345
1040
49.29960901727088
1040
-10.17736998311392
1040
-0.3367596045400932
1040
-0.3367596045400932
1070
     0
1040
0.0110235143455945
1071
        2
1040
3.614004224891801
1040
2.996669441146025
1040
0.0
1040
3.614004224891801
1040
2.996669441146025
1040
0.0
1002
}
  0
INSERT
  5
FF5D
330
FF19
100
AcDbEntity
  8
0
100
AcDbBlockReference
  2
*X22
 10
0.0
 20
0.0
 30
0.0
1001
ACAD
1000
HATCH
1002
{
1070
    19
1000
ANSI37
1040
0.15
1040
0.0
1000
ASC_BOUNDS
1070
     1
1070
     2
1070
    10
1005
FF1D
1005
FF1E
1005
FF3F
1005
FF3D
1005
FF3E
1005
FF31
1005
FF36
1005
FF3A
1005
FF20
1005
FF1F
1000
ASC_SEEDPOINT
1011
14.73245321214324
1021
2.798246178283421
1031
0.0
1000
R14_HATCH_DATA
1000
FF5D
1011
1.0
1021
0.0
1031
0.0
1011
0.0
1021
1.0
1031
0.0
1011
0.0
1021
0.0
1031
1.0
1040
0.0
1010
0.0
1020
0.0
1030
1.0
1000
ANSI37
1070
     0
1070
     1
1071
        1
1071
        7
1070
     0
1070
     1
1071
       10
1040
16.46099999998353
1040
5.432899999994561
1040
18.59199999998134
1040
-0.2368999999997641
1040
22.38199999997767
1040
8.763099999991255
1040
20.89099999997916
1040
8.763099999991255
1040
18.59799999998143
1040
3.315799999996671
1040
16.46099999998353
1040
8.999899999990987
1040
14.32399999998563
1040
3.315799999996671
1040
12.02999999998792
1040
8.763099999991255
1040
10.53899999998941
1040
8.763099999991255
1040
14.32899999998563
1040
-0.2368999999997641
1071
       10
1005
FF1D
1005
FF1E
1005
FF3F
1005
FF3D
1005
FF3E
1005
FF31
1005
FF36
1005
FF3A
1005
FF20
1005
FF1F
1070
     0
1070
     1
1040
0.0
1040
0.15
1070
     0
1070
     2
1040
0.7853981633974483
1040
49.29960901727088
1040
-10.17736998311392
1040
-0.3367596045400932
1040
0.3367596045400932
1070
     0
1040
2.356194490192345
1040
49.29960901727088
1040
-10.17736998311392
1040
-0.3367596045400932
1040
-0.3367596045400932
1070
     0
1040
0.0110235143455945
1071
        1
1040
14.73245321214324
1040
2.798246178283421
1040
0.0
1002
}
  0
INSERT
  5
FF5E
330
FF19
100
AcDbEntity
  8
0
100
AcDbBlockReference
  2
*X23
 10
0.0
 20
0.0
 30
0.0
1001
ACAD
1000
HATCH
1002
{
1070
    19
1000
ANSI37
1040
0.15
1040
0.0
1000
ASC_BOUNDS
1070
     2
1070
     2
1070
    13
1005
FF21
1005
FF2E
1005
FF2F
1005
FF2D
1005
FF30
1005
FF57
1005
FF5B
1005
FF56
1005
FF55
1005
FF58
1005
FF5A
1005
FF59
1005
FF22
1070
     2
1070
     3
1005
FF3B
1005
FF40
1005
FF3C
1000
ASC_SEEDPOINT
1011
21.97929957367762
1021
3.294304244259308
1031
0.0
1000
R14_HATCH_DATA
1000
FF5E
1011
1.0
1021
0.0
1031
0.0
1011
0.0
1021
1.0
1031
0.0
1011
0.0
1021
0.0
1031
1.0
1040
0.0
1010
0.0
1020
0.0
1030
1.0
1000
ANSI37
1070
     0
1070
     1
1071
        2
1071
        7
1070
     1
1070
     1
1071
       15
1040
23.56599999997638
1040
8.999899999990987
1040
0.0
1040
19.53899999998043
1040
-0.0001000000000317
1040
0.0
1040
19.53899999998043
1040
0.0
1040
0.0
1040
21.09599999997886
1040
0.0
1040
0.0
1040
21.09599999997886
1040
-0.0001000000000317
1040
0.0
1040
22.15599999997789
1040
2.368399999997621
1040
0.0
1040
24.97599999997499
1040
2.368399999997621
1040
0.0
1040
26.02015566812236
1040
0.0330999999912365
1040
0.0
1040
28.40199999996923
1040
0.0330999999912365
1040
0.414213562373095
1040
30.74199999996923
1040
2.373099999991211
1040
0.0
1040
30.74199999996927
1040
8.763099999991255
1040
0.0
1040
29.30199999996933
1040
8.763099999991255
1040
0.0
1040
29.30199999996933
1040
2.283099999991236
1040
-0.414213562373095
1040
28.40199999996923
1040
1.383099999991237
1040
0.0
1040
26.97358892824991
1040
1.383099999991202
1040
0.0
1071
       13
1005
FF21
1005
FF2E
1005
FF2F
1005
FF2D
1005
FF30
1005
FF57
1005
FF5B
1005
FF56
1005
FF55
1005
FF58
1005
FF5A
1005
FF59
1005
FF22
1071
       22
1070
     0
1070
     1
1071
        3
1040
22.7389999999773
1040
3.670999999996297
1040
23.56599999997638
1040
5.5200999999945
1040
24.39299999997559
1040
3.670999999996297
1071
        3
1005
FF3B
1005
FF40
1005
FF3C
1070
     0
1070
     1
1040
0.0
1040
0.15
1070
     0
1070
     2
1040
0.7853981633974483
1040
49.29960901727088
1040
-10.17736998311392
1040
-0.3367596045400932
1040
0.3367596045400932
1070
     0
1040
2.356194490192345
1040
49.29960901727088
1040
-10.17736998311392
1040
-0.3367596045400932
1040
-0.3367596045400932
1070
     0
1040
0.0110235143455945
1071
        2
1040
21.97929957367762
1040
3.294304244259308
1040
0.0
1040
21.97929957367762
1040
3.294304244259308
1040
0.0
1002
}
  0
INSERT
  5
FF5F
330
FF19
100
AcDbEntity
  8
0
100
AcDbBlockReference
  2
*X24
 10
0.0
 20
0.0
 30
0.0
1001
ACAD
1000
HATCH
1002
{
1070
    19
1000
ANSI37
1040
0.15
1040
0.0
1000
R14_HATCH_DATA
1000
FF5F
1011
1.0
1021
0.0
1031
0.0
1011
0.0
1021
1.0
1031
0.0
1011
0.0
1021
0.0
1031
1.0
1040
0.0
1010
0.0
1020
0.0
1030
1.0
1000
ANSI37
1070
     0
1070
     1
1071
        1
1071
        7
1070
     1
1070
     1
1071
       12
1040
31.64199999996833
1040
2.481619422925121
1040
0.2679491924310942
1040
32.94699999997067
1040
0.2212931190493919
1040
0.2679491924301353
1040
36.36699999995983
1040
0.2212931190459813
1040
0.2679491924321411
1040
37.67199999996831
1040
2.481619422928361
1040
0.0
1040
37.67199999996831
1040
8.763099999991255
1040
0.0
1040
36.23199999996837
1040
8.763099999991255
1040
0.0
1040
36.23199999996837
1040
2.481619422925064
1040
-0.2679491924310291
1040
35.64699999996708
1040
1.468369700498386
1040
-0.267949192430519
1040
33.66699999997093
1040
1.468369700497703
1040
-0.267949192431809
1040
33.08199999996839
1040
2.481619422926997
1040
0.0
1040
33.08199999996839
1040
8.763099999991255
1040
0.0
1040
31.64199999996833
1040
8.763099999991255
1040
0.0
1071
        0
1070
     0
1070
     1
1040
0.0
1040
0.15
1070
     0
1070
     2
1040
0.7853981633974483
1040
49.29960901727088
1040
-10.17736998311392
1040
-0.3367596045400932
1040
0.3367596045400932
1070
     0
1040
2.356194490192345
1040
49.29960901727088
1040
-10.17736998311392
1040
-0.3367596045400932
1040
-0.3367596045400932
1070
     0
1040
0.0110235143455945
1071
        1
1040
32.30357378967278
1040
3.988785755459219
1040
0.0
1002
}
  0
INSERT
  5
FF60
330
FF19
100
AcDbEntity
  8
0
100
AcDbBlockReference
  2
*X25
 10
0.0
 20
0.0
 30
0.0
1001
ACAD
1000
HATCH
1002
{
1070
    19
1000
ANSI37
1040
0.15
1040
0.0
1000
ASC_BOUNDS
1070
     1
1070
     2
1070
     8
1005
FF41
1005
FF44
1005
FF48
1005
FF47
1005
FF46
1005
FF43
1005
FF45
1005
FF42
1000
ASC_SEEDPOINT
1011
39.74896370716704
1021
4.484843821435049
1031
0.0
1000
R14_HATCH_DATA
1000
FF60
1011
1.0
1021
0.0
1031
0.0
1011
0.0
1021
1.0
1031
0.0
1011
0.0
1021
0.0
1031
1.0
1040
0.0
1010
0.0
1020
0.0
1030
1.0
1000
ANSI37
1070
     0
1070
     1
1071
        1
1071
        7
1070
     0
1070
     1
1071
        9
1040
40.02599999995994
1040
5.341799999994635
1040
44.99999999995498
1040
-0.2368999999997641
1040
44.99999999995498
1040
8.763099999991255
1040
43.57899999995641
1040
8.763099999991255
1040
43.57899999995641
1040
3.421199999996588
1040
38.60499999996136
1040
8.999899999990987
1040
38.60499999996136
1040
8.999999999991019
1040
38.60499999996136
1040
0.0
1040
40.02599999995994
1040
0.0
1071
        8
1005
FF41
1005
FF44
1005
FF48
1005
FF47
1005
FF46
1005
FF43
1005
FF45
1005
FF42
1070
     0
1070
     1
1040
0.0
1040
0.15
1070
     0
1070
     2
1040
0.7853981633974483
1040
49.29960901727088
1040
-10.17736998311392
1040
-0.3367596045400932
1040
0.3367596045400932
1070
     0
1040
2.356194490192345
1040
49.29960901727088
1040
-10.17736998311392
1040
-0.3367596045400932
1040
-0.3367596045400932
1070
     0
1040
0.0110235143455945
1071
        1
1040
39.74896370716704
1040
4.484843821435049
1040
0.0
1002
}
  0
INSERT
  5
FF61
330
FF19
100
AcDbEntity
  8
0
100
AcDbBlockReference
  2
*X26
 10
0.0
 20
0.0
 30
0.0
1001
ACAD
1000
HATCH
1002
{
1070
    19
1000
ANSI37
1040
0.15
1040
0.0
1000
ASC_BOUNDS
1070
     1
1070
     2
1070
     4
1005
FF25
1005
FF34
1005
FF26
1005
FF28
1000
ASC_SEEDPOINT
1011
1.079051535452663
1021
4.148538732891836
1031
0.0
1000
R14_HATCH_DATA
1000
FF61
1011
1.0
1021
0.0
1031
0.0
1011
0.0
1021
1.0
1031
0.0
1011
0.0
1021
0.0
1031
1.0
1040
0.0
1010
0.0
1020
0.0
1030
1.0
1000
ANSI37
1070
     0
1070
     1
1071
        1
1071
        7
1070
     0
1070
     1
1071
        4
1040
1.420999999998571
1040
0.0
1040
1.420999999998571
1040
8.763099999991255
1040
0.0
1040
8.763099999991255
1040
0.0
1040
0.0
1071
        4
1005
FF25
1005
FF34
1005
FF26
1005
FF28
1070
     0
1070
     1
1040
0.0
1040
0.15
1070
     0
1070
     2
1040
0.7853981633974483
1040
49.29960901727088
1040
-10.17736998311392
1040
-0.3367596045400932
1040
0.3367596045400932
1070
     0
1040
2.356194490192345
1040
49.29960901727088
1040
-10.17736998311392
1040
-0.3367596045400932
1040
-0.3367596045400932
1070
     0
1040
0.0053004257112761
1071
        1
1040
1.079051535452663
1040
4.148538732891836
1040
0.0
1002
}
  0
ENDBLK
  5
FF62
330
FF19
100
AcDbEntity
  8
0
100
AcDbBlockEnd
  0
BLOCK
  5
10711
330
10583
100
AcDbEntity
  8
0
100
AcDbBlockBegin
  2
*X21
 70
     1
 10
0.0
 20
0.0
 30
0.0
  3
*X21
  1

  0
LINE
  5
10584
330
10583
100
AcDbEntity
  8
0
  6
CONTINUOUS
100
AcDbLine
 10
3.418023043697893
 20
7.251849696850613
 30
0.0
 11
4.929273346838536
 21
8.763099999991255
 31
0.0
  0
LINE
  5
10585
330
10583
100
AcDbEntity
  8
0
  6
CONTINUOUS
100
AcDbLine
 10
1.483656411257782
 20
4.643963855330318
 30
0.0
 11
5.60279255591872
 21
8.763099999991255
 31
0.0
  0
LINE
  5
10586
330
10583
100
AcDbEntity
  8
0
  6
CONTINUOUS
100
AcDbLine
 10
1.755053947328235
 20
4.241842182320584
 30
0.0
 11
6.276311764998907
 21
8.763099999991255
 31
0.0
  0
LINE
  5
10587
330
10583
100
AcDbEntity
  8
0
  6
CONTINUOUS
100
AcDbLine
 10
2.026451483398688
 20
3.839720509310849
 30
0.0
 11
4.441040904851878
 21
6.254309930764039
 31
0.0
  0
LINE
  5
10588
330
10583
100
AcDbEntity
  8
0
  6
CONTINUOUS
100
AcDbLine
 10
2.297849019469139
 20
3.437598836301114
 30
0.0
 11
3.321765168359338
 21
4.461514985191313
 31
0.0
  0
LINE
  5
10589
330
10583
100
AcDbEntity
  8
0
  6
CONTINUOUS
100
AcDbLine
 10
2.569246555539591
 20
3.03547716329138
 30
0.0
 11
3.593163397972743
 21
4.059394005724531
 31
0.0
  0
LINE
  5
1058A
330
10583
100
AcDbEntity
  8
0
  6
CONTINUOUS
100
AcDbLine
 10
2.840644091610043
 20
2.633355490281646
 30
0.0
 11
3.864561627586149
 21
3.657273026257751
 31
0.0
  0
LINE
  5
1058B
330
10583
100
AcDbEntity
  8
0
  6
CONTINUOUS
100
AcDbLine
 10
3.112041627680496
 20
2.231233817271911
 30
0.0
 11
4.135959857199554
 21
3.25515204679097
 31
0.0
  0
LINE
  5
1058C
330
10583
100
AcDbEntity
  8
0
  6
CONTINUOUS
100
AcDbLine
 10
3.383439163750948
 20
1.829112144262177
 30
0.0
 11
4.40735808681296
 21
2.853031067324189
 31
0.0
  0
LINE
  5
1058D
330
10583
100
AcDbEntity
  8
0
  6
CONTINUOUS
100
AcDbLine
 10
3.654836699821399
 20
1.426990471252442
 30
0.0
 11
4.678756316426365
 21
2.450910087857407
 31
0.0
  0
LINE
  5
1058E
330
10583
100
AcDbEntity
  8
0
  6
CONTINUOUS
100
AcDbLine
 10
3.926234235891853
 20
1.024868798242709
 30
0.0
 11
4.95015454603977
 21
2.048789108390626
 31
0.0
  0
LINE
  5
1058F
330
10583
100
AcDbEntity
  8
0
  6
CONTINUOUS
100
AcDbLine
 10
4.197631771962304
 20
0.6227471252329737
 30
0.0
 11
5.221552775653176
 21
1.646668128923846
 31
0.0
  0
LINE
  5
10590
330
10583
100
AcDbEntity
  8
0
  6
CONTINUOUS
100
AcDbLine
 10
8.715877546767851
 20
7.835069736359266
 30
0.0
 11
9.435953450375058
 21
8.555145639966472
 31
0.0
  0
LINE
  5
10591
330
10583
100
AcDbEntity
  8
0
  6
CONTINUOUS
100
AcDbLine
 10
8.170620868422267
 20
6.616293848933497
 30
0.0
 11
9.644120833743461
 21
8.08979381425469
 31
0.0
  0
LINE
  5
10592
330
10583
100
AcDbEntity
  8
0
  6
CONTINUOUS
100
AcDbLine
 10
7.625364190076684
 20
5.397517961507727
 30
0.0
 11
9.852288217111864
 21
7.624441988542907
 31
0.0
  0
LINE
  5
10593
330
10583
100
AcDbEntity
  8
0
  6
CONTINUOUS
100
AcDbLine
 10
7.080107511731101
 20
4.178742074081957
 30
0.0
 11
10.06045560048027
 21
7.159090162831124
 31
0.0
  0
LINE
  5
10594
330
10583
100
AcDbEntity
  8
0
  6
CONTINUOUS
100
AcDbLine
 10
6.534850833385518
 20
2.959966186656187
 30
0.0
 11
10.26862298384867
 21
6.693738337119342
 31
0.0
  0
LINE
  5
10595
330
10583
100
AcDbEntity
  8
0
  6
CONTINUOUS
100
AcDbLine
 10
4.469029308032756
 20
0.2206254522232385
 30
0.0
 11
5.492951005266582
 21
1.244547149457064
 31
0.0
  0
LINE
  5
10596
330
10583
100
AcDbEntity
  8
0
  6
CONTINUOUS
100
AcDbLine
 10
5.989594155039935
 20
1.741190299230417
 30
0.0
 11
8.806950407233131
 21
4.558546551423613
 31
0.0
  0
LINE
  5
10597
330
10583
100
AcDbEntity
  8
0
  6
CONTINUOUS
100
AcDbLine
 10
9.401251593263643
 20
5.152847737454126
 30
0.0
 11
10.47679036721708
 21
6.228386511407559
 31
0.0
  0
LINE
  5
10598
330
10583
100
AcDbEntity
  8
0
  6
CONTINUOUS
100
AcDbLine
 10
4.921837203428691
 20
-0.0000858614610131
 30
0.0
 11
8.592923064886001
 21
3.670999999996297
 31
0.0
  0
LINE
  5
10599
330
10583
100
AcDbEntity
  8
0
  6
CONTINUOUS
100
AcDbLine
 10
9.609390446785305
 20
4.6874673818956
 30
0.0
 11
10.68495775058548
 21
5.763034685695775
 31
0.0
  0
LINE
  5
1059A
330
10583
100
AcDbEntity
  8
0
  6
CONTINUOUS
100
AcDbLine
 10
5.595387755019432
 20
-0.0000545189504582
 30
0.0
 11
7.716137258923768
 21
2.120694984953879
 31
0.0
  0
LINE
  5
1059B
330
10583
100
AcDbEntity
  8
0
  6
CONTINUOUS
100
AcDbLine
 10
6.268938306610172
 20
-0.000023176439905
 30
0.0
 11
7.170485805526503
 21
0.9015243224764267
 31
0.0
  0
LINE
  5
1059C
330
10583
100
AcDbEntity
  8
0
  6
CONTINUOUS
100
AcDbLine
 10
7.963842273967511
 20
2.368399999997621
 30
0.0
 11
9.266442273966188
 21
3.670999999996297
 31
0.0
  0
LINE
  5
1059D
330
10583
100
AcDbEntity
  8
0
  6
CONTINUOUS
100
AcDbLine
 10
8.637361483047696
 20
2.368399999997621
 30
0.0
 11
9.939961483046375
 21
3.670999999996297
 31
0.0
  0
LINE
  5
1059E
330
10583
100
AcDbEntity
  8
0
  6
CONTINUOUS
100
AcDbLine
 10
9.817529300306965
 20
4.222087026337075
 30
0.0
 11
10.89312513395388
 21
5.297682859983993
 31
0.0
  0
LINE
  5
1059F
330
10583
100
AcDbEntity
  8
0
  6
CONTINUOUS
100
AcDbLine
 10
10.02566815382863
 20
3.756706670778549
 30
0.0
 11
11.10129251732229
 21
4.832331034272211
 31
0.0
  0
LINE
  5
105A0
330
10583
100
AcDbEntity
  8
0
  6
CONTINUOUS
100
AcDbLine
 10
9.310880692127883
 20
2.368399999997621
 30
0.0
 11
11.30945990069069
 21
4.366979208560428
 31
0.0
  0
LINE
  5
105A1
330
10583
100
AcDbEntity
  8
0
  6
CONTINUOUS
100
AcDbLine
 10
9.98439990120807
 20
2.36839999999762
 30
0.0
 11
11.5176272840591
 21
3.901627382848645
 31
0.0
  0
LINE
  5
105A2
330
10583
100
AcDbEntity
  8
0
  6
CONTINUOUS
100
AcDbLine
 10
10.65037369446246
 20
2.36085458417182
 30
0.0
 11
11.7257946674275
 21
3.436275557136862
 31
0.0
  0
LINE
  5
105A3
330
10583
100
AcDbEntity
  8
0
  6
CONTINUOUS
100
AcDbLine
 10
10.85847197087848
 20
1.895433651507656
 30
0.0
 11
11.9339620507959
 21
2.97092373142508
 31
0.0
  0
LINE
  5
105A4
330
10583
100
AcDbEntity
  8
0
  6
CONTINUOUS
100
AcDbLine
 10
11.0665702472945
 20
1.430012718843491
 30
0.0
 11
12.14212943416431
 21
2.505571905713296
 31
0.0
  0
LINE
  5
105A5
330
10583
100
AcDbEntity
  8
0
  6
CONTINUOUS
100
AcDbLine
 10
11.27466852371052
 20
0.9645917861793256
 30
0.0
 11
12.35029681753271
 21
2.040220080001513
 31
0.0
  0
LINE
  5
105A6
330
10583
100
AcDbEntity
  8
0
  6
CONTINUOUS
100
AcDbLine
 10
11.48276680012654
 20
0.4991708535151611
 30
0.0
 11
12.55846420090111
 21
1.57486825428973
 31
0.0
  0
LINE
  5
105A7
330
10583
100
AcDbEntity
  8
0
  6
CONTINUOUS
100
AcDbLine
 10
11.69086507654257
 20
0.0337499208509957
 30
0.0
 11
12.76663158426952
 21
1.109516428577947
 31
0.0
  0
LINE
  5
105A8
330
10583
100
AcDbEntity
  8
0
  6
CONTINUOUS
100
AcDbLine
 10
12.33057447873954
 20
-0.0000598860322123
 30
0.0
 11
12.97479896763792
 21
0.6441646028661663
 31
0.0
  0
LINE
  5
105A9
330
10583
100
AcDbEntity
  8
0
  6
CONTINUOUS
100
AcDbLine
 10
13.00413694809395
 20
-0.0000166257579952
 30
0.0
 11
13.18296635100632
 21
0.1788127771543824
 31
0.0
  0
LINE
  5
105AA
330
10583
100
AcDbEntity
  8
0
  6
CONTINUOUS
100
AcDbLine
 10
4.772852165289667
 20
-0.000092794222212
 30
0.0
 11
4.296495091028902
 21
0.4762642800385528
 31
0.0
  0
LINE
  5
105AB
330
10583
100
AcDbEntity
  8
0
  6
CONTINUOUS
100
AcDbLine
 10
5.446340034776103
 20
-0.0000614546284616
 30
0.0
 11
2.898195908335625
 21
2.548082671812017
 31
0.0
  0
LINE
  5
105AC
330
10583
100
AcDbEntity
  8
0
  6
CONTINUOUS
100
AcDbLine
 10
6.119827904262539
 20
-0.0000301150347113
 30
0.0
 11
1.499896725642348
 21
4.61990106358548
 31
0.0
  0
LINE
  5
105AD
330
10583
100
AcDbEntity
  8
0
  6
CONTINUOUS
100
AcDbLine
 10
6.775136745476159
 20
0.0181802528318542
 30
0.0
 11
5.699826040202669
 21
1.093490958105344
 31
0.0
  0
LINE
  5
105AE
330
10583
100
AcDbEntity
  8
0
  6
CONTINUOUS
100
AcDbLine
 10
6.983376846288489
 20
0.4834593610997118
 30
0.0
 11
5.908008617934405
 21
1.558827589453796
 31
0.0
  0
LINE
  5
105AF
330
10583
100
AcDbEntity
  8
0
  6
CONTINUOUS
100
AcDbLine
 10
5.377063484962296
 20
1.416253513345719
 30
0.0
 11
1.702276957014131
 21
5.091040041293883
 31
0.0
  0
LINE
  5
105B0
330
10583
100
AcDbEntity
  8
0
  6
CONTINUOUS
100
AcDbLine
 10
3.978745891735324
 20
3.488090315652877
 30
0.0
 11
2.000373521109399
 21
5.466462686278803
 31
0.0
  0
LINE
  5
105B1
330
10583
100
AcDbEntity
  8
0
  6
CONTINUOUS
100
AcDbLine
 10
7.191616947100819
 20
0.948738469367568
 30
0.0
 11
6.11619119566614
 21
2.024164220802247
 31
0.0
  0
LINE
  5
105B2
330
10583
100
AcDbEntity
  8
0
  6
CONTINUOUS
100
AcDbLine
 10
7.399857047913149
 20
1.414017577635424
 30
0.0
 11
6.324373773397875
 21
2.489500852150698
 31
0.0
  0
LINE
  5
105B3
330
10583
100
AcDbEntity
  8
0
  6
CONTINUOUS
100
AcDbLine
 10
7.608097148725479
 20
1.879296685903281
 30
0.0
 11
6.53255635112961
 21
2.95483748349915
 31
0.0
  0
LINE
  5
105B4
330
10583
100
AcDbEntity
  8
0
  6
CONTINUOUS
100
AcDbLine
 10
7.816337249537808
 20
2.344575794171138
 30
0.0
 11
6.740738928861345
 21
3.420174114847601
 31
0.0
  0
LINE
  5
105B5
330
10583
100
AcDbEntity
  8
0
  6
CONTINUOUS
100
AcDbLine
 10
3.310241080789734
 20
4.830114335678653
 30
0.0
 11
2.298470085204666
 21
5.84188533126372
 31
0.0
  0
LINE
  5
105B6
330
10583
100
AcDbEntity
  8
0
  6
CONTINUOUS
100
AcDbLine
 10
3.60832983563551
 20
5.205544789913063
 30
0.0
 11
2.596566649299935
 21
6.217307976248638
 31
0.0
  0
LINE
  5
105B7
330
10583
100
AcDbEntity
  8
0
  6
CONTINUOUS
100
AcDbLine
 10
3.906418590481286
 20
5.580975244147473
 30
0.0
 11
2.894663213395203
 21
6.592730621233557
 31
0.0
  0
LINE
  5
105B8
330
10583
100
AcDbEntity
  8
0
  6
CONTINUOUS
100
AcDbLine
 10
4.204507345327062
 20
5.956405698381884
 30
0.0
 11
3.192759777490472
 21
6.968153266218474
 31
0.0
  0
LINE
  5
105B9
330
10583
100
AcDbEntity
  8
0
  6
CONTINUOUS
100
AcDbLine
 10
8.466032252791512
 20
2.368399999997621
 30
0.0
 11
6.948921506593081
 21
3.885510746196053
 31
0.0
  0
LINE
  5
105BA
330
10583
100
AcDbEntity
  8
0
  6
CONTINUOUS
100
AcDbLine
 10
9.139551461871699
 20
2.36839999999762
 30
0.0
 11
7.157104084324816
 21
4.350847377544504
 31
0.0
  0
LINE
  5
105BB
330
10583
100
AcDbEntity
  8
0
  6
CONTINUOUS
100
AcDbLine
 10
4.502596100172839
 20
6.331836152616295
 30
0.0
 11
3.49085634158574
 21
7.343575911203393
 31
0.0
  0
LINE
  5
105BC
330
10583
100
AcDbEntity
  8
0
  6
CONTINUOUS
100
AcDbLine
 10
4.800684855018615
 20
6.707266606850705
 30
0.0
 11
3.788952905681008
 21
7.718998556188312
 31
0.0
  0
LINE
  5
105BD
330
10583
100
AcDbEntity
  8
0
  6
CONTINUOUS
100
AcDbLine
 10
12.18154012887317
 20
-0.0000694579236642
 30
0.0
 11
11.32140332908496
 21
0.8600673418645499
 31
0.0
  0
LINE
  5
105BE
330
10583
100
AcDbEntity
  8
0
  6
CONTINUOUS
100
AcDbLine
 10
12.85501608323566
 20
-0.0000262032059659
 30
0.0
 11
10.77672456435345
 21
2.078265315676246
 31
0.0
  0
LINE
  5
105BF
330
10583
100
AcDbEntity
  8
0
  6
CONTINUOUS
100
AcDbLine
 10
9.813070670951886
 20
2.36839999999762
 30
0.0
 11
8.51047067095321
 21
3.670999999996297
 31
0.0
  0
LINE
  5
105C0
330
10583
100
AcDbEntity
  8
0
  6
CONTINUOUS
100
AcDbLine
 10
10.48658988003207
 20
2.36839999999762
 30
0.0
 11
9.183989880033396
 21
3.670999999996297
 31
0.0
  0
LINE
  5
105C1
330
10583
100
AcDbEntity
  8
0
  6
CONTINUOUS
100
AcDbLine
 10
8.441048632286794
 20
3.740422038662712
 30
0.0
 11
7.365286662056551
 21
4.816184008892956
 31
0.0
  0
LINE
  5
105C2
330
10583
100
AcDbEntity
  8
0
  6
CONTINUOUS
100
AcDbLine
 10
8.649187485808454
 20
4.205802394221237
 30
0.0
 11
7.573469239788285
 21
5.281520640241407
 31
0.0
  0
LINE
  5
105C3
330
10583
100
AcDbEntity
  8
0
  6
CONTINUOUS
100
AcDbLine
 10
5.098773609864391
 20
7.082697061085115
 30
0.0
 11
4.087049469776277
 21
8.09442120117323
 31
0.0
  0
LINE
  5
105C4
330
10583
100
AcDbEntity
  8
0
  6
CONTINUOUS
100
AcDbLine
 10
5.396862364710167
 20
7.458127515319526
 30
0.0
 11
4.385146033871544
 21
8.469843846158149
 31
0.0
  0
LINE
  5
105C5
330
10583
100
AcDbEntity
  8
0
  6
CONTINUOUS
100
AcDbLine
 10
13.04801363231285
 20
0.4804954567970334
 30
0.0
 11
9.85750908911358
 21
3.670999999996297
 31
0.0
  0
LINE
  5
105C6
330
10583
100
AcDbEntity
  8
0
  6
CONTINUOUS
100
AcDbLine
 10
8.857326339330116
 20
4.671182749779763
 30
0.0
 11
7.781651817520021
 21
5.746857271589858
 31
0.0
  0
LINE
  5
105C7
330
10583
100
AcDbEntity
  8
0
  6
CONTINUOUS
100
AcDbLine
 10
5.694951119555943
 20
7.833557969553937
 30
0.0
 11
4.765409089118624
 21
8.763099999991255
 31
0.0
  0
LINE
  5
105C8
330
10583
100
AcDbEntity
  8
0
  6
CONTINUOUS
100
AcDbLine
 10
12.50286117236978
 20
1.699167125820288
 30
0.0
 11
9.68611877250287
 21
4.515909525687196
 31
0.0
  0
LINE
  5
105C9
330
10583
100
AcDbEntity
  8
0
  6
CONTINUOUS
100
AcDbLine
 10
9.065465192851777
 20
5.136563105338288
 30
0.0
 11
7.989834395251757
 21
6.21219390293831
 31
0.0
  0
LINE
  5
105CA
330
10583
100
AcDbEntity
  8
0
  6
CONTINUOUS
100
AcDbLine
 10
5.993039874401719
 20
8.208988423788346
 30
0.0
 11
5.43892829819881
 21
8.763099999991255
 31
0.0
  0
LINE
  5
105CB
330
10583
100
AcDbEntity
  8
0
  6
CONTINUOUS
100
AcDbLine
 10
11.95770871242671
 20
2.917838794843543
 30
0.0
 11
8.19801697298349
 21
6.677530534286761
 31
0.0
  0
LINE
  5
105CC
330
10583
100
AcDbEntity
  8
0
  6
CONTINUOUS
100
AcDbLine
 10
6.291128629247495
 20
8.584418878022756
 30
0.0
 11
6.112447507278997
 21
8.763099999991255
 31
0.0
  0
LINE
  5
105CD
330
10583
100
AcDbEntity
  8
0
  6
CONTINUOUS
100
AcDbLine
 10
11.41255625248364
 20
4.136510463866797
 30
0.0
 11
8.406199550715227
 21
7.142867165635211
 31
0.0
  0
LINE
  5
105CE
330
10583
100
AcDbEntity
  8
0
  6
CONTINUOUS
100
AcDbLine
 10
10.86740379254057
 20
5.355182132890051
 30
0.0
 11
8.614382128446962
 21
7.608203796983664
 31
0.0
  0
LINE
  5
105CF
330
10583
100
AcDbEntity
  8
0
  6
CONTINUOUS
100
AcDbLine
 10
10.3222513325975
 20
6.573853801913305
 30
0.0
 11
8.822564706178696
 21
8.073540428332114
 31
0.0
  0
LINE
  5
105D0
330
10583
100
AcDbEntity
  8
0
  6
CONTINUOUS
100
AcDbLine
 10
9.777098872654436
 20
7.792525470936562
 30
0.0
 11
9.030747283910433
 21
8.538877059680566
 31
0.0
  0
ENDBLK
  5
10712
330
10583
100
AcDbEntity
  8
0
100
AcDbBlockEnd
  0
BLOCK
  5
10713
330
105D1
100
AcDbEntity
  8
0
100
AcDbBlockBegin
  2
*X22
 70
     1
 10
0.0
 20
0.0
 30
0.0
  3
*X22
  1

  0
LINE
  5
105D2
330
105D1
100
AcDbEntity
  8
0
  6
CONTINUOUS
100
AcDbLine
 10
10.67292308101235
 20
8.445076852443387
 30
0.0
 11
10.99094622856022
 21
8.763099999991255
 31
0.0
  0
LINE
  5
105D3
330
105D1
100
AcDbEntity
  8
0
  6
CONTINUOUS
100
AcDbLine
 10
10.87250383178748
 20
7.971138394138331
 30
0.0
 11
11.6644654376404
 21
8.763099999991255
 31
0.0
  0
LINE
  5
105D4
330
105D1
100
AcDbEntity
  8
0
  6
CONTINUOUS
100
AcDbLine
 10
11.07208458256261
 20
7.497199935833273
 30
0.0
 11
12.12126590876355
 21
8.546381262034211
 31
0.0
  0
LINE
  5
105D5
330
105D1
100
AcDbEntity
  8
0
  6
CONTINUOUS
100
AcDbLine
 10
11.27166533333774
 20
7.023261477528216
 30
0.0
 11
12.32085164573666
 21
8.072447789927136
 31
0.0
  0
LINE
  5
105D6
330
105D1
100
AcDbEntity
  8
0
  6
CONTINUOUS
100
AcDbLine
 10
11.47124608411287
 20
6.549323019223158
 30
0.0
 11
12.52043738270977
 21
7.59851431782006
 31
0.0
  0
LINE
  5
105D7
330
105D1
100
AcDbEntity
  8
0
  6
CONTINUOUS
100
AcDbLine
 10
11.670826834888
 20
6.075384560918101
 30
0.0
 11
12.72002311968288
 21
7.124580845712984
 31
0.0
  0
LINE
  5
105D8
330
105D1
100
AcDbEntity
  8
0
  6
CONTINUOUS
100
AcDbLine
 10
11.87040758566313
 20
5.601446102613043
 30
0.0
 11
12.91960885665599
 21
6.650647373605907
 31
0.0
  0
LINE
  5
105D9
330
105D1
100
AcDbEntity
  8
0
  6
CONTINUOUS
100
AcDbLine
 10
12.06998833643825
 20
5.127507644307986
 30
0.0
 11
13.1191945936291
 21
6.176713901498832
 31
0.0
  0
LINE
  5
105DA
330
105D1
100
AcDbEntity
  8
0
  6
CONTINUOUS
100
AcDbLine
 10
12.26956908721338
 20
4.65356918600293
 30
0.0
 11
13.31878033060221
 21
5.702780429391757
 31
0.0
  0
LINE
  5
105DB
330
105D1
100
AcDbEntity
  8
0
  6
CONTINUOUS
100
AcDbLine
 10
12.46914983798851
 20
4.179630727697873
 30
0.0
 11
13.51836606757532
 21
5.228846957284683
 31
0.0
  0
LINE
  5
105DC
330
105D1
100
AcDbEntity
  8
0
  6
CONTINUOUS
100
AcDbLine
 10
12.66873058876364
 20
3.705692269392816
 30
0.0
 11
13.71795180454843
 21
4.754913485177607
 31
0.0
  0
LINE
  5
105DD
330
105D1
100
AcDbEntity
  8
0
  6
CONTINUOUS
100
AcDbLine
 10
12.86831133953877
 20
3.231753811087759
 30
0.0
 11
13.91753754152154
 21
4.280980013070531
 31
0.0
  0
LINE
  5
105DE
330
105D1
100
AcDbEntity
  8
0
  6
CONTINUOUS
100
AcDbLine
 10
13.0678920903139
 20
2.757815352782702
 30
0.0
 11
14.11712327849465
 21
3.807046540963456
 31
0.0
  0
LINE
  5
105DF
330
105D1
100
AcDbEntity
  8
0
  6
CONTINUOUS
100
AcDbLine
 10
13.26747284108903
 20
2.283876894477644
 30
0.0
 11
14.31670901546777
 21
3.333113068856379
 31
0.0
  0
LINE
  5
105E0
330
105D1
100
AcDbEntity
  8
0
  6
CONTINUOUS
100
AcDbLine
 10
16.36767838827179
 20
8.751678487061342
 30
0.0
 11
16.50332410898388
 21
8.887324207773432
 31
0.0
  0
LINE
  5
105E1
330
105D1
100
AcDbEntity
  8
0
  6
CONTINUOUS
100
AcDbLine
 10
15.96190732182191
 20
7.67238821153127
 30
0.0
 11
16.68735328004734
 21
8.397834169756699
 31
0.0
  0
LINE
  5
105E2
330
105D1
100
AcDbEntity
  8
0
  6
CONTINUOUS
100
AcDbLine
 10
15.55613625537202
 20
6.593097936001196
 30
0.0
 11
16.87138245111079
 21
7.908344131739965
 31
0.0
  0
LINE
  5
105E3
330
105D1
100
AcDbEntity
  8
0
  6
CONTINUOUS
100
AcDbLine
 10
15.15036518892213
 20
5.513807660471122
 30
0.0
 11
17.05541162217424
 21
7.418854093723231
 31
0.0
  0
LINE
  5
105E4
330
105D1
100
AcDbEntity
  8
0
  6
CONTINUOUS
100
AcDbLine
 10
14.74459412247225
 20
4.434517384941048
 30
0.0
 11
17.2394407932377
 21
6.929364055706499
 31
0.0
  0
LINE
  5
105E5
330
105D1
100
AcDbEntity
  8
0
  6
CONTINUOUS
100
AcDbLine
 10
14.33882305602236
 20
3.355227109410975
 30
0.0
 11
17.42346996430115
 21
6.439874017689766
 31
0.0
  0
LINE
  5
105E6
330
105D1
100
AcDbEntity
  8
0
  6
CONTINUOUS
100
AcDbLine
 10
13.46705359186416
 20
1.809938436172586
 30
0.0
 11
16.0819338255367
 21
4.424818669845129
 31
0.0
  0
LINE
  5
105E7
330
105D1
100
AcDbEntity
  8
0
  6
CONTINUOUS
100
AcDbLine
 10
16.63283254238972
 20
4.975717386698149
 30
0.0
 11
17.60749913536461
 21
5.950383979673033
 31
0.0
  0
LINE
  5
105E8
330
105D1
100
AcDbEntity
  8
0
  6
CONTINUOUS
100
AcDbLine
 10
13.66663434263929
 20
1.335999977867529
 30
0.0
 11
15.67604797733754
 21
3.345413612565779
 31
0.0
  0
LINE
  5
105E9
330
105D1
100
AcDbEntity
  8
0
  6
CONTINUOUS
100
AcDbLine
 10
13.86621509341442
 20
0.8620615195624723
 30
0.0
 11
15.27016212913838
 21
2.26600855528643
 31
0.0
  0
LINE
  5
105EA
330
105D1
100
AcDbEntity
  8
0
  6
CONTINUOUS
100
AcDbLine
 10
16.81682257348267
 20
4.486188208710908
 30
0.0
 11
17.79152830642806
 21
5.460893941656299
 31
0.0
  0
LINE
  5
105EB
330
105D1
100
AcDbEntity
  8
0
  6
CONTINUOUS
100
AcDbLine
 10
17.00081260457561
 20
3.996659030723667
 30
0.0
 11
17.97555747749151
 21
4.971403903639565
 31
0.0
  0
LINE
  5
105EC
330
105D1
100
AcDbEntity
  8
0
  6
CONTINUOUS
100
AcDbLine
 10
20.74362343514722
 20
8.412989070375462
 30
0.0
 11
21.09373436476302
 21
8.763099999991256
 31
0.0
  0
LINE
  5
105ED
330
105D1
100
AcDbEntity
  8
0
  6
CONTINUOUS
100
AcDbLine
 10
20.25401257174777
 20
7.249858997895826
 30
0.0
 11
21.7672535738432
 21
8.763099999991255
 31
0.0
  0
LINE
  5
105EE
330
105D1
100
AcDbEntity
  8
0
  6
CONTINUOUS
100
AcDbLine
 10
14.06579584418955
 20
0.3881230612574149
 30
0.0
 11
14.86427628093921
 21
1.186603498007082
 31
0.0
  0
LINE
  5
105EF
330
105D1
100
AcDbEntity
  8
0
  6
CONTINUOUS
100
AcDbLine
 10
14.26537659496467
 20
-0.0858153970476412
 30
0.0
 11
14.45839043274005
 21
0.1071984407277329
 31
0.0
  0
LINE
  5
105F0
330
105D1
100
AcDbEntity
  8
0
  6
CONTINUOUS
100
AcDbLine
 10
17.18480263566856
 20
3.507129852736426
 30
0.0
 11
18.15958664855496
 21
4.481913865622833
 31
0.0
  0
LINE
  5
105F1
330
105D1
100
AcDbEntity
  8
0
  6
CONTINUOUS
100
AcDbLine
 10
17.3687926667615
 20
3.017600674749186
 30
0.0
 11
18.34361581961842
 21
3.9924238276061
 31
0.0
  0
LINE
  5
105F2
330
105D1
100
AcDbEntity
  8
0
  6
CONTINUOUS
100
AcDbLine
 10
19.76440170834832
 20
6.086728925416191
 30
0.0
 11
22.33924590259489
 21
8.661573119662755
 31
0.0
  0
LINE
  5
105F3
330
105D1
100
AcDbEntity
  8
0
  6
CONTINUOUS
100
AcDbLine
 10
19.27479084494887
 20
4.923598852936555
 30
0.0
 11
21.84929622842713
 21
7.498104236414807
 31
0.0
  0
LINE
  5
105F4
330
105D1
100
AcDbEntity
  8
0
  6
CONTINUOUS
100
AcDbLine
 10
17.55278269785445
 20
2.528071496761945
 30
0.0
 11
18.52764499068187
 21
3.502933789589366
 31
0.0
  0
LINE
  5
105F5
330
105D1
100
AcDbEntity
  8
0
  6
CONTINUOUS
100
AcDbLine
 10
18.78517998154942
 20
3.760468780456919
 30
0.0
 11
21.35934655425936
 21
6.33463535316686
 31
0.0
  0
LINE
  5
105F6
330
105D1
100
AcDbEntity
  8
0
  6
CONTINUOUS
100
AcDbLine
 10
17.73677272894739
 20
2.038542318774704
 30
0.0
 11
20.8693968800916
 21
5.171166469918914
 31
0.0
  0
LINE
  5
105F7
330
105D1
100
AcDbEntity
  8
0
  6
CONTINUOUS
100
AcDbLine
 10
17.92076276004034
 20
1.549013140787464
 30
0.0
 11
20.37944720592384
 21
4.007697586670968
 31
0.0
  0
LINE
  5
105F8
330
105D1
100
AcDbEntity
  8
0
  6
CONTINUOUS
100
AcDbLine
 10
18.10475279113329
 20
1.059483962800223
 30
0.0
 11
19.88949753175608
 21
2.84422870342302
 31
0.0
  0
LINE
  5
105F9
330
105D1
100
AcDbEntity
  8
0
  6
CONTINUOUS
100
AcDbLine
 10
18.28874282222623
 20
0.5699547848129822
 30
0.0
 11
19.39954785758832
 21
1.680759820175074
 31
0.0
  0
LINE
  5
105FA
330
105D1
100
AcDbEntity
  8
0
  6
CONTINUOUS
100
AcDbLine
 10
18.47273285331918
 20
0.0804256068257416
 30
0.0
 11
18.90959818342056
 21
0.517290936927127
 31
0.0
  0
LINE
  5
105FB
330
105D1
100
AcDbEntity
  8
0
  6
CONTINUOUS
100
AcDbLine
 10
14.3590401358224
 20
-0.1570118376323384
 30
0.0
 11
14.24903296539946
 21
-0.0470046672093929
 31
0.0
  0
LINE
  5
105FC
330
105D1
100
AcDbEntity
  8
0
  6
CONTINUOUS
100
AcDbLine
 10
14.54309291258661
 20
0.332454594683643
 30
0.0
 11
13.75908329123172
 21
1.116464216038529
 31
0.0
  0
LINE
  5
105FD
330
105D1
100
AcDbEntity
  8
0
  6
CONTINUOUS
100
AcDbLine
 10
14.72714568935081
 20
0.8219210269996244
 30
0.0
 11
13.26913361706399
 21
2.27993309928645
 31
0.0
  0
LINE
  5
105FE
330
105D1
100
AcDbEntity
  8
0
  6
CONTINUOUS
100
AcDbLine
 10
14.91119846611502
 20
1.311387459315606
 30
0.0
 11
12.77918394289625
 21
3.443401982534371
 31
0.0
  0
LINE
  5
105FF
330
105D1
100
AcDbEntity
  8
0
  6
CONTINUOUS
100
AcDbLine
 10
15.09525124287922
 20
1.800853891631587
 30
0.0
 11
12.28923426872852
 21
4.606870865782293
 31
0.0
  0
LINE
  5
10600
330
105D1
100
AcDbEntity
  8
0
  6
CONTINUOUS
100
AcDbLine
 10
15.27930401964343
 20
2.290320323947569
 30
0.0
 11
11.79928459456078
 21
5.770339749030213
 31
0.0
  0
LINE
  5
10601
330
105D1
100
AcDbEntity
  8
0
  6
CONTINUOUS
100
AcDbLine
 10
15.46335679640763
 20
2.77978675626355
 30
0.0
 11
14.48885470994921
 21
3.754288842721972
 31
0.0
  0
LINE
  5
10602
330
105D1
100
AcDbEntity
  8
0
  6
CONTINUOUS
100
AcDbLine
 10
13.88507249233704
 20
4.358071060334137
 30
0.0
 11
11.30933492039305
 21
6.933808632278135
 31
0.0
  0
LINE
  5
10603
330
105D1
100
AcDbEntity
  8
0
  6
CONTINUOUS
100
AcDbLine
 10
18.75840522805855
 20
0.1582575336928151
 30
0.0
 11
18.25383727664818
 21
0.6628254851031863
 31
0.0
  0
LINE
  5
10604
330
105D1
100
AcDbEntity
  8
0
  6
CONTINUOUS
100
AcDbLine
 10
15.64740957317184
 20
3.269253188579531
 30
0.0
 11
14.67288388101266
 21
4.243778880738705
 31
0.0
  0
LINE
  5
10605
330
105D1
100
AcDbEntity
  8
0
  6
CONTINUOUS
100
AcDbLine
 10
13.39509276772158
 20
5.521569994029786
 30
0.0
 11
10.81938524622531
 21
8.097277515526056
 31
0.0
  0
LINE
  5
10606
330
105D1
100
AcDbEntity
  8
0
  6
CONTINUOUS
100
AcDbLine
 10
18.95798597883369
 20
0.6321959919978686
 30
0.0
 11
17.84825644852853
 21
1.741925522303024
 31
0.0
  0
LINE
  5
10607
330
105D1
100
AcDbEntity
  8
0
  6
CONTINUOUS
100
AcDbLine
 10
19.15756672960882
 20
1.106134450302922
 30
0.0
 11
17.44267562040888
 21
2.821025559502861
 31
0.0
  0
LINE
  5
10608
330
105D1
100
AcDbEntity
  8
0
  6
CONTINUOUS
100
AcDbLine
 10
15.83146234993604
 20
3.758719620895513
 30
0.0
 11
14.85691305207612
 21
4.733268918755439
 31
0.0
  0
LINE
  5
10609
330
105D1
100
AcDbEntity
  8
0
  6
CONTINUOUS
100
AcDbLine
 10
16.01551512670025
 20
4.248186053211494
 30
0.0
 11
15.04094222313957
 21
5.222758956772172
 31
0.0
  0
LINE
  5
1060A
330
105D1
100
AcDbEntity
  8
0
  6
CONTINUOUS
100
AcDbLine
 10
12.90511304310612
 20
6.685068927725435
 30
0.0
 11
10.8270819708403
 21
8.763099999991255
 31
0.0
  0
LINE
  5
1060B
330
105D1
100
AcDbEntity
  8
0
  6
CONTINUOUS
100
AcDbLine
 10
12.41513331849066
 20
7.848567861421083
 30
0.0
 11
11.50060117992049
 21
8.763099999991255
 31
0.0
  0
LINE
  5
1060C
330
105D1
100
AcDbEntity
  8
0
  6
CONTINUOUS
100
AcDbLine
 10
19.35714748038395
 20
1.580072908607975
 30
0.0
 11
17.03709479228923
 21
3.900125596702697
 31
0.0
  0
LINE
  5
1060D
330
105D1
100
AcDbEntity
  8
0
  6
CONTINUOUS
100
AcDbLine
 10
19.55672823115909
 20
2.054011366913028
 30
0.0
 11
16.63151396416958
 21
4.979225633902534
 31
0.0
  0
LINE
  5
1060E
330
105D1
100
AcDbEntity
  8
0
  6
CONTINUOUS
100
AcDbLine
 10
16.19956790346445
 20
4.737652485527476
 30
0.0
 11
15.22497139420302
 21
5.712248994788904
 31
0.0
  0
LINE
  5
1060F
330
105D1
100
AcDbEntity
  8
0
  6
CONTINUOUS
100
AcDbLine
 10
16.38362068022866
 20
5.227118917843457
 30
0.0
 11
15.40900056526648
 21
6.201739032805637
 31
0.0
  0
LINE
  5
10610
330
105D1
100
AcDbEntity
  8
0
  6
CONTINUOUS
100
AcDbLine
 10
19.75630898193422
 20
2.527949825218081
 30
0.0
 11
18.70774536448286
 21
3.576513442669441
 31
0.0
  0
LINE
  5
10611
330
105D1
100
AcDbEntity
  8
0
  6
CONTINUOUS
100
AcDbLine
 10
19.95588973270936
 20
3.001888283523134
 30
0.0
 11
18.90726987211446
 21
4.050508144118028
 31
0.0
  0
LINE
  5
10612
330
105D1
100
AcDbEntity
  8
0
  6
CONTINUOUS
100
AcDbLine
 10
20.15547048348449
 20
3.475826741828186
 30
0.0
 11
19.10679437974606
 21
4.524502845566614
 31
0.0
  0
LINE
  5
10613
330
105D1
100
AcDbEntity
  8
0
  6
CONTINUOUS
100
AcDbLine
 10
20.35505123425962
 20
3.94976520013324
 30
0.0
 11
19.30631888737766
 21
4.998497547015201
 31
0.0
  0
LINE
  5
10614
330
105D1
100
AcDbEntity
  8
0
  6
CONTINUOUS
100
AcDbLine
 10
20.55463198503475
 20
4.423703658438292
 30
0.0
 11
19.50584339500926
 21
5.472492248463787
 31
0.0
  0
LINE
  5
10615
330
105D1
100
AcDbEntity
  8
0
  6
CONTINUOUS
100
AcDbLine
 10
18.37481191085755
 20
3.909446896294752
 30
0.0
 11
15.59302973632993
 21
6.691229070822371
 31
0.0
  0
LINE
  5
10616
330
105D1
100
AcDbEntity
  8
0
  6
CONTINUOUS
100
AcDbLine
 10
17.96904084440766
 20
4.988737171824825
 30
0.0
 11
15.77705890739338
 21
7.180719108839104
 31
0.0
  0
LINE
  5
10617
330
105D1
100
AcDbEntity
  8
0
  6
CONTINUOUS
100
AcDbLine
 10
17.56326977795777
 20
6.068027447354899
 30
0.0
 11
15.96108807845684
 21
7.670209146855838
 31
0.0
  0
LINE
  5
10618
330
105D1
100
AcDbEntity
  8
0
  6
CONTINUOUS
100
AcDbLine
 10
17.15749871150789
 20
7.147317722884972
 30
0.0
 11
16.14511724952029
 21
8.15969918487257
 31
0.0
  0
LINE
  5
10619
330
105D1
100
AcDbEntity
  8
0
  6
CONTINUOUS
100
AcDbLine
 10
16.751727645058
 20
8.226607998415046
 30
0.0
 11
16.32914642058374
 21
8.649189222889303
 31
0.0
  0
LINE
  5
1061A
330
105D1
100
AcDbEntity
  8
0
  6
CONTINUOUS
100
AcDbLine
 10
20.75421273580989
 20
4.897642116743345
 30
0.0
 11
19.70536790264086
 21
5.946486949912374
 31
0.0
  0
LINE
  5
1061B
330
105D1
100
AcDbEntity
  8
0
  6
CONTINUOUS
100
AcDbLine
 10
20.95379348658502
 20
5.371580575048398
 30
0.0
 11
19.90489241027246
 21
6.42048165136096
 31
0.0
  0
LINE
  5
1061C
330
105D1
100
AcDbEntity
  8
0
  6
CONTINUOUS
100
AcDbLine
 10
21.15337423736015
 20
5.845519033353452
 30
0.0
 11
20.10441691790406
 21
6.894476352809547
 31
0.0
  0
LINE
  5
1061D
330
105D1
100
AcDbEntity
  8
0
  6
CONTINUOUS
100
AcDbLine
 10
21.35295498813529
 20
6.319457491658505
 30
0.0
 11
20.30394142553566
 21
7.368471054258134
 31
0.0
  0
LINE
  5
1061E
330
105D1
100
AcDbEntity
  8
0
  6
CONTINUOUS
100
AcDbLine
 10
21.55253573891042
 20
6.793395949963558
 30
0.0
 11
20.50346593316726
 21
7.842465755706721
 31
0.0
  0
LINE
  5
1061F
330
105D1
100
AcDbEntity
  8
0
  6
CONTINUOUS
100
AcDbLine
 10
21.75211648968556
 20
7.267334408268612
 30
0.0
 11
20.70299044079886
 21
8.316460457155308
 31
0.0
  0
LINE
  5
10620
330
105D1
100
AcDbEntity
  8
0
  6
CONTINUOUS
100
AcDbLine
 10
21.95169724046069
 20
7.741272866573663
 30
0.0
 11
20.9298701070431
 21
8.763099999991256
 31
0.0
  0
LINE
  5
10621
330
105D1
100
AcDbEntity
  8
0
  6
CONTINUOUS
100
AcDbLine
 10
22.15127799123582
 20
8.215211324878716
 30
0.0
 11
21.60338931612328
 21
8.763099999991256
 31
0.0
  0
LINE
  5
10622
330
105D1
100
AcDbEntity
  8
0
  6
CONTINUOUS
100
AcDbLine
 10
22.35085874201096
 20
8.689149783183769
 30
0.0
 11
22.27690852520347
 21
8.763099999991255
 31
0.0
  0
ENDBLK
  5
10714
330
105D1
100
AcDbEntity
  8
0
100
AcDbBlockEnd
  0
BLOCK
  5
10715
330
10623
100
AcDbEntity
  8
0
100
AcDbBlockBegin
  2
*X23
 70
     1
 10
0.0
 20
0.0
 30
0.0
  3
*X23
  1

  0
LINE
  5
10624
330
10623
100
AcDbEntity
  8
0
  6
CONTINUOUS
100
AcDbLine
 10
23.19462913593892
 20
8.169917934846424
 30
0.0
 11
23.70775465517246
 21
8.683043454079957
 31
0.0
  0
LINE
  5
10625
330
10623
100
AcDbEntity
  8
0
  6
CONTINUOUS
100
AcDbLine
 10
22.64923161835078
 20
6.951001208178088
 30
0.0
 11
23.9159364069932
 21
8.217705996820516
 31
0.0
  0
LINE
  5
10626
330
10623
100
AcDbEntity
  8
0
  6
CONTINUOUS
100
AcDbLine
 10
22.10383410076263
 20
5.732084481509751
 30
0.0
 11
24.12411815881395
 21
7.752368539561078
 31
0.0
  0
LINE
  5
10627
330
10623
100
AcDbEntity
  8
0
  6
CONTINUOUS
100
AcDbLine
 10
21.55843658317447
 20
4.513167754841414
 30
0.0
 11
24.3322999106347
 21
7.287031082301639
 31
0.0
  0
LINE
  5
10628
330
10623
100
AcDbEntity
  8
0
  6
CONTINUOUS
100
AcDbLine
 10
21.01303906558632
 20
3.294251028173077
 30
0.0
 11
24.54048166245544
 21
6.821693625042199
 31
0.0
  0
LINE
  5
10629
330
10623
100
AcDbEntity
  8
0
  6
CONTINUOUS
100
AcDbLine
 10
20.46764154799817
 20
2.075334301504738
 30
0.0
 11
23.28571549467848
 21
4.89340824818505
 31
0.0
  0
LINE
  5
1062A
330
10623
100
AcDbEntity
  8
0
  6
CONTINUOUS
100
AcDbLine
 10
19.92224403041002
 20
0.8564175748364002
 30
0.0
 11
22.74075865492779
 21
3.674932199354171
 31
0.0
  0
LINE
  5
1062B
330
10623
100
AcDbEntity
  8
0
  6
CONTINUOUS
100
AcDbLine
 10
23.67305085490148
 20
5.280743608408048
 30
0.0
 11
24.74866341427619
 21
6.356356167782759
 31
0.0
  0
LINE
  5
1062C
330
10623
100
AcDbEntity
  8
0
  6
CONTINUOUS
100
AcDbLine
 10
23.88118970842314
 20
4.815363252849522
 30
0.0
 11
24.95684516609694
 21
5.89101871052332
 31
0.0
  0
LINE
  5
1062D
330
10623
100
AcDbEntity
  8
0
  6
CONTINUOUS
100
AcDbLine
 10
19.73925852647308
 20
-0.0000871381807288
 30
0.0
 11
23.4103456646501
 21
3.670999999996297
 31
0.0
  0
LINE
  5
1062E
330
10623
100
AcDbEntity
  8
0
  6
CONTINUOUS
100
AcDbLine
 10
24.0893285619448
 20
4.349982897290997
 30
0.0
 11
25.16502691791769
 21
5.42568125326388
 31
0.0
  0
LINE
  5
1062F
330
10623
100
AcDbEntity
  8
0
  6
CONTINUOUS
100
AcDbLine
 10
20.41282099582748
 20
-0.0000438779065108
 30
0.0
 11
21.64944178675636
 21
1.236576913022366
 31
0.0
  0
LINE
  5
10630
330
10623
100
AcDbEntity
  8
0
  6
CONTINUOUS
100
AcDbLine
 10
22.78126487373161
 20
2.36839999999762
 30
0.0
 11
24.08386487373029
 21
3.670999999996297
 31
0.0
  0
LINE
  5
10631
330
10623
100
AcDbEntity
  8
0
  6
CONTINUOUS
100
AcDbLine
 10
24.29746741546646
 20
3.884602541732471
 30
0.0
 11
25.37320866973843
 21
4.960343796004441
 31
0.0
  0
LINE
  5
10632
330
10623
100
AcDbEntity
  8
0
  6
CONTINUOUS
100
AcDbLine
 10
21.08638346518189
 20
-0.0000006176322938
 30
0.0
 11
21.10379033335899
 21
0.0174062505448083
 31
0.0
  0
LINE
  5
10633
330
10623
100
AcDbEntity
  8
0
  6
CONTINUOUS
100
AcDbLine
 10
23.4547840828118
 20
2.36839999999762
 30
0.0
 11
25.58139042155918
 21
4.495006338745002
 31
0.0
  0
LINE
  5
10634
330
10623
100
AcDbEntity
  8
0
  6
CONTINUOUS
100
AcDbLine
 10
29.30199999996933
 20
8.215615917155148
 30
0.0
 11
29.84948408280543
 21
8.763099999991255
 31
0.0
  0
LINE
  5
10635
330
10623
100
AcDbEntity
  8
0
  6
CONTINUOUS
100
AcDbLine
 10
24.12830329189199
 20
2.36839999999762
 30
0.0
 11
25.78957217337993
 21
4.029668881485562
 31
0.0
  0
LINE
  5
10636
330
10623
100
AcDbEntity
  8
0
  6
CONTINUOUS
100
AcDbLine
 10
29.30199999996933
 20
7.54209670807496
 30
0.0
 11
30.52300329188562
 21
8.763099999991255
 31
0.0
  0
LINE
  5
10637
330
10623
100
AcDbEntity
  8
0
  6
CONTINUOUS
100
AcDbLine
 10
24.80182250097217
 20
2.36839999999762
 30
0.0
 11
25.99775392520067
 21
3.564331424226122
 31
0.0
  0
LINE
  5
10638
330
10623
100
AcDbEntity
  8
0
  6
CONTINUOUS
100
AcDbLine
 10
29.30199999996933
 20
6.868577498994774
 30
0.0
 11
30.74199999996926
 21
8.308577498994712
 31
0.0
  0
LINE
  5
10639
330
10623
100
AcDbEntity
  8
0
  6
CONTINUOUS
100
AcDbLine
 10
25.13028238392013
 20
2.023340673865392
 30
0.0
 11
26.20593567702142
 21
3.098993966966683
 31
0.0
  0
LINE
  5
1063A
330
10623
100
AcDbEntity
  8
0
  6
CONTINUOUS
100
AcDbLine
 10
25.33838066033617
 20
1.557919741201244
 30
0.0
 11
26.41411742884217
 21
2.633656509707244
 31
0.0
  0
LINE
  5
1063B
330
10623
100
AcDbEntity
  8
0
  6
CONTINUOUS
100
AcDbLine
 10
25.54647893675221
 20
1.092498808537098
 30
0.0
 11
26.62229918066291
 21
2.168319052447804
 31
0.0
  0
LINE
  5
1063C
330
10623
100
AcDbEntity
  8
0
  6
CONTINUOUS
100
AcDbLine
 10
25.75457721316825
 20
0.62707787587295
 30
0.0
 11
26.83048093248366
 21
1.702981595188365
 31
0.0
  0
LINE
  5
1063D
330
10623
100
AcDbEntity
  8
0
  6
CONTINUOUS
100
AcDbLine
 10
29.30199999996933
 20
6.195058289914587
 30
0.0
 11
30.74199999996926
 21
7.635058289914522
 31
0.0
  0
LINE
  5
1063E
330
10623
100
AcDbEntity
  8
0
  6
CONTINUOUS
100
AcDbLine
 10
29.30199999996933
 20
5.521539080834401
 30
0.0
 11
30.74199999996926
 21
6.961539080834331
 31
0.0
  0
LINE
  5
1063F
330
10623
100
AcDbEntity
  8
0
  6
CONTINUOUS
100
AcDbLine
 10
29.30199999996933
 20
4.848019871754214
 30
0.0
 11
30.74199999996925
 21
6.288019871754143
 31
0.0
  0
LINE
  5
10640
330
10623
100
AcDbEntity
  8
0
  6
CONTINUOUS
100
AcDbLine
 10
29.30199999996933
 20
4.174500662674028
 30
0.0
 11
30.74199999996925
 21
5.614500662673953
 31
0.0
  0
LINE
  5
10641
330
10623
100
AcDbEntity
  8
0
  6
CONTINUOUS
100
AcDbLine
 10
25.96267548958429
 20
0.1616569432088024
 30
0.0
 11
27.18411854636669
 21
1.383099999991207
 31
0.0
  0
LINE
  5
10642
330
10623
100
AcDbEntity
  8
0
  6
CONTINUOUS
100
AcDbLine
 10
29.30199999996933
 20
3.500981453593841
 30
0.0
 11
30.74199999996925
 21
4.940981453593762
 31
0.0
  0
LINE
  5
10643
330
10623
100
AcDbEntity
  8
0
  6
CONTINUOUS
100
AcDbLine
 10
26.50763775544691
 20
0.0330999999912356
 30
0.0
 11
27.85763775544689
 21
1.383099999991223
 31
0.0
  0
LINE
  5
10644
330
10623
100
AcDbEntity
  8
0
  6
CONTINUOUS
100
AcDbLine
 10
29.30199999996933
 20
2.827462244513656
 30
0.0
 11
30.74199999996925
 21
4.267462244513574
 31
0.0
  0
LINE
  5
10645
330
10623
100
AcDbEntity
  8
0
  6
CONTINUOUS
100
AcDbLine
 10
27.18115696452709
 20
0.0330999999912356
 30
0.0
 11
28.55073879889363
 21
1.402681834357775
 31
0.0
  0
LINE
  5
10646
330
10623
100
AcDbEntity
  8
0
  6
CONTINUOUS
100
AcDbLine
 10
29.28241816560272
 20
2.134361201066866
 30
0.0
 11
30.74199999996924
 21
3.593943035433383
 31
0.0
  0
LINE
  5
10647
330
10623
100
AcDbEntity
  8
0
  6
CONTINUOUS
100
AcDbLine
 10
27.85467617360728
 20
0.0330999999912356
 30
0.0
 11
30.74199999996924
 21
2.920423826353195
 31
0.0
  0
LINE
  5
10648
330
10623
100
AcDbEntity
  8
0
  6
CONTINUOUS
100
AcDbLine
 10
28.53897559587887
 20
0.0438802131826428
 30
0.0
 11
30.73121978677781
 21
2.236124404081585
 31
0.0
  0
LINE
  5
10649
330
10623
100
AcDbEntity
  8
0
  6
CONTINUOUS
100
AcDbLine
 10
29.45140055588722
 20
0.2827859641107988
 30
0.0
 11
30.49231403584965
 21
1.323699444073236
 31
0.0
  0
LINE
  5
1064A
330
10623
100
AcDbEntity
  8
0
  6
CONTINUOUS
100
AcDbLine
 10
19.59027867740337
 20
-0.0000967065718083
 30
0.0
 11
19.55485265190471
 21
0.035329318926844
 31
0.0
  0
LINE
  5
1064B
330
10623
100
AcDbEntity
  8
0
  6
CONTINUOUS
100
AcDbLine
 10
20.26375463176586
 20
-0.0000534518541091
 30
0.0
 11
19.76305575737534
 21
0.5006454225364014
 31
0.0
  0
LINE
  5
1064C
330
10623
100
AcDbEntity
  8
0
  6
CONTINUOUS
100
AcDbLine
 10
20.93723058612834
 20
-0.0000101971364099
 30
0.0
 11
19.97125886284597
 21
0.965961526145958
 31
0.0
  0
LINE
  5
1064D
330
10623
100
AcDbEntity
  8
0
  6
CONTINUOUS
100
AcDbLine
 10
21.25514828313686
 20
0.355591314935257
 30
0.0
 11
20.1794619683166
 21
1.431277629755512
 31
0.0
  0
LINE
  5
1064E
330
10623
100
AcDbEntity
  8
0
  6
CONTINUOUS
100
AcDbLine
 10
21.46338838394921
 20
0.8208704232030986
 30
0.0
 11
20.38766507378723
 21
1.896593733365069
 31
0.0
  0
LINE
  5
1064F
330
10623
100
AcDbEntity
  8
0
  6
CONTINUOUS
100
AcDbLine
 10
21.67162848476155
 20
1.28614953147094
 30
0.0
 11
20.59586817925786
 21
2.361909836974626
 31
0.0
  0
LINE
  5
10650
330
10623
100
AcDbEntity
  8
0
  6
CONTINUOUS
100
AcDbLine
 10
21.8798685855739
 20
1.751428639738782
 30
0.0
 11
20.80407128472849
 21
2.827225940584183
 31
0.0
  0
LINE
  5
10651
330
10623
100
AcDbEntity
  8
0
  6
CONTINUOUS
100
AcDbLine
 10
22.08810868638624
 20
2.216707748006623
 30
0.0
 11
21.01227439019912
 21
3.292542044193739
 31
0.0
  0
LINE
  5
10652
330
10623
100
AcDbEntity
  8
0
  6
CONTINUOUS
100
AcDbLine
 10
22.60993564347543
 20
2.36839999999762
 30
0.0
 11
21.22047749566975
 21
3.757858147803296
 31
0.0
  0
LINE
  5
10653
330
10623
100
AcDbEntity
  8
0
  6
CONTINUOUS
100
AcDbLine
 10
23.28345485255561
 20
2.36839999999762
 30
0.0
 11
21.42868060114038
 21
4.223174251412853
 31
0.0
  0
LINE
  5
10654
330
10623
100
AcDbEntity
  8
0
  6
CONTINUOUS
100
AcDbLine
 10
26.29227406164219
 20
0.0330999999912356
 30
0.0
 11
25.80009199592872
 21
0.5252820657046957
 31
0.0
  0
LINE
  5
10655
330
10623
100
AcDbEntity
  8
0
  6
CONTINUOUS
100
AcDbLine
 10
23.9569740616358
 20
2.36839999999762
 30
0.0
 11
21.63688370661101
 21
4.688490355022409
 31
0.0
  0
LINE
  5
10656
330
10623
100
AcDbEntity
  8
0
  6
CONTINUOUS
100
AcDbLine
 10
26.96579327072237
 20
0.0330999999912356
 30
0.0
 11
25.2554132311971
 21
1.743480039516508
 31
0.0
  0
LINE
  5
10657
330
10623
100
AcDbEntity
  8
0
  6
CONTINUOUS
100
AcDbLine
 10
24.63049327071599
 20
2.36839999999762
 30
0.0
 11
23.32789327071731
 21
3.670999999996297
 31
0.0
  0
LINE
  5
10658
330
10623
100
AcDbEntity
  8
0
  6
CONTINUOUS
100
AcDbLine
 10
22.92098674744635
 20
4.077906523267254
 30
0.0
 11
21.84508681208164
 21
5.153806458631966
 31
0.0
  0
LINE
  5
10659
330
10623
100
AcDbEntity
  8
0
  6
CONTINUOUS
100
AcDbLine
 10
27.63931247980256
 20
0.0330999999912356
 30
0.0
 11
24.0014124797975
 21
3.670999999996297
 31
0.0
  0
LINE
  5
1065A
330
10623
100
AcDbEntity
  8
0
  6
CONTINUOUS
100
AcDbLine
 10
23.129125600968
 20
4.5432868788258
 30
0.0
 11
22.05328991755227
 21
5.619122562241522
 31
0.0
  0
LINE
  5
1065B
330
10623
100
AcDbEntity
  8
0
  6
CONTINUOUS
100
AcDbLine
 10
28.31283168888275
 20
0.0330999999912356
 30
0.0
 11
24.16488385994816
 21
4.181047828925828
 31
0.0
  0
LINE
  5
1065C
330
10623
100
AcDbEntity
  8
0
  6
CONTINUOUS
100
AcDbLine
 10
23.33726445448964
 20
5.008667234384345
 30
0.0
 11
22.2614930230229
 21
6.084438665851079
 31
0.0
  0
LINE
  5
1065D
330
10623
100
AcDbEntity
  8
0
  6
CONTINUOUS
100
AcDbLine
 10
28.92085740005492
 20
0.0985934978992438
 30
0.0
 11
27.63635089796295
 21
1.383099999991217
 31
0.0
  0
LINE
  5
1065E
330
10623
100
AcDbEntity
  8
0
  6
CONTINUOUS
100
AcDbLine
 10
26.43704649509776
 20
2.582404402856405
 30
0.0
 11
23.61992702019732
 21
5.399523877756844
 31
0.0
  0
LINE
  5
1065F
330
10623
100
AcDbEntity
  8
0
  6
CONTINUOUS
100
AcDbLine
 10
23.54540330801128
 20
5.47404758994289
 30
0.0
 11
22.46969612849353
 21
6.549754769460635
 31
0.0
  0
LINE
  5
10660
330
10623
100
AcDbEntity
  8
0
  6
CONTINUOUS
100
AcDbLine
 10
29.42225615078443
 20
0.2707139562499279
 30
0.0
 11
28.30987010704312
 21
1.383099999991234
 31
0.0
  0
LINE
  5
10661
330
10623
100
AcDbEntity
  8
0
  6
CONTINUOUS
100
AcDbLine
 10
25.89179548232307
 20
3.801174624711282
 30
0.0
 11
22.67789923396416
 21
7.015070873070191
 31
0.0
  0
LINE
  5
10662
330
10623
100
AcDbEntity
  8
0
  6
CONTINUOUS
100
AcDbLine
 10
29.83624534690007
 20
0.5302439692144705
 30
0.0
 11
28.85811781497101
 21
1.508371501143527
 31
0.0
  0
LINE
  5
10663
330
10623
100
AcDbEntity
  8
0
  6
CONTINUOUS
100
AcDbLine
 10
25.34654446954838
 20
5.01994484656616
 30
0.0
 11
22.88610233943479
 21
7.480386976679748
 31
0.0
  0
LINE
  5
10664
330
10623
100
AcDbEntity
  8
0
  6
CONTINUOUS
100
AcDbLine
 10
30.17865975401872
 20
0.8613487711760022
 30
0.0
 11
29.18888744090175
 21
1.851121084292977
 31
0.0
  0
LINE
  5
10665
330
10623
100
AcDbEntity
  8
0
  6
CONTINUOUS
100
AcDbLine
 10
24.80129345677369
 20
6.238715068421037
 30
0.0
 11
23.09430544490542
 21
7.945703080289305
 31
0.0
  0
LINE
  5
10666
330
10623
100
AcDbEntity
  8
0
  6
CONTINUOUS
100
AcDbLine
 10
30.45496647202376
 20
1.258561262251155
 30
0.0
 11
29.30199999996933
 21
2.411527734305588
 31
0.0
  0
LINE
  5
10667
330
10623
100
AcDbEntity
  8
0
  6
CONTINUOUS
100
AcDbLine
 10
24.256042443999
 20
7.457485290275915
 30
0.0
 11
23.30250855037605
 21
8.411019183898862
 31
0.0
  0
LINE
  5
10668
330
10623
100
AcDbEntity
  8
0
  6
CONTINUOUS
100
AcDbLine
 10
30.64868582078271
 20
1.738361122572387
 30
0.0
 11
29.30199999996933
 21
3.085046943385775
 31
0.0
  0
LINE
  5
10669
330
10623
100
AcDbEntity
  8
0
  6
CONTINUOUS
100
AcDbLine
 10
23.71079143122431
 20
8.676255512130794
 30
0.0
 11
23.51071165584668
 21
8.876335287508416
 31
0.0
  0
LINE
  5
1066A
330
10623
100
AcDbEntity
  8
0
  6
CONTINUOUS
100
AcDbLine
 10
30.73802122914428
 20
2.322544923291007
 30
0.0
 11
29.30199999996933
 21
3.758566152465961
 31
0.0
  0
LINE
  5
1066B
330
10623
100
AcDbEntity
  8
0
  6
CONTINUOUS
100
AcDbLine
 10
30.74199999996924
 20
2.992085361546236
 30
0.0
 11
29.30199999996933
 21
4.432085361546148
 31
0.0
  0
LINE
  5
1066C
330
10623
100
AcDbEntity
  8
0
  6
CONTINUOUS
100
AcDbLine
 10
30.74199999996924
 20
3.665604570626419
 30
0.0
 11
29.30199999996933
 21
5.105604570626333
 31
0.0
  0
LINE
  5
1066D
330
10623
100
AcDbEntity
  8
0
  6
CONTINUOUS
100
AcDbLine
 10
30.74199999996925
 20
4.339123779706602
 30
0.0
 11
29.30199999996933
 21
5.77912377970652
 31
0.0
  0
LINE
  5
1066E
330
10623
100
AcDbEntity
  8
0
  6
CONTINUOUS
100
AcDbLine
 10
30.74199999996925
 20
5.012642988786785
 30
0.0
 11
29.30199999996933
 21
6.452642988786707
 31
0.0
  0
LINE
  5
1066F
330
10623
100
AcDbEntity
  8
0
  6
CONTINUOUS
100
AcDbLine
 10
30.74199999996925
 20
5.68616219786697
 30
0.0
 11
29.30199999996933
 21
7.126162197866894
 31
0.0
  0
LINE
  5
10670
330
10623
100
AcDbEntity
  8
0
  6
CONTINUOUS
100
AcDbLine
 10
30.74199999996925
 20
6.359681406947153
 30
0.0
 11
29.30199999996933
 21
7.799681406947081
 31
0.0
  0
LINE
  5
10671
330
10623
100
AcDbEntity
  8
0
  6
CONTINUOUS
100
AcDbLine
 10
30.74199999996926
 20
7.033200616027337
 30
0.0
 11
29.30199999996933
 21
8.473200616027269
 31
0.0
  0
LINE
  5
10672
330
10623
100
AcDbEntity
  8
0
  6
CONTINUOUS
100
AcDbLine
 10
30.74199999996926
 20
7.706719825107518
 30
0.0
 11
29.68561982508552
 21
8.763099999991255
 31
0.0
  0
LINE
  5
10673
330
10623
100
AcDbEntity
  8
0
  6
CONTINUOUS
100
AcDbLine
 10
30.74199999996926
 20
8.380239034187703
 30
0.0
 11
30.35913903416571
 21
8.763099999991255
 31
0.0
  0
ENDBLK
  5
10716
330
10623
100
AcDbEntity
  8
0
100
AcDbBlockEnd
  0
BLOCK
  5
10717
330
10674
100
AcDbEntity
  8
0
100
AcDbBlockBegin
  2
*X24
 70
     1
 10
0.0
 20
0.0
 30
0.0
  3
*X24
  1

  0
LINE
  5
10675
330
10674
100
AcDbEntity
  8
0
  6
CONTINUOUS
100
AcDbLine
 10
31.64199999996833
 20
8.535058289913598
 30
0.0
 11
31.87004171004599
 21
8.763099999991255
 31
0.0
  0
LINE
  5
10676
330
10674
100
AcDbEntity
  8
0
  6
CONTINUOUS
100
AcDbLine
 10
31.64199999996833
 20
7.861539080833412
 30
0.0
 11
32.54356091912618
 21
8.763099999991255
 31
0.0
  0
LINE
  5
10677
330
10674
100
AcDbEntity
  8
0
  6
CONTINUOUS
100
AcDbLine
 10
31.64199999996833
 20
7.188019871753226
 30
0.0
 11
33.08199999996839
 21
8.628019871753281
 31
0.0
  0
LINE
  5
10678
330
10674
100
AcDbEntity
  8
0
  6
CONTINUOUS
100
AcDbLine
 10
31.64199999996833
 20
6.51450066267304
 30
0.0
 11
33.08199999996839
 21
7.954500662673095
 31
0.0
  0
LINE
  5
10679
330
10674
100
AcDbEntity
  8
0
  6
CONTINUOUS
100
AcDbLine
 10
31.64199999996833
 20
5.840981453592853
 30
0.0
 11
33.08199999996839
 21
7.280981453592908
 31
0.0
  0
LINE
  5
1067A
330
10674
100
AcDbEntity
  8
0
  6
CONTINUOUS
100
AcDbLine
 10
31.64199999996833
 20
5.167462244512667
 30
0.0
 11
33.08199999996839
 21
6.607462244512721
 31
0.0
  0
LINE
  5
1067B
330
10674
100
AcDbEntity
  8
0
  6
CONTINUOUS
100
AcDbLine
 10
31.64199999996833
 20
4.493943035432481
 30
0.0
 11
33.08199999996839
 21
5.933943035432535
 31
0.0
  0
LINE
  5
1067C
330
10674
100
AcDbEntity
  8
0
  6
CONTINUOUS
100
AcDbLine
 10
31.64199999996833
 20
3.820423826352293
 30
0.0
 11
33.08199999996839
 21
5.260423826352348
 31
0.0
  0
LINE
  5
1067D
330
10674
100
AcDbEntity
  8
0
  6
CONTINUOUS
100
AcDbLine
 10
31.64199999996833
 20
3.146904617272106
 30
0.0
 11
33.08199999996839
 21
4.586904617272161
 31
0.0
  0
LINE
  5
1067E
330
10674
100
AcDbEntity
  8
0
  6
CONTINUOUS
100
AcDbLine
 10
36.23199999996837
 20
8.410423826352325
 30
0.0
 11
36.5846761736073
 21
8.763099999991255
 31
0.0
  0
LINE
  5
1067F
330
10674
100
AcDbEntity
  8
0
  6
CONTINUOUS
100
AcDbLine
 10
36.23199999996837
 20
7.73690461727214
 30
0.0
 11
37.25819538268748
 21
8.763099999991255
 31
0.0
  0
LINE
  5
10680
330
10674
100
AcDbEntity
  8
0
  6
CONTINUOUS
100
AcDbLine
 10
31.64257403601376
 20
2.473959444237348
 30
0.0
 11
33.08199999996839
 21
3.913385408191974
 31
0.0
  0
LINE
  5
10681
330
10674
100
AcDbEntity
  8
0
  6
CONTINUOUS
100
AcDbLine
 10
36.23199999996837
 20
7.063385408191953
 30
0.0
 11
37.67199999996831
 21
8.503385408191894
 31
0.0
  0
LINE
  5
10682
330
10674
100
AcDbEntity
  8
0
  6
CONTINUOUS
100
AcDbLine
 10
31.72013636841932
 20
1.87800256756272
 30
0.0
 11
33.08199999996839
 21
3.239866199111788
 31
0.0
  0
LINE
  5
10683
330
10674
100
AcDbEntity
  8
0
  6
CONTINUOUS
100
AcDbLine
 10
36.23199999996837
 20
6.389866199111767
 30
0.0
 11
37.67199999996831
 21
7.829866199111708
 31
0.0
  0
LINE
  5
10684
330
10674
100
AcDbEntity
  8
0
  6
CONTINUOUS
100
AcDbLine
 10
31.89042734314753
 20
1.374774333210744
 30
0.0
 11
33.08199999996839
 21
2.566346990031601
 31
0.0
  0
LINE
  5
10685
330
10674
100
AcDbEntity
  8
0
  6
CONTINUOUS
100
AcDbLine
 10
36.23199999996837
 20
5.71634699003158
 30
0.0
 11
37.67199999996831
 21
7.156346990031521
 31
0.0
  0
LINE
  5
10686
330
10674
100
AcDbEntity
  8
0
  6
CONTINUOUS
100
AcDbLine
 10
32.14210568064475
 20
0.952933461627778
 30
0.0
 11
33.18745552475986
 21
1.998283305742888
 31
0.0
  0
LINE
  5
10687
330
10674
100
AcDbEntity
  8
0
  6
CONTINUOUS
100
AcDbLine
 10
36.23199999996837
 20
5.042827780951393
 30
0.0
 11
37.67199999996831
 21
6.482827780951334
 31
0.0
  0
LINE
  5
10688
330
10674
100
AcDbEntity
  8
0
  6
CONTINUOUS
100
AcDbLine
 10
32.45820639400955
 20
0.5955149659123915
 30
0.0
 11
33.47242681921943
 21
1.60973539112227
 31
0.0
  0
LINE
  5
10689
330
10674
100
AcDbEntity
  8
0
  6
CONTINUOUS
100
AcDbLine
 10
36.23199999996837
 20
4.369308571871207
 30
0.0
 11
37.67199999996831
 21
5.809308571871147
 31
0.0
  0
LINE
  5
1068A
330
10674
100
AcDbEntity
  8
0
  6
CONTINUOUS
100
AcDbLine
 10
32.83432456621412
 20
0.2981139290367771
 30
0.0
 11
33.89722476612215
 21
1.361014128944803
 31
0.0
  0
LINE
  5
1068B
330
10674
100
AcDbEntity
  8
0
  6
CONTINUOUS
100
AcDbLine
 10
36.23199999996837
 20
3.69578936279102
 30
0.0
 11
37.67199999996831
 21
5.135789362790962
 31
0.0
  0
LINE
  5
1068C
330
10674
100
AcDbEntity
  8
0
  6
CONTINUOUS
100
AcDbLine
 10
33.2711633111245
 20
0.0614334648669672
 30
0.0
 11
34.43247338014423
 21
1.222743533886696
 31
0.0
  0
LINE
  5
1068D
330
10674
100
AcDbEntity
  8
0
  6
CONTINUOUS
100
AcDbLine
 10
36.23199999996837
 20
3.022270153710834
 30
0.0
 11
37.67199999996831
 21
4.462270153710775
 31
0.0
  0
LINE
  5
1068E
330
10674
100
AcDbEntity
  8
0
  6
CONTINUOUS
100
AcDbLine
 10
33.76515245874577
 20
-0.1180965965919523
 30
0.0
 11
35.1587445516215
 21
1.27549549628378
 31
0.0
  0
LINE
  5
1068F
330
10674
100
AcDbEntity
  8
0
  6
CONTINUOUS
100
AcDbLine
 10
36.21639478609585
 20
2.333145730758136
 30
0.0
 11
37.67199999996831
 21
3.788750944630588
 31
0.0
  0
LINE
  5
10690
330
10674
100
AcDbEntity
  8
0
  6
CONTINUOUS
100
AcDbLine
 10
34.34060583368432
 20
-0.2161624307335863
 30
0.0
 11
37.67199999996831
 21
3.115231735550401
 31
0.0
  0
LINE
  5
10691
330
10674
100
AcDbEntity
  8
0
  6
CONTINUOUS
100
AcDbLine
 10
35.01698193613905
 20
-0.2133055373590427
 30
0.0
 11
37.66876712070525
 21
2.438479647207154
 31
0.0
  0
LINE
  5
10692
330
10674
100
AcDbEntity
  8
0
  6
CONTINUOUS
100
AcDbLine
 10
35.90743367693304
 20
0.0036269943547609
 30
0.0
 11
37.51723902192366
 21
1.613432339345381
 31
0.0
  0
LINE
  5
10693
330
10674
100
AcDbEntity
  8
0
  6
CONTINUOUS
100
AcDbLine
 10
32.55309425579761
 20
0.5074718966376706
 30
0.0
 11
32.27784730925847
 21
0.7827188431768102
 31
0.0
  0
LINE
  5
10694
330
10674
100
AcDbEntity
  8
0
  6
CONTINUOUS
100
AcDbLine
 10
33.87496468909684
 20
-0.1408793275813673
 30
0.0
 11
31.67993083278052
 21
2.054154528734943
 31
0.0
  0
LINE
  5
10695
330
10674
100
AcDbEntity
  8
0
  6
CONTINUOUS
100
AcDbLine
 10
34.64362813207632
 20
-0.2360235614806649
 30
0.0
 11
31.64199999996833
 21
2.765604570627322
 31
0.0
  0
LINE
  5
10696
330
10674
100
AcDbEntity
  8
0
  6
CONTINUOUS
100
AcDbLine
 10
35.25801106796118
 20
-0.1768872882853429
 30
0.0
 11
31.64199999996833
 21
3.439123779707508
 31
0.0
  0
LINE
  5
10697
330
10674
100
AcDbEntity
  8
0
  6
CONTINUOUS
100
AcDbLine
 10
35.79065650332146
 20
-0.0360135145654361
 30
0.0
 11
34.54143210838231
 21
1.213210880373721
 31
0.0
  0
LINE
  5
10698
330
10674
100
AcDbEntity
  8
0
  6
CONTINUOUS
100
AcDbLine
 10
33.08199999996839
 20
2.67264298878764
 30
0.0
 11
31.64199999996833
 21
4.112642988787695
 31
0.0
  0
LINE
  5
10699
330
10674
100
AcDbEntity
  8
0
  6
CONTINUOUS
100
AcDbLine
 10
36.25975597779143
 20
0.1684062200447833
 30
0.0
 11
35.15395110240023
 21
1.274211095435983
 31
0.0
  0
LINE
  5
1069A
330
10674
100
AcDbEntity
  8
0
  6
CONTINUOUS
100
AcDbLine
 10
33.08199999996839
 20
3.346162197867826
 30
0.0
 11
31.64199999996833
 21
4.786162197867881
 31
0.0
  0
LINE
  5
1069B
330
10674
100
AcDbEntity
  8
0
  6
CONTINUOUS
100
AcDbLine
 10
36.67226329638774
 20
0.4294181105286579
 30
0.0
 11
35.63766478748767
 21
1.464016619428737
 31
0.0
  0
LINE
  5
1069C
330
10674
100
AcDbEntity
  8
0
  6
CONTINUOUS
100
AcDbLine
 10
33.08199999996839
 20
4.019681406948012
 30
0.0
 11
31.64199999996833
 21
5.459681406948068
 31
0.0
  0
LINE
  5
1069D
330
10674
100
AcDbEntity
  8
0
  6
CONTINUOUS
100
AcDbLine
 10
37.01677749710036
 20
0.7584231188962329
 30
0.0
 11
35.99563422741351
 21
1.779566388583076
 31
0.0
  0
LINE
  5
1069E
330
10674
100
AcDbEntity
  8
0
  6
CONTINUOUS
100
AcDbLine
 10
33.08199999996839
 20
4.693200616028199
 30
0.0
 11
31.64199999996833
 21
6.133200616028255
 31
0.0
  0
LINE
  5
1069F
330
10674
100
AcDbEntity
  8
0
  6
CONTINUOUS
100
AcDbLine
 10
37.29859977568887
 20
1.1501200493879
 30
0.0
 11
36.20680593341555
 21
2.241913891661226
 31
0.0
  0
LINE
  5
106A0
330
10674
100
AcDbEntity
  8
0
  6
CONTINUOUS
100
AcDbLine
 10
33.08199999996839
 20
5.366719825108386
 30
0.0
 11
31.64199999996833
 21
6.80671982510844
 31
0.0
  0
LINE
  5
106A1
330
10674
100
AcDbEntity
  8
0
  6
CONTINUOUS
100
AcDbLine
 10
37.5148623517228
 20
1.607376682434161
 30
0.0
 11
36.23199999996837
 21
2.890239034188594
 31
0.0
  0
LINE
  5
106A2
330
10674
100
AcDbEntity
  8
0
  6
CONTINUOUS
100
AcDbLine
 10
33.08199999996839
 20
6.040239034188573
 30
0.0
 11
31.64199999996833
 21
7.480239034188627
 31
0.0
  0
LINE
  5
106A3
330
10674
100
AcDbEntity
  8
0
  6
CONTINUOUS
100
AcDbLine
 10
37.64705163358367
 20
2.148706609653477
 30
0.0
 11
36.23199999996837
 21
3.56375824326878
 31
0.0
  0
LINE
  5
106A4
330
10674
100
AcDbEntity
  8
0
  6
CONTINUOUS
100
AcDbLine
 10
33.08199999996839
 20
6.713758243268758
 30
0.0
 11
31.64199999996833
 21
8.153758243268815
 31
0.0
  0
LINE
  5
106A5
330
10674
100
AcDbEntity
  8
0
  6
CONTINUOUS
100
AcDbLine
 10
37.67199999996831
 20
2.797277452349026
 30
0.0
 11
36.23199999996837
 21
4.237277452348967
 31
0.0
  0
LINE
  5
106A6
330
10674
100
AcDbEntity
  8
0
  6
CONTINUOUS
100
AcDbLine
 10
37.67199999996831
 20
3.470796661429213
 30
0.0
 11
36.23199999996837
 21
4.910796661429154
 31
0.0
  0
LINE
  5
106A7
330
10674
100
AcDbEntity
  8
0
  6
CONTINUOUS
100
AcDbLine
 10
37.67199999996831
 20
4.144315870509399
 30
0.0
 11
36.23199999996837
 21
5.58431587050934
 31
0.0
  0
LINE
  5
106A8
330
10674
100
AcDbEntity
  8
0
  6
CONTINUOUS
100
AcDbLine
 10
33.08199999996839
 20
7.387277452348945
 30
0.0
 11
31.70617745232608
 21
8.763099999991255
 31
0.0
  0
LINE
  5
106A9
330
10674
100
AcDbEntity
  8
0
  6
CONTINUOUS
100
AcDbLine
 10
33.08199999996839
 20
8.060796661429132
 30
0.0
 11
32.37969666140626
 21
8.763099999991255
 31
0.0
  0
LINE
  5
106AA
330
10674
100
AcDbEntity
  8
0
  6
CONTINUOUS
100
AcDbLine
 10
33.08199999996839
 20
8.734315870509318
 30
0.0
 11
33.05321587048645
 21
8.763099999991255
 31
0.0
  0
LINE
  5
106AB
330
10674
100
AcDbEntity
  8
0
  6
CONTINUOUS
100
AcDbLine
 10
37.67199999996831
 20
4.817835079589585
 30
0.0
 11
36.23199999996837
 21
6.257835079589526
 31
0.0
  0
LINE
  5
106AC
330
10674
100
AcDbEntity
  8
0
  6
CONTINUOUS
100
AcDbLine
 10
37.67199999996831
 20
5.491354288669771
 30
0.0
 11
36.23199999996837
 21
6.931354288669713
 31
0.0
  0
LINE
  5
106AD
330
10674
100
AcDbEntity
  8
0
  6
CONTINUOUS
100
AcDbLine
 10
37.67199999996831
 20
6.164873497749958
 30
0.0
 11
36.23199999996837
 21
7.6048734977499
 31
0.0
  0
LINE
  5
106AE
330
10674
100
AcDbEntity
  8
0
  6
CONTINUOUS
100
AcDbLine
 10
37.67199999996831
 20
6.838392706830144
 30
0.0
 11
36.23199999996837
 21
8.278392706830086
 31
0.0
  0
LINE
  5
106AF
330
10674
100
AcDbEntity
  8
0
  6
CONTINUOUS
100
AcDbLine
 10
37.67199999996831
 20
7.511911915910332
 30
0.0
 11
36.42081191588738
 21
8.763099999991255
 31
0.0
  0
LINE
  5
106B0
330
10674
100
AcDbEntity
  8
0
  6
CONTINUOUS
100
AcDbLine
 10
37.67199999996831
 20
8.185431124990519
 30
0.0
 11
37.09433112496757
 21
8.763099999991255
 31
0.0
  0
ENDBLK
  5
10718
330
10674
100
AcDbEntity
  8
0
100
AcDbBlockEnd
  0
BLOCK
  5
10719
330
106B1
100
AcDbEntity
  8
0
100
AcDbBlockBegin
  2
*X25
 70
     1
 10
0.0
 20
0.0
 30
0.0
  3
*X25
  1

  0
LINE
  5
106B2
330
106B1
100
AcDbEntity
  8
0
  6
CONTINUOUS
100
AcDbLine
 10
38.60499999996136
 20
8.762866199104765
 30
0.0
 11
38.71672554182345
 21
8.874591740966855
 31
0.0
  0
LINE
  5
106B3
330
106B1
100
AcDbEntity
  8
0
  6
CONTINUOUS
100
AcDbLine
 10
38.60499999996136
 20
8.089346990024577
 30
0.0
 11
39.03418785440363
 21
8.518534844466847
 31
0.0
  0
LINE
  5
106B4
330
106B1
100
AcDbEntity
  8
0
  6
CONTINUOUS
100
AcDbLine
 10
38.60499999996136
 20
7.41582778094439
 30
0.0
 11
39.35165016698382
 21
8.16247794796684
 31
0.0
  0
LINE
  5
106B5
330
106B1
100
AcDbEntity
  8
0
  6
CONTINUOUS
100
AcDbLine
 10
38.60499999996136
 20
6.742308571864204
 30
0.0
 11
39.66911247956399
 21
7.806421051466834
 31
0.0
  0
LINE
  5
106B6
330
106B1
100
AcDbEntity
  8
0
  6
CONTINUOUS
100
AcDbLine
 10
38.60499999996136
 20
6.068789362784018
 30
0.0
 11
39.98657479214418
 21
7.450364154966827
 31
0.0
  0
LINE
  5
106B7
330
106B1
100
AcDbEntity
  8
0
  6
CONTINUOUS
100
AcDbLine
 10
38.60499999996136
 20
5.395270153703832
 30
0.0
 11
40.30403710472435
 21
7.09430725846682
 31
0.0
  0
LINE
  5
106B8
330
106B1
100
AcDbEntity
  8
0
  6
CONTINUOUS
100
AcDbLine
 10
38.60499999996136
 20
4.721750944623645
 30
0.0
 11
40.62149941730453
 21
6.738250361966813
 31
0.0
  0
LINE
  5
106B9
330
106B1
100
AcDbEntity
  8
0
  6
CONTINUOUS
100
AcDbLine
 10
38.60499999996136
 20
4.048231735543458
 30
0.0
 11
40.93896172988471
 21
6.382193465466806
 31
0.0
  0
LINE
  5
106BA
330
106B1
100
AcDbEntity
  8
0
  6
CONTINUOUS
100
AcDbLine
 10
38.60499999996136
 20
3.374712526463272
 30
0.0
 11
40.02599999995994
 21
4.795712526461843
 31
0.0
  0
LINE
  5
106BB
330
106B1
100
AcDbEntity
  8
0
  6
CONTINUOUS
100
AcDbLine
 10
38.60499999996136
 20
2.701193317383085
 30
0.0
 11
40.02599999995994
 21
4.122193317381657
 31
0.0
  0
LINE
  5
106BC
330
106B1
100
AcDbEntity
  8
0
  6
CONTINUOUS
100
AcDbLine
 10
40.28339754687704
 20
5.053110073378947
 30
0.0
 11
41.25642404246489
 21
6.026136568966799
 31
0.0
  0
LINE
  5
106BD
330
106B1
100
AcDbEntity
  8
0
  6
CONTINUOUS
100
AcDbLine
 10
40.60085985945722
 20
4.697053176878939
 30
0.0
 11
41.57388635504507
 21
5.670079672466793
 31
0.0
  0
LINE
  5
106BE
330
106B1
100
AcDbEntity
  8
0
  6
CONTINUOUS
100
AcDbLine
 10
43.57899999995641
 20
8.348712526458318
 30
0.0
 11
43.99338747348935
 21
8.763099999991255
 31
0.0
  0
LINE
  5
106BF
330
106B1
100
AcDbEntity
  8
0
  6
CONTINUOUS
100
AcDbLine
 10
43.57899999995641
 20
7.675193317378131
 30
0.0
 11
44.66690668256953
 21
8.763099999991255
 31
0.0
  0
LINE
  5
106C0
330
106B1
100
AcDbEntity
  8
0
  6
CONTINUOUS
100
AcDbLine
 10
38.60499999996136
 20
2.027674108302898
 30
0.0
 11
40.02599999995994
 21
3.44867410830147
 31
0.0
  0
LINE
  5
106C1
330
106B1
100
AcDbEntity
  8
0
  6
CONTINUOUS
100
AcDbLine
 10
38.60499999996136
 20
1.354154899222712
 30
0.0
 11
40.02599999995994
 21
2.775154899221284
 31
0.0
  0
LINE
  5
106C2
330
106B1
100
AcDbEntity
  8
0
  6
CONTINUOUS
100
AcDbLine
 10
38.60499999996136
 20
0.6806356901425255
 30
0.0
 11
40.02599999995994
 21
2.101635690141098
 31
0.0
  0
LINE
  5
106C3
330
106B1
100
AcDbEntity
  8
0
  6
CONTINUOUS
100
AcDbLine
 10
38.60499999996136
 20
0.0071164810623383
 30
0.0
 11
40.02599999995994
 21
1.428116481060911
 31
0.0
  0
LINE
  5
106C4
330
106B1
100
AcDbEntity
  8
0
  6
CONTINUOUS
100
AcDbLine
 10
40.9183221720374
 20
4.340996280378933
 30
0.0
 11
41.89134866762525
 21
5.314022775966786
 31
0.0
  0
LINE
  5
106C5
330
106B1
100
AcDbEntity
  8
0
  6
CONTINUOUS
100
AcDbLine
 10
41.23578448461758
 20
3.984939383878926
 30
0.0
 11
42.20881098020543
 21
4.957965879466778
 31
0.0
  0
LINE
  5
106C6
330
106B1
100
AcDbEntity
  8
0
  6
CONTINUOUS
100
AcDbLine
 10
41.55324679719776
 20
3.628882487378919
 30
0.0
 11
42.52627329278561
 21
4.601908982966772
 31
0.0
  0
LINE
  5
106C7
330
106B1
100
AcDbEntity
  8
0
  6
CONTINUOUS
100
AcDbLine
 10
41.87070910977793
 20
3.272825590878912
 30
0.0
 11
42.84373560536579
 21
4.245852086466765
 31
0.0
  0
LINE
  5
106C8
330
106B1
100
AcDbEntity
  8
0
  6
CONTINUOUS
100
AcDbLine
 10
43.57899999995641
 20
7.001674108297943
 30
0.0
 11
44.99999999995498
 21
8.422674108296516
 31
0.0
  0
LINE
  5
106C9
330
106B1
100
AcDbEntity
  8
0
  6
CONTINUOUS
100
AcDbLine
 10
43.57899999995641
 20
6.328154899217758
 30
0.0
 11
44.99999999995498
 21
7.749154899216329
 31
0.0
  0
LINE
  5
106CA
330
106B1
100
AcDbEntity
  8
0
  6
CONTINUOUS
100
AcDbLine
 10
43.57899999995641
 20
5.654635690137571
 30
0.0
 11
44.99999999995498
 21
7.075635690136142
 31
0.0
  0
LINE
  5
106CB
330
106B1
100
AcDbEntity
  8
0
  6
CONTINUOUS
100
AcDbLine
 10
43.57899999995641
 20
4.981116481057384
 30
0.0
 11
44.99999999995498
 21
6.402116481055955
 31
0.0
  0
LINE
  5
106CC
330
106B1
100
AcDbEntity
  8
0
  6
CONTINUOUS
100
AcDbLine
 10
39.27140272797921
 20
-0.0000000000000009
 30
0.0
 11
40.02599999995994
 21
0.7545972719807246
 31
0.0
  0
LINE
  5
106CD
330
106B1
100
AcDbEntity
  8
0
  6
CONTINUOUS
100
AcDbLine
 10
39.9449219370594
 20
-0.0000000000000009
 30
0.0
 11
40.02599999995994
 21
0.0810780629005379
 31
0.0
  0
LINE
  5
106CE
330
106B1
100
AcDbEntity
  8
0
  6
CONTINUOUS
100
AcDbLine
 10
42.18817142235812
 20
2.916768694378905
 30
0.0
 11
43.16119791794597
 21
3.889795189966758
 31
0.0
  0
LINE
  5
106CF
330
106B1
100
AcDbEntity
  8
0
  6
CONTINUOUS
100
AcDbLine
 10
42.50563373493829
 20
2.560711797878898
 30
0.0
 11
43.47866023052615
 21
3.533738293466751
 31
0.0
  0
LINE
  5
106D0
330
106B1
100
AcDbEntity
  8
0
  6
CONTINUOUS
100
AcDbLine
 10
43.57899999995641
 20
4.307597271977198
 30
0.0
 11
44.99999999995498
 21
5.728597271975769
 31
0.0
  0
LINE
  5
106D1
330
106B1
100
AcDbEntity
  8
0
  6
CONTINUOUS
100
AcDbLine
 10
43.57899999995641
 20
3.634078062897011
 30
0.0
 11
44.99999999995498
 21
5.055078062895582
 31
0.0
  0
LINE
  5
106D2
330
106B1
100
AcDbEntity
  8
0
  6
CONTINUOUS
100
AcDbLine
 10
42.82309604751848
 20
2.204654901378891
 30
0.0
 11
44.99999999995498
 21
4.381558853815395
 31
0.0
  0
LINE
  5
106D3
330
106B1
100
AcDbEntity
  8
0
  6
CONTINUOUS
100
AcDbLine
 10
43.14055836009865
 20
1.848598004878885
 30
0.0
 11
44.99999999995498
 21
3.70803964473521
 31
0.0
  0
LINE
  5
106D4
330
106B1
100
AcDbEntity
  8
0
  6
CONTINUOUS
100
AcDbLine
 10
43.45802067267883
 20
1.492541108378878
 30
0.0
 11
44.99999999995498
 21
3.034520435655023
 31
0.0
  0
LINE
  5
106D5
330
106B1
100
AcDbEntity
  8
0
  6
CONTINUOUS
100
AcDbLine
 10
43.77548298525902
 20
1.136484211878871
 30
0.0
 11
44.99999999995498
 21
2.361001226574837
 31
0.0
  0
LINE
  5
106D6
330
106B1
100
AcDbEntity
  8
0
  6
CONTINUOUS
100
AcDbLine
 10
44.09294529783919
 20
0.7804273153788639
 30
0.0
 11
44.99999999995498
 21
1.687482017494649
 31
0.0
  0
LINE
  5
106D7
330
106B1
100
AcDbEntity
  8
0
  6
CONTINUOUS
100
AcDbLine
 10
44.41040761041938
 20
0.4243704188788566
 30
0.0
 11
44.99999999995498
 21
1.013962808414463
 31
0.0
  0
LINE
  5
106D8
330
106B1
100
AcDbEntity
  8
0
  6
CONTINUOUS
100
AcDbLine
 10
44.72786992299955
 20
0.0683135223788494
 30
0.0
 11
44.99999999995498
 21
0.340443599334276
 31
0.0
  0
LINE
  5
106D9
330
106B1
100
AcDbEntity
  8
0
  6
CONTINUOUS
100
AcDbLine
 10
39.12223903415696
 20
-0.0000000000000009
 30
0.0
 11
38.60499999996136
 21
0.5172390341955961
 31
0.0
  0
LINE
  5
106DA
330
106B1
100
AcDbEntity
  8
0
  6
CONTINUOUS
100
AcDbLine
 10
39.79575824323715
 20
-0.0000000000000009
 30
0.0
 11
38.60499999996136
 21
1.190758243275783
 31
0.0
  0
LINE
  5
106DB
330
106B1
100
AcDbEntity
  8
0
  6
CONTINUOUS
100
AcDbLine
 10
40.02599999995994
 20
0.443277452357397
 30
0.0
 11
38.60499999996136
 21
1.864277452355969
 31
0.0
  0
LINE
  5
106DC
330
106B1
100
AcDbEntity
  8
0
  6
CONTINUOUS
100
AcDbLine
 10
40.02599999995994
 20
1.116796661437583
 30
0.0
 11
38.60499999996136
 21
2.537796661436155
 31
0.0
  0
LINE
  5
106DD
330
106B1
100
AcDbEntity
  8
0
  6
CONTINUOUS
100
AcDbLine
 10
40.02599999995994
 20
1.79031587051777
 30
0.0
 11
38.60499999996136
 21
3.211315870516341
 31
0.0
  0
LINE
  5
106DE
330
106B1
100
AcDbEntity
  8
0
  6
CONTINUOUS
100
AcDbLine
 10
40.02599999995994
 20
2.463835079597956
 30
0.0
 11
38.60499999996136
 21
3.884835079596527
 31
0.0
  0
LINE
  5
106DF
330
106B1
100
AcDbEntity
  8
0
  6
CONTINUOUS
100
AcDbLine
 10
40.02599999995994
 20
3.137354288678143
 30
0.0
 11
38.60499999996136
 21
4.558354288676714
 31
0.0
  0
LINE
  5
106E0
330
106B1
100
AcDbEntity
  8
0
  6
CONTINUOUS
100
AcDbLine
 10
40.02599999995994
 20
3.810873497758329
 30
0.0
 11
38.60499999996136
 21
5.2318734977569
 31
0.0
  0
LINE
  5
106E1
330
106B1
100
AcDbEntity
  8
0
  6
CONTINUOUS
100
AcDbLine
 10
40.02599999995994
 20
4.484392706838515
 30
0.0
 11
38.60499999996136
 21
5.905392706837086
 31
0.0
  0
LINE
  5
106E2
330
106B1
100
AcDbEntity
  8
0
  6
CONTINUOUS
100
AcDbLine
 10
44.99999999995498
 20
0.183911915923658
 30
0.0
 11
41.53858364506288
 21
3.64532827081576
 31
0.0
  0
LINE
  5
106E3
330
106B1
100
AcDbEntity
  8
0
  6
CONTINUOUS
100
AcDbLine
 10
40.02599999995994
 20
5.157911915918703
 30
0.0
 11
38.60499999996136
 21
6.578911915917274
 31
0.0
  0
LINE
  5
106E4
330
106B1
100
AcDbEntity
  8
0
  6
CONTINUOUS
100
AcDbLine
 10
44.99999999995498
 20
0.8574311250038447
 30
0.0
 11
38.60499999996136
 21
7.25243112499746
 31
0.0
  0
LINE
  5
106E5
330
106B1
100
AcDbEntity
  8
0
  6
CONTINUOUS
100
AcDbLine
 10
44.99999999995498
 20
1.530950334084031
 30
0.0
 11
38.60499999996136
 21
7.925950334077647
 31
0.0
  0
LINE
  5
106E6
330
106B1
100
AcDbEntity
  8
0
  6
CONTINUOUS
100
AcDbLine
 10
44.99999999995498
 20
2.204469543164218
 30
0.0
 11
43.57899999995641
 21
3.625469543162789
 31
0.0
  0
LINE
  5
106E7
330
106B1
100
AcDbEntity
  8
0
  6
CONTINUOUS
100
AcDbLine
 10
41.89876730984767
 20
5.305702233271528
 30
0.0
 11
38.60499999996136
 21
8.599469543157834
 31
0.0
  0
LINE
  5
106E8
330
106B1
100
AcDbEntity
  8
0
  6
CONTINUOUS
100
AcDbLine
 10
44.99999999995498
 20
2.877988752244405
 30
0.0
 11
43.57899999995641
 21
4.298988752242975
 31
0.0
  0
LINE
  5
106E9
330
106B1
100
AcDbEntity
  8
0
  6
CONTINUOUS
100
AcDbLine
 10
44.99999999995498
 20
3.551507961324591
 30
0.0
 11
43.57899999995641
 21
4.972507961323163
 31
0.0
  0
LINE
  5
106EA
330
106B1
100
AcDbEntity
  8
0
  6
CONTINUOUS
100
AcDbLine
 10
44.99999999995498
 20
4.225027170404777
 30
0.0
 11
43.57899999995641
 21
5.646027170403348
 31
0.0
  0
LINE
  5
106EB
330
106B1
100
AcDbEntity
  8
0
  6
CONTINUOUS
100
AcDbLine
 10
44.99999999995498
 20
4.898546379484964
 30
0.0
 11
43.57899999995641
 21
6.319546379483535
 31
0.0
  0
LINE
  5
106EC
330
106B1
100
AcDbEntity
  8
0
  6
CONTINUOUS
100
AcDbLine
 10
44.99999999995498
 20
5.572065588565151
 30
0.0
 11
43.57899999995641
 21
6.993065588563722
 31
0.0
  0
LINE
  5
106ED
330
106B1
100
AcDbEntity
  8
0
  6
CONTINUOUS
100
AcDbLine
 10
44.99999999995498
 20
6.245584797645336
 30
0.0
 11
43.57899999995641
 21
7.666584797643908
 31
0.0
  0
LINE
  5
106EE
330
106B1
100
AcDbEntity
  8
0
  6
CONTINUOUS
100
AcDbLine
 10
44.99999999995498
 20
6.919104006725522
 30
0.0
 11
43.57899999995641
 21
8.340104006724093
 31
0.0
  0
LINE
  5
106EF
330
106B1
100
AcDbEntity
  8
0
  6
CONTINUOUS
100
AcDbLine
 10
44.99999999995498
 20
7.592623215805709
 30
0.0
 11
43.82952321576943
 21
8.763099999991255
 31
0.0
  0
LINE
  5
106F0
330
106B1
100
AcDbEntity
  8
0
  6
CONTINUOUS
100
AcDbLine
 10
44.99999999995498
 20
8.266142424885896
 30
0.0
 11
44.50304242484962
 21
8.763099999991255
 31
0.0
  0
ENDBLK
  5
1071A
330
106B1
100
AcDbEntity
  8
0
100
AcDbBlockEnd
  0
BLOCK
  5
1071B
330
106F1
100
AcDbEntity
  8
0
100
AcDbBlockBegin
  2
*X26
 70
     1
 10
0.0
 20
0.0
 30
0.0
  3
*X26
  1

  0
LINE
  5
106F2
330
106F1
100
AcDbEntity
  8
0
  6
CONTINUOUS
100
AcDbLine
 10
0.0
 20
8.548461116714023
 30
0.0
 11
0.2146388832772324
 21
8.763099999991255
 31
0.0
  0
LINE
  5
106F3
330
106F1
100
AcDbEntity
  8
0
  6
CONTINUOUS
100
AcDbLine
 10
-0.0000000000000002
 20
7.874941907633837
 30
0.0
 11
0.8881580923574184
 21
8.763099999991255
 31
0.0
  0
LINE
  5
106F4
330
106F1
100
AcDbEntity
  8
0
  6
CONTINUOUS
100
AcDbLine
 10
0.0
 20
7.20142269855365
 30
0.0
 11
1.420999999998572
 21
8.622422698552223
 31
0.0
  0
LINE
  5
106F5
330
106F1
100
AcDbEntity
  8
0
  6
CONTINUOUS
100
AcDbLine
 10
-0.0000000000000001
 20
6.527903489473465
 30
0.0
 11
1.420999999998571
 21
7.948903489472036
 31
0.0
  0
LINE
  5
106F6
330
106F1
100
AcDbEntity
  8
0
  6
CONTINUOUS
100
AcDbLine
 10
-0.0000000000000002
 20
5.854384280393278
 30
0.0
 11
1.420999999998571
 21
7.275384280391849
 31
0.0
  0
LINE
  5
106F7
330
106F1
100
AcDbEntity
  8
0
  6
CONTINUOUS
100
AcDbLine
 10
-0.0000000000000002
 20
5.180865071313091
 30
0.0
 11
1.420999999998571
 21
6.601865071311663
 31
0.0
  0
LINE
  5
106F8
330
106F1
100
AcDbEntity
  8
0
  6
CONTINUOUS
100
AcDbLine
 10
0.0
 20
4.507345862232905
 30
0.0
 11
1.420999999998571
 21
5.928345862231477
 31
0.0
  0
LINE
  5
106F9
330
106F1
100
AcDbEntity
  8
0
  6
CONTINUOUS
100
AcDbLine
 10
-0.0000000000000003
 20
3.833826653152718
 30
0.0
 11
1.420999999998571
 21
5.25482665315129
 31
0.0
  0
LINE
  5
106FA
330
106F1
100
AcDbEntity
  8
0
  6
CONTINUOUS
100
AcDbLine
 10
-0.0000000000000002
 20
3.160307444072532
 30
0.0
 11
1.420999999998571
 21
4.581307444071103
 31
0.0
  0
LINE
  5
106FB
330
106F1
100
AcDbEntity
  8
0
  6
CONTINUOUS
100
AcDbLine
 10
-0.0000000000000001
 20
2.486788234992345
 30
0.0
 11
1.420999999998571
 21
3.907788234990917
 31
0.0
  0
LINE
  5
106FC
330
106F1
100
AcDbEntity
  8
0
  6
CONTINUOUS
100
AcDbLine
 10
-0.0000000000000006
 20
1.813269025912159
 30
0.0
 11
1.420999999998571
 21
3.234269025910731
 31
0.0
  0
LINE
  5
106FD
330
106F1
100
AcDbEntity
  8
0
  6
CONTINUOUS
100
AcDbLine
 10
0.0
 20
1.139749816831973
 30
0.0
 11
1.420999999998571
 21
2.560749816830544
 31
0.0
  0
LINE
  5
106FE
330
106F1
100
AcDbEntity
  8
0
  6
CONTINUOUS
100
AcDbLine
 10
0.0000000000000002
 20
0.466230607751787
 30
0.0
 11
1.420999999998571
 21
1.887230607750358
 31
0.0
  0
LINE
  5
106FF
330
106F1
100
AcDbEntity
  8
0
  6
CONTINUOUS
100
AcDbLine
 10
0.2072886013284003
 20
-0.0000000000000009
 30
0.0
 11
1.420999999998571
 21
1.213711398670171
 31
0.0
  0
LINE
  5
10700
330
106F1
100
AcDbEntity
  8
0
  6
CONTINUOUS
100
AcDbLine
 10
0.8808078104085864
 20
-0.0000000000000009
 30
0.0
 11
1.420999999998571
 21
0.5401921895899839
 31
0.0
  0
LINE
  5
10701
330
106F1
100
AcDbEntity
  8
0
  6
CONTINUOUS
100
AcDbLine
 10
0.0581249075061505
 20
-0.0000000000000009
 30
0.0
 11
-0.0000000000000002
 21
0.0581249075061496
 31
0.0
  0
LINE
  5
10702
330
106F1
100
AcDbEntity
  8
0
  6
CONTINUOUS
100
AcDbLine
 10
0.7316441165863372
 20
-0.0000000000000009
 30
0.0
 11
-0.0000000000000002
 21
0.7316441165863363
 31
0.0
  0
LINE
  5
10703
330
106F1
100
AcDbEntity
  8
0
  6
CONTINUOUS
100
AcDbLine
 10
1.405163325666523
 20
-0.0000000000000009
 30
0.0
 11
-0.0000000000000002
 21
1.405163325666523
 31
0.0
  0
LINE
  5
10704
330
106F1
100
AcDbEntity
  8
0
  6
CONTINUOUS
100
AcDbLine
 10
1.420999999998572
 20
0.6576825347481381
 30
0.0
 11
-0.0000000000000001
 21
2.07868253474671
 31
0.0
  0
LINE
  5
10705
330
106F1
100
AcDbEntity
  8
0
  6
CONTINUOUS
100
AcDbLine
 10
1.420999999998571
 20
1.331201743828324
 30
0.0
 11
-0.0000000000000001
 21
2.752201743826896
 31
0.0
  0
LINE
  5
10706
330
106F1
100
AcDbEntity
  8
0
  6
CONTINUOUS
100
AcDbLine
 10
1.420999999998571
 20
2.004720952908511
 30
0.0
 11
-0.0000000000000002
 21
3.425720952907082
 31
0.0
  0
LINE
  5
10707
330
106F1
100
AcDbEntity
  8
0
  6
CONTINUOUS
100
AcDbLine
 10
1.420999999998571
 20
2.678240161988697
 30
0.0
 11
-0.0000000000000001
 21
4.099240161987269
 31
0.0
  0
LINE
  5
10708
330
106F1
100
AcDbEntity
  8
0
  6
CONTINUOUS
100
AcDbLine
 10
1.420999999998572
 20
3.351759371068884
 30
0.0
 11
0.0
 21
4.772759371067455
 31
0.0
  0
LINE
  5
10709
330
106F1
100
AcDbEntity
  8
0
  6
CONTINUOUS
100
AcDbLine
 10
1.420999999998571
 20
4.02527858014907
 30
0.0
 11
-0.0000000000000003
 21
5.446278580147642
 31
0.0
  0
LINE
  5
1070A
330
106F1
100
AcDbEntity
  8
0
  6
CONTINUOUS
100
AcDbLine
 10
1.420999999998571
 20
4.698797789229257
 30
0.0
 11
0.0
 21
6.119797789227828
 31
0.0
  0
LINE
  5
1070B
330
106F1
100
AcDbEntity
  8
0
  6
CONTINUOUS
100
AcDbLine
 10
1.420999999998571
 20
5.372316998309444
 30
0.0
 11
-0.0000000000000001
 21
6.793316998308015
 31
0.0
  0
LINE
  5
1070C
330
106F1
100
AcDbEntity
  8
0
  6
CONTINUOUS
100
AcDbLine
 10
1.420999999998572
 20
6.045836207389629
 30
0.0
 11
-0.0000000000000004
 21
7.466836207388202
 31
0.0
  0
LINE
  5
1070D
330
106F1
100
AcDbEntity
  8
0
  6
CONTINUOUS
100
AcDbLine
 10
1.420999999998571
 20
6.719355416469816
 30
0.0
 11
0.0
 21
8.140355416468388
 31
0.0
  0
LINE
  5
1070E
330
106F1
100
AcDbEntity
  8
0
  6
CONTINUOUS
100
AcDbLine
 10
1.420999999998571
 20
7.392874625550003
 30
0.0
 11
0.0507746255573185
 21
8.763099999991255
 31
0.0
  0
LINE
  5
1070F
330
106F1
100
AcDbEntity
  8
0
  6
CONTINUOUS
100
AcDbLine
 10
1.420999999998571
 20
8.06639383463019
 30
0.0
 11
0.7242938346375052
 21
8.763099999991255
 31
0.0
  0
LINE
  5
10710
330
106F1
100
AcDbEntity
  8
0
  6
CONTINUOUS
100
AcDbLine
 10
1.420999999998571
 20
8.739913043710375
 30
0.0
 11
1.397813043717691
 21
8.763099999991255
 31
0.0
  0
ENDBLK
  5
1071C
330
106F1
100
AcDbEntity
  8
0
100
AcDbBlockEnd
  0
ENDSEC
  0
SECTION
  2
ENTITIES
  0
TEXT
  5
E3BA
330
18
100
AcDbEntity
  8
1TEXT
100
AcDbText
 10
-62.5000179438523
 20
165.0062367118497
 30
0.0
 40
8.0
  1
PC-444-X
100
AcDbText
  0
TEXT
  5
E3E1
330
18
100
AcDbEntity
  8
1TEXT
100
AcDbText
 10
-53.13644027892532
 20
149.2906380986238
 30
0.0
 40
4.0
  1
表面処理
 72
     1
 11
-43.86977361225865
 21
149.2906380986238
 31
0.0
100
AcDbText
  0
TEXT
  5
E3E2
330
18
100
AcDbEntity
  8
1TEXT
100
AcDbText
 10
-60.13644027892532
 20
142.4553494390995
 30
0.0
 40
4.0
  1
マットブラック
 72
     1
 11
-43.86977361225865
 21
142.4553494390995
 31
0.0
100
AcDbText
  0
LINE
  5
E3E4
330
18
100
AcDbEntity
  8
1DIM
100
AcDbLine
 10
-61.26977361225829
 20
154.7906380986238
 30
0.0
 11
8.730226387741709
 21
154.7906380986238
 31
0.0
  0
LINE
  5
E3E5
330
18
100
AcDbEntity
  8
1DIM
100
AcDbLine
 10
-61.26977361225829
 20
140.7906380986238
 30
0.0
 11
8.730226387741709
 21
140.7906380986238
 31
0.0
  0
LINE
  5
E3E6
330
18
100
AcDbEntity
  8
1DIM
100
AcDbLine
 10
-61.26977361225829
 20
147.7906380986238
 30
0.0
 11
8.730226387741709
 21
147.7906380986238
 31
0.0
  0
LINE
  5
E3E7
330
18
100
AcDbEntity
  8
1DIM
100
AcDbLine
 10
-61.26977361225829
 20
133.7906380986238
 30
0.0
 11
8.730226387741709
 21
133.7906380986238
 31
0.0
  0
LINE
  5
E3E8
330
18
100
AcDbEntity
  8
1DIM
100
AcDbLine
 10
-61.26977361225829
 20
133.7906380986238
 30
0.0
 11
8.730226387741709
 21
133.7906380986238
 31
0.0
  0
LINE
  5
E3E9
330
18
100
AcDbEntity
  8
1DIM
100
AcDbLine
 10
-26.26977361225829
 20
154.7906380986238
 30
0.0
 11
-26.26977361225829
 21
126.7906380986238
 31
0.0
  0
TEXT
  5
E3EA
330
18
100
AcDbEntity
  8
1TEXT
100
AcDbText
 10
-23.80310694559108
 20
142.0762811149744
 30
0.0
 40
4.0
  1
PC-444-003
 41
0.8
 72
     1
 11
-8.869773612257745
 21
142.0762811149744
 31
0.0
100
AcDbText
  0
TEXT
  5
E3EC
330
18
100
AcDbEntity
  8
1TEXT
100
AcDbText
 10
-15.73644027892532
 20
149.2906380986238
 30
0.0
 40
4.0
  1
コード
 72
     1
 11
-8.869773612258655
 21
149.2906380986238
 31
0.0
100
AcDbText
  0
LINE
  5
E3ED
330
18
100
AcDbEntity
  8
1DIM
100
AcDbLine
 10
-61.26977361225827
 20
126.7906380986238
 30
0.0
 11
-61.26977361225829
 21
154.7906380986238
 31
0.0
  0
LINE
  5
E3EE
330
18
100
AcDbEntity
  8
1DIM
100
AcDbLine
 10
8.730226387741709
 20
126.7906380986238
 30
0.0
 11
8.730226387741709
 21
154.7906380986238
 31
0.0
  0
LINE
  5
E3FF
330
18
100
AcDbEntity
  8
1CENTER
100
AcDbLine
 10
-40.0
 20
10.00000000000102
 30
0.0
 11
-40.0
 21
-1.999999999998981
 31
0.0
  0
LINE
  5
E401
330
18
100
AcDbEntity
  8
1CENTER
100
AcDbLine
 10
61.5
 20
10.00000000000847
 30
0.0
 11
61.5
 21
-1.99999999999153
 31
0.0
  0
LINE
  5
E402
330
18
100
AcDbEntity
  8
1CENTER
100
AcDbLine
 10
-40.0
 20
96.99998100000096
 30
0.0
 11
-40.0
 21
102.999981000001
 31
0.0
  0
LINE
  5
E403
330
18
100
AcDbEntity
  8
1CENTER
100
AcDbLine
 10
-43.0
 20
99.99998100000096
 30
0.0
 11
-37.0
 21
99.99998100000096
 31
0.0
  0
LINE
  5
E404
330
18
100
AcDbEntity
  8
1CENTER
100
AcDbLine
 10
0.0
 20
96.99998100000795
 30
0.0
 11
0.0
 21
102.9999810000079
 31
0.0
  0
LINE
  5
E405
330
18
100
AcDbEntity
  8
1CENTER
100
AcDbLine
 10
-3.0
 20
99.99998100000795
 30
0.0
 11
3.0
 21
99.99998100000795
 31
0.0
  0
LINE
  5
E868
330
18
100
AcDbEntity
  8
1CENTER
100
AcDbLine
 10
0.0
 20
10.00000000000801
 30
0.0
 11
0.0
 21
-1.999999999991985
 31
0.0
  0
TEXT
  5
E869
330
18
100
AcDbEntity
  8
1TEXT
100
AcDbText
 10
-60.00310694559199
 20
135.4553494390995
 30
0.0
 40
4.0
  1
パールブラック
 72
     1
 11
-43.86977361225865
 21
135.4553494390995
 31
0.0
100
AcDbText
  0
TEXT
  5
E872
330
18
100
AcDbEntity
  8
1TEXT
100
AcDbText
 10
-22.75199583447997
 20
135.0762811149744
 30
0.0
 40
4.0
  1
PC-444-GQ
 41
0.8
 72
     1
 11
-8.869773612257745
 21
135.0762811149744
 31
0.0
100
AcDbText
  0
ARC
  5
F213
330
18
100
AcDbEntity
  8
01
100
AcDbCircle
 10
67.65715576003493
 20
12.50000000000001
 30
0.0
 40
1.5
100
AcDbArc
 50
90.0
 51
176.9999999999944
  0
ARC
  5
F214
330
18
100
AcDbEntity
  8
01
100
AcDbCircle
 10
55.34284423996513
 20
12.50000000000001
 30
0.0
 40
1.5
100
AcDbArc
 50
3.000000000005594
 51
90.0
  0
LINE
  5
F215
330
18
100
AcDbEntity
  8
01
100
AcDbLine
 10
57.5
 20
0.0000000000000107
 30
0.0
 11
65.5
 21
0.0000000000000107
 31
0.0
  0
LINE
  5
F217
330
18
100
AcDbEntity
  8
01
100
AcDbLine
 10
66.15921145790304
 20
12.57850393436412
 30
0.0
 11
65.5
 21
0.0000000000000107
 31
0.0
  0
LINE
  5
F218
330
18
100
AcDbEntity
  8
01
100
AcDbLine
 10
56.84078854209702
 20
12.57850393436412
 30
0.0
 11
57.5
 21
0.0000000000000107
 31
0.0
  0
ARC
  5
F21C
330
18
100
AcDbEntity
  8
01
100
AcDbCircle
 10
-48.72722717668512
 20
12.50000000000001
 30
0.0
 40
1.5
100
AcDbArc
 50
10.00000000000502
 51
90.0
  0
LINE
  5
F238
330
18
100
AcDbEntity
  8
1HATCH
100
AcDbLine
 10
-1.505401902204994
 20
11.99999999999967
 30
0.0
 11
-1.022517572444485
 21
12.48288432975995
 31
0.0
1001
ACAD
1010
0.0
1020
0.0
1030
0.0
  0
LINE
  5
F244
330
18
100
AcDbEntity
  8
1HATCH
100
AcDbLine
 10
4.455110339933981
 20
-0.000000000000103
 30
0.0
 11
4.509609709240067
 21
0.0544993693062104
 31
0.0
1001
ACAD
1010
0.0
1020
0.0
1030
0.0
  0
LINE
  5
F246
330
18
100
AcDbEntity
  8
01
100
AcDbLine
 10
4.999999999999545
 20
0.0000000000000107
 30
0.0
 11
-45.0
 21
0.0000000000000107
 31
0.0
  0
LINE
  5
F249
330
18
100
AcDbEntity
  8
01
100
AcDbLine
 10
-47.25001554716664
 20
12.76047226650048
 30
0.0
 11
-45.0
 21
0.0000000000000107
 31
0.0
  0
LINE
  5
F24E
330
18
100
AcDbEntity
  8
01
100
AcDbLine
 10
7.250015547167095
 20
12.76047226650043
 30
0.0
 11
5.0
 21
0.0000000000000107
 31
0.0
  0
ARC
  5
F24F
330
18
100
AcDbEntity
  8
01
100
AcDbCircle
 10
8.727227176685119
 20
12.50000000000001
 30
0.0
 40
1.5
100
AcDbArc
 50
90.0
 51
169.999999999995
  0
ARC
  5
F316
330
18
100
AcDbEntity
  8
01
100
AcDbCircle
 10
61.5
 20
2.500000000000011
 30
0.0
 40
0.5
100
AcDbArc
 50
0.0
 51
180.0
  0
LINE
  5
F317
330
18
100
AcDbEntity
  8
01
100
AcDbLine
 10
62.0
 20
2.500000000000011
 30
0.0
 11
62.0
 21
0.0000000000000107
 31
0.0
  0
LINE
  5
F318
330
18
100
AcDbEntity
  8
01
100
AcDbLine
 10
61.0
 20
2.500000000000011
 30
0.0
 11
61.0
 21
0.0000000000000107
 31
0.0
  0
ARC
  5
F7E1
330
18
100
AcDbEntity
  8
01
100
AcDbCircle
 10
-4.770065817102022
 20
20.50184282538693
 30
0.0
 40
3.001855026949295
100
AcDbArc
 50
239.0060703332587
 51
268.4980257343414
  0
ARC
  5
F7E2
330
18
100
AcDbEntity
  8
01
100
AcDbCircle
 10
-15.0392130877899
 20
24.50025765784308
 30
0.0
 40
7.000257024256731
100
AcDbArc
 50
270.7628620134298
 51
291.0395339778431
  0
LINE
  5
F7E3
330
18
100
AcDbEntity
  8
01
100
AcDbLine
 10
-12.52391238540758
 20
17.96753985171252
 30
0.0
 11
-12.34671001517654
 21
17.99999999970682
 31
0.0
  0
LINE
  5
F7E4
330
18
100
AcDbEntity
  8
01
100
AcDbLine
 10
-6.57285122749181
 20
17.99999976548732
 30
0.0
 11
-6.316259348949643
 21
17.92885061606695
 31
0.0
  0
ARC
  5
F7E5
330
18
100
AcDbEntity
  8
01
100
AcDbCircle
 10
21.5
 20
16.50000000000001
 30
0.0
 40
1.0
100
AcDbArc
 50
0.0
 51
90.0
  0
ARC
  5
F7E6
330
18
100
AcDbEntity
  8
01
100
AcDbCircle
 10
-61.5
 20
16.50000000000001
 30
0.0
 40
1.0
100
AcDbArc
 50
90.0
 51
180.0
  0
LINE
  5
F7E7
330
18
100
AcDbEntity
  8
01
100
AcDbLine
 10
-54.09060391217326
 20
17.50000000000001
 30
0.0
 11
-53.1232469809338
 21
17.50000000000001
 31
0.0
  0
LINE
  5
F7E8
330
18
100
AcDbEntity
  8
01
100
AcDbLine
 10
-61.5
 20
17.50000000000001
 30
0.0
 11
-61.5
 21
17.50000000000001
 31
0.0
  0
LINE
  5
F7E9
330
18
100
AcDbEntity
  8
01
100
AcDbLine
 10
-61.5
 20
17.50000000000001
 30
0.0
 11
-59.75143071909906
 21
17.50000000000001
 31
0.0
  0
LINE
  5
F7EA
330
18
100
AcDbEntity
  8
01
100
AcDbLine
 10
-41.5754123280467
 20
17.50000000000001
 30
0.0
 11
-42.7905470708406
 21
17.49999999946796
 31
0.0
  0
ARC
  5
F7EB
330
18
100
AcDbEntity
  8
01
100
AcDbCircle
 10
-53.93345824391145
 20
22.49924417585505
 30
0.0
 40
4.999242277530142
100
AcDbArc
 50
245.3788364131854
 51
269.2305322626431
  0
ARC
  5
F7EC
330
18
100
AcDbEntity
  8
01
100
AcDbCircle
 10
-54.09067495401132
 20
22.49971145332979
 30
0.0
 40
4.999711453834493
100
AcDbArc
 50
245.3887294642663
 51
270.0008141264804
  0
LINE
  5
F7ED
330
18
100
AcDbEntity
  8
01
100
AcDbLine
 10
-56.38287805873097
 20
18.00000000000053
 30
0.0
 11
-58.42794765915096
 21
18.00000000000053
 31
0.0
  0
ARC
  5
F7EE
330
18
100
AcDbEntity
  8
01
100
AcDbCircle
 10
-59.97877937612066
 20
19.00002788215558
 30
0.0
 40
1.50002820030173
100
AcDbArc
 50
271.5228264206226
 51
311.4097593517403
  0
ARC
  5
F7EF
330
18
100
AcDbEntity
  8
01
100
AcDbCircle
 10
-59.75147485196521
 20
19.0001931603074
 30
0.0
 40
1.500193160956556
100
AcDbArc
 50
270.0016855342474
 51
311.3963025480112
  0
ARC
  5
F7F0
330
18
100
AcDbEntity
  8
01
100
AcDbCircle
 10
-58.65591128679353
 20
17.50004917869639
 30
0.0
 40
0.4999508227460644
100
AcDbArc
 50
89.99564839615297
 51
131.4101743364256
  0
LINE
  5
F7F1
330
18
100
AcDbEntity
  8
01
100
AcDbLine
 10
-58.65587331562119
 20
18.00000000000053
 30
0.0
 11
-58.45077381808687
 21
18.00000000000053
 31
0.0
  0
ARC
  5
F7F2
330
18
100
AcDbEntity
  8
01
100
AcDbCircle
 10
-58.42796206098956
 20
17.49850696723003
 30
0.0
 40
0.5014930329773034
100
AcDbArc
 50
89.99835458415109
 51
131.3766368626099
  0
LINE
  5
F7F3
330
18
100
AcDbEntity
  8
01
100
AcDbLine
 10
-58.75945191280653
 20
17.87494552913314
 30
0.0
 11
-58.98660128692791
 21
17.87500910852306
 31
0.0
  0
LINE
  5
F7F4
330
18
100
AcDbEntity
  8
01
100
AcDbLine
 10
-56.17290383126465
 20
17.95422604919646
 30
0.0
 11
-56.38287805873097
 21
18.00000000000053
 31
0.0
  0
LINE
  5
F7F5
330
18
100
AcDbEntity
  8
01
100
AcDbLine
 10
-56.35574863465126
 20
18.00000000000053
 30
0.0
 11
-56.22477706209656
 21
18.00000000000053
 31
0.0
  0
LINE
  5
F7F6
330
18
100
AcDbEntity
  8
01
100
AcDbLine
 10
-56.22477706209656
 20
18.00000000000053
 30
0.0
 11
-56.01622562554348
 21
17.95452158988174
 31
0.0
  0
ARC
  5
F7F7
330
18
100
AcDbEntity
  8
01
100
AcDbCircle
 10
-42.79051249118311
 20
20.5000943512169
 30
0.0
 40
3.000094351948231
100
AcDbArc
 50
239.0149652926583
 51
269.9993395979554
  0
ARC
  5
F7F8
330
18
100
AcDbEntity
  8
01
100
AcDbCircle
 10
-42.63332379921394
 20
20.49996564674213
 30
0.0
 40
2.999964963019078
100
AcDbArc
 50
238.9980038655179
 51
268.9654036604225
  0
LINE
  5
F7F9
330
18
100
AcDbEntity
  8
01
100
AcDbLine
 10
-44.59452645323472
 20
18.00000000000053
 30
0.0
 11
-50.43037798111982
 21
18.00000000000053
 31
0.0
  0
ARC
  5
F7FA
330
18
100
AcDbEntity
  8
01
100
AcDbCircle
 10
-53.1232747830818
 20
24.50013738023019
 30
0.0
 40
7.000137380285391
100
AcDbArc
 50
270.0002275592071
 51
291.0370805948768
  0
ARC
  5
F7FB
330
18
100
AcDbEntity
  8
01
100
AcDbCircle
 10
-53.3506658222027
 20
24.50023135923773
 30
0.0
 40
7.000243491004536
100
AcDbArc
 50
270.6956489539886
 51
291.0392795919023
  0
LINE
  5
F7FC
330
18
100
AcDbEntity
  8
01
100
AcDbLine
 10
-50.43037798111982
 20
18.00000000000053
 30
0.0
 11
-50.61042099416045
 21
17.9665710357004
 31
0.0
  0
LINE
  5
F7FD
330
18
100
AcDbEntity
  8
01
100
AcDbLine
 10
-50.83525021695914
 20
17.96666044091275
 30
0.0
 11
-50.83752318398183
 21
17.96666242539239
 31
0.0
  0
LINE
  5
F7FE
330
18
100
AcDbEntity
  8
01
100
AcDbLine
 10
-50.83541124054409
 20
17.96746918494308
 30
0.0
 11
-50.65800470801923
 21
18.00000000000053
 31
0.0
  0
LINE
  5
F7FF
330
18
100
AcDbEntity
  8
01
100
AcDbLine
 10
-50.65800470801923
 20
18.00000000000053
 30
0.0
 11
-50.46090366699809
 21
18.00000000000053
 31
0.0
  0
LINE
  5
F800
330
18
100
AcDbEntity
  8
01
100
AcDbLine
 10
-44.33508714342997
 20
17.92815824581983
 30
0.0
 11
-44.59452645323472
 21
18.00000000000053
 31
0.0
  0
LINE
  5
F801
330
18
100
AcDbEntity
  8
01
100
AcDbLine
 10
-44.56972737160049
 20
18.00000000000053
 30
0.0
 11
-44.43616571018356
 21
18.00000000000053
 31
0.0
  0
LINE
  5
F802
330
18
100
AcDbEntity
  8
01
100
AcDbLine
 10
-44.43616571018356
 20
18.00000000000053
 30
0.0
 11
-44.1785095654418
 21
17.92854760854051
 31
0.0
  0
LINE
  5
F803
330
18
100
AcDbEntity
  8
01
100
AcDbLine
 10
-44.1785095654418
 20
17.92854760854051
 30
0.0
 11
-44.33500368428622
 21
17.92848656607795
 31
0.0
  0
LINE
  5
F804
330
18
100
AcDbEntity
  8
01
100
AcDbLine
 10
21.5
 20
17.50000000000001
 30
0.0
 11
21.5
 21
17.50000000000001
 31
0.0
  0
LINE
  5
F805
330
18
100
AcDbEntity
  8
01
100
AcDbLine
 10
21.5
 20
17.50000000000001
 30
0.0
 11
18.64344301097344
 21
17.50000000000001
 31
0.0
  0
ARC
  5
F806
330
18
100
AcDbEntity
  8
01
100
AcDbCircle
 10
20.17918291923434
 20
20.50985914276039
 30
0.0
 40
3.009906926974603
100
AcDbArc
 50
239.0617058212463
 51
268.8701415334315
  0
ARC
  5
F807
330
18
100
AcDbEntity
  8
01
100
AcDbCircle
 10
18.64371276080192
 20
20.50079420450415
 30
0.0
 40
3.000794216628424
100
AcDbArc
 50
239.0421469312442
 51
269.9948495212855
  0
LINE
  5
F808
330
18
100
AcDbEntity
  8
01
100
AcDbLine
 10
16.83798661411583
 20
18.00000000000053
 30
0.0
 11
12.92723463839548
 21
18.00000000000053
 31
0.0
  0
ARC
  5
F809
330
18
100
AcDbEntity
  8
01
100
AcDbCircle
 10
10.42458255893325
 20
23.50215380886239
 30
0.0
 40
6.002153822126955
100
AcDbArc
 50
270.0038091754296
 51
292.5997250885615
  0
LINE
  5
F80A
330
18
100
AcDbEntity
  8
01
100
AcDbLine
 10
10.42498159804245
 20
17.50000000000001
 30
0.0
 11
5.910531483121304
 21
17.50000000000001
 31
0.0
  0
ARC
  5
F80B
330
18
100
AcDbEntity
  8
01
100
AcDbCircle
 10
7.446271391238497
 20
20.50985914180485
 30
0.0
 40
3.009906926016445
100
AcDbArc
 50
239.0617058172059
 51
268.870141535803
  0
ARC
  5
F80C
330
18
100
AcDbEntity
  8
01
100
AcDbCircle
 10
5.910797690748495
 20
20.50076815389362
 30
0.0
 40
3.000768165701687
100
AcDbArc
 50
239.041868258734
 51
269.9949171103358
  0
LINE
  5
F80D
330
18
100
AcDbEntity
  8
01
100
AcDbLine
 10
4.105075086263696
 20
18.00000000000053
 30
0.0
 11
-1.539164589658412
 21
18.00000000000053
 31
0.0
  0
ARC
  5
F80E
330
18
100
AcDbEntity
  8
01
100
AcDbCircle
 10
-2.866014164605986
 20
19.00067826903911
 30
0.0
 40
1.500678285994538
100
AcDbArc
 50
270.0086128794669
 51
311.3266252695124
  0
LINE
  5
F80F
330
18
100
AcDbEntity
  8
01
100
AcDbLine
 10
-2.865788577987587
 20
17.50000000000001
 30
0.0
 11
-5.217203538820286
 21
17.50000000000001
 31
0.0
  0
ARC
  5
F810
330
18
100
AcDbEntity
  8
01
100
AcDbCircle
 10
-5.217512239027656
 20
20.49893011171248
 30
0.0
 40
2.998930127600774
100
AcDbArc
 50
239.0036850307755
 51
270.0058978430071
  0
LINE
  5
F811
330
18
100
AcDbEntity
  8
01
100
AcDbLine
 10
-7.020602830907592
 20
18.00000000000053
 30
0.0
 11
-12.28830301816743
 21
18.00000000000053
 31
0.0
  0
ARC
  5
F812
330
18
100
AcDbEntity
  8
01
100
AcDbCircle
 10
-14.98089535063809
 20
24.49988798214737
 30
0.0
 40
6.999887982168039
100
AcDbArc
 50
269.9998607577726
 51
291.0396727219245
  0
LINE
  5
F813
330
18
100
AcDbEntity
  8
01
100
AcDbLine
 10
-14.98091236201208
 20
17.50000000000001
 30
0.0
 11
-18.09060391217326
 21
17.50000000000001
 31
0.0
  0
ARC
  5
F814
330
18
100
AcDbEntity
  8
01
100
AcDbCircle
 10
-17.93345716432532
 20
22.49924744961915
 30
0.0
 40
4.999245703424631
100
AcDbArc
 50
245.3788407966401
 51
269.2967749090419
  0
ARC
  5
F815
330
18
100
AcDbEntity
  8
01
100
AcDbCircle
 10
-18.09067495401132
 20
22.49971145332962
 30
0.0
 40
4.999711453834333
100
AcDbArc
 50
245.3887294642663
 51
270.0008141264804
  0
LINE
  5
F816
330
18
100
AcDbEntity
  8
01
100
AcDbLine
 10
-20.38287805873097
 20
18.00000000000053
 30
0.0
 11
-22.42794765915096
 21
18.00000000000053
 31
0.0
  0
ARC
  5
F817
330
18
100
AcDbEntity
  8
01
100
AcDbCircle
 10
-23.97877937639851
 20
19.00002789347521
 30
0.0
 40
1.50002820897504
100
AcDbArc
 50
271.5084565104117
 51
311.4097590737101
  0
ARC
  5
F818
330
18
100
AcDbEntity
  8
01
100
AcDbCircle
 10
-23.75147485196521
 20
19.00019316030757
 30
0.0
 40
1.500193160956708
100
AcDbArc
 50
270.0016855342474
 51
311.3963025479781
  0
LINE
  5
F819
330
18
100
AcDbEntity
  8
01
100
AcDbLine
 10
-23.75143071909906
 20
17.50000000000001
 30
0.0
 11
-27.09943223269283
 21
17.50000000000001
 31
0.0
  0
ARC
  5
F81A
330
18
100
AcDbEntity
  8
01
100
AcDbCircle
 10
-25.09949289634778
 20
20.48939913375541
 30
0.0
 40
2.989400652358678
100
AcDbArc
 50
238.9903870627276
 51
270.0577520965084
  0
ARC
  5
F81B
330
18
100
AcDbEntity
  8
01
100
AcDbCircle
 10
-27.05987945749575
 20
20.64116813821546
 30
0.0
 40
3.141417147493398
100
AcDbArc
 50
240.0309312757848
 51
269.2785845175999
  0
LINE
  5
F81C
330
18
100
AcDbEntity
  8
01
100
AcDbLine
 10
-28.92858574334559
 20
18.00000000000053
 30
0.0
 11
-31.0302806973632
 21
18.00000000000053
 31
0.0
  0
ARC
  5
F81D
330
18
100
AcDbEntity
  8
01
100
AcDbCircle
 10
-32.58590910374051
 20
19.63479366872959
 30
0.0
 40
2.135312844962631
100
AcDbArc
 50
271.2634936841112
 51
305.6154220562515
  0
LINE
  5
F81E
330
18
100
AcDbEntity
  8
01
100
AcDbLine
 10
-32.53882473463045
 20
17.50000000000001
 30
0.0
 11
-36.62400424828729
 21
17.50000000000001
 31
0.0
  0
ARC
  5
F81F
330
18
100
AcDbEntity
  8
01
100
AcDbCircle
 10
-36.62373804069375
 20
20.50076815365709
 30
0.0
 40
3.000768165465127
100
AcDbArc
 50
239.0418682616489
 51
269.9949171109611
  0
ARC
  5
F820
330
18
100
AcDbEntity
  8
01
100
AcDbCircle
 10
-35.08826434002913
 20
20.50985914274544
 30
0.0
 40
3.009906926959601
100
AcDbArc
 50
239.0617058211267
 51
268.8701415334576
  0
LINE
  5
F821
330
18
100
AcDbEntity
  8
01
100
AcDbLine
 10
-38.4294606451449
 20
18.00000000000053
 30
0.0
 11
-40.24878833971707
 21
18.00000000000053
 31
0.0
  0
ARC
  5
F822
330
18
100
AcDbEntity
  8
01
100
AcDbCircle
 10
-41.57563791466509
 20
19.00067826904116
 30
0.0
 40
1.50067828599656
100
AcDbArc
 50
270.0086128794669
 51
311.3266252686063
  0
ARC
  5
F823
330
18
100
AcDbEntity
  8
01
100
AcDbCircle
 10
-40.24910521514812
 20
17.4909880478498
 30
0.0
 40
0.5090120507830228
100
AcDbArc
 50
89.96433163815723
 51
131.2415812791896
  0
LINE
  5
F824
330
18
100
AcDbEntity
  8
01
100
AcDbLine
 10
-36.895131069125
 20
18.00000000000053
 30
0.0
 11
-36.63570153560158
 21
17.92819730688889
 31
0.0
  0
LINE
  5
F825
330
18
100
AcDbEntity
  8
01
100
AcDbLine
 10
-36.63570153560158
 20
17.92819730688889
 30
0.0
 11
-38.16736790949153
 21
17.92747912771678
 31
0.0
  0
LINE
  5
F826
330
18
100
AcDbEntity
  8
01
100
AcDbLine
 10
-38.16736790949153
 20
17.92747912771684
 30
0.0
 11
-38.4294606451449
 21
18.00000000000053
 31
0.0
  0
LINE
  5
F827
330
18
100
AcDbEntity
  8
01
100
AcDbLine
 10
-38.4294606451449
 20
18.00000000000053
 30
0.0
 11
-36.895131069125
 21
18.00000000000053
 31
0.0
  0
ARC
  5
F828
330
18
100
AcDbEntity
  8
01
100
AcDbCircle
 10
-31.03027946327211
 20
17.46755350395905
 30
0.0
 40
0.5324464960429103
100
AcDbArc
 50
90.00013279869601
 51
125.8914707634688
  0
LINE
  5
F829
330
18
100
AcDbEntity
  8
01
100
AcDbLine
 10
-26.90265057279885
 20
18.00000000000053
 30
0.0
 11
-26.63957794739417
 21
17.92724100126891
 31
0.0
  0
LINE
  5
F82A
330
18
100
AcDbEntity
  8
01
100
AcDbLine
 10
-26.63957794739417
 20
17.92724100126874
 30
0.0
 11
-28.6459660526084
 21
17.92922888934994
 31
0.0
  0
LINE
  5
F82B
330
18
100
AcDbEntity
  8
01
100
AcDbLine
 10
-28.62911910801813
 20
17.91977352996879
 30
0.0
 11
-28.92858574334559
 21
18.00000000000053
 31
0.0
  0
LINE
  5
F82C
330
18
100
AcDbEntity
  8
01
100
AcDbLine
 10
-28.91763398591775
 20
18.00000000000053
 30
0.0
 11
-26.90265057279885
 21
18.00000000000053
 31
0.0
  0
ARC
  5
F82D
330
18
100
AcDbEntity
  8
01
100
AcDbCircle
 10
-22.65591128679353
 20
17.50004917869661
 30
0.0
 40
0.4999508227458668
100
AcDbArc
 50
89.99564839615297
 51
131.4101743364299
  0
LINE
  5
F82E
330
18
100
AcDbEntity
  8
01
100
AcDbLine
 10
-22.65587331562119
 20
18.00000000000053
 30
0.0
 11
-22.45077381808687
 21
18.00000000000053
 31
0.0
  0
ARC
  5
F82F
330
18
100
AcDbEntity
  8
01
100
AcDbCircle
 10
-22.42796206098956
 20
17.49850696722986
 30
0.0
 40
0.5014930329774242
100
AcDbArc
 50
89.99835458415109
 51
131.3766368626099
  0
LINE
  5
F830
330
18
100
AcDbEntity
  8
01
100
AcDbLine
 10
-22.75945191280653
 20
17.87494552913314
 30
0.0
 11
-22.98660128692791
 21
17.87500910852306
 31
0.0
  0
LINE
  5
F831
330
18
100
AcDbEntity
  8
01
100
AcDbLine
 10
-20.17290383126465
 20
17.95422604919646
 30
0.0
 11
-20.38287805873097
 21
18.00000000000053
 31
0.0
  0
LINE
  5
F832
330
18
100
AcDbEntity
  8
01
100
AcDbLine
 10
-20.35574863465126
 20
18.00000000000053
 30
0.0
 11
-20.22477706209656
 21
18.00000000000053
 31
0.0
  0
LINE
  5
F833
330
18
100
AcDbEntity
  8
01
100
AcDbLine
 10
-20.22477706209656
 20
18.00000000000053
 30
0.0
 11
-20.01622562554348
 21
17.95452158988174
 31
0.0
  0
LINE
  5
F834
330
18
100
AcDbEntity
  8
01
100
AcDbLine
 10
-12.28830301816743
 20
18.00000000000053
 30
0.0
 11
-12.46783551571389
 21
17.96666809996135
 31
0.0
  0
LINE
  5
F835
330
18
100
AcDbEntity
  8
01
100
AcDbLine
 10
-12.52320502016528
 20
17.96666340898521
 30
0.0
 11
-12.52576321618653
 21
17.9666626269608
 31
0.0
  0
LINE
  5
F836
330
18
100
AcDbEntity
  8
01
100
AcDbLine
 10
-12.34671001517654
 20
18.00000000000053
 30
0.0
 11
-12.31970058629167
 21
18.00000000000053
 31
0.0
  0
LINE
  5
F837
330
18
100
AcDbEntity
  8
01
100
AcDbLine
 10
-6.762053340043167
 20
17.92833198088898
 30
0.0
 11
-7.020602830907592
 21
18.00000000000053
 31
0.0
  0
LINE
  5
F838
330
18
100
AcDbEntity
  8
01
100
AcDbLine
 10
-7.019388366318708
 20
18.00000000000053
 30
0.0
 11
-6.574132180501238
 21
18.00000000000053
 31
0.0
  0
LINE
  5
F839
330
18
100
AcDbEntity
  8
01
100
AcDbLine
 10
-6.316445831036162
 20
17.92853953085934
 30
0.0
 11
-6.762052632686391
 21
17.92833198108305
 31
0.0
  0
ARC
  5
F83A
330
18
100
AcDbEntity
  8
01
100
AcDbCircle
 10
-1.539481465089921
 20
17.49098804785037
 30
0.0
 40
0.5090120507824475
100
AcDbArc
 50
89.96433163810512
 51
131.2415812766273
  0
LINE
  5
F83B
330
18
100
AcDbEntity
  8
01
100
AcDbLine
 10
5.639404662283596
 20
18.00000000000053
 30
0.0
 11
5.89883419597345
 21
17.92819730686365
 31
0.0
  0
LINE
  5
F83C
330
18
100
AcDbEntity
  8
01
100
AcDbLine
 10
5.89883419597345
 20
17.92819730686365
 30
0.0
 11
4.367167821698331
 21
17.92747912782887
 31
0.0
  0
LINE
  5
F83D
330
18
100
AcDbEntity
  8
01
100
AcDbLine
 10
4.367167821698331
 20
17.92747912782893
 30
0.0
 11
4.105075086263696
 21
18.00000000000053
 31
0.0
  0
LINE
  5
F83E
330
18
100
AcDbEntity
  8
01
100
AcDbLine
 10
4.105075086263696
 20
18.00000000000053
 30
0.0
 11
5.639404662283596
 21
18.00000000000053
 31
0.0
  0
LINE
  5
F83F
330
18
100
AcDbEntity
  8
01
100
AcDbLine
 10
12.92723463839548
 20
18.00000000000053
 30
0.0
 11
12.73115561111081
 21
17.96089300833684
 31
0.0
  0
LINE
  5
F840
330
18
100
AcDbEntity
  8
01
100
AcDbLine
 10
17.10008200682205
 20
17.92747533076989
 30
0.0
 11
16.83798661411583
 21
18.00000000000053
 31
0.0
  0
LINE
  5
F841
330
18
100
AcDbEntity
  8
01
100
AcDbLine
 10
16.83798661411583
 20
18.00000000000053
 30
0.0
 11
18.37231619013528
 21
18.00000000000053
 31
0.0
  0
LINE
  5
F842
330
18
100
AcDbEntity
  8
01
100
AcDbLine
 10
18.37231619013528
 20
18.00000000000053
 30
0.0
 11
18.6317457236587
 21
17.92819730688804
 31
0.0
  0
LINE
  5
F843
330
18
100
AcDbEntity
  8
01
100
AcDbLine
 10
18.6317457236587
 20
17.92819730688804
 30
0.0
 11
17.10008200682205
 21
17.92747533076984
 31
0.0
  0
LINE
  5
F844
102
{ACAD_REACTORS
330
FA45
102
}
330
18
100
AcDbEntity
  8
01
100
AcDbLine
 10
14.09060384638286
 20
110.4999810000079
 30
0.0
 11
13.1232469151434
 21
110.4999810000079
 31
0.0
  0
LINE
  5
F845
102
{ACAD_REACTORS
330
FA45
102
}
330
18
100
AcDbEntity
  8
01
100
AcDbLine
 10
13.35058285473787
 20
89.49998100000795
 30
0.0
 11
13.93348197593212
 21
89.49998100000795
 31
0.0
  0
ARC
  5
F846
102
{ACAD_REACTORS
330
FA45
102
}
330
18
100
AcDbEntity
  8
01
100
AcDbCircle
 10
21.4999999342096
 20
109.4999810000079
 30
0.0
 40
1.000000000000004
100
AcDbArc
 50
0.0
 51
90.0
  0
LINE
  5
F847
102
{ACAD_REACTORS
330
FA45
102
}
330
18
100
AcDbEntity
  8
01
100
AcDbLine
 10
21.4999999342096
 20
110.4999810000079
 30
0.0
 11
19.75143065330866
 21
110.4999810000079
 31
0.0
  0
LINE
  5
F848
102
{ACAD_REACTORS
330
FA45
102
}
330
18
100
AcDbEntity
  8
01
100
AcDbLine
 10
19.97876638730094
 20
89.49998100000795
 30
0.0
 11
21.4999999342096
 21
89.49998100000795
 31
0.0
  0
ARC
  5
F849
102
{ACAD_REACTORS
330
FA45
102
}
330
18
100
AcDbEntity
  8
01
100
AcDbCircle
 10
21.4999999342096
 20
90.49998100000795
 30
0.0
 40
0.9999999999999432
100
AcDbArc
 50
270.0
 51
0.0
  0
LINE
  5
F84A
102
{ACAD_REACTORS
330
FA45
102
}
330
18
100
AcDbEntity
  8
01
100
AcDbLine
 10
22.4999999342096
 20
90.49998100000795
 30
0.0
 11
22.4999999342096
 21
109.4999810000079
 31
0.0
  0
LINE
  5
F84B
102
{ACAD_REACTORS
330
FA45
102
}
330
18
100
AcDbEntity
  8
01
100
AcDbLine
 10
2.633309952704792
 20
89.4999810001944
 30
0.0
 11
0.0425676847077625
 21
89.49998100000795
 31
0.0
  0
LINE
  5
F84C
102
{ACAD_REACTORS
330
FA45
102
}
330
18
100
AcDbEntity
  8
01
100
AcDbLine
 10
1.575412262256748
 20
110.4999810000079
 30
0.0
 11
2.7905470050502
 21
110.4999809999957
 31
0.0
  0
LINE
  5
F84D
102
{ACAD_REACTORS
330
FA45
102
}
330
18
100
AcDbEntity
  8
01
100
AcDbLine
 10
16.01622555975308
 20
89.49998100000795
 30
0.0
 11
13.93348197593212
 21
89.49998100000795
 31
0.0
  0
SPLINE
  5
F84E
102
{ACAD_REACTORS
330
FA45
102
}
330
18
100
AcDbEntity
  8
01
100
AcDbSpline
210
0.0
220
0.0
230
1.0
 70
     8
 71
     3
 72
    13
 73
     9
 74
     0
 42
0.0000000001
 43
0.0000000001
 40
0.0
 40
0.0
 40
0.0
 40
0.0
 40
2.623469733127927
 40
4.809692396473061
 40
8.744896678980034
 40
12.05719762190434
 40
18.35000727812738
 40
21.03639988992487
 40
21.03639988992487
 40
21.03639988992487
 40
21.03639988992487
 10
14.09060384638286
 20
110.4999810000079
 30
0.0
 10
14.17487944265321
 20
109.6296904995687
 30
0.0
 10
14.32054364079812
 20
108.0326697130857
 30
0.0
 10
14.52190281445718
 20
105.125029727539
 30
0.0
 10
14.6224851890467
 20
101.9799281954577
 30
0.0
 10
14.44931124651401
 20
97.46811717206702
 30
0.0
 10
14.09839077096848
 20
93.38531609550074
 30
0.0
 10
13.95511438216153
 20
90.39518943910372
 30
0.0
 10
13.93348197593212
 20
89.49998100000795
 30
0.0
  0
LINE
  5
F84F
102
{ACAD_REACTORS
330
FA45
102
}
330
18
100
AcDbEntity
  8
01
100
AcDbLine
 10
14.09060384638286
 20
110.4999810000079
 30
0.0
 11
16.17285291130446
 21
110.4999810000079
 31
0.0
  0
LINE
  5
F850
102
{ACAD_REACTORS
330
FA45
102
}
330
18
100
AcDbEntity
  8
01
100
AcDbLine
 10
18.65587324983079
 20
89.49998100000795
 30
0.0
 11
16.22477699630616
 21
89.49998100000795
 31
0.0
  0
LINE
  5
F851
102
{ACAD_REACTORS
330
FA45
102
}
330
18
100
AcDbEntity
  8
01
100
AcDbLine
 10
16.38287799294056
 20
110.4999810000079
 30
0.0
 11
18.42794759336056
 21
110.4999810000079
 31
0.0
  0
LINE
  5
F852
102
{ACAD_REACTORS
330
FA45
102
}
330
18
100
AcDbEntity
  8
01
100
AcDbLine
 10
19.97876638730094
 20
89.49998100000795
 30
0.0
 11
18.98660122113751
 21
89.49998100000795
 31
0.0
  0
LINE
  5
F853
102
{ACAD_REACTORS
330
FA45
102
}
330
18
100
AcDbEntity
  8
01
100
AcDbLine
 10
18.75945187002452
 20
110.4999810000079
 30
0.0
 11
19.75143065330866
 21
110.4999810000079
 31
0.0
  0
SPLINE
  5
F854
102
{ACAD_REACTORS
330
FA45
102
}
330
18
100
AcDbEntity
  8
01
100
AcDbSpline
210
0.0
220
0.0
230
1.0
 70
     8
 71
     3
 72
    14
 73
    10
 74
     0
 42
0.0000000001
 43
0.0000000001
 40
0.0
 40
0.0
 40
0.0
 40
0.0
 40
2.363459751534393
 40
4.201583912364866
 40
7.879916533048149
 40
10.77007097670062
 40
17.73046695371233
 40
19.30706061577665
 40
21.01419233575186
 40
21.01419233575186
 40
21.01419233575186
 40
21.01419233575186
 10
19.75143065330866
 20
110.4999810000079
 30
0.0
 10
19.70684626815017
 20
109.7134732879325
 30
0.0
 10
19.63382153553465
 20
108.3146880612961
 30
0.0
 10
19.53295484490735
 20
105.6901354704067
 30
0.0
 10
19.49419148780197
 20
102.8873876631563
 30
0.0
 10
19.62769442481448
 20
98.37916834330355
 30
0.0
 10
19.87217790570656
 20
94.57729134663424
 30
0.0
 10
19.96642325196871
 20
91.16352490447099
 30
0.0
 10
19.97664537517966
 20
90.06905243603325
 30
0.0
 10
19.97876638730094
 20
89.49998100000795
 30
0.0
  0
LINE
  5
F855
102
{ACAD_REACTORS
330
FA45
102
}
330
18
100
AcDbEntity
  8
01
100
AcDbLine
 10
18.98660122113751
 20
89.49998100000795
 30
0.0
 11
18.65587324983079
 21
89.49998100000795
 31
0.0
  0
SPLINE
  5
F856
102
{ACAD_REACTORS
330
FA45
102
}
330
18
100
AcDbEntity
  8
01
100
AcDbSpline
210
0.0
220
0.0
230
1.0
 70
     8
 71
     3
 72
    15
 73
    11
 74
     0
 42
0.0000000001
 43
0.0000000001
 40
0.0
 40
0.0
 40
0.0
 40
0.0
 40
1.688843240136613
 40
3.352634034324956
 40
5.003737036492014
 40
9.957079512988784
 40
12.99321977655261
 40
14.60090300721014
 40
16.51171684361712
 40
21.01417619597143
 40
21.01417619597143
 40
21.01417619597143
 40
21.01417619597143
 10
18.65587324983079
 20
89.49998100000795
 30
0.0
 10
18.65383811288683
 20
90.06291771874277
 30
0.0
 10
18.64341310224353
 20
91.18046598542452
 30
0.0
 10
18.59691707387509
 20
92.8477877749304
 30
0.0
 10
18.48052518747926
 20
95.60145411935747
 30
0.0
 10
18.29635884290127
 20
98.80983431517762
 30
0.0
 10
18.19434089625537
 20
102.0076267594198
 30
0.0
 10
18.19024628997539
 20
104.1926685867014
 30
0.0
 10
18.24064851231032
 20
106.8659847676257
 30
0.0
 10
18.34306997191624
 20
109.0016137949195
 30
0.0
 10
18.42794759336056
 20
110.4999810000079
 30
0.0
  0
LINE
  5
F857
102
{ACAD_REACTORS
330
FA45
102
}
330
18
100
AcDbEntity
  8
01
100
AcDbLine
 10
18.42794759336056
 20
110.4999810000079
 30
0.0
 11
18.75945187002452
 21
110.4999810000079
 31
0.0
  0
SPLINE
  5
F858
102
{ACAD_REACTORS
330
FA45
102
}
330
18
100
AcDbEntity
  8
01
100
AcDbSpline
210
0.0
220
0.0
230
1.0
 70
     8
 71
     3
 72
    15
 73
    11
 74
     0
 42
0.0000000001
 43
0.0000000001
 40
0.0
 40
0.0
 40
0.0
 40
0.0
 40
2.268809286684083
 40
4.174871355571428
 40
7.71608917143005
 40
10.56541906919839
 40
16.26294945880486
 40
17.97189970219085
 40
19.491728660092
 40
21.0141893986793
 40
21.0141893986793
 40
21.0141893986793
 40
21.0141893986793
 10
18.75945187002452
 20
110.4999810000079
 30
0.0
 10
18.71671912671781
 20
109.7449470392124
 30
0.0
 10
18.64374024615262
 20
108.3551386772654
 30
0.0
 10
18.54396841322449
 20
105.7850999684281
 30
0.0
 10
18.50237290440253
 20
103.0192366777999
 30
0.0
 10
18.61328594684636
 20
98.99075987819589
 30
0.0
 10
18.8168076347726
 20
95.57796048358779
 30
0.0
 10
18.93621534655239
 20
92.60484718537083
 30
0.0
 10
18.97597425680141
 20
91.02155221829963
 30
0.0
 10
18.98494283097233
 20
90.007461718775
 30
0.0
 10
18.98660122113751
 20
89.49998100000795
 30
0.0
  0
LINE
  5
F859
102
{ACAD_REACTORS
330
FA45
102
}
330
18
100
AcDbEntity
  8
01
100
AcDbLine
 10
16.17285291130446
 20
110.4999810000079
 30
0.0
 11
16.38287799294056
 21
110.4999810000079
 31
0.0
  0
SPLINE
  5
F85A
102
{ACAD_REACTORS
330
FA45
102
}
330
18
100
AcDbEntity
  8
01
100
AcDbSpline
210
0.0
220
0.0
230
1.0
 70
     8
 71
     3
 72
    14
 73
    10
 74
     0
 42
0.0000000001
 43
0.0000000001
 40
0.0
 40
0.0
 40
0.0
 40
0.0
 40
2.503402356314032
 40
4.756814346366214
 40
8.864261888799229
 40
10.24150340862076
 40
11.894832207137
 40
18.28105451892513
 40
21.03633594280296
 40
21.03633594280296
 40
21.03633594280296
 40
21.03633594280296
 10
16.38287799294056
 20
110.4999810000079
 30
0.0
 10
16.46349731777326
 20
109.6694600140207
 30
0.0
 10
16.60697660816385
 20
108.0901838119278
 30
0.0
 10
16.81485216637446
 20
105.1427641553913
 30
0.0
 10
16.89449267828076
 20
102.5632401792198
 30
0.0
 10
16.84398343304264
 20
100.1840993646222
 30
0.0
 10
16.7046701227402
 20
97.04800421317651
 30
0.0
 10
16.39485365758236
 20
93.46205600769582
 30
0.0
 10
16.24778541941004
 20
90.41819164713462
 30
0.0
 10
16.22477699630616
 20
89.49998100000795
 30
0.0
  0
LINE
  5
F85B
102
{ACAD_REACTORS
330
FA45
102
}
330
18
100
AcDbEntity
  8
01
100
AcDbLine
 10
16.22477699630616
 20
89.49998100000795
 30
0.0
 11
16.01622555975308
 21
89.49998100000795
 31
0.0
  0
SPLINE
  5
F85C
102
{ACAD_REACTORS
330
FA45
102
}
330
18
100
AcDbEntity
  8
01
100
AcDbSpline
210
0.0
220
0.0
230
1.0
 70
     8
 71
     3
 72
    12
 73
     8
 74
     0
 42
0.0000000001
 43
0.0000000001
 40
0.0
 40
0.0
 40
0.0
 40
0.0
 40
2.686030881144603
 40
8.978688289940218
 40
12.29113931807349
 40
16.22657787914237
 40
21.03639972679416
 40
21.03639972679416
 40
21.03639972679416
 40
21.03639972679416
 10
16.01622555975308
 20
89.49998100000795
 30
0.0
 10
16.0380841459916
 20
90.39505627319187
 30
0.0
 10
16.1810988870613
 20
93.38504346569363
 30
0.0
 10
16.53205770751464
 20
97.467685971197
 30
0.0
 10
16.70489575111623
 20
101.9796520018188
 30
0.0
 10
16.5766041960739
 20
105.9994007325025
 30
0.0
 10
16.32800330387562
 20
108.9041500872707
 30
0.0
 10
16.17285291130446
 20
110.4999810000079
 30
0.0
  0
LINE
  5
F85D
102
{ACAD_REACTORS
330
FA45
102
}
330
18
100
AcDbEntity
  8
01
100
AcDbLine
 10
2.7905470050502
 20
110.4999809999957
 30
0.0
 11
4.335003511227285
 21
110.4999810000079
 31
0.0
  0
LINE
  5
F85E
102
{ACAD_REACTORS
330
FA45
102
}
330
18
100
AcDbEntity
  8
01
100
AcDbLine
 10
4.178509499651852
 20
89.49998100000795
 30
0.0
 11
2.633309952704792
 21
89.4999810001944
 31
0.0
  0
LINE
  5
F860
102
{ACAD_REACTORS
330
FA45
102
}
330
18
100
AcDbEntity
  8
01
100
AcDbLine
 10
4.594526387444319
 20
110.4999810000079
 30
0.0
 11
10.43037791532987
 21
110.4999810000079
 31
0.0
  0
LINE
  5
F861
102
{ACAD_REACTORS
330
FA45
102
}
330
18
100
AcDbEntity
  8
01
100
AcDbLine
 10
10.65800464222883
 20
89.49998100000795
 30
0.0
 11
4.436165644393611
 21
89.49998100000795
 31
0.0
  0
LINE
  5
F862
102
{ACAD_REACTORS
330
FA45
102
}
330
18
100
AcDbEntity
  8
01
100
AcDbLine
 10
10.61042092837005
 20
110.4999810000079
 30
0.0
 11
13.1232469151434
 21
110.4999810000079
 31
0.0
  0
SPLINE
  5
F863
102
{ACAD_REACTORS
330
FA45
102
}
330
18
100
AcDbEntity
  8
01
100
AcDbSpline
210
0.0
220
0.0
230
1.0
 70
     8
 71
     3
 72
    14
 73
    10
 74
     0
 42
0.0000000001
 43
0.0000000001
 40
0.0
 40
0.0
 40
0.0
 40
0.0
 40
2.363459750653918
 40
4.201583910792621
 40
7.879916531325942
 40
10.7700709752456
 40
17.73046695198866
 40
19.30706061392974
 40
21.01419233483182
 40
21.01419233483182
 40
21.01419233483182
 40
21.01419233483182
 10
13.1232469151434
 20
110.4999810000079
 30
0.0
 10
13.078662550248
 20
109.7134732870452
 30
0.0
 10
13.00563784038621
 20
108.314688059905
 30
0.0
 10
12.90477115390621
 20
105.6901354694176
 30
0.0
 10
12.86600779696226
 20
102.8873876624219
 30
0.0
 10
12.99951073205756
 20
98.37916834255685
 30
0.0
 10
13.24399421755032
 20
94.57729134602943
 30
0.0
 10
13.33823955610859
 20
91.16352490354376
 30
0.0
 10
13.34846173474506
 20
90.06905243588636
 30
0.0
 10
13.35058285473787
 20
89.49998100000795
 30
0.0
  0
LINE
  5
F864
102
{ACAD_REACTORS
330
FA45
102
}
330
18
100
AcDbEntity
  8
01
100
AcDbLine
 10
13.35058285473787
 20
89.49998100000795
 30
0.0
 11
10.83752311819188
 21
89.49998100000795
 31
0.0
  0
LINE
  5
F865
102
{ACAD_REACTORS
330
FA45
102
}
330
18
100
AcDbEntity
  8
01
100
AcDbLine
 10
10.43037791532987
 20
110.4999810000079
 30
0.0
 11
10.61042092837005
 21
110.4999810000079
 31
0.0
  0
SPLINE
  5
F866
102
{ACAD_REACTORS
330
FA45
102
}
330
18
100
AcDbEntity
  8
01
100
AcDbSpline
210
0.0
220
0.0
230
1.0
 70
     8
 71
     3
 72
    15
 73
    11
 74
     0
 42
0.0000000001
 43
0.0000000001
 40
0.0
 40
0.0
 40
0.0
 40
0.0
 40
2.268684775198867
 40
4.174554419227713
 40
7.715205853115098
 40
10.56410163436594
 40
16.2617562951116
 40
17.97100792254751
 40
19.49122958589781
 40
21.01418998284634
 40
21.01418998284634
 40
21.01418998284634
 40
21.01418998284634
 10
10.61042092837005
 20
110.4999810000079
 30
0.0
 10
10.56768812188437
 20
109.7449886415469
 30
0.0
 10
10.4947064515847
 20
108.3552861521733
 30
0.0
 10
10.39492897754025
 20
105.7855424517059
 30
0.0
 10
10.35330805226175
 20
103.0200772566807
 30
0.0
 10
10.46418376983883
 20
98.9918915291417
 30
0.0
 10
10.66770655484169
 20
95.57909480934796
 30
0.0
 10
10.78712419253515
 20
92.60570897450617
 30
0.0
 10
10.82689564865558
 20
91.02201625114077
 30
0.0
 10
10.83586522984132
 20
90.0076282706703
 30
0.0
 10
10.83752311819188
 20
89.49998100000795
 30
0.0
  0
LINE
  5
F867
102
{ACAD_REACTORS
330
FA45
102
}
330
18
100
AcDbEntity
  8
01
100
AcDbLine
 10
10.83752311819188
 20
89.49998100000795
 30
0.0
 11
10.65800464222883
 21
89.49998100000795
 31
0.0
  0
SPLINE
  5
F868
102
{ACAD_REACTORS
330
FA45
102
}
330
18
100
AcDbEntity
  8
01
100
AcDbSpline
210
0.0
220
0.0
230
1.0
 70
     8
 71
     3
 72
    15
 73
    11
 74
     0
 42
0.0000000001
 43
0.0000000001
 40
0.0
 40
0.0
 40
0.0
 40
0.0
 40
1.753712757828972
 40
3.441142999367377
 40
5.278951217163788
 40
9.957100133588341
 40
12.99275966576452
 40
14.60266618738642
 40
16.51170444510878
 40
21.01419029052957
 40
21.01419029052957
 40
21.01419029052957
 40
21.01419029052957
 10
10.65800464222883
 20
89.49998100000795
 30
0.0
 10
10.65603144184541
 20
90.08454140323994
 30
0.0
 10
10.64486773469133
 20
91.23159119090025
 30
0.0
 10
10.59453764154131
 20
92.99058542588483
 30
0.0
 10
10.47580553383358
 20
95.72251219120227
 30
0.0
 10
10.296172077167
 20
98.90140936648487
 30
0.0
 10
10.19630131144703
 20
102.0080616486846
 30
0.0
 10
10.19242242646959
 20
104.1931014185114
 30
0.0
 10
10.2426860301436
 20
106.8665715049727
 30
0.0
 10
10.34551090653139
 20
109.0016089099552
 30
0.0
 10
10.43037791532942
 20
110.4999810000079
 30
0.0
  0
LINE
  5
F869
102
{ACAD_REACTORS
330
FA45
102
}
330
18
100
AcDbEntity
  8
01
100
AcDbLine
 10
4.335003511227285
 20
110.4999810000079
 30
0.0
 11
4.594526387444319
 21
110.4999810000079
 31
0.0
  0
SPLINE
  5
F86A
102
{ACAD_REACTORS
330
FA45
102
}
330
18
100
AcDbEntity
  8
01
100
AcDbSpline
210
0.0
220
0.0
230
1.0
 70
     8
 71
     3
 72
    15
 73
    11
 74
     0
 42
0.0000000001
 43
0.0000000001
 40
0.0
 40
0.0
 40
0.0
 40
0.0
 40
2.753740549184221
 40
5.007339150189568
 40
8.86421889251235
 40
10.24148567071544
 40
11.89481946178474
 40
18.36838217207844
 40
19.8146988797367
 40
21.03638152716836
 40
21.03638152716836
 40
21.03638152716836
 40
21.03638152716836
 10
4.594526387444319
 20
110.4999810000079
 30
0.0
 10
4.683335834333036
 20
109.5863973564363
 30
0.0
 10
4.832571163811451
 20
107.9238272564274
 30
0.0
 10
5.033931052905871
 20
104.9758726271119
 30
0.0
 10
5.104896971352161
 20
102.4797649456285
 30
0.0
 10
5.055496594481326
 20
100.184150834836
 30
0.0
 10
4.914264046847336
 20
97.01899220990555
 30
0.0
 10
4.639406834433146
 20
93.83886469085456
 30
0.0
 10
4.477039339736336
 20
90.79593177152248
 30
0.0
 10
4.445892256971263
 20
89.90709035667061
 30
0.0
 10
4.436165644393611
 20
89.49998100000795
 30
0.0
  0
LINE
  5
F86B
102
{ACAD_REACTORS
330
FA45
102
}
330
18
100
AcDbEntity
  8
01
100
AcDbLine
 10
4.436165644393611
 20
89.49998100000795
 30
0.0
 11
4.178509499651852
 21
89.49998100000795
 31
0.0
  0
ARC
  5
F86D
102
{ACAD_REACTORS
330
FA45
102
}
330
18
100
AcDbEntity
  8
01
100
AcDbCircle
 10
-61.5000000657904
 20
109.4999810000079
 30
0.0
 40
1.0
100
AcDbArc
 50
90.0
 51
180.0
  0
LINE
  5
F86E
102
{ACAD_REACTORS
330
FA45
102
}
330
18
100
AcDbEntity
  8
01
100
AcDbLine
 10
-61.5000000657904
 20
110.4999810000079
 30
0.0
 11
-58.64344307676339
 21
110.4999810000079
 31
0.0
  0
LINE
  5
F86F
102
{ACAD_REACTORS
330
FA45
102
}
330
18
100
AcDbEntity
  8
01
100
AcDbLine
 10
-60.17627586706914
 20
89.49998100000795
 30
0.0
 11
-61.5000000657904
 21
89.49998100000795
 31
0.0
  0
ARC
  5
F870
102
{ACAD_REACTORS
330
FA45
102
}
330
18
100
AcDbEntity
  8
01
100
AcDbCircle
 10
-61.5000000657904
 20
90.49998100000795
 30
0.0
 40
1.0
100
AcDbArc
 50
180.0
 51
270.0
  0
LINE
  5
F871
102
{ACAD_REACTORS
330
FA45
102
}
330
18
100
AcDbEntity
  8
01
100
AcDbLine
 10
-62.5000000657904
 20
90.49998100000795
 30
0.0
 11
-62.5000000657904
 21
109.4999810000079
 31
0.0
  0
LINE
  5
F872
102
{ACAD_REACTORS
330
FA45
102
}
330
18
100
AcDbEntity
  8
01
100
AcDbLine
 10
-58.6317457894491
 20
89.49998100000795
 30
0.0
 11
-60.17627586706914
 21
89.49998100000795
 31
0.0
  0
SPLINE
  5
F873
102
{ACAD_REACTORS
330
FA45
102
}
330
18
100
AcDbEntity
  8
01
100
AcDbSpline
210
0.0
220
0.0
230
1.0
 70
     8
 71
     3
 72
    14
 73
    10
 74
     0
 42
0.0000000001
 43
0.0000000001
 40
0.0
 40
0.0
 40
0.0
 40
0.0
 40
1.255430013093136
 40
2.760017413247235
 40
9.021172729692237
 40
10.53949023500443
 40
12.11565338575871
 40
16.33556766349594
 40
21.07624579944688
 40
21.07624579944688
 40
21.07624579944688
 40
21.07624579944688
 10
-60.17627586706914
 20
89.49998100000795
 30
0.0
 10
-60.13520631724469
 20
89.91650109105996
 30
0.0
 10
-60.06060415355779
 20
90.83342168666405
 30
0.0
 10
-59.90716640452939
 20
93.83728632315507
 30
0.0
 10
-59.92813574040366
 20
96.9334951416111
 30
0.0
 10
-59.79728483677474
 20
100.0495762683525
 30
0.0
 10
-59.63998447280284
 20
102.4828114629502
 30
0.0
 10
-59.28585168634237
 20
105.9780458501721
 30
0.0
 10
-58.87483670002331
 20
108.9368000443508
 30
0.0
 10
-58.64344307676339
 20
110.4999810000079
 30
0.0
  0
LINE
  5
F874
102
{ACAD_REACTORS
330
FA45
102
}
330
18
100
AcDbEntity
  8
01
100
AcDbLine
 10
-58.64344307676339
 20
110.4999810000079
 30
0.0
 11
-57.10008207261245
 21
110.4999810000079
 31
0.0
  0
LINE
  5
F875
102
{ACAD_REACTORS
330
FA45
102
}
330
18
100
AcDbEntity
  8
01
100
AcDbLine
 10
-54.45868970173507
 20
89.49998100000795
 30
0.0
 11
-58.37231625592523
 21
89.49998100000795
 31
0.0
  0
LINE
  5
F876
102
{ACAD_REACTORS
330
FA45
102
}
330
18
100
AcDbEntity
  8
01
100
AcDbLine
 10
-56.83798667990624
 20
110.4999810000079
 30
0.0
 11
-52.92723470418588
 21
110.4999810000079
 31
0.0
  0
LINE
  5
F877
102
{ACAD_REACTORS
330
FA45
102
}
330
18
100
AcDbEntity
  8
01
100
AcDbLine
 10
-51.95782624427994
 20
89.49998100000795
 30
0.0
 11
-54.26483699308693
 21
89.49998100000795
 31
0.0
  0
LINE
  5
F878
102
{ACAD_REACTORS
330
FA45
102
}
330
18
100
AcDbEntity
  8
01
100
AcDbLine
 10
-52.73115567690121
 20
110.4999810000079
 30
0.0
 11
-50.42498166383285
 21
110.4999810000079
 31
0.0
  0
LINE
  5
F879
102
{ACAD_REACTORS
330
FA45
102
}
330
18
100
AcDbEntity
  8
01
100
AcDbLine
 10
-47.44336433921745
 20
89.49998100000795
 30
0.0
 11
-51.95782624427994
 21
89.49998100000795
 31
0.0
  0
SPLINE
  5
F87A
102
{ACAD_REACTORS
330
FA45
102
}
330
18
100
AcDbEntity
  8
01
100
AcDbSpline
210
0.0
220
0.0
230
1.0
 70
     8
 71
     3
 72
    14
 73
    10
 74
     0
 42
0.0000000001
 43
0.0000000001
 40
0.0
 40
0.0
 40
0.0
 40
0.0
 40
1.354481670725819
 40
2.708963959115004
 40
8.980258312949084
 40
10.40136656110983
 40
12.18050079884971
 40
16.33187577672566
 40
21.07623820377883
 40
21.07623820377883
 40
21.07623820377883
 40
21.07623820377883
 10
-51.95782624427994
 20
89.49998100000795
 30
0.0
 10
-51.91348190992113
 20
89.949367491023
 30
0.0
 10
-51.84193570278495
 20
90.84944937774327
 30
0.0
 10
-51.68923800996555
 20
93.8396508607546
 30
0.0
 10
-51.70978427029814
 20
96.8568052386484
 30
0.0
 10
-51.58157686580608
 20
100.0115741141452
 30
0.0
 10
-51.42408376732993
 20
102.4573206692015
 30
0.0
 10
-51.06449732475841
 20
105.9982109009282
 30
0.0
 10
-50.65703052747295
 20
108.9356623071688
 30
0.0
 10
-50.42498166383285
 20
110.4999810000079
 30
0.0
  0
LINE
  5
F87B
102
{ACAD_REACTORS
330
FA45
102
}
330
18
100
AcDbEntity
  8
01
100
AcDbLine
 10
-50.42498166383285
 20
110.4999810000079
 30
0.0
 11
-45.91053154891171
 21
110.4999810000079
 31
0.0
  0
LINE
  5
F87C
102
{ACAD_REACTORS
330
FA45
102
}
330
18
100
AcDbEntity
  8
01
100
AcDbLine
 10
-45.89883426176385
 20
89.49998100000795
 30
0.0
 11
-47.44336433921745
 21
89.49998100000795
 31
0.0
  0
SPLINE
  5
F87D
102
{ACAD_REACTORS
330
FA45
102
}
330
18
100
AcDbEntity
  8
01
100
AcDbSpline
210
0.0
220
0.0
230
1.0
 70
     8
 71
     3
 72
    14
 73
    10
 74
     0
 42
0.0000000001
 43
0.0000000001
 40
0.0
 40
0.0
 40
0.0
 40
0.0
 40
1.255430013093144
 40
2.760017413247247
 40
9.021172729692243
 40
10.53949023500445
 40
12.11565338575959
 40
16.33556766349601
 40
21.07624579944683
 40
21.07624579944683
 40
21.07624579944683
 40
21.07624579944683
 10
-47.44336433921745
 20
89.49998100000795
 30
0.0
 10
-47.40229478939347
 20
89.91650109105996
 30
0.0
 10
-47.32769262570611
 20
90.83342168666405
 30
0.0
 10
-47.17425487667862
 20
93.83728632315507
 30
0.0
 10
-47.19522421255152
 20
96.9334951416111
 30
0.0
 10
-47.0643733089226
 20
100.049576268353
 30
0.0
 10
-46.9070729449507
 20
102.4828114629502
 30
0.0
 10
-46.55294015849023
 20
105.9780458501721
 30
0.0
 10
-46.14192517217117
 20
108.9368000443508
 30
0.0
 10
-45.91053154891171
 20
110.4999810000079
 30
0.0
  0
LINE
  5
F87E
102
{ACAD_REACTORS
330
FA45
102
}
330
18
100
AcDbEntity
  8
01
100
AcDbLine
 10
-45.91053154891171
 20
110.4999810000079
 30
0.0
 11
-44.36716788748873
 21
110.4999810000079
 31
0.0
  0
LINE
  5
F87F
102
{ACAD_REACTORS
330
FA45
102
}
330
18
100
AcDbEntity
  8
01
100
AcDbLine
 10
-39.9913711423531
 20
89.49998100000795
 30
0.0
 11
-45.63940472807354
 21
89.49998100000795
 31
0.0
  0
LINE
  5
F880
102
{ACAD_REACTORS
330
FA45
102
}
330
18
100
AcDbEntity
  8
01
100
AcDbLine
 10
-44.1050751520541
 20
110.4999810000079
 30
0.0
 11
-38.46083547613154
 21
110.4999810000079
 31
0.0
  0
LINE
  5
F881
102
{ACAD_REACTORS
330
FA45
102
}
330
18
100
AcDbEntity
  8
01
100
AcDbLine
 10
-38.66705606535089
 20
89.49998100000795
 30
0.0
 11
-39.65863891864711
 21
89.49998100000795
 31
0.0
  0
LINE
  5
F882
102
{ACAD_REACTORS
330
FA45
102
}
330
18
100
AcDbEntity
  8
01
100
AcDbLine
 10
-38.12495986995674
 20
110.4999810000079
 30
0.0
 11
-37.13421148780236
 21
110.4999810000079
 31
0.0
  0
LINE
  5
F883
102
{ACAD_REACTORS
330
FA45
102
}
330
18
100
AcDbEntity
  8
01
100
AcDbLine
 10
-34.47616943367467
 20
89.49998100000795
 30
0.0
 11
-38.66705606535089
 21
89.49998100000795
 31
0.0
  0
SPLINE
  5
F884
102
{ACAD_REACTORS
330
FA45
102
}
330
18
100
AcDbEntity
  8
01
100
AcDbSpline
210
0.0
220
0.0
230
1.0
 70
     8
 71
     3
 72
    14
 73
    10
 74
     0
 42
0.0000000001
 43
0.0000000001
 40
0.0
 40
0.0
 40
0.0
 40
0.0
 40
1.354481670239448
 40
2.708963958247147
 40
8.980258311761412
 40
10.40136656012046
 40
12.18050079809635
 40
16.33187577634513
 40
21.07623820356478
 40
21.07623820356478
 40
21.07623820356478
 40
21.07623820356478
 10
-38.66705606535089
 20
89.49998100000795
 30
0.0
 10
-38.62271173105029
 20
89.94936749086611
 30
0.0
 10
-38.55116552401915
 20
90.84944937730398
 30
0.0
 10
-38.39846783154309
 20
93.83965085993742
 30
0.0
 10
-38.4190140922754
 20
96.8568052376607
 30
0.0
 10
-38.29080668828675
 20
100.0115741132152
 30
0.0
 10
-38.1333135901844
 20
102.4573206685657
 30
0.0
 10
-37.77372714812083
 20
105.998210900604
 30
0.0
 10
-37.36626035123737
 20
108.9356623070819
 30
0.0
 10
-37.13421148780236
 20
110.4999810000079
 30
0.0
  0
LINE
  5
F885
102
{ACAD_REACTORS
330
FA45
102
}
330
18
100
AcDbEntity
  8
01
100
AcDbLine
 10
-37.13421148780236
 20
110.4999810000079
 30
0.0
 11
-34.78279652697012
 21
110.4999810000079
 31
0.0
  0
LINE
  5
F886
102
{ACAD_REACTORS
330
FA45
102
}
330
18
100
AcDbEntity
  8
01
100
AcDbLine
 10
-32.93304408908381
 20
89.49998100000795
 30
0.0
 11
-34.47616943367467
 21
89.49998100000795
 31
0.0
  0
SPLINE
  5
F887
102
{ACAD_REACTORS
330
FA45
102
}
330
18
100
AcDbEntity
  8
01
100
AcDbSpline
210
0.0
220
0.0
230
1.0
 70
     8
 71
     3
 72
    13
 73
     9
 74
     0
 42
0.0000000001
 43
0.0000000001
 40
0.0
 40
0.0
 40
0.0
 40
0.0
 40
1.148341935118716
 40
2.182177940353191
 40
4.456746149257081
 40
9.143521524415448
 40
14.2089436971179
 40
21.04981626667185
 40
21.04981626667185
 40
21.04981626667185
 40
21.04981626667185
 10
-34.47616943367467
 20
89.49998100000795
 30
0.0
 10
-34.53462378413298
 20
89.87825318122788
 30
0.0
 10
-34.64317465644473
 20
90.59757629637062
 30
0.0
 10
-34.83311582958078
 20
92.070984704885
 30
0.0
 10
-35.09505304937221
 20
94.72377542132637
 30
0.0
 10
-35.26905474329106
 20
98.73106596727285
 30
0.0
 10
-35.18480228952814
 20
104.2632159753082
 30
0.0
 10
-34.94084537697228
 20
108.2252681655808
 30
0.0
 10
-34.78279652697012
 20
110.4999810000079
 30
0.0
  0
LINE
  5
F888
102
{ACAD_REACTORS
330
FA45
102
}
330
18
100
AcDbEntity
  8
01
100
AcDbLine
 10
-34.78279652697012
 20
110.4999810000079
 30
0.0
 11
-33.23794672574724
 21
110.4999810000079
 31
0.0
  0
LINE
  5
F889
102
{ACAD_REACTORS
330
FA45
102
}
330
18
100
AcDbEntity
  8
01
100
AcDbLine
 10
-28.18513719531467
 20
89.49998100000795
 30
0.0
 11
-32.6702764341706
 21
89.49998100000795
 31
0.0
  0
LINE
  5
F88A
102
{ACAD_REACTORS
330
FA45
102
}
330
18
100
AcDbEntity
  8
01
100
AcDbLine
 10
-32.97939723488281
 20
110.4999810000079
 30
0.0
 11
-27.71169704762298
 21
110.4999810000079
 31
0.0
  0
LINE
  5
F88B
102
{ACAD_REACTORS
330
FA45
102
}
330
18
100
AcDbEntity
  8
01
100
AcDbLine
 10
-25.49247981407353
 20
89.49998100000795
 30
0.0
 11
-28.00548952187211
 21
89.49998100000795
 31
0.0
  0
LINE
  5
F88C
102
{ACAD_REACTORS
330
FA45
102
}
330
18
100
AcDbEntity
  8
01
100
AcDbLine
 10
-27.53216455007652
 20
110.4999810000079
 30
0.0
 11
-25.01908770377833
 21
110.4999810000079
 31
0.0
  0
LINE
  5
F88D
102
{ACAD_REACTORS
330
FA45
102
}
330
18
100
AcDbEntity
  8
01
100
AcDbLine
 10
-22.06651802406788
 20
89.49998100000795
 30
0.0
 11
-25.49247981407353
 21
89.49998100000795
 31
0.0
  0
SPLINE
  5
F88E
102
{ACAD_REACTORS
330
FA45
102
}
330
18
100
AcDbEntity
  8
01
100
AcDbSpline
210
0.0
220
0.0
230
1.0
 70
     8
 71
     3
 72
    13
 73
     9
 74
     0
 42
0.0000000001
 43
0.0000000001
 40
0.0
 40
0.0
 40
0.0
 40
0.0
 40
2.212254834327263
 40
7.794238913390402
 40
9.087484691684388
 40
10.97029031176139
 40
15.36352460595241
 40
21.0119471638755
 40
21.0119471638755
 40
21.0119471638755
 40
21.0119471638755
 10
-25.49247981407353
 20
89.49998100000795
 30
0.0
 10
-25.46611037972463
 20
90.23693474650673
 30
0.0
 10
-25.35192675005857
 20
92.83253654485662
 30
0.0
 10
-25.16770765656594
 20
95.85628070215063
 30
0.0
 10
-25.04949388300594
 20
98.77330535468838
 30
0.0
 10
-24.97634261569993
 20
101.2954038908177
 30
0.0
 10
-24.94413046300934
 20
105.270395516079
 30
0.0
 10
-24.98719560058208
 20
108.6174516330455
 30
0.0
 10
-25.01908770377833
 20
110.4999810000079
 30
0.0
  0
LINE
  5
F88F
102
{ACAD_REACTORS
330
FA45
102
}
330
18
100
AcDbEntity
  8
01
100
AcDbLine
 10
-25.01908770377833
 20
110.4999810000079
 30
0.0
 11
-21.90939615361714
 21
110.4999810000079
 31
0.0
  0
LINE
  5
F890
102
{ACAD_REACTORS
330
FA45
102
}
330
18
100
AcDbEntity
  8
01
100
AcDbLine
 10
-19.98377444024692
 20
89.49998100000795
 30
0.0
 11
-22.06651802406788
 21
89.49998100000795
 31
0.0
  0
SPLINE
  5
F891
102
{ACAD_REACTORS
330
FA45
102
}
330
18
100
AcDbEntity
  8
01
100
AcDbSpline
210
0.0
220
0.0
230
1.0
 70
     8
 71
     3
 72
    12
 73
     8
 74
     0
 42
0.0000000001
 43
0.0000000001
 40
-0.9378163072850907
 40
-0.9378163072850907
 40
-0.9378163072850907
 40
-0.9378163072850907
 40
-0.504646885953994
 40
-0.504646885953994
 40
-0.268760273236516
 40
-0.268760273236516
 40
-0.0624923253174839
 40
-0.0624923253174839
 40
-0.0624923253174839
 40
-0.0624923253174839
 10
-22.06651802406788
 20
89.49998100000795
 30
0.0
 10
-21.97863837791084
 20
93.00529861761589
 30
0.0
 10
-21.58600200142638
 20
96.49469925366594
 30
0.0
 10
-21.39057544295366
 20
101.9103683070142
 30
0.0
 10
-21.41510361335332
 20
103.601155015371
 30
0.0
 10
-21.60625479500305
 20
107.1762541350584
 30
0.0
 10
-21.74821881812824
 20
108.8384643931948
 30
0.0
 10
-21.90939615361714
 20
110.4999810000079
 30
0.0
  0
LINE
  5
F892
102
{ACAD_REACTORS
330
FA45
102
}
330
18
100
AcDbEntity
  8
01
100
AcDbLine
 10
-21.90939615361714
 20
110.4999810000079
 30
0.0
 11
-19.82714708869554
 21
110.4999810000079
 31
0.0
  0
LINE
  5
F893
102
{ACAD_REACTORS
330
FA45
102
}
330
18
100
AcDbEntity
  8
01
100
AcDbLine
 10
-17.34412675016921
 20
89.49998100000795
 30
0.0
 11
-19.77522300369384
 21
89.49998100000795
 31
0.0
  0
LINE
  5
F894
102
{ACAD_REACTORS
330
FA45
102
}
330
18
100
AcDbEntity
  8
01
100
AcDbLine
 10
-19.61712200705944
 20
110.4999810000079
 30
0.0
 11
-17.57205240663944
 21
110.4999810000079
 31
0.0
  0
LINE
  5
F895
102
{ACAD_REACTORS
330
FA45
102
}
330
18
100
AcDbEntity
  8
01
100
AcDbLine
 10
-16.02123361269906
 20
89.49998100000795
 30
0.0
 11
-17.01339877886249
 21
89.49998100000795
 31
0.0
  0
LINE
  5
F896
102
{ACAD_REACTORS
330
FA45
102
}
330
18
100
AcDbEntity
  8
01
100
AcDbLine
 10
-17.24054812997548
 20
110.4999810000079
 30
0.0
 11
-16.24856934669134
 21
110.4999810000079
 31
0.0
  0
LINE
  5
F897
102
{ACAD_REACTORS
330
FA45
102
}
330
18
100
AcDbEntity
  8
01
100
AcDbLine
 10
-14.90352037787153
 20
89.49998100000795
 30
0.0
 11
-16.02123361269906
 21
89.49998100000795
 31
0.0
  0
SPLINE
  5
F898
102
{ACAD_REACTORS
330
FA45
102
}
330
18
100
AcDbEntity
  8
01
100
AcDbSpline
210
0.0
220
0.0
230
1.0
 70
     8
 71
     3
 72
    14
 73
    10
 74
     0
 42
0.0000000001
 43
0.0000000001
 40
0.0
 40
0.0
 40
0.0
 40
0.0
 40
1.523053321575112
 40
3.043342666069661
 40
4.75264467854046
 40
10.45032327963856
 40
13.29914880284305
 40
16.83970700949362
 40
21.01419265567984
 40
21.01419265567984
 40
21.01419265567984
 40
21.01419265567984
 10
-16.02123361269906
 20
89.49998100000795
 30
0.0
 10
-16.02289856021054
 20
90.00765876204042
 30
0.0
 10
-16.03187531727309
 20
91.02210172751921
 30
0.0
 10
-16.07167678834304
 20
92.60586099808944
 30
0.0
 10
-16.19110847890744
 20
95.57930010997035
 30
0.0
 10
-16.39471013063331
 20
98.99208243639333
 30
0.0
 10
-16.50556948882132
 20
103.0202396665248
 30
0.0
 10
-16.45270147674574
 20
106.5419112637235
 30
0.0
 10
-16.32732219897144
 20
109.1107123392038
 30
0.0
 10
-16.24856934669134
 20
110.4999810000079
 30
0.0
  0
LINE
  5
F899
102
{ACAD_REACTORS
330
FA45
102
}
330
18
100
AcDbEntity
  8
01
100
AcDbLine
 10
-16.24856934669134
 20
110.4999810000079
 30
0.0
 11
-12.90056783309757
 21
110.4999810000079
 31
0.0
  0
LINE
  5
F89A
102
{ACAD_REACTORS
330
FA45
102
}
330
18
100
AcDbEntity
  8
01
100
AcDbLine
 10
-13.36042211839623
 20
89.49998100000795
 30
0.0
 11
-14.90352037787153
 21
89.49998100000795
 31
0.0
  0
SPLINE
  5
F89B
102
{ACAD_REACTORS
330
FA45
102
}
330
18
100
AcDbEntity
  8
01
100
AcDbSpline
210
0.0
220
0.0
230
1.0
 70
     8
 71
     3
 72
    16
 73
    12
 74
     0
 42
0.0000000001
 43
0.0000000001
 40
0.0
 40
0.0
 40
0.0
 40
0.0
 40
4.788437170988745
 40
9.04480441116414
 40
16.28493955816854
 40
17.6436043954008
 40
18.37518583519233
 40
18.68867120456576
 40
19.55310323859914
 40
20.37966211875838
 40
21.21914096287741
 40
21.21914096287741
 40
21.21914096287741
 40
21.21914096287741
 10
-14.90352037787153
 20
89.49998100000795
 30
0.0
 10
-14.65118737660788
 20
91.0760363387738
 30
0.0
 10
-14.18558745979846
 20
94.05489699932451
 30
0.0
 10
-13.41819541988644
 20
99.42876623058311
 30
0.0
 10
-12.91585347872643
 20
103.6850154118177
 30
0.0
 10
-12.63259641029828
 20
106.7823082981475
 30
0.0
 10
-12.56461546947531
 20
107.5806831755797
 30
0.0
 10
-12.51464901144419
 20
108.2150967006008
 30
0.0
 10
-12.47842700278926
 20
108.8831465834499
 30
0.0
 10
-12.57678196245598
 20
109.7261235764534
 30
0.0
 10
-12.78009061050426
 20
110.2481872371075
 30
0.0
 10
-12.90056783309757
 20
110.4999810000079
 30
0.0
  0
LINE
  5
F89C
102
{ACAD_REACTORS
330
FA45
102
}
330
18
100
AcDbEntity
  8
01
100
AcDbLine
 10
-12.90056783309757
 20
110.4999810000079
 30
0.0
 11
-11.37088095777227
 21
110.4999810000079
 31
0.0
  0
LINE
  5
F89D
102
{ACAD_REACTORS
330
FA45
102
}
330
18
100
AcDbEntity
  8
01
100
AcDbLine
 10
-11.07141432244481
 20
110.4999810000079
 30
0.0
 11
-8.969719368427207
 21
110.4999810000079
 31
0.0
  0
LINE
  5
F89E
102
{ACAD_REACTORS
330
FA45
102
}
330
18
100
AcDbEntity
  8
01
100
AcDbLine
 10
-11.53788685976343
 20
89.49998100000795
 30
0.0
 11
-13.0973494929911
 21
89.49998100000795
 31
0.0
  0
LINE
  5
F89F
102
{ACAD_REACTORS
330
FA45
102
}
330
18
100
AcDbEntity
  8
01
100
AcDbLine
 10
-8.657572904551955
 20
110.4999810000079
 30
0.0
 11
-7.46117533115995
 21
110.4999810000079
 31
0.0
  0
LINE
  5
F8A0
102
{ACAD_REACTORS
330
FA45
102
}
330
18
100
AcDbEntity
  8
01
100
AcDbLine
 10
-10.03286725973959
 20
89.49998100000795
 30
0.0
 11
-11.230383424688
 21
89.49998100000795
 31
0.0
  0
LINE
  5
F8A1
102
{ACAD_REACTORS
330
FA45
102
}
330
18
100
AcDbEntity
  8
01
100
AcDbLine
 10
-7.46117533115995
 20
110.4999810000079
 30
0.0
 11
-3.37599581750311
 21
110.4999810000079
 31
0.0
  0
LINE
  5
F8A2
102
{ACAD_REACTORS
330
FA45
102
}
330
18
100
AcDbEntity
  8
01
100
AcDbLine
 10
-4.908828607808857
 20
89.49998100000795
 30
0.0
 11
-10.03286725973959
 21
89.49998100000795
 31
0.0
  0
SPLINE
  5
F8A3
102
{ACAD_REACTORS
330
FA45
102
}
330
18
100
AcDbEntity
  8
01
100
AcDbSpline
210
0.0
220
0.0
230
1.0
 70
     8
 71
     3
 72
    17
 73
    13
 74
     0
 42
0.0000000001
 43
0.0000000001
 40
0.0
 40
0.0
 40
0.0
 40
0.0
 40
3.695797073020012
 40
6.467667243687178
 40
11.08743058119039
 40
15.70715861258694
 40
18.47900763658916
 40
18.88452919720492
 40
19.29004842012177
 40
19.69553073755779
 40
20.23618538221459
 40
21.18239402681731
 40
21.18239402681731
 40
21.18239402681731
 40
21.18239402681731
 10
-10.03286725973959
 20
89.49998100000795
 30
0.0
 10
-9.808908616164729
 20
90.71137063872885
 30
0.0
 10
-9.425448623801742
 20
92.83296336354516
 30
0.0
 10
-8.820964743418983
 20
96.47906394182502
 30
0.0
 10
-8.258323656305777
 20
100.4437603350246
 30
0.0
 10
-7.864327151020746
 20
104.4293069341286
 30
0.0
 10
-7.719649193026555
 20
107.0247529887686
 30
0.0
 10
-7.678141507039811
 20
108.2183374932027
 30
0.0
 10
-7.667028166908779
 20
108.6236650575627
 30
0.0
 10
-7.652880553706666
 20
109.0740776544042
 30
0.0
 10
-7.618628710470887
 20
109.7038430266865
 30
0.0
 10
-7.546228727788559
 20
110.1958379173282
 30
0.0
 10
-7.46117533115995
 20
110.4999810000079
 30
0.0
  0
LINE
  5
F8A4
102
{ACAD_REACTORS
330
FA45
102
}
330
18
100
AcDbEntity
  8
01
100
AcDbLine
 10
-3.37599581750311
 20
110.4999810000079
 30
0.0
 11
-1.832632156298871
 21
110.4999810000079
 31
0.0
  0
LINE
  5
F8A5
102
{ACAD_REACTORS
330
FA45
102
}
330
18
100
AcDbEntity
  8
01
100
AcDbLine
 10
-3.364298530188819
 20
89.49998100000795
 30
0.0
 11
-4.908828607808857
 21
89.49998100000795
 31
0.0
  0
SPLINE
  5
F8A6
102
{ACAD_REACTORS
330
FA45
102
}
330
18
100
AcDbEntity
  8
01
100
AcDbSpline
210
0.0
220
0.0
230
1.0
 70
     8
 71
     3
 72
    14
 73
    10
 74
     0
 42
0.0000000001
 43
0.0000000001
 40
0.0
 40
0.0
 40
0.0
 40
0.0
 40
1.255430013093131
 40
2.760017413247223
 40
9.02117272969222
 40
10.53949023500441
 40
12.1156533857595
 40
16.33556766349598
 40
21.07624579944682
 40
21.07624579944682
 40
21.07624579944682
 40
21.07624579944682
 10
-4.908828607808857
 20
89.49998100000795
 30
0.0
 10
-4.86775905798487
 20
89.91650109105996
 30
0.0
 10
-4.793156894297056
 20
90.83342168666405
 30
0.0
 10
-4.639719145270021
 20
93.83728632315507
 30
0.0
 10
-4.660688481142927
 20
96.93349514161065
 30
0.0
 10
-4.529837577513547
 20
100.049576268353
 30
0.0
 10
-4.372537213541648
 20
102.4828114629502
 30
0.0
 10
-4.01840442708118
 20
105.9780458501721
 30
0.0
 10
-3.607389440762574
 20
108.9368000443508
 30
0.0
 10
-3.37599581750311
 20
110.4999810000079
 30
0.0
  0
LINE
  5
F8A7
102
{ACAD_REACTORS
330
FA45
102
}
330
18
100
AcDbEntity
  8
01
100
AcDbLine
 10
-1.570539420645503
 20
110.4999810000079
 30
0.0
 11
0.2487882739266638
 21
110.4999810000079
 31
0.0
  0
LINE
  5
F8A8
102
{ACAD_REACTORS
330
FA45
102
}
330
18
100
AcDbEntity
  8
01
100
AcDbLine
 10
-1.281747392295358
 20
89.49998100000795
 30
0.0
 11
-3.104868996664948
 21
89.49998100000795
 31
0.0
  0
LINE
  5
F8A9
102
{ACAD_REACTORS
330
FA45
102
}
330
18
100
AcDbEntity
  8
01
100
AcDbLine
 10
0.5846638801187396
 20
110.4999810000079
 30
0.0
 11
1.575412262256748
 21
110.4999810000079
 31
0.0
  0
SPLINE
  5
F8AA
102
{ACAD_REACTORS
330
FA45
102
}
330
18
100
AcDbEntity
  8
01
100
AcDbSpline
210
0.0
220
0.0
230
1.0
 70
     8
 71
     3
 72
    14
 73
    10
 74
     0
 42
0.0000000001
 43
0.0000000001
 40
0.0
 40
0.0
 40
0.0
 40
0.0
 40
1.354481670235749
 40
2.708963958239743
 40
8.980258311751715
 40
10.40136656011187
 40
12.18050079808923
 40
16.33187577634127
 40
21.07623820356471
 40
21.07623820356471
 40
21.07623820356471
 40
21.07623820356471
 10
0.0425676847077625
 20
89.49998100000795
 30
0.0
 10
0.0869120190088211
 20
89.94936749086474
 30
0.0
 10
0.1584582260385901
 20
90.84944937730035
 30
0.0
 10
0.3111559185142028
 20
93.8396508599306
 30
0.0
 10
0.2906096577823405
 20
96.85680523765251
 30
0.0
 10
0.4188170617719038
 20
100.011574113207
 30
0.0
 10
0.5763101598747085
 20
102.4573206685594
 30
0.0
 10
0.9358966019387367
 20
105.9982109006003
 30
0.0
 10
1.343363398821737
 20
108.9356623070806
 30
0.0
 10
1.575412262256748
 20
110.4999810000079
 30
0.0
  0
LINE
  5
F8AB
102
{ACAD_REACTORS
330
FA45
102
}
330
18
100
AcDbEntity
  8
01
100
AcDbLine
 10
0.0425676847077625
 20
89.49998100000795
 30
0.0
 11
-0.949015168591643
 21
89.49998100000795
 31
0.0
  0
LINE
  5
F8AC
102
{ACAD_REACTORS
330
FA45
102
}
330
18
100
AcDbEntity
  8
01
100
AcDbLine
 10
0.2487882739266638
 20
110.4999810000079
 30
0.0
 11
0.5846638801187396
 21
110.4999810000079
 31
0.0
  0
LINE
  5
F8AE
102
{ACAD_REACTORS
330
FA45
102
}
330
18
100
AcDbEntity
  8
01
100
AcDbLine
 10
-0.949015168591643
 20
89.49998100000795
 30
0.0
 11
-1.281747392295358
 21
89.49998100000795
 31
0.0
  0
SPLINE
  5
F8AF
102
{ACAD_REACTORS
330
FA45
102
}
330
18
100
AcDbEntity
  8
01
100
AcDbSpline
210
0.0
220
0.0
230
1.0
 70
     8
 71
     3
 72
    14
 73
    10
 74
     0
 42
0.0000000001
 43
0.0000000001
 40
0.0
 40
0.0
 40
0.0
 40
0.0
 40
1.255403353923914
 40
2.759906452224375
 40
9.020955871349056
 40
10.53925872000467
 40
12.12040296339253
 40
16.33415972467859
 40
21.07599615650857
 40
21.07599615650857
 40
21.07599615650857
 40
21.07599615650857
 10
-1.281747392295358
 20
89.49998100000795
 30
0.0
 10
-1.240337521828963
 20
89.91645450649486
 30
0.0
 10
-1.164823384696149
 20
90.83327358392336
 30
0.0
 10
-1.010835979195519
 20
93.83704565803038
 30
0.0
 10
-1.031815796060812
 20
96.93318610801754
 30
0.0
 10
-0.9016145958970014
 20
100.0509087074977
 30
0.0
 10
-0.7449144275145159
 20
102.4837834854878
 30
0.0
 10
-0.3930200685638852
 20
105.9792305678801
 30
0.0
 10
0.0176028975117219
 20
108.93638733789
 30
0.0
 10
0.2487882739266638
 20
110.4999810000079
 30
0.0
  0
LINE
  5
F8B0
102
{ACAD_REACTORS
330
FA45
102
}
330
18
100
AcDbEntity
  8
01
100
AcDbLine
 10
-3.104868996664948
 20
89.49998100000795
 30
0.0
 11
-3.364298530188819
 21
89.49998100000795
 31
0.0
  0
LINE
  5
F8B2
102
{ACAD_REACTORS
330
FA45
102
}
330
18
100
AcDbEntity
  8
01
100
AcDbLine
 10
-1.832632156298871
 20
110.4999810000079
 30
0.0
 11
-1.570539420645503
 21
110.4999810000079
 31
0.0
  0
SPLINE
  5
F8B3
102
{ACAD_REACTORS
330
FA45
102
}
330
18
100
AcDbEntity
  8
01
100
AcDbSpline
210
0.0
220
0.0
230
1.0
 70
     8
 71
     3
 72
    14
 73
    10
 74
     0
 42
0.0000000001
 43
0.0000000001
 40
0.0
 40
0.0
 40
0.0
 40
0.0
 40
2.758570454992411
 40
5.015848553949777
 40
9.156197452050597
 40
10.6751127222212
 40
12.19334419122019
 40
18.31646127694275
 40
21.0764534128461
 40
21.0764534128461
 40
21.0764534128461
 40
21.0764534128461
 10
-1.570539420645503
 20
110.4999810000079
 30
0.0
 10
-1.705317802660204
 20
109.5904088719097
 30
0.0
 10
-1.942024982610121
 20
107.935204073687
 30
0.0
 10
-2.325353936211116
 20
104.9072828941128
 30
0.0
 10
-2.585629791447275
 20
102.2806615189168
 30
0.0
 10
-2.73507727606858
 20
99.89262517739672
 30
0.0
 10
-2.857013571474738
 20
96.84144855186179
 30
0.0
 10
-2.836939540127617
 20
93.37269527957989
 30
0.0
 10
-3.015254413010382
 20
90.41559610303449
 30
0.0
 10
-3.104868996664948
 20
89.49998100000795
 30
0.0
  0
LINE
  5
F8B4
102
{ACAD_REACTORS
330
FA45
102
}
330
18
100
AcDbEntity
  8
01
100
AcDbLine
 10
-8.969719368427207
 20
110.4999810000079
 30
0.0
 11
-8.657572904551955
 21
110.4999810000079
 31
0.0
  0
SPLINE
  5
F8B5
102
{ACAD_REACTORS
330
FA45
102
}
330
18
100
AcDbEntity
  8
01
100
AcDbSpline
210
0.0
220
0.0
230
1.0
 70
     8
 71
     3
 72
    18
 73
    14
 74
     0
 42
0.0000000001
 43
0.0000000001
 40
0.0
 40
0.0
 40
0.0
 40
0.0
 40
0.4704411830962891
 40
0.9885167662434422
 40
1.473183102435892
 40
1.715362631218041
 40
2.372335468679775
 40
2.718101096823095
 40
3.686255875975688
 40
5.760901776840578
 40
10.46310807544982
 40
15.43870502501788
 40
21.18305078918414
 40
21.18305078918414
 40
21.18305078918414
 40
21.18305078918414
 10
-8.657572904551955
 20
110.4999810000079
 30
0.0
 10
-8.701786722562986
 20
110.349509761699
 30
0.0
 10
-8.773204259481929
 20
110.0272646214633
 30
0.0
 10
-8.829658677456166
 20
109.539021210813
 30
0.0
 10
-8.852804469412888
 20
109.1246429304036
 30
0.0
 10
-8.869064415356036
 20
108.663644925274
 30
0.0
 10
-8.879636808779026
 20
108.2488084087193
 30
0.0
 10
-8.902423018116963
 20
107.5922263690243
 30
0.0
 10
-8.951732576863208
 20
106.4637749534057
 30
0.0
 10
-9.114468126943223
 20
103.8869868638365
 30
0.0
 10
-9.511661289358756
 20
99.98853309064026
 30
0.0
 10
-10.25540354485639
 20
94.90099926509384
 30
0.0
 10
-10.88258088369849
 20
91.38289249661449
 30
0.0
 10
-11.230383424688
 20
89.49998100000795
 30
0.0
  0
LINE
  5
F8B6
102
{ACAD_REACTORS
330
FA45
102
}
330
18
100
AcDbEntity
  8
01
100
AcDbLine
 10
-11.230383424688
 20
89.49998100000795
 30
0.0
 11
-11.53788685976343
 21
89.49998100000795
 31
0.0
  0
SPLINE
  5
F8B7
102
{ACAD_REACTORS
330
FA45
102
}
330
18
100
AcDbEntity
  8
01
100
AcDbSpline
210
0.0
220
0.0
230
1.0
 70
     8
 71
     3
 72
    17
 73
    13
 74
     0
 42
0.0000000001
 43
0.0000000001
 40
0.0
 40
0.0
 40
0.0
 40
0.0
 40
3.179810086097375
 40
5.828855772181701
 40
10.87765440974258
 40
14.76500778005203
 40
17.26482869701212
 40
18.23670431347601
 40
18.79216277717788
 40
19.58116640779443
 40
20.09883637210971
 40
21.18143999614309
 40
21.18143999614309
 40
21.18143999614309
 40
21.18143999614309
 10
-11.53788685976343
 20
89.49998100000795
 30
0.0
 10
-11.34503353582232
 20
90.54220173879258
 30
0.0
 10
-10.99778909831895
 20
92.45396198307054
 30
0.0
 10
-10.39314301203905
 20
96.02905083404204
 30
0.0
 10
-9.834881205533122
 20
99.85095553298635
 30
0.0
 10
-9.437553512458464
 20
103.6429770407306
 30
0.0
 10
-9.268044372318684
 20
106.0903890336511
 30
0.0
 10
-9.204957993534038
 20
107.4313521303491
 30
0.0
 10
-9.175985421039343
 20
108.2028507681187
 30
0.0
 10
-9.160688410170508
 20
108.823553202343
 30
0.0
 10
-9.125249087718032
 20
109.6189026941454
 30
0.0
 10
-9.060254170721066
 20
110.1501420747684
 30
0.0
 10
-8.969719368427207
 20
110.4999810000079
 30
0.0
  0
LINE
  5
F8B8
102
{ACAD_REACTORS
330
FA45
102
}
330
18
100
AcDbEntity
  8
01
100
AcDbLine
 10
-13.0973494929911
 20
89.49998100000795
 30
0.0
 11
-13.36042211839623
 21
89.49998100000795
 31
0.0
  0
SPLINE
  5
F8B9
102
{ACAD_REACTORS
330
FA45
102
}
330
18
100
AcDbEntity
  8
01
100
AcDbSpline
210
0.0
220
0.0
230
1.0
 70
     8
 71
     3
 72
    17
 73
    13
 74
     0
 42
0.0000000001
 43
0.0000000001
 40
0.0
 40
0.0
 40
0.0
 40
0.0
 40
4.748545761234024
 40
8.969474095894336
 40
16.38345438759998
 40
17.65255548576661
 40
18.40720525992824
 40
18.71599086570032
 40
19.60639619321769
 40
20.01699445489912
 40
20.37269147492521
 40
21.22532545135468
 40
21.22532545135468
 40
21.22532545135468
 40
21.22532545135468
 10
-13.36042211839623
 20
89.49998100000795
 30
0.0
 10
-13.1102006693057
 20
91.06290151944205
 30
0.0
 10
-12.64813883386643
 20
94.01691605415482
 30
0.0
 10
-11.8742040554601
 20
99.42298683413202
 30
0.0
 10
-11.36853929964701
 20
103.6952959593758
 30
0.0
 10
-11.08233870868963
 20
106.8282380088611
 30
0.0
 10
-11.01606695716265
 20
107.6029579465178
 30
0.0
 10
-10.96428418362649
 20
108.2520032300434
 30
0.0
 10
-10.93724645526646
 20
108.7888966990516
 30
0.0
 10
-10.98491872283358
 20
109.3401780277584
 30
0.0
 10
-11.09240461058499
 20
109.8698926947421
 30
0.0
 10
-11.24304910883467
 20
110.2464319725689
 30
0.0
 10
-11.37088095777227
 20
110.4999810000079
 30
0.0
  0
LINE
  5
F8BA
102
{ACAD_REACTORS
330
FA45
102
}
330
18
100
AcDbEntity
  8
01
100
AcDbLine
 10
-11.37088095777227
 20
110.4999810000079
 30
0.0
 11
-11.07141432244481
 21
110.4999810000079
 31
0.0
  0
SPLINE
  5
F8BB
102
{ACAD_REACTORS
330
FA45
102
}
330
18
100
AcDbEntity
  8
01
100
AcDbSpline
210
0.0
220
0.0
230
1.0
 70
     8
 71
     3
 72
    18
 73
    14
 74
     0
 42
0.0000000001
 43
0.0000000001
 40
0.0
 40
0.0
 40
0.0
 40
0.0
 40
0.8401932170912918
 40
1.257833274457763
 40
1.463975926432002
 40
1.738406511848985
 40
2.292245274674019
 40
2.640322124959459
 40
3.475769184764102
 40
5.28603736059995
 40
8.349361573687617
 40
12.70439069191209
 40
21.2106025075984
 40
21.2106025075984
 40
21.2106025075984
 40
21.2106025075984
 10
-11.07141432244481
 20
110.4999810000079
 30
0.0
 10
-10.95644591962383
 20
110.2448043186385
 30
0.0
 10
-10.81571189876132
 20
109.8473037812926
 30
0.0
 10
-10.73422203625961
 20
109.3652169859545
 30
0.0
 10
-10.70705005600922
 20
109.0670128332989
 30
0.0
 10
-10.69420570702442
 20
108.7223019035153
 30
0.0
 10
-10.70557084446529
 20
108.3300917324689
 30
0.0
 10
-10.74770053710682
 20
107.7525020754081
 30
0.0
 10
-10.83134448228503
 20
106.7580770605144
 30
0.0
 10
-11.00572707537214
 20
104.8630364433005
 30
0.0
 10
-11.33237497269357
 20
101.8041137241256
 30
0.0
 10
-11.99952802817398
 20
96.53768285539655
 30
0.0
 10
-12.6491972236584
 20
92.29968261072128
 30
0.0
 10
-13.0973494929911
 20
89.49998100000795
 30
0.0
  0
LINE
  5
F8BC
102
{ACAD_REACTORS
330
FA45
102
}
330
18
100
AcDbEntity
  8
01
100
AcDbLine
 10
-17.01339877886249
 20
89.49998100000795
 30
0.0
 11
-17.34412675016921
 21
89.49998100000795
 31
0.0
  0
SPLINE
  5
F8BD
102
{ACAD_REACTORS
330
FA45
102
}
330
18
100
AcDbEntity
  8
01
100
AcDbSpline
210
0.0
220
0.0
230
1.0
 70
     8
 71
     3
 72
    15
 73
    11
 74
     0
 42
0.0000000001
 43
0.0000000001
 40
0.0
 40
0.0
 40
0.0
 40
0.0
 40
1.688843240136612
 40
3.352634034324957
 40
5.003737036492011
 40
9.957079512988784
 40
12.99321977655261
 40
14.60090300721014
 40
16.51171684361712
 40
21.01417619597143
 40
21.01417619597143
 40
21.01417619597143
 40
21.01417619597143
 10
-17.34412675016921
 20
89.49998100000795
 30
0.0
 10
-17.34616188711362
 20
90.06291771874277
 30
0.0
 10
-17.35658689775647
 20
91.18046598542452
 30
0.0
 10
-17.40308292612491
 20
92.8477877749304
 30
0.0
 10
-17.5194748125212
 20
95.60145411935747
 30
0.0
 10
-17.70364115709873
 20
98.80983431517762
 30
0.0
 10
-17.80565910374463
 20
102.0076267594198
 30
0.0
 10
-17.80975371002415
 20
104.1926685867014
 30
0.0
 10
-17.75935148768968
 20
106.8659847676257
 30
0.0
 10
-17.65693002808376
 20
109.0016137949195
 30
0.0
 10
-17.57205240663944
 20
110.4999810000079
 30
0.0
  0
LINE
  5
F8BE
102
{ACAD_REACTORS
330
FA45
102
}
330
18
100
AcDbEntity
  8
01
100
AcDbLine
 10
-17.57205240663944
 20
110.4999810000079
 30
0.0
 11
-17.24054812997548
 21
110.4999810000079
 31
0.0
  0
SPLINE
  5
F8BF
102
{ACAD_REACTORS
330
FA45
102
}
330
18
100
AcDbEntity
  8
01
100
AcDbSpline
210
0.0
220
0.0
230
1.0
 70
     8
 71
     3
 72
    15
 73
    11
 74
     0
 42
0.0000000001
 43
0.0000000001
 40
0.0
 40
0.0
 40
0.0
 40
0.0
 40
2.268809286684083
 40
4.174871355571427
 40
7.716089171430047
 40
10.56541906919839
 40
16.26294945880486
 40
17.97189970219085
 40
19.491728660092
 40
21.0141893986793
 40
21.0141893986793
 40
21.0141893986793
 40
21.0141893986793
 10
-17.24054812997548
 20
110.4999810000079
 30
0.0
 10
-17.28328087328219
 20
109.7449470392124
 30
0.0
 10
-17.35625975384738
 20
108.3551386772654
 30
0.0
 10
-17.45603158677505
 20
105.7850999684281
 30
0.0
 10
-17.49762709559701
 20
103.0192366777999
 30
0.0
 10
-17.38671405315364
 20
98.99075987819589
 30
0.0
 10
-17.18319236522694
 20
95.57796048358779
 30
0.0
 10
-17.06378465344761
 20
92.60484718537083
 30
0.0
 10
-17.02402574319859
 20
91.02155221829963
 30
0.0
 10
-17.01505716902722
 20
90.007461718775
 30
0.0
 10
-17.01339877886249
 20
89.49998100000795
 30
0.0
  0
LINE
  5
F8C0
102
{ACAD_REACTORS
330
FA45
102
}
330
18
100
AcDbEntity
  8
01
100
AcDbLine
 10
-19.82714708869554
 20
110.4999810000079
 30
0.0
 11
-19.61712200705944
 21
110.4999810000079
 31
0.0
  0
SPLINE
  5
F8C1
102
{ACAD_REACTORS
330
FA45
102
}
330
18
100
AcDbEntity
  8
01
100
AcDbSpline
210
0.0
220
0.0
230
1.0
 70
     8
 71
     3
 72
    14
 73
    10
 74
     0
 42
0.0000000001
 43
0.0000000001
 40
0.0
 40
0.0
 40
0.0
 40
0.0
 40
2.503402356314032
 40
4.756814346366212
 40
8.864261888799227
 40
10.24150340862076
 40
11.894832207137
 40
18.28105451892513
 40
21.03633594280296
 40
21.03633594280296
 40
21.03633594280296
 40
21.03633594280296
 10
-19.61712200705944
 20
110.4999810000079
 30
0.0
 10
-19.53650268222674
 20
109.6694600140207
 30
0.0
 10
-19.39302339183615
 20
108.0901838119278
 30
0.0
 10
-19.18514783362554
 20
105.1427641553913
 30
0.0
 10
-19.10550732171924
 20
102.5632401792198
 30
0.0
 10
-19.15601656695691
 20
100.1840993646222
 30
0.0
 10
-19.2953298772598
 20
97.04800421317651
 30
0.0
 10
-19.60514634241764
 20
93.46205600769582
 30
0.0
 10
-19.75221458058996
 20
90.41819164713462
 30
0.0
 10
-19.77522300369384
 20
89.49998100000795
 30
0.0
  0
LINE
  5
F8C2
102
{ACAD_REACTORS
330
FA45
102
}
330
18
100
AcDbEntity
  8
01
100
AcDbLine
 10
-19.77522300369384
 20
89.49998100000795
 30
0.0
 11
-19.98377444024692
 21
89.49998100000795
 31
0.0
  0
SPLINE
  5
F8C3
102
{ACAD_REACTORS
330
FA45
102
}
330
18
100
AcDbEntity
  8
01
100
AcDbSpline
210
0.0
220
0.0
230
1.0
 70
     8
 71
     3
 72
    12
 73
     8
 74
     0
 42
0.0000000001
 43
0.0000000001
 40
0.0
 40
0.0
 40
0.0
 40
0.0
 40
2.686030881144603
 40
8.978688289940218
 40
12.29113931807349
 40
16.22657787914237
 40
21.03639972679416
 40
21.03639972679416
 40
21.03639972679416
 40
21.03639972679416
 10
-19.98377444024692
 20
89.49998100000795
 30
0.0
 10
-19.9619158540084
 20
90.39505627319187
 30
0.0
 10
-19.8189011129387
 20
93.38504346569363
 30
0.0
 10
-19.46794229248536
 20
97.467685971197
 30
0.0
 10
-19.29510424888423
 20
101.9796520018188
 30
0.0
 10
-19.4233958039261
 20
105.9994007325025
 30
0.0
 10
-19.67199669612438
 20
108.9041500872707
 30
0.0
 10
-19.82714708869554
 20
110.4999810000079
 30
0.0
  0
LINE
  5
F8C4
102
{ACAD_REACTORS
330
FA45
102
}
330
18
100
AcDbEntity
  8
01
100
AcDbLine
 10
-27.71169704762298
 20
110.4999810000079
 30
0.0
 11
-27.53216455007652
 21
110.4999810000079
 31
0.0
  0
SPLINE
  5
F8C5
102
{ACAD_REACTORS
330
FA45
102
}
330
18
100
AcDbEntity
  8
01
100
AcDbSpline
210
0.0
220
0.0
230
1.0
 70
     8
 71
     3
 72
    14
 73
    10
 74
     0
 42
0.0000000001
 43
0.0000000001
 40
0.0
 40
0.0
 40
0.0
 40
0.0
 40
3.138016811111195
 40
5.648406072743316
 40
10.04159265253794
 40
11.92436894970999
 40
13.21759591662951
 40
18.79961510087851
 40
21.01194563900333
 40
21.01194563900333
 40
21.01194563900333
 40
21.01194563900333
 10
-27.53216455007652
 20
110.4999810000079
 30
0.0
 10
-27.51453197144048
 20
109.4541340229837
 30
0.0
 10
-27.48671711765184
 20
107.5714985456382
 30
0.0
 10
-27.46573002347151
 20
104.2243750968476
 30
0.0
 10
-27.48934909668634
 20
101.295460278511
 30
0.0
 10
-27.56254262528847
 20
98.7733957813478
 30
0.0
 10
-27.68072703284344
 20
95.85637418647849
 30
0.0
 10
-27.86495362373745
 20
92.83259952498912
 30
0.0
 10
-27.97911982637862
 20
90.23695996306861
 30
0.0
 10
-28.00548952187211
 20
89.49998100000795
 30
0.0
  0
LINE
  5
F8C6
102
{ACAD_REACTORS
330
FA45
102
}
330
18
100
AcDbEntity
  8
01
100
AcDbLine
 10
-28.00548952187211
 20
89.49998100000795
 30
0.0
 11
-28.18513719531467
 21
89.49998100000795
 31
0.0
  0
SPLINE
  5
F8C7
102
{ACAD_REACTORS
330
FA45
102
}
330
18
100
AcDbEntity
  8
01
100
AcDbSpline
210
0.0
220
0.0
230
1.0
 70
     8
 71
     3
 72
    12
 73
     8
 74
     0
 42
0.0000000001
 43
0.0000000001
 40
1.489991887427585
 40
1.489991887427585
 40
1.489991887427585
 40
1.489991887427585
 40
6.40778724871158
 40
6.40778724871158
 40
12.1867803263689
 40
12.1867803263689
 40
22.51885768242759
 40
22.51885768242759
 40
22.51885768242759
 40
22.51885768242759
 10
-28.18513719531467
 20
89.49998100000795
 30
0.0
 10
-28.12597286072906
 20
91.16674562436339
 30
0.0
 10
-28.03388270172655
 20
92.83162802019825
 30
0.0
 10
-27.83929251014916
 20
96.45376395719751
 30
0.0
 10
-27.75899187987062
 20
98.03529244172415
 30
0.0
 10
-27.61821798686907
 20
103.4978262874031
 30
0.0
 10
-27.65282015715803
 20
106.9979820422562
 30
0.0
 10
-27.71169704762298
 20
110.4999810000079
 30
0.0
  0
LINE
  5
F8C8
102
{ACAD_REACTORS
330
FA45
102
}
330
18
100
AcDbEntity
  8
01
100
AcDbLine
 10
-33.23794672574724
 20
110.4999810000079
 30
0.0
 11
-32.97939723488281
 21
110.4999810000079
 31
0.0
  0
SPLINE
  5
F8C9
102
{ACAD_REACTORS
330
FA45
102
}
330
18
100
AcDbEntity
  8
01
100
AcDbSpline
210
0.0
220
0.0
230
1.0
 70
     8
 71
     3
 72
    14
 73
    10
 74
     0
 42
0.0000000001
 43
0.0000000001
 40
0.0
 40
0.0
 40
0.0
 40
0.0
 40
3.684894867351765
 40
6.842713866203642
 40
11.90650788215305
 40
16.59331414449277
 40
18.86791631344418
 40
19.9017693000202
 40
21.0501619191553
 40
21.0501619191553
 40
21.0501619191553
 40
21.0501619191553
 10
-32.97939723488281
 20
110.4999810000079
 30
0.0
 10
-33.0643976020927
 20
109.2746617162018
 30
0.0
 10
-33.21328263427296
 20
106.9984730106647
 30
0.0
 10
-33.4005761016536
 20
103.0339914113886
 30
0.0
 10
-33.46646039850049
 20
98.73034207553184
 30
0.0
 10
-33.29182747515762
 20
94.72355335136291
 30
0.0
 10
-33.0286839461117
 20
92.07086340275765
 30
0.0
 10
-32.83786730017374
 20
90.59752434365129
 30
0.0
 10
-32.72869105213869
 20
89.87827745588112
 30
0.0
 10
-32.6702764341706
 20
89.49998100000795
 30
0.0
  0
LINE
  5
F8CA
102
{ACAD_REACTORS
330
FA45
102
}
330
18
100
AcDbEntity
  8
01
100
AcDbLine
 10
-32.6702764341706
 20
89.49998100000795
 30
0.0
 11
-32.93304408908381
 21
89.49998100000795
 31
0.0
  0
LINE
  5
F8CC
102
{ACAD_REACTORS
330
FA45
102
}
330
18
100
AcDbEntity
  8
01
100
AcDbLine
 10
-38.46083547613154
 20
110.4999810000079
 30
0.0
 11
-38.12495986995674
 21
110.4999810000079
 31
0.0
  0
LINE
  5
F8CE
102
{ACAD_REACTORS
330
FA45
102
}
330
18
100
AcDbEntity
  8
01
100
AcDbLine
 10
-39.65863891864711
 20
89.49998100000795
 30
0.0
 11
-39.9913711423531
 21
89.49998100000795
 31
0.0
  0
SPLINE
  5
F8CF
102
{ACAD_REACTORS
330
FA45
102
}
330
18
100
AcDbEntity
  8
01
100
AcDbSpline
210
0.0
220
0.0
230
1.0
 70
     8
 71
     3
 72
    14
 73
    10
 74
     0
 42
0.0000000001
 43
0.0000000001
 40
0.0
 40
0.0
 40
0.0
 40
0.0
 40
1.255403353923922
 40
2.759906452224383
 40
9.020955871349177
 40
10.53925872000475
 40
12.12040296339259
 40
16.3341597246786
 40
21.07599615650854
 40
21.07599615650854
 40
21.07599615650854
 40
21.07599615650854
 10
-39.9913711423531
 20
89.49998100000795
 30
0.0
 10
-39.94996127188671
 20
89.91645450649486
 30
0.0
 10
-39.87444713475389
 20
90.83327358392336
 30
0.0
 10
-39.72045972925326
 20
93.83704565803038
 30
0.0
 10
-39.74143954611901
 20
96.93318610801754
 30
0.0
 10
-39.6112383459552
 20
100.0509087074977
 30
0.0
 10
-39.45453817757317
 20
102.4837834854878
 30
0.0
 10
-39.10264381862254
 20
105.9792305678801
 30
0.0
 10
-38.69202085254693
 20
108.93638733789
 30
0.0
 10
-38.46083547613154
 20
110.4999810000079
 30
0.0
  0
LINE
  5
F8D0
102
{ACAD_REACTORS
330
FA45
102
}
330
18
100
AcDbEntity
  8
01
100
AcDbLine
 10
-45.63940472807354
 20
89.49998100000795
 30
0.0
 11
-45.89883426176385
 21
89.49998100000795
 31
0.0
  0
LINE
  5
F8D2
102
{ACAD_REACTORS
330
FA45
102
}
330
18
100
AcDbEntity
  8
01
100
AcDbLine
 10
-44.36716788748873
 20
110.4999810000079
 30
0.0
 11
-44.1050751520541
 21
110.4999810000079
 31
0.0
  0
SPLINE
  5
F8D3
102
{ACAD_REACTORS
330
FA45
102
}
330
18
100
AcDbEntity
  8
01
100
AcDbSpline
210
0.0
220
0.0
230
1.0
 70
     8
 71
     3
 72
    14
 73
    10
 74
     0
 42
0.0000000001
 43
0.0000000001
 40
0.0
 40
0.0
 40
0.0
 40
0.0
 40
2.75857045499247
 40
5.015848553949865
 40
9.156197452050685
 40
10.67511272222131
 40
12.19334419122016
 40
18.31646127694279
 40
21.07645341284613
 40
21.07645341284613
 40
21.07645341284613
 40
21.07645341284613
 10
-44.1050751520541
 20
110.4999810000079
 30
0.0
 10
-44.23985353406925
 20
109.5904088719097
 30
0.0
 10
-44.47656071401917
 20
107.935204073687
 30
0.0
 10
-44.85988966762017
 20
104.9072828941124
 30
0.0
 10
-45.12016552285633
 20
102.2806615189168
 30
0.0
 10
-45.26961300747763
 20
99.89262517739672
 30
0.0
 10
-45.39154930288333
 20
96.84144855186179
 30
0.0
 10
-45.37147527153621
 20
93.37269527957989
 30
0.0
 10
-45.54979014441898
 20
90.41559610303449
 30
0.0
 10
-45.63940472807354
 20
89.49998100000795
 30
0.0
  0
LINE
  5
F8D4
102
{ACAD_REACTORS
330
FA45
102
}
330
18
100
AcDbEntity
  8
01
100
AcDbLine
 10
-54.26483699308693
 20
89.49998100000795
 30
0.0
 11
-54.45868970173507
 21
89.49998100000795
 31
0.0
  0
SPLINE
  5
F8D5
102
{ACAD_REACTORS
330
FA45
102
}
330
18
100
AcDbEntity
  8
01
100
AcDbSpline
210
0.0
220
0.0
230
1.0
 70
     8
 71
     3
 72
    14
 73
    10
 74
     0
 42
0.0000000001
 43
0.0000000001
 40
0.0
 40
0.0
 40
0.0
 40
0.0
 40
1.255404823294705
 40
2.759932755091937
 40
9.021022477330071
 40
10.53933162489473
 40
12.12048250299896
 40
16.33425398377922
 40
21.07610977601867
 40
21.07610977601867
 40
21.07610977601867
 40
21.07610977601867
 10
-54.45868970173507
 20
89.49998100000795
 30
0.0
 10
-54.41743459899482
 20
89.91647175143163
 30
0.0
 10
-54.34230494713012
 20
90.83332731369029
 30
0.0
 10
-54.18856857657858
 20
93.8371307166629
 30
0.0
 10
-54.20955163603668
 20
96.93329466631513
 30
0.0
 10
-54.07912598910144
 20
100.0510281405703
 30
0.0
 10
-53.92206380849831
 20
102.4838895885794
 30
0.0
 10
-53.56961598351955
 20
105.9792938824078
 30
0.0
 10
-53.15854894279738
 20
108.9364003438953
 30
0.0
 10
-52.92723470418588
 20
110.4999810000079
 30
0.0
  0
LINE
  5
F8D6
102
{ACAD_REACTORS
330
FA45
102
}
330
18
100
AcDbEntity
  8
01
100
AcDbLine
 10
-52.92723470418588
 20
110.4999810000079
 30
0.0
 11
-52.73115567690121
 21
110.4999810000079
 31
0.0
  0
LINE
  5
F8D8
102
{ACAD_REACTORS
330
FA45
102
}
330
18
100
AcDbEntity
  8
01
100
AcDbLine
 10
-57.10008207261245
 20
110.4999810000079
 30
0.0
 11
-56.83798667990624
 21
110.4999810000079
 31
0.0
  0
SPLINE
  5
F8D9
102
{ACAD_REACTORS
330
FA45
102
}
330
18
100
AcDbEntity
  8
01
100
AcDbSpline
210
0.0
220
0.0
230
1.0
 70
     8
 71
     3
 72
    14
 73
    10
 74
     0
 42
0.0000000001
 43
0.0000000001
 40
0.0
 40
0.0
 40
0.0
 40
0.0
 40
2.75857045499244
 40
5.015848553949854
 40
9.15619745205065
 40
10.67511272222126
 40
12.19334419122026
 40
18.31646127694286
 40
21.07645341284608
 40
21.07645341284608
 40
21.07645341284608
 40
21.07645341284608
 10
-56.83798667990624
 20
110.4999810000079
 30
0.0
 10
-56.97276506192094
 20
109.5904088719092
 30
0.0
 10
-57.20947224187131
 20
107.935204073687
 30
0.0
 10
-57.5928011954723
 20
104.9072828941124
 30
0.0
 10
-57.85307705070755
 20
102.2806615189164
 30
0.0
 10
-58.00252453532931
 20
99.89262517739672
 30
0.0
 10
-58.12446083073547
 20
96.84144855186179
 30
0.0
 10
-58.1043867993879
 20
93.37269527957989
 30
0.0
 10
-58.28270167227112
 20
90.41559610303449
 30
0.0
 10
-58.37231625592523
 20
89.49998100000795
 30
0.0
  0
LINE
  5
F8DA
102
{ACAD_REACTORS
330
FA45
102
}
330
18
100
AcDbEntity
  8
01
100
AcDbLine
 10
-58.37231625592523
 20
89.49998100000795
 30
0.0
 11
-58.6317457894491
 21
89.49998100000795
 31
0.0
  0
LINE
  5
F8DC
330
18
100
AcDbEntity
  8
01
100
AcDbLine
 10
51.00000000000003
 20
18.00285463437869
 30
0.0
 11
51.00000000000003
 21
14.49999999999993
 31
0.0
  0
ARC
  5
F8DD
330
18
100
AcDbEntity
  8
01
100
AcDbCircle
 10
52.00000000000003
 20
17.50285463437869
 30
0.0
 40
1.0
100
AcDbArc
 50
90.0
 51
180.0
  0
ARC
  5
F8DE
330
18
100
AcDbEntity
  8
01
100
AcDbCircle
 10
51.50000000000003
 20
14.49999999999993
 30
0.0
 40
0.5
100
AcDbArc
 50
180.0
 51
270.0
  0
LINE
  5
F8DF
330
18
100
AcDbEntity
  8
01
100
AcDbLine
 10
72.00000000000003
 20
18.00285463437869
 30
0.0
 11
72.00000000000003
 21
14.50000000000038
 31
0.0
  0
ARC
  5
F8E0
330
18
100
AcDbEntity
  8
01
100
AcDbCircle
 10
71.00000000000003
 20
18.00285463437869
 30
0.0
 40
1.0
100
AcDbArc
 50
0.0
 51
90.0
  0
LINE
  5
F8E1
330
18
100
AcDbEntity
  8
01
100
AcDbLine
 10
51.50000000000003
 20
13.99999999999993
 30
0.0
 11
71.50000000000003
 21
14.00000000000038
 31
0.0
  0
ARC
  5
F8E2
330
18
100
AcDbEntity
  8
01
100
AcDbCircle
 10
71.50000000000003
 20
14.50000000000038
 30
0.0
 40
0.5
100
AcDbArc
 50
270.0
 51
0.0
  0
LINE
  5
F8E9
330
18
100
AcDbEntity
  8
01
100
AcDbLine
 10
-62.50000000000045
 20
16.50000000000001
 30
0.0
 11
-62.5
 21
14.50000000000001
 31
0.0
  0
ARC
  5
F8EA
330
18
100
AcDbEntity
  8
01
100
AcDbCircle
 10
-62.0
 20
14.50000000000001
 30
0.0
 40
0.5
100
AcDbArc
 50
180.0
 51
270.0
  0
LINE
  5
F8EB
330
18
100
AcDbEntity
  8
01
100
AcDbLine
 10
21.99999999999955
 20
14.00000000000001
 30
0.0
 11
-62.0
 21
14.00000000000001
 31
0.0
  0
ARC
  5
F8ED
330
18
100
AcDbEntity
  8
01
100
AcDbCircle
 10
21.99999999999955
 20
14.50000000000001
 30
0.0
 40
0.5
100
AcDbArc
 50
270.0
 51
0.0
  0
LINE
  5
F8F3
330
18
100
AcDbEntity
  8
01
100
AcDbLine
 10
22.49999999999955
 20
16.50000000000001
 30
0.0
 11
22.49999999999955
 21
14.50000000000001
 31
0.0
  0
LINE
  5
F925
330
18
100
AcDbEntity
  8
01
100
AcDbLine
 10
71.00000000000003
 20
19.00285463437869
 30
0.0
 11
52.00000000000003
 21
19.00285463437869
 31
0.0
  0
ARC
  5
F926
330
18
100
AcDbEntity
  8
01
100
AcDbCircle
 10
52.00000000000003
 20
18.00285463437869
 30
0.0
 40
1.0
100
AcDbArc
 50
90.0
 51
180.0
  0
LINE
  5
F927
330
18
100
AcDbEntity
  8
01
100
AcDbLine
 10
71.00000000000003
 20
18.50285463437869
 30
0.0
 11
52.00000000000003
 21
18.50285463437869
 31
0.0
  0
ARC
  5
F928
330
18
100
AcDbEntity
  8
01
100
AcDbCircle
 10
71.00000000000003
 20
17.50285463437869
 30
0.0
 40
1.0
100
AcDbArc
 50
0.0
 51
90.0
  0
TEXT
  5
FB0D
330
18
100
AcDbEntity
  8
1TEXT
100
AcDbText
 10
-61.08977361225865
 20
128.4553494390995
 30
0.0
 40
4.0
  1
ショットニッケル
 41
0.9
 72
     1
 11
-43.86977361225865
 21
128.4553494390995
 31
0.0
100
AcDbText
  0
LINE
  5
FB0E
330
18
100
AcDbEntity
  8
1DIM
100
AcDbLine
 10
-61.26977361225829
 20
126.7906380986238
 30
0.0
 11
8.730226387741709
 21
126.7906380986238
 31
0.0
  0
TEXT
  5
FB11
330
18
100
AcDbEntity
  8
1TEXT
100
AcDbText
 10
-22.74088472336886
 20
128.0762811149744
 30
0.0
 40
4.0
  1
PC-444-MQ
 41
0.8
 72
     1
 11
-8.869773612257745
 21
128.0762811149744
 31
0.0
100
AcDbText
  0
TEXT
  5
104E4
330
18
100
AcDbEntity
  8
01
  6
CONTINUOUS
100
AcDbText
 10
7.45687926049665
 20
55.71681176271354
 30
0.0
 40
3.5
  1
材質：亜鉛ダイキャスト
100
AcDbText
  0
TEXT
  5
104E5
330
18
100
AcDbEntity
  8
01
  6
CONTINUOUS
100
AcDbText
 10
7.573545927163317
 20
49.8834784293802
 30
0.0
 40
3.5
  1
仕上げ：各種メッキ
100
AcDbText
  0
SPLINE
  5
104E6
330
18
100
AcDbEntity
  8
01
100
AcDbSpline
210
0.0
220
0.0
230
1.0
 70
    12
 71
     3
 72
     8
 73
     4
 74
     0
 42
0.000000001
 43
0.0000000001
 40
-22.53655494432801
 40
-22.53655494432801
 40
-22.53655494432801
 40
-22.53655494432801
 40
-18.03303685871373
 40
-18.03303685871373
 40
-18.03303685871373
 40
-18.03303685871373
 10
2.7905470050502
 20
110.4999809999957
 30
0.0
 41
1.0
 10
2.93538435268573
 20
109.0057701686363
 30
0.0
 41
1.00000000015283
 10
3.064564128030895
 20
107.5099467379471
 30
0.0
 41
1.000000000305659
 10
3.154498400836189
 20
106.0114382355881
 30
0.0
 41
1.000000000458489
  0
SPLINE
  5
104E7
330
18
100
AcDbEntity
  8
01
100
AcDbSpline
210
0.0
220
0.0
230
1.0
 70
    12
 71
     3
 72
     8
 73
     4
 74
     0
 42
0.000000001
 43
0.0000000001
 40
-18.03303685871373
 40
-18.03303685871373
 40
-18.03303685871373
 40
-18.03303685871373
 40
-15.02750849129367
 40
-15.02750849129367
 40
-15.02750849129367
 40
-15.02750849129367
 10
3.154498400836189
 20
106.0114382355881
 30
0.0
 41
1.000000000458489
 10
3.215933303744976
 20
105.0114005247017
 30
0.0
 41
0.9998399242198865
 10
3.255439823039239
 20
104.0102567261277
 30
0.0
 41
0.9998399242198871
 10
3.272998986554455
 20
103.0084876178669
 30
0.0
 41
1.000000000458489
  0
SPLINE
  5
104E8
330
18
100
AcDbEntity
  8
01
100
AcDbSpline
210
0.0
220
0.0
230
1.0
 70
    12
 71
     3
 72
     8
 73
     4
 74
     0
 42
0.000000001
 43
0.0000000001
 40
-15.02750849129367
 40
-15.02750849129367
 40
-15.02750849129367
 40
-15.02750849129367
 40
-12.02192286384618
 40
-12.02192286384618
 40
-12.02192286384618
 40
-12.02192286384618
 10
3.272998986554455
 20
103.0084876178669
 30
0.0
 41
1.000000000458489
 10
3.288477179117478
 20
102.0066304156329
 30
0.0
 41
0.9997707058927695
 10
3.277676060719102
 20
101.0047118740561
 30
0.0
 41
0.9997707058927696
 10
3.240603061272566
 20
100.0034211965674
 30
0.0
 41
1.000000000458489
  0
SPLINE
  5
104E9
330
18
100
AcDbEntity
  8
01
100
AcDbSpline
210
0.0
220
0.0
230
1.0
 70
    12
 71
     3
 72
    11
 73
     7
 74
     0
 42
0.000000001
 43
0.0000000001
 40
-12.02192286384618
 40
-12.02192286384618
 40
-12.02192286384618
 40
-12.02192286384618
 40
-6.010910565673546
 40
-6.010910565673546
 40
-6.010910565673546
 40
-3.005404416587226
 40
-3.005404416587226
 40
-3.005404416587226
 40
-3.005404416587226
 10
3.240603061272566
 20
100.0034211965674
 30
0.0
 41
1.000000000458489
 10
3.167790523623523
 20
98.00092689229342
 30
0.0
 41
1.000000000458489
 10
3.009257749988762
 20
96.00289760351217
 30
0.0
 41
1.000000000458489
 10
2.869886389769533
 20
94.00421055364797
 30
0.0
 41
1.000000000458489
 10
2.800200709659919
 20
93.00486702871632
 30
0.0
 41
1.000000000458489
 10
2.735128829601024
 20
92.00500237272928
 30
0.0
 41
1.000000000458489
 10
2.687500345270735
 20
91.00433007154362
 30
0.0
 41
1.000000000458489
  0
SPLINE
  5
104EA
330
18
100
AcDbEntity
  8
01
100
AcDbSpline
210
0.0
220
0.0
230
1.0
 70
    12
 71
     3
 72
     8
 73
     4
 74
     0
 42
0.000000001
 43
0.0000000001
 40
-3.005404416587226
 40
-3.005404416587226
 40
-3.005404416587226
 40
-3.005404416587226
 40
-1.500046180737399
 40
-1.500046180737399
 40
-1.500046180737399
 40
-1.500046180737399
 10
2.687500345270735
 20
91.00433007154362
 30
0.0
 41
1.000000000458489
 10
2.663647566762108
 20
90.5031000822176
 30
0.0
 41
0.9999555665661962
 10
2.645583299907855
 20
90.00162810941612
 30
0.0
 41
0.9999555665661963
 10
2.633309952704792
 20
89.4999810001944
 30
0.0
 41
1.000000000458489
  0
SPLINE
  5
104EB
330
18
100
AcDbEntity
  8
01
100
AcDbSpline
210
0.0
220
0.0
230
1.0
 70
    12
 71
     3
 72
     8
 73
     4
 74
     0
 42
0.000000001
 43
0.0000000001
 40
0.0
 40
0.0
 40
0.0
 40
0.0
 40
1.504853236306995
 40
1.504853236306995
 40
1.504853236306995
 40
1.504853236306995
 10
4.178509499651852
 20
89.49998100000795
 30
0.0
 41
1.0
 10
4.190764345812738
 20
90.00146017510934
 30
0.0
 41
0.9999555631848647
 10
4.208808364348158
 20
90.50276443173408
 30
0.0
 41
0.9999555631848647
 10
4.232639149801514
 20
91.00382694078809
 30
0.0
 41
1.0
  0
SPLINE
  5
104EC
330
18
100
AcDbEntity
  8
01
100
AcDbSpline
210
0.0
220
0.0
230
1.0
 70
    12
 71
     3
 72
    11
 73
     7
 74
     0
 42
0.000000001
 43
0.0000000001
 40
1.504853236306995
 40
1.504853236306995
 40
1.504853236306995
 40
1.504853236306995
 40
4.510359313660995
 40
4.510359313660995
 40
4.510359313660995
 40
10.52137146836899
 40
10.52137146836899
 40
10.52137146836899
 40
10.52137146836899
 10
4.232639149801514
 20
91.00382694078809
 30
0.0
 41
1.0
 10
4.280231494837778
 20
92.00434198750719
 30
0.0
 41
1.000000000000001
 10
4.345267605399101
 20
93.00409261416172
 30
0.0
 41
0.9999999999999996
 10
4.414917838270583
 20
94.00335327432532
 30
0.0
 41
0.9999999999999999
 10
4.554218304013546
 20
96.00187459465297
 30
0.0
 41
1.000000000000001
 10
4.7126821959111
 20
97.99987526448405
 30
0.0
 41
1.000000000000001
 10
4.785427569110823
 20
100.0025363619296
 30
0.0
 41
1.000000000000001
  0
SPLINE
  5
104ED
330
18
100
AcDbEntity
  8
01
100
AcDbSpline
210
0.0
220
0.0
230
1.0
 70
    12
 71
     3
 72
     8
 73
     4
 74
     0
 42
0.000000001
 43
0.0000000001
 40
10.52137146836899
 40
10.52137146836899
 40
10.52137146836899
 40
10.52137146836899
 40
13.52729318735708
 40
13.52729318735708
 40
13.52729318735708
 40
13.52729318735708
 10
4.785427569110823
 20
100.0025363619296
 30
0.0
 41
1.000000000000001
 10
4.822467366602893
 20
101.0039403654858
 30
0.0
 41
0.9997707506482554
 10
4.833234913922922
 20
102.0059712955779
 30
0.0
 41
0.9997707506482553
 10
4.817722805711298
 20
103.0079400073826
 30
0.0
 41
1.000000000000001
  0
SPLINE
  5
104EE
330
18
100
AcDbEntity
  8
01
100
AcDbSpline
210
0.0
220
0.0
230
1.0
 70
    12
 71
     3
 72
     8
 73
     4
 74
     0
 42
0.000000001
 43
0.0000000001
 40
13.52729318735708
 40
13.52729318735708
 40
13.52729318735708
 40
13.52729318735708
 40
16.53311450015976
 40
16.53311450015976
 40
16.53311450015976
 40
16.53311450015976
 10
4.817722805711298
 20
103.0079400073826
 30
0.0
 41
1.000000000000001
 10
4.800130942731982
 20
104.0098062101336
 30
0.0
 41
0.9998399300415715
 10
4.760590034642235
 20
105.0110463803451
 30
0.0
 41
0.9998399300415715
 10
4.699119069376309
 20
106.0111797126004
 30
0.0
 41
1.000000000000001
  0
SPLINE
  5
104EF
330
18
100
AcDbEntity
  8
01
100
AcDbSpline
210
0.0
220
0.0
230
1.0
 70
    12
 71
     3
 72
     8
 73
     4
 74
     0
 42
0.000000001
 43
0.0000000001
 40
16.53311450015976
 40
16.53311450015976
 40
16.53311450015976
 40
16.53311450015976
 40
21.03670674199369
 40
21.03670674199369
 40
21.03670674199369
 40
21.03670674199369
 10
4.699119069376309
 20
106.0111797126004
 30
0.0
 41
1.000000000000001
 10
4.609129242702863
 20
107.5098436588185
 30
0.0
 41
1.002024719525863
 10
4.479901194008733
 20
109.0056953612778
 30
0.0
 41
1.004053538540884
 10
4.335003511227285
 20
110.4999810000079
 30
0.0
 41
1.006086465345379
  0
SPLINE
  5
104F0
330
18
100
AcDbEntity
  8
01
100
AcDbSpline
210
0.0
220
0.0
230
1.0
 70
     8
 71
     7
 72
    16
 73
     8
 74
     0
 42
0.000000001
 43
0.0000000001
 40
-22.60571296972349
 40
-22.60571296972349
 40
-22.60571296972349
 40
-22.60571296972349
 40
-22.60571296972349
 40
-22.60571296972349
 40
-22.60571296972349
 40
-22.60571296972349
 40
-11.2709310284397
 40
-11.2709310284397
 40
-11.2709310284397
 40
-11.2709310284397
 40
-11.2709310284397
 40
-11.2709310284397
 40
-11.2709310284397
 40
-11.2709310284397
 10
0.5846638801187396
 20
110.4999810000079
 30
0.0
 10
0.3480659595394968
 20
108.903013049802
 30
0.0
 10
0.1224768278340775
 20
107.3036841156903
 30
0.0
 10
-0.0853078724265401
 20
105.7018615747227
 30
0.0
 10
-0.2684924986731971
 20
104.0974128039509
 30
0.0
 10
-0.4202814083362796
 20
102.490205180425
 30
0.0
 10
-0.5338789588461736
 20
100.8801060811959
 30
0.0
 10
-0.6024895076328107
 20
99.26698288331391
 30
0.0
  0
SPLINE
  5
104F1
330
18
100
AcDbEntity
  8
01
100
AcDbSpline
210
0.0
220
0.0
230
1.0
 70
     8
 71
     7
 72
    31
 73
    23
 74
     0
 42
0.000000001
 43
0.0000000001
 40
-11.2709310284397
 40
-11.2709310284397
 40
-11.2709310284397
 40
-11.2709310284397
 40
-11.2709310284397
 40
-11.2709310284397
 40
-11.2709310284397
 40
-11.2709310284397
 40
-10.87702693565492
 40
-10.87702693565492
 40
-10.87702693565492
 40
-10.87702693565492
 40
-10.87702693565492
 40
-10.47313274854026
 40
-10.47313274854026
 40
-10.47313274854026
 40
-10.47313274854026
 40
-10.47313274854026
 40
-9.532858126205888
 40
-9.532858126205888
 40
-9.532858126205888
 40
-9.532858126205888
 40
-9.532858126205888
 40
-5.421202976524485
 40
-5.421202976524485
 40
-5.421202976524485
 40
-5.421202976524485
 40
-5.421202976524485
 40
-5.421202976524485
 40
-5.421202976524485
 40
-5.421202976524485
 10
-0.6024895076328107
 20
99.26698288331391
 30
0.0
 10
-0.6048890248237626
 20
99.21076188601438
 30
0.0
 10
-0.6072306809804218
 20
99.15453856869982
 30
0.0
 10
-0.6095169973653469
 20
99.0983130464736
 30
0.0
 10
-0.6117504952169952
 20
99.04208543443775
 30
0.0
 10
-0.6139336958042918
 20
98.98585584769563
 30
0.0
 10
-0.6182587030246509
 20
98.87196682751647
 30
0.0
 10
-0.622398071120017
 20
98.75807065123382
 30
0.0
 10
-0.6244452480544282
 20
98.70040766298308
 30
0.0
 10
-0.626443156619473
 20
98.642742925719
 30
0.0
 10
-0.6283909523033913
 20
98.58507648199048
 30
0.0
 10
-0.6347036722025337
 20
98.39315574119229
 30
0.0
 10
-0.6404426481784071
 20
98.20121704257127
 30
0.0
 10
-0.6441989017333185
 20
98.06694417183763
 30
0.0
 10
-0.6477193413841746
 20
97.93266473700106
 30
0.0
 10
-0.6510264352276067
 20
97.79837984966053
 30
0.0
 10
-0.6677693150816708
 20
97.07686750196973
 30
0.0
 10
-0.6796506748717661
 20
96.35526193313791
 30
0.0
 10
-0.6875318473929042
 20
95.76792872874904
 30
0.0
 10
-0.6950556664685905
 20
95.1805888452289
 30
0.0
 10
-0.7036535850123187
 20
94.59326981774149
 30
0.0
 10
-0.7147570559303063
 20
94.00599918145309
 30
0.0
 10
-0.7297975321351373
 20
93.41880447152681
 30
0.0
  0
SPLINE
  5
104F2
330
18
100
AcDbEntity
  8
01
100
AcDbSpline
210
0.0
220
0.0
230
1.0
 70
     8
 71
     7
 72
    16
 73
     8
 74
     0
 42
0.000000001
 43
0.0000000001
 40
-5.421202976524485
 40
-5.421202976524485
 40
-5.421202976524485
 40
-5.421202976524485
 40
-5.421202976524485
 40
-5.421202976524485
 40
-5.421202976524485
 40
-5.421202976524485
 40
-1.521272647986439
 40
-1.521272647986439
 40
-1.521272647986439
 40
-1.521272647986439
 40
-1.521272647986439
 40
-1.521272647986439
 40
-1.521272647986439
 40
-1.521272647986439
 10
-0.7297975321351373
 20
93.41880447152681
 30
0.0
 10
-0.7441280840096738
 20
92.858025931839
 30
0.0
 10
-0.761984445124483
 20
92.29723578025124
 30
0.0
 10
-0.7846483806018227
 20
91.73663030694007
 30
0.0
 10
-0.8134016555644052
 20
91.17640580208291
 30
0.0
 10
-0.8495260351353977
 20
90.61675855585719
 30
0.0
 10
-0.8943032844370578
 20
90.05788485843988
 30
0.0
 10
-0.949015168591643
 20
89.49998100000795
 30
0.0
  0
SPLINE
  5
104F3
330
18
100
AcDbEntity
  8
01
100
AcDbSpline
210
0.0
220
0.0
230
1.0
 70
     8
 71
     7
 72
    16
 73
     8
 74
     0
 42
0.000000001
 43
0.0000000001
 40
-22.59803546963252
 40
-22.59803546963252
 40
-22.59803546963252
 40
-22.59803546963252
 40
-22.59803546963252
 40
-22.59803546963252
 40
-22.59803546963252
 40
-22.59803546963252
 40
-19.07202057337892
 40
-19.07202057337892
 40
-19.07202057337892
 40
-19.07202057337892
 40
-19.07202057337892
 40
-19.07202057337892
 40
-19.07202057337892
 40
-19.07202057337892
 10
-3.364298530188819
 20
89.49998100000795
 30
0.0
 10
-3.314881001168771
 20
89.99904572779661
 30
0.0
 10
-3.273514592867571
 20
90.49881530064823
 30
0.0
 10
-3.239272063069905
 20
90.9991612850443
 30
0.0
 10
-3.211226169558643
 20
91.4999552474672
 30
0.0
 10
-3.188449670118928
 20
92.00106875439798
 30
0.0
 10
-3.170015322534539
 20
92.50237337231857
 30
0.0
 10
-3.154995884589255
 20
93.00374066771047
 30
0.0
  0
SPLINE
  5
104F4
330
18
100
AcDbEntity
  8
01
100
AcDbSpline
210
0.0
220
0.0
230
1.0
 70
     8
 71
     7
 72
    31
 73
    23
 74
     0
 42
0.000000001
 43
0.0000000001
 40
-19.07202057337892
 40
-19.07202057337892
 40
-19.07202057337892
 40
-19.07202057337892
 40
-19.07202057337892
 40
-19.07202057337892
 40
-19.07202057337892
 40
-19.07202057337892
 40
-18.46872791279574
 40
-18.46872791279574
 40
-18.46872791279574
 40
-18.46872791279574
 40
-18.46872791279574
 40
-17.83150946189624
 40
-17.83150946189624
 40
-17.83150946189624
 40
-17.83150946189624
 40
-17.83150946189624
 40
-13.83631016268644
 40
-13.83631016268644
 40
-13.83631016268644
 40
-13.83631016268644
 40
-13.83631016268644
 40
-10.87517501428901
 40
-10.87517501428901
 40
-10.87517501428901
 40
-10.87517501428901
 40
-10.87517501428901
 40
-10.87517501428901
 40
-10.87517501428901
 40
-10.87517501428901
 10
-3.154995884589255
 20
93.00374066771047
 30
0.0
 10
-3.152360536319804
 20
93.08988170422327
 30
0.0
 10
-3.149866165593096
 20
93.1760295040288
 30
0.0
 10
-3.147496119325126
 20
93.26218271728322
 30
0.0
 10
-3.145233744444624
 20
93.34833999414406
 30
0.0
 10
-3.143062387866678
 20
93.43449998476791
 30
0.0
 10
-3.138750482152147
 20
93.61166792443538
 30
0.0
 10
-3.134682589161741
 20
93.7888359236211
 30
0.0
 10
-3.132657870712421
 20
93.87984289740353
 30
0.0
 10
-3.130698472590495
 20
93.97085057165287
 30
0.0
 10
-3.128804862220761
 20
94.06185928875067
 30
0.0
 10
-3.115520449973076
 20
94.72347982541788
 30
0.0
 10
-3.105762277174847
 20
95.38519166498855
 30
0.0
 10
-3.098536429414992
 20
95.95591269988046
 30
0.0
 10
-3.091067785734424
 20
96.52662953672944
 30
0.0
 10
-3.081923523740727
 20
97.0973061205512
 30
0.0
 10
-3.060589444663776
 20
98.09082009999548
 30
0.0
 10
-3.025487688476744
 20
99.08399343027924
 30
0.0
 10
-3.007903888740032
 20
99.5066686043927
 30
0.0
 10
-2.987531032174331
 20
99.92921845613165
 30
0.0
 10
-2.964221934309364
 20
100.351611186937
 30
0.0
 10
-2.937829410693951
 20
100.7738149982459
 30
0.0
 10
-2.908206276863268
 20
101.1957980914993
 30
0.0
  0
SPLINE
  5
104F5
330
18
100
AcDbEntity
  8
01
100
AcDbSpline
210
0.0
220
0.0
230
1.0
 70
     8
 71
     7
 72
    31
 73
    23
 74
     0
 42
0.000000001
 43
0.0000000001
 40
-10.87517501428901
 40
-10.87517501428901
 40
-10.87517501428901
 40
-10.87517501428901
 40
-10.87517501428901
 40
-10.87517501428901
 40
-10.87517501428901
 40
-10.87517501428901
 40
-9.879890144192123
 40
-9.879890144192123
 40
-9.879890144192123
 40
-9.879890144192123
 40
-9.879890144192123
 40
-8.884595310990381
 40
-8.884595310990381
 40
-8.884595310990381
 40
-8.884595310990381
 40
-8.884595310990381
 40
-6.645070707188899
 40
-6.645070707188899
 40
-6.645070707188899
 40
-6.645070707188899
 40
-6.645070707188899
 40
-1.506623234942149
 40
-1.506623234942149
 40
-1.506623234942149
 40
-1.506623234942149
 40
-1.506623234942149
 40
-1.506623234942149
 40
-1.506623234942149
 40
-1.506623234942149
 10
-2.908206276863268
 20
101.1957980914993
 30
0.0
 10
-2.898404319694066
 20
101.3376401869671
 30
0.0
 10
-2.888306698133704
 20
101.4794643478875
 30
0.0
 10
-2.877914573710598
 20
101.6212691834233
 30
0.0
 10
-2.86722910791724
 20
101.7630533027348
 30
0.0
 10
-2.85625146229296
 20
101.904815314985
 30
0.0
 10
-2.833714021577464
 20
102.1882937625294
 30
0.0
 10
-2.810017142009485
 20
102.4716726541213
 30
0.0
 10
-2.797885912538561
 20
102.6133382466404
 30
0.0
 10
-2.785479084912652
 20
102.7549796034953
 30
0.0
 10
-2.772803791365561
 20
102.8965970514726
 30
0.0
 10
-2.730758307107237
 20
103.3567929394147
 30
0.0
 10
-2.686027635264338
 20
103.8167431763107
 30
0.0
 10
-2.653824162352805
 20
104.1350564018233
 30
0.0
 10
-2.62043648925129
 20
104.45324991334
 30
0.0
 10
-2.585916027230098
 20
104.7713227246994
 30
0.0
 10
-2.468628019552682
 20
105.8187925842047
 30
0.0
 10
-2.340161464159621
 20
106.8649310408626
 30
0.0
 10
-2.245872323341075
 20
107.5929275543343
 30
0.0
 10
-2.14737021026923
 20
108.3203799599626
 30
0.0
 10
-2.04525973681649
 20
109.0473391047697
 30
0.0
 10
-1.940145514869357
 20
109.7738558357776
 30
0.0
 10
-1.832632156298871
 20
110.4999810000079
 30
0.0
  0
SPLINE
  5
104F6
330
18
100
AcDbEntity
  8
01
100
AcDbSpline
210
0.0
220
0.0
230
1.0
 70
     8
 71
     7
 72
    31
 73
    23
 74
     0
 42
0.000000001
 43
0.0000000001
 40
0.0
 40
0.0
 40
0.0
 40
0.0
 40
0.0
 40
0.0
 40
0.0
 40
0.0
 40
1.149473794215525
 40
1.149473794215525
 40
1.149473794215525
 40
1.149473794215525
 40
1.149473794215525
 40
2.166050998435623
 40
2.166050998435623
 40
2.166050998435623
 40
2.166050998435623
 40
2.166050998435623
 40
4.440708944236833
 40
4.440708944236833
 40
4.440708944236833
 40
4.440708944236833
 40
4.440708944236833
 40
8.988895479653396
 40
8.988895479653396
 40
8.988895479653396
 40
8.988895479653396
 40
8.988895479653396
 40
8.988895479653396
 40
8.988895479653396
 40
8.988895479653396
 10
-32.93304408908381
 20
89.49998100000795
 30
0.0
 10
-32.95815015030104
 20
89.66225701451077
 30
0.0
 10
-32.98303435759072
 20
89.82457195575654
 30
0.0
 10
-33.00761818450502
 20
89.98693503223768
 30
0.0
 10
-33.03182310462518
 20
90.14935545244481
 30
0.0
 10
-33.05557059149652
 20
90.3118424248699
 30
0.0
 10
-33.09931004159381
 20
90.6181731756754
 30
0.0
 10
-33.14086750910866
 20
90.92480564414592
 30
0.0
 10
-33.15989782491744
 20
91.06877903750393
 30
0.0
 10
-33.17846164712529
 20
91.21281351873478
 30
0.0
 10
-33.19656603494724
 20
91.35690640301601
 30
0.0
 10
-33.25371557982481
 20
91.82359692630763
 30
0.0
 10
-33.30619739899822
 20
92.29084333671136
 30
0.0
 10
-33.34030347123172
 20
92.61401159045528
 30
0.0
 10
-33.37230815875984
 20
92.93739861184332
 30
0.0
 10
-33.40227555060466
 20
93.26098102355564
 30
0.0
 10
-33.4862442071738
 20
94.23208355526714
 30
0.0
 10
-33.55303649166973
 20
95.20452336538648
 30
0.0
 10
-33.59023306225509
 20
95.8532517049569
 30
0.0
 10
-33.62040644481959
 20
96.50236337178632
 30
0.0
 10
-33.64386138514766
 20
97.15175290571307
 30
0.0
 10
-33.66090262901963
 20
97.80131484657369
 30
0.0
 10
-33.67183492221631
 20
98.45094373420653
 30
0.0
  0
SPLINE
  5
104F7
330
18
100
AcDbEntity
  8
01
100
AcDbSpline
210
0.0
220
0.0
230
1.0
 70
     8
 71
     7
 72
    16
 73
     8
 74
     0
 42
0.000000001
 43
0.0000000001
 40
8.988895479653396
 40
8.988895479653396
 40
8.988895479653396
 40
8.988895479653396
 40
8.988895479653396
 40
8.988895479653396
 40
8.988895479653396
 40
8.988895479653396
 40
9.489944650003867
 40
9.489944650003867
 40
9.489944650003867
 40
9.489944650003867
 40
9.489944650003867
 40
9.489944650003867
 40
9.489944650003867
 40
9.489944650003867
 10
-33.67183492221631
 20
98.45094373420653
 30
0.0
 10
-33.70120695797215
 20
100.1735834728591
 30
0.0
 10
-33.68853661073427
 20
101.8969737501009
 30
0.0
 10
-33.64088375990588
 20
103.6197387814989
 30
0.0
 10
-33.56537883296124
 20
105.3412678742268
 30
0.0
 10
-33.46850087270496
 20
107.0616355088362
 30
0.0
 10
-33.35713740861894
 20
108.7810707811335
 30
0.0
 10
-33.23794672574724
 20
110.4999810000079
 30
0.0
  0
SPLINE
  5
104F8
330
18
100
AcDbEntity
  8
01
100
AcDbSpline
210
0.0
220
0.0
230
1.0
 70
     8
 71
     7
 72
    16
 73
     8
 74
     0
 42
0.000000001
 43
0.0000000001
 40
-22.60571296972227
 40
-22.60571296972227
 40
-22.60571296972227
 40
-22.60571296972227
 40
-22.60571296972227
 40
-22.60571296972227
 40
-22.60571296972227
 40
-22.60571296972227
 40
-11.27093102581485
 40
-11.27093102581485
 40
-11.27093102581485
 40
-11.27093102581485
 40
-11.27093102581485
 40
-11.27093102581485
 40
-11.27093102581485
 40
-11.27093102581485
 10
-38.12495986995674
 20
110.4999810000079
 30
0.0
 10
-38.3615577905901
 20
108.9030130494342
 30
0.0
 10
-38.5871469223419
 20
107.3036841149527
 30
0.0
 10
-38.79493162263935
 20
105.7018615736141
 30
0.0
 10
-38.97811624890875
 20
104.0974128024698
 30
0.0
 10
-39.12990515857683
 20
102.490205178571
 30
0.0
 10
-39.24350270907081
 20
100.8801060789681
 30
0.0
 10
-39.31211325781697
 20
99.26698288071321
 30
0.0
  0
SPLINE
  5
104F9
330
18
100
AcDbEntity
  8
01
100
AcDbSpline
210
0.0
220
0.0
230
1.0
 70
     8
 71
     7
 72
    31
 73
    23
 74
     0
 42
0.000000001
 43
0.0000000001
 40
-11.27093102581485
 40
-11.27093102581485
 40
-11.27093102581485
 40
-11.27093102581485
 40
-11.27093102581485
 40
-11.27093102581485
 40
-11.27093102581485
 40
-11.27093102581485
 40
-10.8770269348529
 40
-10.8770269348529
 40
-10.8770269348529
 40
-10.8770269348529
 40
-10.8770269348529
 40
-10.47313274851985
 40
-10.47313274851985
 40
-10.47313274851985
 40
-10.47313274851985
 40
-10.47313274851985
 40
-9.532858126185443
 40
-9.532858126185443
 40
-9.532858126185443
 40
-9.532858126185443
 40
-9.532858126185443
 40
-5.42120335614132
 40
-5.42120335614132
 40
-5.42120335614132
 40
-5.42120335614132
 40
-5.42120335614132
 40
-5.42120335614132
 40
-5.42120335614132
 40
-5.42120335614132
 10
-39.31211325781697
 20
99.26698288071321
 30
0.0
 10
-39.31451277499201
 20
99.2107618836738
 30
0.0
 10
-39.31685443114048
 20
99.15453856661935
 30
0.0
 10
-39.3191407475054
 20
99.09831304465325
 30
0.0
 10
-39.32137424535478
 20
99.04208543287751
 30
0.0
 10
-39.32355744592661
 20
98.98585584639505
 30
0.0
 10
-39.32788245313469
 20
98.87196682658742
 30
0.0
 10
-39.33202182121278
 20
98.75807065067676
 30
0.0
 10
-39.33406899814355
 20
98.70040766253788
 30
0.0
 10
-39.33606690670132
 20
98.64274292538568
 30
0.0
 10
-39.33801470238024
 20
98.58507648176902
 30
0.0
 10
-39.3443274222721
 20
98.39315574108315
 30
0.0
 10
-39.35006639824297
 20
98.20121704257446
 30
0.0
 10
-39.35382265180152
 20
98.0669441718399
 30
0.0
 10
-39.35734309145238
 20
97.93266473700288
 30
0.0
 10
-39.36065018530036
 20
97.7983798496619
 30
0.0
 10
-39.37739306390796
 20
97.07686755618744
 30
0.0
 10
-39.38927442316918
 20
96.3552620415906
 30
0.0
 10
-39.39715559527468
 20
95.76792889143991
 30
0.0
 10
-39.40467941375283
 20
95.1805890621543
 30
0.0
 10
-39.4132773310933
 20
94.59327008888914
 30
0.0
 10
-39.42438079984123
 20
94.00599950679936
 30
0.0
 10
-39.43942127250222
 20
93.41880485104122
 30
0.0
  0
SPLINE
  5
104FA
330
18
100
AcDbEntity
  8
01
100
AcDbSpline
210
0.0
220
0.0
230
1.0
 70
     8
 71
     7
 72
    16
 73
     8
 74
     0
 42
0.000000001
 43
0.0000000001
 40
-5.42120335614132
 40
-5.42120335614132
 40
-5.42120335614132
 40
-5.42120335614132
 40
-5.42120335614132
 40
-5.42120335614132
 40
-5.42120335614132
 40
-5.42120335614132
 40
-1.521272649353782
 40
-1.521272649353782
 40
-1.521272649353782
 40
-1.521272649353782
 40
-1.521272649353782
 40
-1.521272649353782
 40
-1.521272649353782
 40
-1.521272649353782
 10
-39.43942127250222
 20
93.41880485104122
 30
0.0
 10
-39.45375182369327
 20
92.85802625706702
 30
0.0
 10
-39.47160818419917
 20
92.29723605114197
 30
0.0
 10
-39.49427211951189
 20
91.73663052348758
 30
0.0
 10
-39.52302539512203
 20
91.17640596432585
 30
0.0
 10
-39.55914977652066
 20
90.61675866387787
 30
0.0
 10
-39.60392702919881
 20
90.05788491236473
 30
0.0
 10
-39.65863891864711
 20
89.49998100000795
 30
0.0
  0
SPLINE
  5
104FB
330
18
100
AcDbEntity
  8
01
100
AcDbSpline
210
0.0
220
0.0
230
1.0
 70
     8
 71
     7
 72
    16
 73
     8
 74
     0
 42
0.000000001
 43
0.0000000001
 40
-22.59803547167292
 40
-22.59803547167292
 40
-22.59803547167292
 40
-22.59803547167292
 40
-22.59803547167292
 40
-22.59803547167292
 40
-22.59803547167292
 40
-22.59803547167292
 40
-19.07204328444119
 40
-19.07204328444119
 40
-19.07204328444119
 40
-19.07204328444119
 40
-19.07204328444119
 40
-19.07204328444119
 40
-19.07204328444119
 40
-19.07204328444119
 10
-45.89883426176385
 20
89.49998100000795
 30
0.0
 10
-45.84941705091825
 20
89.99904251594018
 30
0.0
 10
-45.80805085702633
 20
90.49880886799048
 30
0.0
 10
-45.77380845584031
 20
90.99915162504504
 30
0.0
 10
-45.74576262311103
 20
91.49994235598916
 30
0.0
 10
-45.72298613458935
 20
92.00105262970811
 30
0.0
 10
-45.70455176602746
 20
92.50235401508809
 30
0.0
 10
-45.68953229317577
 20
93.00371808101437
 30
0.0
  0
SPLINE
  5
104FC
330
18
100
AcDbEntity
  8
01
100
AcDbSpline
210
0.0
220
0.0
230
1.0
 70
     8
 71
     7
 72
    31
 73
    23
 74
     0
 42
0.000000001
 43
0.0000000001
 40
-19.07204328444119
 40
-19.07204328444119
 40
-19.07204328444119
 40
-19.07204328444119
 40
-19.07204328444119
 40
-19.07204328444119
 40
-19.07204328444119
 40
-19.07204328444119
 40
-18.46873706553204
 40
-18.46873706553204
 40
-18.46873706553204
 40
-18.46873706553204
 40
-18.46873706553204
 40
-17.83150957611699
 40
-17.83150957611699
 40
-17.83150957611699
 40
-17.83150957611699
 40
-17.83150957611699
 40
-13.83631027690603
 40
-13.83631027690603
 40
-13.83631027690603
 40
-13.83631027690603
 40
-13.83631027690603
 40
-10.87518189475657
 40
-10.87518189475657
 40
-10.87518189475657
 40
-10.87518189475657
 40
-10.87518189475657
 40
-10.87518189475657
 40
-10.87518189475657
 40
-10.87518189475657
 10
-45.68953229317577
 20
93.00371808101437
 30
0.0
 10
-45.68689686396675
 20
93.0898610528464
 30
0.0
 10
-45.68440241808941
 20
93.17601078819672
 30
0.0
 10
-45.68203230200771
 20
93.26216593718829
 30
0.0
 10
-45.67976986215427
 20
93.34832514994497
 30
0.0
 10
-45.67759844499579
 20
93.43448707659019
 30
0.0
 10
-45.67328644111632
 20
93.61165824295796
 30
0.0
 10
-45.66921846243832
 20
93.78882946909363
 30
0.0
 10
-45.66719371098708
 20
93.87983773365232
 30
0.0
 10
-45.66523428225747
 20
93.97084669873522
 30
0.0
 10
-45.66334064349695
 20
94.06185670671931
 30
0.0
 10
-45.65005620208314
 20
94.72347853443517
 30
0.0
 10
-45.64029801101861
 20
95.38519166518
 30
0.0
 10
-45.63307216252161
 20
95.95591270002416
 30
0.0
 10
-45.6256035173945
 20
96.52662953676537
 30
0.0
 10
-45.61645925398699
 20
97.09730612047525
 30
0.0
 10
-45.59512519446054
 20
98.09081913344909
 30
0.0
 10
-45.56002348900148
 20
99.08399149825192
 30
0.0
 10
-45.54243974293087
 20
99.50666570707364
 30
0.0
 10
-45.52206695276192
 20
99.92921459419568
 30
0.0
 10
-45.49875793429766
 20
100.3516063612222
 30
0.0
 10
-45.47236550334657
 20
100.77380920976
 30
0.0
 10
-45.44274247571849
 20
101.1957913414142
 30
0.0
  0
SPLINE
  5
104FD
330
18
100
AcDbEntity
  8
01
100
AcDbSpline
210
0.0
220
0.0
230
1.0
 70
     8
 71
     7
 72
    31
 73
    23
 74
     0
 42
0.000000001
 43
0.0000000001
 40
-10.87518189475657
 40
-10.87518189475657
 40
-10.87518189475657
 40
-10.87518189475657
 40
-10.87518189475657
 40
-10.87518189475657
 40
-10.87518189475657
 40
-10.87518189475657
 40
-9.87989634772709
 40
-9.87989634772709
 40
-9.87989634772709
 40
-9.87989634772709
 40
-9.87989634772709
 40
-8.884600837654016
 40
-8.884600837654016
 40
-8.884600837654016
 40
-8.884600837654016
 40
-8.884600837654016
 40
-6.64507471088681
 40
-6.64507471088681
 40
-6.64507471088681
 40
-6.64507471088681
 40
-6.64507471088681
 40
-1.506623349408926
 40
-1.506623349408926
 40
-1.506623349408926
 40
-1.506623349408926
 40
-1.506623349408926
 40
-1.506623349408926
 40
-1.506623349408926
 40
-1.506623349408926
 10
-45.44274247571849
 20
101.1957913414142
 30
0.0
 10
-45.43294052387802
 20
101.3376335341775
 30
0.0
 10
-45.4228429070875
 20
101.4794577923861
 30
0.0
 10
-45.41245078687263
 20
101.6212627251987
 30
0.0
 10
-45.40176532475635
 20
101.763046941773
 30
0.0
 10
-45.39078768226301
 20
101.9048090512673
 30
0.0
 10
-45.36825024676938
 20
102.1882876932489
 30
0.0
 10
-45.34455337035371
 20
102.4716667791793
 30
0.0
 10
-45.33242214195508
 20
102.6133324688379
 30
0.0
 10
-45.3200153149067
 20
102.7549739228064
 30
0.0
 10
-45.30734002145465
 20
102.8965914678709
 30
0.0
 10
-45.26529453597169
 20
103.3567876712612
 30
0.0
 10
-45.22056385803882
 20
103.8167382233181
 30
0.0
 10
-45.18836037870034
 20
104.1350516668738
 30
0.0
 10
-45.15497269707413
 20
104.45324539628
 30
0.0
 10
-45.120452224556
 20
104.7713184253683
 30
0.0
 10
-45.00316416990228
 20
105.8187890576754
 30
0.0
 10
-44.87469754747946
 20
106.8649282850818
 30
0.0
 10
-44.78040834909763
 20
107.5929253513803
 30
0.0
 10
-44.68190617084139
 20
108.3203783089369
 30
0.0
 10
-44.57979562578458
 20
109.0473380048368
 30
0.0
 10
-44.47468132697787
 20
109.773855286165
 30
0.0
 10
-44.36716788748873
 20
110.4999810000079
 30
0.0
  0
SPLINE
  5
104FE
330
18
100
AcDbEntity
  8
01
100
AcDbSpline
210
0.0
220
0.0
230
1.0
 70
     8
 71
     7
 72
    16
 73
     8
 74
     0
 42
0.000000001
 43
0.0000000001
 40
-22.60065252301205
 40
-22.60065252301205
 40
-22.60065252301205
 40
-22.60065252301205
 40
-22.60065252301205
 40
-22.60065252301205
 40
-22.60065252301205
 40
-22.60065252301205
 40
-15.81605815451798
 40
-15.81605815451798
 40
-15.81605815451798
 40
-15.81605815451798
 40
-15.81605815451798
 40
-15.81605815451798
 40
-15.81605815451798
 40
-15.81605815451798
 10
-52.73115567690121
 20
110.4999810000079
 30
0.0
 10
-52.87298805608981
 20
109.5427047218994
 30
0.0
 10
-53.01084373265059
 20
108.5847797052596
 30
0.0
 10
-53.14327117916019
 20
107.6260888119608
 30
0.0
 10
-53.26881886819666
 20
106.6665149038734
 30
0.0
 10
-53.38603527233664
 20
105.7059408428689
 30
0.0
 10
-53.49346886415771
 20
104.744249490818
 30
0.0
 10
-53.58966811623742
 20
103.7813237095923
 30
0.0
  0
SPLINE
  5
104FF
330
18
100
AcDbEntity
  8
01
100
AcDbSpline
210
0.0
220
0.0
230
1.0
 70
     8
 71
     7
 72
    36
 73
    28
 74
     0
 42
0.000000001
 43
0.0000000001
 40
-15.81605815451798
 40
-15.81605815451798
 40
-15.81605815451798
 40
-15.81605815451798
 40
-15.81605815451798
 40
-15.81605815451798
 40
-15.81605815451798
 40
-15.81605815451798
 40
-14.5441345807159
 40
-14.5441345807159
 40
-14.5441345807159
 40
-14.5441345807159
 40
-14.5441345807159
 40
-13.5265993181002
 40
-13.5265993181002
 40
-13.5265993181002
 40
-13.5265993181002
 40
-13.5265993181002
 40
-11.23717054892797
 40
-11.23717054892797
 40
-11.23717054892797
 40
-11.23717054892797
 40
-11.23717054892797
 40
-5.626924980126526
 40
-5.626924980126526
 40
-5.626924980126526
 40
-5.626924980126526
 40
-5.626924980126526
 40
-4.022516006349992
 40
-4.022516006349992
 40
-4.022516006349992
 40
-4.022516006349992
 40
-4.022516006349992
 40
-4.022516006349992
 40
-4.022516006349992
 40
-4.022516006349992
 10
-53.58966811623742
 20
103.7813237095923
 30
0.0
 10
-53.60763172012031
 20
103.600544891506
 30
0.0
 10
-53.62529029475155
 20
103.4197067342528
 30
0.0
 10
-53.64260502838789
 20
103.2388157247649
 30
0.0
 10
-53.65953710928608
 20
103.0578783499771
 30
0.0
 10
-53.67604772570331
 20
102.8769010968211
 30
0.0
 10
-53.70493829266553
 20
102.5510824483743
 30
0.0
 10
-53.73221181969194
 20
102.2251766296161
 30
0.0
 10
-53.74401839109515
 20
102.0803104094283
 30
0.0
 10
-53.75551443181376
 20
101.935422459904
 30
0.0
 10
-53.76670438353113
 20
101.7905105257558
 30
0.0
 10
-53.80209109916933
 20
101.3194651025045
 30
0.0
 10
-53.83433862873136
 20
100.8481187033497
 30
0.0
 10
-53.85508029379235
 20
100.5216762913722
 30
0.0
 10
-53.87415958684988
 20
100.1951245419876
 30
0.0
 10
-53.8914976068848
 20
99.8684809133577
 30
0.0
 10
-53.94504193699532
 20
98.74114023002659
 30
0.0
 10
-53.97597597181658
 20
97.61312134892279
 30
0.0
 10
-53.99014806307133
 20
96.81178235844283
 30
0.0
 10
-54.00013029434859
 20
96.0103160081988
 30
0.0
 10
-54.00952966202777
 20
95.2088296480859
 30
0.0
 10
-54.02550601511695
 20
94.17824782955842
 30
0.0
 10
-54.05244853448841
 20
93.14798797762279
 30
0.0
 10
-54.05907316824624
 20
92.91889436656157
 30
0.0
 10
-54.06642169144453
 20
92.68982000869192
 30
0.0
 10
-54.07458488988624
 20
92.46076656938459
 30
0.0
 10
-54.08365354935205
 20
92.23173571400986
 30
0.0
 10
-54.09371845563811
 20
92.00272910793848
 30
0.0
  0
SPLINE
  5
10500
330
18
100
AcDbEntity
  8
01
100
AcDbSpline
210
0.0
220
0.0
230
1.0
 70
     8
 71
     7
 72
    16
 73
     8
 74
     0
 42
0.000000001
 43
0.0000000001
 40
-4.022516006349992
 40
-4.022516006349992
 40
-4.022516006349992
 40
-4.022516006349992
 40
-4.022516006349992
 40
-4.022516006349992
 40
-4.022516006349992
 40
-4.022516006349992
 40
-2.962200061134984
 40
-2.962200061134984
 40
-2.962200061134984
 40
-2.962200061134984
 40
-2.962200061134984
 40
-2.962200061134984
 40
-2.962200061134984
 40
-2.962200061134984
 10
-54.09371845563811
 20
92.00272910793848
 30
0.0
 10
-54.10932085364794
 20
91.64453924601031
 30
0.0
 10
-54.12731284766716
 20
91.28649289085962
 30
0.0
 10
-54.14802930155821
 20
90.92863482200738
 30
0.0
 10
-54.17180507918312
 20
90.57100981897503
 30
0.0
 10
-54.19897504440479
 20
90.21366266128308
 30
0.0
 10
-54.22987406108524
 20
89.85663812845388
 30
0.0
 10
-54.26483699308693
 20
89.49998100000795
 30
0.0
  0
SPLINE
  5
10501
330
18
100
AcDbEntity
  8
01
100
AcDbSpline
210
0.0
220
0.0
230
1.0
 70
     8
 71
     7
 72
    16
 73
     8
 74
     0
 42
0.000000001
 43
0.0000000001
 40
-22.59803546963034
 40
-22.59803546963034
 40
-22.59803546963034
 40
-22.59803546963034
 40
-22.59803546963034
 40
-22.59803546963034
 40
-22.59803546963034
 40
-22.59803546963034
 40
-19.07202042319143
 40
-19.07202042319143
 40
-19.07202042319143
 40
-19.07202042319143
 40
-19.07202042319143
 40
-19.07202042319143
 40
-19.07202042319143
 40
-19.07202042319143
 10
-58.6317457894491
 20
89.49998100000795
 30
0.0
 10
-58.58232825832312
 20
89.99904574905105
 30
0.0
 10
-58.54096184860174
 20
90.49881534321895
 30
0.0
 10
-58.50671931795051
 20
90.9991613489754
 30
0.0
 10
-58.47867342403543
 20
91.49995533278553
 30
0.0
 10
-58.45589692452205
 20
92.00106886111308
 30
0.0
 10
-58.43746257707545
 20
92.50237350042318
 30
0.0
 10
-58.42244313936118
 20
93.00374081718002
 30
0.0
  0
SPLINE
  5
10502
330
18
100
AcDbEntity
  8
01
100
AcDbSpline
210
0.0
220
0.0
230
1.0
 70
     8
 71
     7
 72
    31
 73
    23
 74
     0
 42
0.000000001
 43
0.0000000001
 40
-19.07202042319143
 40
-19.07202042319143
 40
-19.07202042319143
 40
-19.07202042319143
 40
-19.07202042319143
 40
-19.07202042319143
 40
-19.07202042319143
 40
-19.07202042319143
 40
-18.46872783630286
 40
-18.46872783630286
 40
-18.46872783630286
 40
-18.46872783630286
 40
-18.46872783630286
 40
-17.83150943237283
 40
-17.83150943237283
 40
-17.83150943237283
 40
-17.83150943237283
 40
-17.83150943237283
 40
-14.07130440272487
 40
-14.07130440272487
 40
-14.07130440272487
 40
-14.07130440272487
 40
-14.07130440272487
 40
-11.65975553033931
 40
-11.65975553033931
 40
-11.65975553033931
 40
-11.65975553033931
 40
-11.65975553033931
 40
-11.65975553033931
 40
-11.65975553033931
 40
-11.65975553033931
 10
-58.42244313936118
 20
93.00374081718002
 30
0.0
 10
-58.41982244077855
 20
93.08988416583799
 30
0.0
 10
-58.41733153612569
 20
93.17603249975429
 30
0.0
 10
-58.41495700508295
 20
93.26218498853706
 30
0.0
 10
-58.41268542731524
 20
93.348340801794
 30
0.0
 10
-58.41050338250835
 20
93.43449910913415
 30
0.0
 10
-58.40617309224837
 20
93.61166420838464
 30
0.0
 10
-58.40210787133157
 20
93.78883283090983
 30
0.0
 10
-58.40008868934302
 20
93.87984080333882
 30
0.0
 10
-58.39813759952841
 20
93.97084991490357
 30
0.0
 10
-58.39625367722266
 20
94.06186027034374
 30
0.0
 10
-58.3837099305627
 20
94.68992907324701
 30
0.0
 10
-58.37427685503854
 20
95.31806708982077
 30
0.0
 10
-58.36730664296584
 20
95.8552078132173
 30
0.0
 10
-58.36025384439137
 20
96.39234680958754
 30
0.0
 10
-58.35193993010199
 20
96.92945791146605
 30
0.0
 10
-58.33428974334339
 20
97.81094811096665
 30
0.0
 10
-58.30689227274462
 20
98.69222217411453
 30
0.0
 10
-58.29454683273462
 20
99.03651931027599
 30
0.0
 10
-58.28040925864599
 20
99.3807463048318
 30
0.0
 10
-58.26432757872209
 20
99.72488458655272
 30
0.0
 10
-58.24614982120676
 20
100.0689155842113
 30
0.0
 10
-58.22572401434655
 20
100.4128207265792
 30
0.0
  0
SPLINE
  5
10503
330
18
100
AcDbEntity
  8
01
100
AcDbSpline
210
0.0
220
0.0
230
1.0
 70
     8
 71
     7
 72
    31
 73
    23
 74
     0
 42
0.000000001
 43
0.0000000001
 40
-11.65975553033931
 40
-11.65975553033931
 40
-11.65975553033931
 40
-11.65975553033931
 40
-11.65975553033931
 40
-11.65975553033931
 40
-11.65975553033931
 40
-11.65975553033931
 40
-10.58602930723463
 40
-10.58602930723463
 40
-10.58602930723463
 40
-10.58602930723463
 40
-10.58602930723463
 40
-9.5122870345953
 40
-9.5122870345953
 40
-9.5122870345953
 40
-9.5122870345953
 40
-9.5122870345953
 40
-7.096186314925421
 40
-7.096186314925421
 40
-7.096186314925421
 40
-7.096186314925421
 40
-7.096186314925421
 40
-1.506607153301529
 40
-1.506607153301529
 40
-1.506607153301529
 40
-1.506607153301529
 40
-1.506607153301529
 40
-1.506607153301529
 40
-1.506607153301529
 40
-1.506607153301529
 10
-58.22572401434655
 20
100.4128207265792
 30
0.0
 10
-58.21679500650254
 20
100.5659458181065
 30
0.0
 10
-58.20749329352594
 20
100.719052499929
 30
0.0
 10
-58.19782180039448
 20
100.8721389080618
 30
0.0
 10
-58.18778345208767
 20
101.0252031785192
 30
0.0
 10
-58.17738117358505
 20
101.1782434473174
 30
0.0
 10
-58.15585444525942
 20
101.4842745408085
 30
0.0
 10
-58.13289537457177
 20
101.7901947141243
 30
0.0
 10
-58.12106603476769
 20
101.9431284340997
 30
0.0
 10
-58.1088953485808
 20
102.0960348648157
 30
0.0
 10
-58.09639168828545
 20
102.2489142268699
 30
0.0
 10
-58.05469767864389
 20
102.7457106075338
 30
0.0
 10
-58.0096631486511
 20
103.2422257065062
 30
0.0
 10
-57.97695180181864
 20
103.5858378083033
 30
0.0
 10
-57.94277585007313
 20
103.9293106779531
 30
0.0
 10
-57.90720356668572
 20
104.2726421102269
 30
0.0
 10
-57.78493535111176
 20
105.4097849291823
 30
0.0
 10
-57.64883584071305
 20
106.5453264715232
 30
0.0
 10
-57.54785435155719
 20
107.3374451286903
 30
0.0
 10
-57.44170225528825
 20
108.128907668943
 30
0.0
 10
-57.33116552677012
 20
108.9197763334599
 30
0.0
 10
-57.21703014091901
 20
109.7101133634222
 30
0.0
 10
-57.10008207261245
 20
110.4999810000079
 30
0.0
  0
LINE
  5
10504
330
18
100
AcDbEntity
  8
1DIM
100
AcDbLine
 10
-40.0
 20
-1.999999999998981
 30
0.0
 11
-40.0
 21
-30.99999999999199
 31
0.0
1001
ACAD
1000
DSTYLE
1002
{
1070
    45
1040
0.5
1002
}
  0
LINE
  5
10505
330
18
100
AcDbEntity
  8
1DIM
100
AcDbLine
 10
0.0
 20
-1.999999999991985
 30
0.0
 11
-0.0000000000000018
 21
-30.99999999999199
 31
0.0
1001
ACAD
1000
DSTYLE
1002
{
1070
    45
1040
0.5
1002
}
  0
LINE
  5
10506
330
18
100
AcDbEntity
  8
1DIM
100
AcDbLine
 10
-38.0
 20
-29.99999999999199
 30
0.0
 11
-2.000000000000002
 21
-29.99999999999199
 31
0.0
1001
ACAD
1000
DSTYLE
1002
{
1070
    45
1040
0.5
1002
}
  0
LINE
  5
1050A
330
18
100
AcDbEntity
  8
1DIM
100
AcDbLine
 10
-62.4999997886346
 20
99.99998100000795
 30
0.0
 11
-62.4999997886346
 21
73.99998100000795
 31
0.0
1001
ACAD
1000
DSTYLE
1002
{
1070
    45
1040
0.5
1002
}
  0
LINE
  5
1050B
330
18
100
AcDbEntity
  8
1DIM
100
AcDbLine
 10
22.49999993420961
 20
99.99998100000795
 30
0.0
 11
22.49999993420961
 21
73.99998100000795
 31
0.0
1001
ACAD
1000
DSTYLE
1002
{
1070
    45
1040
0.5
1002
}
  0
LINE
  5
1050C
330
18
100
AcDbEntity
  8
1DIM
100
AcDbLine
 10
-60.4999997886346
 20
74.99998100000795
 30
0.0
 11
20.49999993420961
 21
74.99998100000795
 31
0.0
1001
ACAD
1000
DSTYLE
1002
{
1070
    45
1040
0.5
1002
}
  0
LINE
  5
10510
330
18
100
AcDbEntity
  8
1DIM
100
AcDbLine
 10
21.50000155822636
 20
89.49998437483394
 30
0.0
 11
40.20514846225205
 21
89.49998437483393
 31
0.0
1001
ACAD
1000
DSTYLE
1002
{
1070
    45
1040
0.5
1002
}
  0
LINE
  5
10511
330
18
100
AcDbEntity
  8
1DIM
100
AcDbLine
 10
21.50000469975521
 20
110.4999776251779
 30
0.0
 11
40.20514846225205
 21
110.4999776251779
 31
0.0
1001
ACAD
1000
DSTYLE
1002
{
1070
    45
1040
0.5
1002
}
  0
LINE
  5
10512
330
18
100
AcDbEntity
  8
1DIM
100
AcDbLine
 10
39.20514846225205
 20
91.49998437483393
 30
0.0
 11
39.20514846225205
 21
108.4999776251779
 31
0.0
1001
ACAD
1000
DSTYLE
1002
{
1070
    45
1040
0.5
1002
}
  0
LINE
  5
10516
330
18
100
AcDbEntity
  8
1DIM
100
AcDbLine
 10
4.999999999999545
 20
0.0000000000000107
 30
0.0
 11
37.49999999999999
 21
0.0000000000000015
 31
0.0
1001
ACAD
1000
DSTYLE
1002
{
1070
    45
1040
0.5
1002
}
  0
LINE
  5
10517
330
18
100
AcDbEntity
  8
1DIM
100
AcDbLine
 10
21.51641510527289
 20
18.87564759384771
 30
0.0
 11
37.5
 21
18.87564759384771
 31
0.0
1001
ACAD
1000
DSTYLE
1002
{
1070
    45
1040
0.5
1002
}
  0
LINE
  5
10518
330
18
100
AcDbEntity
  8
1DIM
100
AcDbLine
 10
36.49999999999999
 20
2.000000000000002
 30
0.0
 11
36.5
 21
16.87564759384771
 31
0.0
1001
ACAD
1000
DSTYLE
1002
{
1070
    45
1040
0.5
1002
}
  0
LINE
  5
1051C
330
18
100
AcDbEntity
  8
1DIM
100
AcDbLine
 10
-45.0
 20
0.0000000000000107
 30
0.0
 11
-45.0
 21
-20.99999999999153
 31
0.0
1001
ACAD
1000
DSTYLE
1002
{
1070
    45
1040
0.5
1002
}
  0
LINE
  5
1051D
330
18
100
AcDbEntity
  8
1DIM
100
AcDbLine
 10
4.999999999999545
 20
0.0000000000000107
 30
0.0
 11
4.999999999999544
 21
-20.99999999999153
 31
0.0
1001
ACAD
1000
DSTYLE
1002
{
1070
    45
1040
0.5
1002
}
  0
LINE
  5
1051E
330
18
100
AcDbEntity
  8
1DIM
100
AcDbLine
 10
-43.0
 20
-19.99999999999153
 30
0.0
 11
2.999999999999544
 21
-19.99999999999153
 31
0.0
1001
ACAD
1000
DSTYLE
1002
{
1070
    45
1040
0.5
1002
}
  0
LINE
  5
10522
330
18
100
AcDbEntity
  8
1DIM
100
AcDbLine
 10
0.0
 20
-1.999999999991985
 30
0.0
 11
-0.0000000000000018
 21
-30.99999999999199
 31
0.0
1001
ACAD
1000
DSTYLE
1002
{
1070
    45
1040
0.5
1002
}
  0
LINE
  5
10523
330
18
100
AcDbEntity
  8
1DIM
100
AcDbLine
 10
22.49999999999955
 20
14.50000000000001
 30
0.0
 11
22.49999999999954
 21
-30.99999999999199
 31
0.0
1001
ACAD
1000
DSTYLE
1002
{
1070
    45
1040
0.5
1002
}
  0
LINE
  5
10524
330
18
100
AcDbEntity
  8
1DIM
100
AcDbLine
 10
1.999999999999998
 20
-29.99999999999199
 30
0.0
 11
20.49999999999954
 21
-29.99999999999199
 31
0.0
1001
ACAD
1000
DSTYLE
1002
{
1070
    45
1040
0.5
1002
}
  0
LINE
  5
10528
330
18
100
AcDbEntity
  8
1DIM
100
AcDbLine
 10
-40.0
 20
-1.999999999998981
 30
0.0
 11
-40.0
 21
-30.99999999999199
 31
0.0
1001
ACAD
1000
DSTYLE
1002
{
1070
    45
1040
0.5
1002
}
  0
LINE
  5
10529
330
18
100
AcDbEntity
  8
1DIM
100
AcDbLine
 10
-62.5
 20
14.50000000000001
 30
0.0
 11
-62.5
 21
-30.99999999999199
 31
0.0
1001
ACAD
1000
DSTYLE
1002
{
1070
    45
1040
0.5
1002
}
  0
LINE
  5
1052A
330
18
100
AcDbEntity
  8
1DIM
100
AcDbLine
 10
-42.0
 20
-29.99999999999199
 30
0.0
 11
-60.5
 21
-29.99999999999199
 31
0.0
1001
ACAD
1000
DSTYLE
1002
{
1070
    45
1040
0.5
1002
}
  0
SOLID
  5
1052E
330
18
100
AcDbEntity
  8
1DIM
100
AcDbTrace
 10
62.29374666316578
 20
-1.865762002132302
 30
0.0
 11
61.49999845175444
 21
0.0000018864646449
 31
0.0
 12
62.85595396695877
 22
-1.507478047696355
 32
0.0
 13
62.85595396695877
 23
-1.507478047696355
 33
0.0
1001
ACAD
1000
DSTYLE
1002
{
1070
    45
1040
0.5
1002
}
  0
LINE
  5
1052F
330
18
100
AcDbEntity
  8
1DIM
100
AcDbLine
 10
62.57485031506228
 20
-1.686620024914328
 30
0.0
 11
74.69171346981811
 21
-20.69999999999153
 31
0.0
1001
ACAD
1000
DSTYLE
1002
{
1070
    45
1040
0.5
1002
}
  0
LINE
  5
10530
330
18
100
AcDbEntity
  8
1DIM
100
AcDbLine
 10
74.69171346981811
 20
-20.69999999999153
 30
0.0
 11
94.55838013648477
 21
-20.69999999999153
 31
0.0
1001
ACAD
1000
DSTYLE
1002
{
1070
    45
1040
0.5
1002
}
  0
TEXT
  5
10531
330
18
100
AcDbEntity
  8
1DIM
  6
CONTINUOUS
100
AcDbText
 10
77.39171346981811
 20
-19.99999999999153
 30
0.0
 40
3.5
  1
M4-10
100
AcDbText
  0
SOLID
  5
10532
330
18
100
AcDbEntity
  8
1DIM
100
AcDbTrace
 10
0.932295073309448
 20
16.92070456554223
 30
0.0
 11
0.2163015403464215
 21
15.02374268615029
 31
0.0
 12
0.2783618403735173
 22
17.05038020437392
 32
0.0
 13
0.2783618403735173
 23
17.05038020437392
 33
0.0
1001
ACAD
1000
DSTYLE
1002
{
1070
    45
1040
0.5
1002
}
  0
LINE
  5
10533
330
18
100
AcDbEntity
  8
1DIM
100
AcDbLine
 10
0.6053284568414816
 20
16.98554238495808
 30
0.0
 11
6.990212593829983
 21
49.1834784293802
 31
0.0
1001
ACAD
1000
DSTYLE
1002
{
1070
    45
1040
0.5
1002
}
  0
LINE
  5
10534
330
18
100
AcDbEntity
  8
1DIM
100
AcDbLine
 10
21.50000469975521
 20
110.4999776251779
 30
0.0
 11
32.08160204587872
 21
110.4999776251779
 31
0.0
1001
ACAD
1000
DSTYLE
1002
{
1070
    45
1040
0.5
1002
}
  0
LINE
  5
10535
330
18
100
AcDbEntity
  8
1DIM
100
AcDbLine
 10
3.0
 20
99.99998100000795
 30
0.0
 11
32.08160204587872
 21
99.99998100000793
 31
0.0
1001
ACAD
1000
DSTYLE
1002
{
1070
    45
1040
0.5
1002
}
  0
LINE
  5
10536
330
18
100
AcDbEntity
  8
1DIM
100
AcDbLine
 10
31.08160204587872
 20
108.4999776251779
 30
0.0
 11
31.08160204587872
 21
101.9999810000079
 31
0.0
1001
ACAD
1000
DSTYLE
1002
{
1070
    45
1040
0.5
1002
}
  0
LINE
  5
1053A
330
18
100
AcDbEntity
  8
1DIM
100
AcDbLine
 10
57.5
 20
0.0000000000000107
 30
0.0
 11
57.5
 21
-20.99999999999153
 31
0.0
1001
ACAD
1000
DSTYLE
1002
{
1070
    45
1040
0.5
1002
}
  0
LINE
  5
1053B
330
18
100
AcDbEntity
  8
1DIM
100
AcDbLine
 10
65.5
 20
0.0000000000000107
 30
0.0
 11
65.5
 21
-20.99999999999153
 31
0.0
1001
ACAD
1000
DSTYLE
1002
{
1070
    45
1040
0.5
1002
}
  0
LINE
  5
1053C
330
18
100
AcDbEntity
  8
1DIM
100
AcDbLine
 10
59.5
 20
-19.99999999999153
 30
0.0
 11
63.5
 21
-19.99999999999153
 31
0.0
1001
ACAD
1000
DSTYLE
1002
{
1070
    45
1040
0.5
1002
}
  0
LINE
  5
10540
330
18
100
AcDbEntity
  8
0
  6
BYBLOCK
100
AcDbLine
 10
-38.0
 20
-30.53589837999198
 30
0.0
 11
-40.0
 21
-29.99999999999199
 31
0.0
  0
LINE
  5
10541
330
18
100
AcDbEntity
  8
0
  6
BYBLOCK
100
AcDbLine
 10
-40.0
 20
-29.99999999999199
 30
0.0
 11
-38.0
 21
-29.46410161999199
 31
0.0
  0
LINE
  5
10542
330
18
100
AcDbEntity
  8
0
  6
BYBLOCK
100
AcDbLine
 10
-40.0
 20
-29.99999999999199
 30
0.0
 11
-38.0
 21
-29.99999999999199
 31
0.0
  0
LINE
  5
10543
330
18
100
AcDbEntity
  8
0
  6
BYBLOCK
100
AcDbLine
 10
-2.000000000000002
 20
-29.46410161999199
 30
0.0
 11
-0.0000000000000017
 21
-29.99999999999199
 31
0.0
  0
LINE
  5
10544
330
18
100
AcDbEntity
  8
0
  6
BYBLOCK
100
AcDbLine
 10
-0.0000000000000017
 20
-29.99999999999199
 30
0.0
 11
-2.000000000000002
 21
-30.53589837999198
 31
0.0
  0
LINE
  5
10545
330
18
100
AcDbEntity
  8
0
  6
BYBLOCK
100
AcDbLine
 10
-0.0000000000000017
 20
-29.99999999999199
 30
0.0
 11
-2.000000000000002
 21
-29.99999999999199
 31
0.0
  0
TEXT
  5
10546
330
18
100
AcDbEntity
  8
1DIM
  6
CONTINUOUS
100
AcDbText
 10
-24.44791666666667
 20
-29.29999999999199
 30
0.0
 40
3.5
  1
P40
100
AcDbText
1001
ACAD
1000
DSTYLE
1002
{
1070
    45
1040
0.5
1002
}
  0
LINE
  5
10547
330
18
100
AcDbEntity
  8
0
  6
BYBLOCK
100
AcDbLine
 10
-60.4999997886346
 20
74.46408262000794
 30
0.0
 11
-62.4999997886346
 21
74.99998100000795
 31
0.0
  0
LINE
  5
10548
330
18
100
AcDbEntity
  8
0
  6
BYBLOCK
100
AcDbLine
 10
-62.4999997886346
 20
74.99998100000795
 30
0.0
 11
-60.4999997886346
 21
75.53587938000796
 31
0.0
  0
LINE
  5
10549
330
18
100
AcDbEntity
  8
0
  6
BYBLOCK
100
AcDbLine
 10
-62.4999997886346
 20
74.99998100000795
 30
0.0
 11
-60.4999997886346
 21
74.99998100000795
 31
0.0
  0
LINE
  5
1054A
330
18
100
AcDbEntity
  8
0
  6
BYBLOCK
100
AcDbLine
 10
20.49999993420961
 20
75.53587938000796
 30
0.0
 11
22.49999993420961
 21
74.99998100000795
 31
0.0
  0
LINE
  5
1054B
330
18
100
AcDbEntity
  8
0
  6
BYBLOCK
100
AcDbLine
 10
22.49999993420961
 20
74.99998100000795
 30
0.0
 11
20.49999993420961
 21
74.46408262000794
 31
0.0
  0
LINE
  5
1054C
330
18
100
AcDbEntity
  8
0
  6
BYBLOCK
100
AcDbLine
 10
22.49999993420961
 20
74.99998100000795
 30
0.0
 11
20.49999993420961
 21
74.99998100000795
 31
0.0
  0
TEXT
  5
1054D
330
18
100
AcDbEntity
  8
1DIM
  6
CONTINUOUS
100
AcDbText
 10
-22.91666659387916
 20
75.69998100000794
 30
0.0
 40
3.5
  1
85
100
AcDbText
1001
ACAD
1000
DSTYLE
1002
{
1070
    45
1040
0.5
1002
}
  0
LINE
  5
1054E
330
18
100
AcDbEntity
  8
0
  6
BYBLOCK
100
AcDbLine
 10
39.74104684225205
 20
91.49998437483393
 30
0.0
 11
39.20514846225205
 21
89.49998437483393
 31
0.0
  0
LINE
  5
1054F
330
18
100
AcDbEntity
  8
0
  6
BYBLOCK
100
AcDbLine
 10
39.20514846225205
 20
89.49998437483393
 30
0.0
 11
38.66925008225206
 21
91.49998437483393
 31
0.0
  0
LINE
  5
10550
330
18
100
AcDbEntity
  8
0
  6
BYBLOCK
100
AcDbLine
 10
39.20514846225205
 20
89.49998437483393
 30
0.0
 11
39.20514846225205
 21
91.49998437483393
 31
0.0
  0
LINE
  5
10551
330
18
100
AcDbEntity
  8
0
  6
BYBLOCK
100
AcDbLine
 10
38.66925008225206
 20
108.4999776251779
 30
0.0
 11
39.20514846225205
 21
110.4999776251779
 31
0.0
  0
LINE
  5
10552
330
18
100
AcDbEntity
  8
0
  6
BYBLOCK
100
AcDbLine
 10
39.20514846225205
 20
110.4999776251779
 30
0.0
 11
39.74104684225205
 21
108.4999776251779
 31
0.0
  0
LINE
  5
10553
330
18
100
AcDbEntity
  8
0
  6
BYBLOCK
100
AcDbLine
 10
39.20514846225205
 20
110.4999776251779
 30
0.0
 11
39.20514846225205
 21
108.4999776251779
 31
0.0
  0
TEXT
  5
10554
330
18
100
AcDbEntity
  8
1DIM
  6
CONTINUOUS
100
AcDbText
 10
38.50514846225204
 20
97.66664766667259
 30
0.0
 40
3.5
  1
21
 50
90.0
100
AcDbText
1001
ACAD
1000
DSTYLE
1002
{
1070
    45
1040
0.5
1002
}
  0
LINE
  5
10555
330
18
100
AcDbEntity
  8
0
  6
BYBLOCK
100
AcDbLine
 10
37.03589837999999
 20
2.000000000000002
 30
0.0
 11
36.49999999999999
 21
0.0000000000000017
 31
0.0
  0
LINE
  5
10556
330
18
100
AcDbEntity
  8
0
  6
BYBLOCK
100
AcDbLine
 10
36.49999999999999
 20
0.0000000000000017
 30
0.0
 11
35.96410161999999
 21
2.000000000000002
 31
0.0
  0
LINE
  5
10557
330
18
100
AcDbEntity
  8
0
  6
BYBLOCK
100
AcDbLine
 10
36.49999999999999
 20
0.0000000000000017
 30
0.0
 11
36.49999999999999
 21
2.000000000000002
 31
0.0
  0
LINE
  5
10558
330
18
100
AcDbEntity
  8
0
  6
BYBLOCK
100
AcDbLine
 10
35.96410162
 20
16.87564759384771
 30
0.0
 11
36.5
 21
18.87564759384771
 31
0.0
  0
LINE
  5
10559
330
18
100
AcDbEntity
  8
0
  6
BYBLOCK
100
AcDbLine
 10
36.5
 20
18.87564759384771
 30
0.0
 11
37.03589838
 21
16.87564759384771
 31
0.0
  0
LINE
  5
1055A
330
18
100
AcDbEntity
  8
0
  6
BYBLOCK
100
AcDbLine
 10
36.5
 20
18.87564759384771
 30
0.0
 11
36.5
 21
16.87564759384771
 31
0.0
  0
TEXT
  5
1055B
330
18
100
AcDbEntity
  8
1DIM
  6
CONTINUOUS
100
AcDbText
 10
35.79999999999999
 20
7.103680278405339
 30
0.0
 40
3.5
  1
19
 50
90.0
100
AcDbText
1001
ACAD
1000
DSTYLE
1002
{
1070
    45
1040
0.5
1002
}
  0
LINE
  5
1055C
330
18
100
AcDbEntity
  8
0
  6
BYBLOCK
100
AcDbLine
 10
-43.0
 20
-20.53589837999153
 30
0.0
 11
-45.0
 21
-19.99999999999153
 31
0.0
  0
LINE
  5
1055D
330
18
100
AcDbEntity
  8
0
  6
BYBLOCK
100
AcDbLine
 10
-45.0
 20
-19.99999999999153
 30
0.0
 11
-43.0
 21
-19.46410161999153
 31
0.0
  0
LINE
  5
1055E
330
18
100
AcDbEntity
  8
0
  6
BYBLOCK
100
AcDbLine
 10
-45.0
 20
-19.99999999999153
 30
0.0
 11
-43.0
 21
-19.99999999999153
 31
0.0
  0
LINE
  5
1055F
330
18
100
AcDbEntity
  8
0
  6
BYBLOCK
100
AcDbLine
 10
2.999999999999544
 20
-19.46410161999153
 30
0.0
 11
4.999999999999544
 21
-19.99999999999153
 31
0.0
  0
LINE
  5
10560
330
18
100
AcDbEntity
  8
0
  6
BYBLOCK
100
AcDbLine
 10
4.999999999999544
 20
-19.99999999999153
 30
0.0
 11
2.999999999999544
 21
-20.53589837999153
 31
0.0
  0
LINE
  5
10561
330
18
100
AcDbEntity
  8
0
  6
BYBLOCK
100
AcDbLine
 10
4.999999999999544
 20
-19.99999999999153
 30
0.0
 11
2.999999999999544
 21
-19.99999999999153
 31
0.0
  0
TEXT
  5
10562
330
18
100
AcDbEntity
  8
1DIM
  6
CONTINUOUS
100
AcDbText
 10
-22.71006944444467
 20
-19.29999999999153
 30
0.0
 40
3.5
  1
50
100
AcDbText
1001
ACAD
1000
DSTYLE
1002
{
1070
    45
1040
0.5
1002
}
  0
LINE
  5
10563
330
18
100
AcDbEntity
  8
0
  6
BYBLOCK
100
AcDbLine
 10
1.999999999999998
 20
-30.53589837999198
 30
0.0
 11
-0.0000000000000017
 21
-29.99999999999199
 31
0.0
  0
LINE
  5
10564
330
18
100
AcDbEntity
  8
0
  6
BYBLOCK
100
AcDbLine
 10
-0.0000000000000017
 20
-29.99999999999199
 30
0.0
 11
1.999999999999998
 21
-29.46410161999199
 31
0.0
  0
LINE
  5
10565
330
18
100
AcDbEntity
  8
0
  6
BYBLOCK
100
AcDbLine
 10
-0.0000000000000017
 20
-29.99999999999199
 30
0.0
 11
1.999999999999998
 21
-29.99999999999199
 31
0.0
  0
LINE
  5
10566
330
18
100
AcDbEntity
  8
0
  6
BYBLOCK
100
AcDbLine
 10
20.49999999999954
 20
-29.46410161999199
 30
0.0
 11
22.49999999999954
 21
-29.99999999999199
 31
0.0
  0
LINE
  5
10567
330
18
100
AcDbEntity
  8
0
  6
BYBLOCK
100
AcDbLine
 10
22.49999999999954
 20
-29.99999999999199
 30
0.0
 11
20.49999999999954
 21
-30.53589837999198
 31
0.0
  0
LINE
  5
10568
330
18
100
AcDbEntity
  8
0
  6
BYBLOCK
100
AcDbLine
 10
22.49999999999954
 20
-29.99999999999199
 30
0.0
 11
20.49999999999954
 21
-29.99999999999199
 31
0.0
  0
TEXT
  5
10569
330
18
100
AcDbEntity
  8
1DIM
  6
CONTINUOUS
100
AcDbText
 10
5.999999999999769
 20
-29.29999999999199
 30
0.0
 40
3.5
  1
22.5
100
AcDbText
1001
ACAD
1000
DSTYLE
1002
{
1070
    45
1040
0.5
1002
}
  0
LINE
  5
1056A
330
18
100
AcDbEntity
  8
0
  6
BYBLOCK
100
AcDbLine
 10
-42.0
 20
-29.46410161999199
 30
0.0
 11
-40.0
 21
-29.99999999999199
 31
0.0
  0
LINE
  5
1056B
330
18
100
AcDbEntity
  8
0
  6
BYBLOCK
100
AcDbLine
 10
-40.0
 20
-29.99999999999199
 30
0.0
 11
-42.0
 21
-30.53589837999198
 31
0.0
  0
LINE
  5
1056C
330
18
100
AcDbEntity
  8
0
  6
BYBLOCK
100
AcDbLine
 10
-40.0
 20
-29.99999999999199
 30
0.0
 11
-42.0
 21
-29.99999999999199
 31
0.0
  0
LINE
  5
1056D
330
18
100
AcDbEntity
  8
0
  6
BYBLOCK
100
AcDbLine
 10
-60.5
 20
-30.53589837999198
 30
0.0
 11
-62.5
 21
-29.99999999999199
 31
0.0
  0
LINE
  5
1056E
330
18
100
AcDbEntity
  8
0
  6
BYBLOCK
100
AcDbLine
 10
-62.5
 20
-29.99999999999199
 30
0.0
 11
-60.5
 21
-29.46410161999199
 31
0.0
  0
LINE
  5
1056F
330
18
100
AcDbEntity
  8
0
  6
BYBLOCK
100
AcDbLine
 10
-62.5
 20
-29.99999999999199
 30
0.0
 11
-60.5
 21
-29.99999999999199
 31
0.0
  0
TEXT
  5
10570
330
18
100
AcDbEntity
  8
1DIM
  6
CONTINUOUS
100
AcDbText
 10
-56.5
 20
-29.29999999999199
 30
0.0
 40
3.5
  1
22.5
100
AcDbText
1001
ACAD
1000
DSTYLE
1002
{
1070
    45
1040
0.5
1002
}
  0
LINE
  5
10571
330
18
100
AcDbEntity
  8
0
  6
BYBLOCK
100
AcDbLine
 10
30.54570366587872
 20
108.4999776251779
 30
0.0
 11
31.08160204587872
 21
110.4999776251779
 31
0.0
  0
LINE
  5
10572
330
18
100
AcDbEntity
  8
0
  6
BYBLOCK
100
AcDbLine
 10
31.08160204587872
 20
110.4999776251779
 30
0.0
 11
31.61750042587872
 21
108.4999776251779
 31
0.0
  0
LINE
  5
10573
330
18
100
AcDbEntity
  8
0
  6
BYBLOCK
100
AcDbLine
 10
31.08160204587872
 20
110.4999776251779
 30
0.0
 11
31.08160204587872
 21
108.4999776251779
 31
0.0
  0
LINE
  5
10574
330
18
100
AcDbEntity
  8
0
  6
BYBLOCK
100
AcDbLine
 10
31.61750042587872
 20
101.9999810000079
 30
0.0
 11
31.08160204587872
 21
99.99998100000795
 31
0.0
  0
LINE
  5
10575
330
18
100
AcDbEntity
  8
0
  6
BYBLOCK
100
AcDbLine
 10
31.08160204587872
 20
99.99998100000795
 30
0.0
 11
30.54570366587872
 21
101.9999810000079
 31
0.0
  0
LINE
  5
10576
330
18
100
AcDbEntity
  8
0
  6
BYBLOCK
100
AcDbLine
 10
31.08160204587872
 20
99.99998100000795
 30
0.0
 11
31.08160204587872
 21
101.9999810000079
 31
0.0
  0
TEXT
  5
10577
330
18
100
AcDbEntity
  8
1DIM
  6
CONTINUOUS
100
AcDbText
 10
30.38160204587872
 20
100.8749793125929
 30
0.0
 40
3.5
  1
10.5
 50
90.0
100
AcDbText
1001
ACAD
1000
DSTYLE
1002
{
1070
    45
1040
0.5
1002
}
  0
LINE
  5
10578
330
18
100
AcDbEntity
  8
0
  6
BYBLOCK
100
AcDbLine
 10
59.5
 20
-20.53589837999153
 30
0.0
 11
57.5
 21
-19.99999999999153
 31
0.0
  0
LINE
  5
10579
330
18
100
AcDbEntity
  8
0
  6
BYBLOCK
100
AcDbLine
 10
57.5
 20
-19.99999999999153
 30
0.0
 11
59.5
 21
-19.46410161999153
 31
0.0
  0
LINE
  5
1057A
330
18
100
AcDbEntity
  8
0
  6
BYBLOCK
100
AcDbLine
 10
57.5
 20
-19.99999999999153
 30
0.0
 11
59.5
 21
-19.99999999999153
 31
0.0
  0
LINE
  5
1057B
330
18
100
AcDbEntity
  8
0
  6
BYBLOCK
100
AcDbLine
 10
63.5
 20
-19.46410161999153
 30
0.0
 11
65.5
 21
-19.99999999999153
 31
0.0
  0
LINE
  5
1057C
330
18
100
AcDbEntity
  8
0
  6
BYBLOCK
100
AcDbLine
 10
65.5
 20
-19.99999999999153
 30
0.0
 11
63.5
 21
-20.53589837999153
 31
0.0
  0
LINE
  5
1057D
330
18
100
AcDbEntity
  8
0
  6
BYBLOCK
100
AcDbLine
 10
65.5
 20
-19.99999999999153
 30
0.0
 11
63.5
 21
-19.99999999999153
 31
0.0
  0
TEXT
  5
1057E
330
18
100
AcDbEntity
  8
1DIM
  6
CONTINUOUS
100
AcDbText
 10
60.33333333333334
 20
-19.29999999999153
 30
0.0
 40
3.5
  1
8
100
AcDbText
1001
ACAD
1000
DSTYLE
1002
{
1070
    45
1040
0.5
1002
}
  0
VIEWPORT
  5
57
330
15
100
AcDbEntity
 67
     1
  8
0
100
AcDbViewport
 68
     1
 10
0.0
 20
0.0
 30
0.0
 40
639.1804245283018
 41
297.0
 68
     1
 69
     1
1001
ACAD
1000
MVIEW
1002
{
1070
    16
1010
0.0
1020
0.0
1030
0.0
1010
0.0
1020
0.0
1030
1.0
1040
0.0
1040
297.0
1040
-4.171999999999912
1040
12.83903210976945
1040
50.0
1040
0.0
1040
0.0
1070
    16
1070
   100
1070
     0
1070
     1
1070
     0
1070
     0
1070
     0
1070
     0
1040
0.0
1040
0.0
1040
0.0
1040
10.0
1040
10.0
1040
10.0
1040
10.0
1070
     0
1002
{
1002
}
1002
}
  0
ENDSEC
  0
SECTION
  2
OBJECTS
  0
DICTIONARY
  5
C
330
0
100
AcDbDictionary
  3
ACAD_CIP_PREVIOUS_PRODUCT_INFO
350
FB66
  3
ACAD_COLOR
350
18D
  3
ACAD_GROUP
350
D
  3
ACAD_LAYOUT
350
18E
  3
ACAD_MATERIAL
350
18C
  3
ACAD_MLEADERSTYLE
350
D09D
  3
ACAD_MLINESTYLE
350
1B
  3
ACAD_PLOTSETTINGS
350
18F
  3
ACAD_SCALELIST
350
D07B
  3
ACAD_VISUALSTYLE
350
D06A
  3
ACDBHEADERROUNDTRIPXREC
350
1057F
  3
ACDBVARIABLEDICTIONARY
350
37
  3
AEC_PROPERTY_SET_DEFS
350
FC4F
  3
CONTENTDICTIONARY
350
D8
  3
DRAWINGVARIABLESDICT
350
20
  3
DWGPROPS
350
10582
1001
ACAD
1000
TREAT_AS_HARD
1070
     0
  0
DICTIONARY
  5
D16C
330
2
100
AcDbDictionary
  3
ACAD_LAYERSTATES
360
D16D
1001
ACAD
1000
TREAT_AS_HARD
1070
     1
  0
DICTIONARY
  5
D0B5
330
E
100
AcDbDictionary
  3
ADSK_XREC_LAYER_RECONCILED
360
D0B6
1001
ACAD
1000
TREAT_AS_HARD
1070
     1
  0
DICTIONARY
  5
D0B7
330
29
100
AcDbDictionary
  3
ADSK_XREC_LAYER_RECONCILED
360
D0B8
1001
ACAD
1000
TREAT_AS_HARD
1070
     1
  0
DICTIONARY
  5
D0B9
330
31
100
AcDbDictionary
  3
ADSK_XREC_LAYER_RECONCILED
360
D0BA
1001
ACAD
1000
TREAT_AS_HARD
1070
     1
  0
DICTIONARY
  5
D0BF
330
243
100
AcDbDictionary
  3
ADSK_XREC_LAYER_RECONCILED
360
D0C0
1001
ACAD
1000
TREAT_AS_HARD
1070
     1
  0
DICTIONARY
  5
D0C5
330
24E
100
AcDbDictionary
  3
ADSK_XREC_LAYER_RECONCILED
360
D0C6
1001
ACAD
1000
TREAT_AS_HARD
1070
     1
  0
DICTIONARY
  5
88F
330
18
100
AcDbDictionary
  3
ACAD_SORTENTS
360
890
1001
ACAD
1000
TREAT_AS_HARD
1070
     1
  0
XRECORD
  5
FB66
102
{ACAD_REACTORS
330
C
102
}
330
C
100
AcDbXrecord
300
ACDLT
300
2012
300
ACDLT_F_S
  0
DICTIONARY
  5
18D
102
{ACAD_REACTORS
330
C
102
}
330
C
100
AcDbDictionary
1001
ACAD
1000
TREAT_AS_HARD
1070
     0
  0
DICTIONARY
  5
D
102
{ACAD_REACTORS
330
C
102
}
330
C
100
AcDbDictionary
  3
*A1
350
FA45
1001
ACAD
1000
TREAT_AS_HARD
1070
     0
  0
DICTIONARY
  5
18E
102
{ACAD_REACTORS
330
C
102
}
330
C
100
AcDbDictionary
1001
ACAD
1000
TREAT_AS_HARD
1070
     0
  0
DICTIONARY
  5
18C
102
{ACAD_REACTORS
330
C
102
}
330
C
100
AcDbDictionary
  3
BYBLOCK
350
D05A
  3
BYLAYER
350
D052
  3
GLOBAL
350
D062
1001
ACAD
1000
TREAT_AS_HARD
1070
     0
  0
DICTIONARY
  5
D09D
102
{ACAD_REACTORS
330
C
102
}
330
C
100
AcDbDictionary
  3
STANDARD
350
D09E
1001
ACAD
1000
TREAT_AS_HARD
1070
     0
  0
DICTIONARY
  5
1B
102
{ACAD_REACTORS
330
C
102
}
330
C
100
AcDbDictionary
  3
STANDARD
350
1C
1001
ACAD
1000
TREAT_AS_HARD
1070
     0
  0
DICTIONARY
  5
18F
102
{ACAD_REACTORS
330
C
102
}
330
C
100
AcDbDictionary
1001
ACAD
1000
TREAT_AS_HARD
1070
     0
  0
DICTIONARY
  5
D07B
102
{ACAD_REACTORS
330
C
102
}
330
C
100
AcDbDictionary
  3
A0
350
D07C
  3
A1
350
D07D
  3
A2
350
D07E
  3
A3
350
D07F
  3
A4
350
D080
  3
A5
350
D081
  3
A6
350
D082
  3
A7
350
D083
  3
A8
350
D084
  3
A9
350
D085
  3
B0
350
D086
  3
B1
350
D087
  3
B2
350
D088
  3
B3
350
D089
  3
B4
350
D08A
  3
B5
350
D08B
  3
B6
350
D08C
  3
B7
350
D08D
  3
B8
350
D08E
  3
B9
350
D08F
  3
C0
350
D090
  3
C1
350
D091
  3
C2
350
D092
  3
C3
350
D093
  3
C4
350
D094
  3
C5
350
D095
  3
C6
350
D096
  3
C7
350
D097
  3
C8
350
D098
  3
C9
350
D099
  3
D0
350
D09A
  3
D1
350
D09B
  3
D2
350
D09C
1001
ACAD
1000
TREAT_AS_HARD
1070
     0
  0
DICTIONARY
  5
D06A
102
{ACAD_REACTORS
330
C
102
}
330
C
100
AcDbDictionary
  3
2DWIREFRAME
350
D070
  3
3D_HIDDEN
350
D072
  3
3DWIREFRAME
350
D071
  3
BASIC
350
D06F
  3
BRIGHTEN
350
D076
  3
COLORCHANGE
350
D07A
  3
CONCEPTUAL
350
D073
  3
DIM
350
D075
  3
EDGECOLOROFF
350
D29F
  3
FACEPATTERN
350
D079
  3
FLAT
350
D06B
  3
FLATWITHEDGES
350
D06C
  3
GOURAUD
350
D06D
  3
GOURAUDWITHEDGES
350
D06E
  3
HIDDEN
350
FB5B
  3
JITTEROFF
350
D29D
  3
LINEPATTERN
350
D078
  3
MODELING
350
10448
  3
OVERHANGOFF
350
D29E
  3
REALISTIC
350
D074
  3
SHADED
350
FB60
  3
SHADED_WITH_EDGES
350
FB5F
  3
SHADES_OF_GRAY
350
FB5C
  3
SKETCHY
350
FB5D
  3
THICKEN
350
D077
  3
WIREFRAME
350
FB5A
  3
X-RAY
350
FB5E
1001
ACAD
1000
TREAT_AS_HARD
1070
     0
  0
DICTIONARY
  5
1057F
102
{ACAD_REACTORS
330
C
102
}
330
C
100
AcDbDictionary
  3
COLORDICT
350
10580
  3
MATERIALDICT
350
10581
1001
ACAD
1000
TREAT_AS_HARD
1070
     0
  0
DICTIONARY
  5
37
102
{ACAD_REACTORS
330
C
102
}
330
C
100
AcDbDictionary
  3
CANNOSCALE
350
D118
  3
CMLEADERSTYLE
350
D117
  3
CTABLESTYLE
350
29E
  3
DIMADEC
350
38
  3
DIMASSOC
350
1CE
  3
HIDETEXT
350
704E
  3
INDEXCTL
350
D11A
  3
INTERSECTIONCOLOR
350
7052
  3
INTERSECTIONDISPLAY
350
7051
  3
MSLTSCALE
350
104B6
  3
OBSCOLOR
350
704F
  3
OBSLTYPE
350
7050
  3
PROJECTNAME
350
1CF
  3
SORTENTS
350
D119
  3
XCLIPFRAME
350
10447
1001
ACAD
1000
TREAT_AS_HARD
1070
     0
  0
DICTIONARY
  5
FC4F
102
{ACAD_REACTORS
330
C
102
}
330
C
100
AcDbDictionary
1001
ACAD
1000
TREAT_AS_HARD
1070
     0
  0
DICTIONARY
  5
D8
102
{ACAD_REACTORS
330
C
102
}
330
C
100
AcDbDictionary
1001
ACAD
1000
TREAT_AS_HARD
1070
     0
  0
DICTIONARY
  5
20
102
{ACAD_REACTORS
330
C
102
}
330
C
100
AcDbDictionary
1001
DRAWINGVARIABLESXDATA
1000
POLARANG
1000
0.261799387799149410000000
1000
POLARMODE
1000
1
1000
POLARSTYLE
1000
1
1001
ACAD
1000
TREAT_AS_HARD
1070
     0
  0
XRECORD
  5
10582
102
{ACAD_REACTORS
330
C
102
}
330
C
100
AcDbXrecord
  1
DWGPROPS COOKIE
  2

  3

  4

  6

  7

  8
3684
  9

300
=
301
=
302
=
303
=
304
=
305
=
306
=
307
=
308
=
309
=
 40
0.0
 41
2451318.246352917
 42
2458726.003130197
  1

 90
        0
  0
DICTIONARY
  5
D16D
102
{ACAD_REACTORS
330
D16C
102
}
330
D16C
100
AcDbDictionary
1001
ACAD
1000
TREAT_AS_HARD
1070
     0
  0
ACAD_PROXY_OBJECT
  5
D0B6
102
{ACAD_REACTORS
330
D0B5
102
}
330
D0B5
100
AcDbZombieObject
 90
      499
 91
      514
 93
       34
310
40C8804040
  0
ACAD_PROXY_OBJECT
  5
D0B8
102
{ACAD_REACTORS
330
D0B7
102
}
330
D0B7
100
AcDbZombieObject
 90
      499
 91
      514
 93
       34
310
40C8804040
  0
ACAD_PROXY_OBJECT
  5
D0BA
102
{ACAD_REACTORS
330
D0B9
102
}
330
D0B9
100
AcDbZombieObject
 90
      499
 91
      514
 93
       34
310
40C8804040
  0
ACAD_PROXY_OBJECT
  5
D0C0
102
{ACAD_REACTORS
330
D0BF
102
}
330
D0BF
100
AcDbZombieObject
 90
      499
 91
      514
 93
       34
310
40C8804040
  0
ACAD_PROXY_OBJECT
  5
D0C6
102
{ACAD_REACTORS
330
D0C5
102
}
330
D0C5
100
AcDbZombieObject
 90
      499
 91
      514
 93
       34
310
40C8804040
  0
SORTENTSTABLE
  5
890
102
{ACAD_REACTORS
330
88F
102
}
330
88F
100
AcDbSortentsTable
330
18
331
0
  5
C618
331
E3FF
  5
F82A
331
E401
  5
F82B
331
E402
  5
F82C
331
E403
  5
F82D
331
E404
  5
F82E
331
E405
  5
F82F
331
0
  5
E863
331
0
  5
E868
331
E868
  5
F834
331
E869
  5
F835
331
E872
  5
F836
331
0
  5
E882
331
0
  5
E883
331
0
  5
F213
331
0
  5
F214
331
F213
  5
F84F
331
F214
  5
F850
331
F215
  5
F851
331
F217
  5
F852
331
F218
  5
F853
331
F21C
  5
F854
331
F238
  5
F855
331
F244
  5
F856
331
F246
  5
F857
331
F249
  5
F858
331
F24E
  5
F859
331
F24F
  5
F85A
331
F316
  5
F85B
331
F317
  5
F85C
331
F318
  5
F85D
331
F7E1
  5
F85E
331
F7E2
  5
F860
331
F7E3
  5
F861
331
F7E4
  5
F862
331
F7E5
  5
F863
331
F7E6
  5
F864
331
F7E7
  5
F865
331
F7E8
  5
F866
331
F7E9
  5
F867
331
F7EA
  5
F868
331
F7EB
  5
F869
331
F7EC
  5
F86A
331
F7ED
  5
F86B
331
F7EE
  5
F86D
331
F7EF
  5
F86E
331
F7F0
  5
F86F
331
F7F1
  5
F870
331
F7F2
  5
F871
331
F7F3
  5
F872
331
F7F4
  5
F873
331
F7F5
  5
F874
331
F7F6
  5
F875
331
F7F7
  5
F876
331
F7F8
  5
F877
331
F7F9
  5
F878
331
F7FA
  5
F879
331
F7FB
  5
F87A
331
F7FC
  5
F87B
331
F7FD
  5
F87C
331
F7FE
  5
F87D
331
F7FF
  5
F87E
331
F800
  5
F87F
331
F801
  5
F880
331
F802
  5
F881
331
F803
  5
F882
331
F804
  5
F883
331
F805
  5
F884
331
F806
  5
F885
331
F807
  5
F886
331
F808
  5
F887
331
F809
  5
F888
331
F80A
  5
F889
331
F80B
  5
F88A
331
F80C
  5
F88B
331
F80D
  5
F88C
331
F80E
  5
F88D
331
F80F
  5
F88E
331
F810
  5
F88F
331
F811
  5
F890
331
F812
  5
F891
331
F813
  5
F892
331
F814
  5
F893
331
F815
  5
F894
331
F816
  5
F895
331
F817
  5
F896
331
F818
  5
F897
331
F819
  5
F898
331
F81A
  5
F899
331
F81B
  5
F89A
331
F81C
  5
F89B
331
F81D
  5
F89C
331
F81E
  5
F89D
331
F81F
  5
F89E
331
F820
  5
F89F
331
F821
  5
F8A0
331
F822
  5
F8A1
331
F823
  5
F8A2
331
F824
  5
F8A3
331
F825
  5
F8A4
331
F826
  5
F8A5
331
F827
  5
F8A6
331
F828
  5
F8A7
331
F829
  5
F8A8
331
F82A
  5
F8A9
331
F82B
  5
F8AA
331
F82C
  5
F8AB
331
F82D
  5
F8AC
331
F82E
  5
F8AE
331
F82F
  5
F8AF
331
F830
  5
F8B0
331
F831
  5
F8B2
331
F832
  5
F8B3
331
F833
  5
F8B4
331
F834
  5
F8B5
331
F835
  5
F8B6
331
F836
  5
F8B7
331
F837
  5
F8B8
331
F838
  5
F8B9
331
F839
  5
F8BA
331
F83A
  5
F8BB
331
F83B
  5
F8BC
331
F83C
  5
F8BD
331
F83D
  5
F8BE
331
F83E
  5
F8BF
331
F83F
  5
F8C0
331
F840
  5
F8C1
331
F841
  5
F8C2
331
F842
  5
F8C3
331
F843
  5
F8C4
331
F844
  5
F8C5
331
F845
  5
F8C6
331
F846
  5
F8C7
331
F847
  5
F8C8
331
F848
  5
F8C9
331
F849
  5
F8CA
331
F84A
  5
F8CC
331
F84B
  5
F8CE
331
F84C
  5
F8CF
331
F84D
  5
F8D0
331
F84E
  5
F8D2
331
F84F
  5
F8D3
331
F850
  5
F8D4
331
F851
  5
F8D5
331
F852
  5
F8D6
331
F853
  5
F8D8
331
F854
  5
F8D9
331
F855
  5
F8DA
331
F856
  5
F8DC
331
F857
  5
F8DD
331
F858
  5
F8DE
331
F859
  5
F8DF
331
F85A
  5
F8E0
331
F85B
  5
F8E1
331
F85C
  5
F8E2
331
F85D
  5
F8E9
331
F85E
  5
F8EA
331
F860
  5
F927
331
F861
  5
F928
331
F862
  5
FB0D
331
F863
  5
FB0E
331
F864
  5
FB11
331
F865
  5
104E4
331
F866
  5
104E5
331
F867
  5
104E6
331
F868
  5
104E7
331
F869
  5
104E8
331
F86A
  5
104E9
331
F86B
  5
104EA
331
F86D
  5
104F0
331
F86E
  5
104F1
331
F86F
  5
104F2
331
F870
  5
104F3
331
F871
  5
104F4
331
F872
  5
104F5
331
F873
  5
104F6
331
F874
  5
104F7
331
F875
  5
104F8
331
F876
  5
104F9
331
F877
  5
104FA
331
F878
  5
104FB
331
F879
  5
104FC
331
F87A
  5
104FD
331
F87B
  5
104FE
331
F87C
  5
104FF
331
F87D
  5
10500
331
F87E
  5
10501
331
F87F
  5
10502
331
F880
  5
10503
331
F881
  5
10504
331
F882
  5
10505
331
F883
  5
10506
331
F884
  5
10507
331
F885
  5
10508
331
F886
  5
10509
331
F887
  5
1050A
331
F888
  5
1050B
331
F889
  5
1050C
331
F88A
  5
1050D
331
F88B
  5
1050E
331
F88C
  5
1050F
331
F88D
  5
10510
331
F88E
  5
10511
331
F88F
  5
10512
331
F890
  5
10513
331
F891
  5
10514
331
F892
  5
10515
331
F893
  5
10516
331
F894
  5
10517
331
F895
  5
10518
331
F896
  5
10519
331
F897
  5
1051A
331
F898
  5
1051B
331
F899
  5
1051C
331
F89A
  5
1051D
331
F89B
  5
1051E
331
F89C
  5
1051F
331
F89D
  5
10520
331
F89E
  5
10521
331
F89F
  5
10522
331
F8A0
  5
10523
331
F8A1
  5
10524
331
F8A2
  5
10525
331
F8A3
  5
10526
331
F8A4
  5
10527
331
F8A5
  5
10528
331
F8A6
  5
10529
331
F8A7
  5
1052A
331
F8A8
  5
1052B
331
F8A9
  5
1052C
331
F8AA
  5
1052D
331
F8AB
  5
1052E
331
F8AC
  5
1052F
331
F8AE
  5
10533
331
F8AF
  5
10534
331
F8B0
  5
10535
331
F8B2
  5
10539
331
F8B3
  5
1053A
331
F8B4
  5
1053B
331
F8B5
  5
1053C
331
F8B6
  5
1053D
331
F8B7
  5
1053E
331
F8B8
  5
1053F
331
F8B9
  5
10540
331
F8BA
  5
10541
331
F8BB
  5
10542
331
F8BC
  5
10543
331
F8BD
  5
10544
331
F8BE
  5
10545
331
F8BF
  5
10546
331
F8C0
  5
10547
331
F8C1
  5
10548
331
F8C2
  5
10549
331
F8C3
  5
1054A
331
F8C4
  5
1054B
331
F8C5
  5
1054C
331
F8C6
  5
1054D
331
F8C7
  5
1054E
331
F8C8
  5
1054F
331
F8C9
  5
10550
331
F8CA
  5
10551
331
F8CC
  5
10554
331
F8CE
  5
10558
331
F8CF
  5
10559
331
F8D0
  5
1055A
331
F8D2
  5
1055E
331
F8D3
  5
1055F
331
F8D4
  5
10560
331
F8D5
  5
10561
331
F8D6
  5
10562
331
F8D8
  5
10566
331
F8D9
  5
10567
331
F8DA
  5
10568
331
F8DC
  5
1056C
331
F8DD
  5
1056D
331
F8DE
  5
1056E
331
F8DF
  5
1056F
331
F8E0
  5
10570
331
F8E1
  5
10571
331
F8E2
  5
10572
331
F8E9
  5
10573
331
F8EA
  5
10574
331
F8EB
  5
10575
331
F8ED
  5
10576
331
F8F3
  5
10577
331
F925
  5
10578
331
F926
  5
10579
331
F927
  5
1057A
331
F928
  5
1057B
331
FB0D
  5
1057C
331
FB0E
  5
1057D
331
FB11
  5
1057E
331
104E4
  5
F839
331
104E5
  5
F83A
331
104E6
  5
F8EB
331
104E7
  5
F8ED
331
104E8
  5
F8F3
331
104E9
  5
F925
331
104EA
  5
F926
331
104F0
  5
10530
331
104F1
  5
10531
331
104F2
  5
10532
331
104F3
  5
10536
331
104F4
  5
10537
331
104F5
  5
10538
331
104F6
  5
10552
331
104F7
  5
10553
331
104F8
  5
10555
331
104F9
  5
10556
331
104FA
  5
10557
331
104FB
  5
1055B
331
104FC
  5
1055C
331
104FD
  5
1055D
331
104FE
  5
10563
331
104FF
  5
10564
331
10500
  5
10565
331
10501
  5
10569
331
10502
  5
1056A
331
10503
  5
1056B
331
10504
  5
E3FF
331
10505
  5
E401
331
10506
  5
E402
331
0
  5
E403
331
0
  5
E404
331
0
  5
E405
331
1050A
  5
F24E
331
1050B
  5
F24F
331
1050C
  5
F7E1
331
0
  5
E8FE
331
0
  5
E93B
331
0
  5
F215
331
10510
  5
F7EF
331
10511
  5
F7F3
331
10512
  5
F7F4
331
0
  5
F238
331
0
  5
F244
331
0
  5
F246
331
10516
  5
F7FC
331
10517
  5
F7FD
331
10518
  5
F7FE
331
0
  5
F316
331
0
  5
F317
331
0
  5
F318
331
1051C
  5
F806
331
1051D
  5
F80A
331
1051E
  5
F80B
331
0
  5
F7E4
331
0
  5
F7E5
331
0
  5
F7E6
331
10522
  5
F816
331
10523
  5
F817
331
10524
  5
F818
331
0
  5
F7EA
331
0
  5
F7EB
331
0
  5
F7EC
331
10528
  5
F820
331
10529
  5
F821
331
1052A
  5
F822
331
0
  5
F7F0
331
0
  5
F7F1
331
0
  5
F7F2
331
1052E
  5
F830
331
1052F
  5
F831
331
10530
  5
F832
331
10531
  5
F833
331
10532
  5
F837
331
10533
  5
F838
331
10534
  5
F83B
331
10535
  5
F83C
331
10536
  5
F83D
331
0
  5
F807
331
0
  5
F808
331
0
  5
F809
331
1053A
  5
F845
331
1053B
  5
F846
331
1053C
  5
F847
331
0
  5
F80D
331
0
  5
F80E
331
0
  5
F80F
331
10540
  5
E869
331
10541
  5
E86F
331
10542
  5
E873
331
10543
  5
F217
331
10544
  5
F218
331
10545
  5
F21C
331
10546
  5
F249
331
10547
  5
F7E2
331
10548
  5
F7E3
331
10549
  5
F7E7
331
1054A
  5
F7E8
331
1054B
  5
F7E9
331
1054C
  5
F7ED
331
1054D
  5
F7EE
331
1054E
  5
F7F5
331
1054F
  5
F7F6
331
10550
  5
F7F7
331
10551
  5
F7F8
331
10552
  5
F7F9
331
10553
  5
F7FA
331
10554
  5
F7FB
331
10555
  5
F7FF
331
10556
  5
F800
331
10557
  5
F801
331
10558
  5
F802
331
10559
  5
F803
331
1055A
  5
F804
331
1055B
  5
F805
331
1055C
  5
F80C
331
1055D
  5
F810
331
1055E
  5
F811
331
1055F
  5
F812
331
10560
  5
F813
331
10561
  5
F814
331
10562
  5
F815
331
10563
  5
F819
331
10564
  5
F81A
331
10565
  5
F81B
331
10566
  5
F81C
331
10567
  5
F81D
331
10568
  5
F81E
331
10569
  5
F81F
331
1056A
  5
F823
331
1056B
  5
F824
331
1056C
  5
F825
331
1056D
  5
F826
331
1056E
  5
F827
331
1056F
  5
F828
331
10570
  5
F829
331
10571
  5
F83E
331
10572
  5
F83F
331
10573
  5
F840
331
10574
  5
F841
331
10575
  5
F842
331
10576
  5
F843
331
10577
  5
F844
331
10578
  5
F848
331
10579
  5
F849
331
1057A
  5
F84A
331
1057B
  5
F84B
331
1057C
  5
F84C
331
1057D
  5
F84D
331
1057E
  5
F84E
  0
GROUP
  5
FA45
102
{ACAD_REACTORS
330
D
102
}
330
D
100
AcDbGroup
300

 70
     1
 71
     1
340
F8DA
340
F8D9
340
F8D8
340
F8D6
340
F8D5
340
F8D4
340
F8D3
340
F8D2
340
F8D0
340
F8CF
340
F8CE
340
F8CC
340
F8CA
340
F8C9
340
F8C8
340
F8C7
340
F8C6
340
F8C5
340
F8C4
340
F8C3
340
F8C2
340
F8C1
340
F8C0
340
F8BF
340
F8BE
340
F8BD
340
F8BC
340
F8BB
340
F8BA
340
F8B9
340
F8B8
340
F8B7
340
F8B6
340
F8B5
340
F8B4
340
F8B3
340
F8B2
340
F8B0
340
F8AF
340
F8AE
340
F8AC
340
F8AB
340
F8AA
340
F8A9
340
F8A8
340
F8A7
340
F8A6
340
F8A5
340
F8A4
340
F8A3
340
F8A2
340
F8A1
340
F8A0
340
F89F
340
F89E
340
F89D
340
F89C
340
F89B
340
F89A
340
F899
340
F898
340
F897
340
F896
340
F895
340
F894
340
F893
340
F892
340
F891
340
F890
340
F88F
340
F88E
340
F88D
340
F88C
340
F88B
340
F88A
340
F889
340
F888
340
F887
340
F886
340
F885
340
F884
340
F883
340
F882
340
F881
340
F880
340
F87F
340
F87E
340
F87D
340
F87C
340
F87B
340
F87A
340
F879
340
F878
340
F877
340
F876
340
F875
340
F874
340
F873
340
F872
340
F871
340
F870
340
F86F
340
F86E
340
F86D
340
F86B
340
F86A
340
F869
340
F868
340
F867
340
F866
340
F865
340
F864
340
F863
340
F862
340
F861
340
F860
340
F85E
340
F85D
340
F85C
340
F85B
340
F85A
340
F859
340
F858
340
F857
340
F856
340
F855
340
F854
340
F853
340
F852
340
F851
340
F850
340
F84F
340
F84E
340
F84D
340
F84C
340
F84B
340
F84A
340
F849
340
F848
340
F847
340
F846
340
F845
340
F844
  0
MATERIAL
  5
D05A
102
{ACAD_REACTORS
330
18C
102
}
102
{ACAD_XDICTIONARY
360
1071D
102
}
330
18C
100
AcDbMaterial
  1
BYBLOCK
 72
     0
 73
     2
 43
0.0208333333333333
 43
0.0
 43
0.0
 43
0.0
 43
0.0
 43
0.0208333333333333
 43
0.0
 43
0.0
 43
0.0
 43
0.0
 43
1.0
 43
0.0
 43
0.0
 43
0.0
 43
0.0
 43
1.0
 77
     0
 78
     2
 47
0.0208333333333333
 47
0.0
 47
0.0
 47
0.0
 47
0.0
 47
0.0208333333333333
 47
0.0
 47
0.0
 47
0.0
 47
0.0
 47
1.0
 47
0.0
 47
0.0
 47
0.0
 47
0.0
 47
1.0
171
     0
172
     2
 49
0.0208333333333333
 49
0.0
 49
0.0
 49
0.0
 49
0.0
 49
0.0208333333333333
 49
0.0
 49
0.0
 49
0.0
 49
0.0
 49
1.0
 49
0.0
 49
0.0
 49
0.0
 49
0.0
 49
1.0
175
     0
176
     2
142
0.0208333333333333
142
0.0
142
0.0
142
0.0
142
0.0
142
0.0208333333333333
142
0.0
142
0.0
142
0.0
142
0.0
142
1.0
142
0.0
142
0.0
142
0.0
142
0.0
142
1.0
179
     0
270
     2
144
0.0208333333333333
144
0.0
144
0.0
144
0.0
144
0.0
144
0.0208333333333333
144
0.0
144
0.0
144
0.0
144
0.0
144
1.0
144
0.0
144
0.0
144
0.0
144
0.0
144
1.0
274
     2
147
0.0208333333333333
147
0.0
147
0.0
147
0.0
147
0.0
147
0.0208333333333333
147
0.0
147
0.0
147
0.0
147
0.0
147
1.0
147
0.0
147
0.0
147
0.0
147
0.0
147
1.0
  0
MATERIAL
  5
D052
102
{ACAD_REACTORS
330
18C
102
}
102
{ACAD_XDICTIONARY
360
1071F
102
}
330
18C
100
AcDbMaterial
  1
BYLAYER
 72
     0
 73
     2
 43
0.0208333333333333
 43
0.0
 43
0.0
 43
0.0
 43
0.0
 43
0.0208333333333333
 43
0.0
 43
0.0
 43
0.0
 43
0.0
 43
1.0
 43
0.0
 43
0.0
 43
0.0
 43
0.0
 43
1.0
 77
     0
 78
     2
 47
0.0208333333333333
 47
0.0
 47
0.0
 47
0.0
 47
0.0
 47
0.0208333333333333
 47
0.0
 47
0.0
 47
0.0
 47
0.0
 47
1.0
 47
0.0
 47
0.0
 47
0.0
 47
0.0
 47
1.0
171
     0
172
     2
 49
0.0208333333333333
 49
0.0
 49
0.0
 49
0.0
 49
0.0
 49
0.0208333333333333
 49
0.0
 49
0.0
 49
0.0
 49
0.0
 49
1.0
 49
0.0
 49
0.0
 49
0.0
 49
0.0
 49
1.0
175
     0
176
     2
142
0.0208333333333333
142
0.0
142
0.0
142
0.0
142
0.0
142
0.0208333333333333
142
0.0
142
0.0
142
0.0
142
0.0
142
1.0
142
0.0
142
0.0
142
0.0
142
0.0
142
1.0
179
     0
270
     2
144
0.0208333333333333
144
0.0
144
0.0
144
0.0
144
0.0
144
0.0208333333333333
144
0.0
144
0.0
144
0.0
144
0.0
144
1.0
144
0.0
144
0.0
144
0.0
144
0.0
144
1.0
274
     2
147
0.0208333333333333
147
0.0
147
0.0
147
0.0
147
0.0
147
0.0208333333333333
147
0.0
147
0.0
147
0.0
147
0.0
147
1.0
147
0.0
147
0.0
147
0.0
147
0.0
147
1.0
  0
MATERIAL
  5
D062
102
{ACAD_REACTORS
330
18C
102
}
102
{ACAD_XDICTIONARY
360
10721
102
}
330
18C
100
AcDbMaterial
  1
GLOBAL
 72
     0
 73
     2
 43
0.0208333333333333
 43
0.0
 43
0.0
 43
0.0
 43
0.0
 43
0.0208333333333333
 43
0.0
 43
0.0
 43
0.0
 43
0.0
 43
1.0
 43
0.0
 43
0.0
 43
0.0
 43
0.0
 43
1.0
 77
     0
 78
     2
 47
0.0208333333333333
 47
0.0
 47
0.0
 47
0.0
 47
0.0
 47
0.0208333333333333
 47
0.0
 47
0.0
 47
0.0
 47
0.0
 47
1.0
 47
0.0
 47
0.0
 47
0.0
 47
0.0
 47
1.0
171
     0
172
     2
 49
0.0208333333333333
 49
0.0
 49
0.0
 49
0.0
 49
0.0
 49
0.0208333333333333
 49
0.0
 49
0.0
 49
0.0
 49
0.0
 49
1.0
 49
0.0
 49
0.0
 49
0.0
 49
0.0
 49
1.0
175
     0
176
     2
142
0.0208333333333333
142
0.0
142
0.0
142
0.0
142
0.0
142
0.0208333333333333
142
0.0
142
0.0
142
0.0
142
0.0
142
1.0
142
0.0
142
0.0
142
0.0
142
0.0
142
1.0
179
     0
270
     2
144
0.0208333333333333
144
0.0
144
0.0
144
0.0
144
0.0
144
0.0208333333333333
144
0.0
144
0.0
144
0.0
144
0.0
144
1.0
144
0.0
144
0.0
144
0.0
144
0.0
144
1.0
274
     2
147
0.0208333333333333
147
0.0
147
0.0
147
0.0
147
0.0
147
0.0208333333333333
147
0.0
147
0.0
147
0.0
147
0.0
147
1.0
147
0.0
147
0.0
147
0.0
147
0.0
147
1.0
  0
ACAD_PROXY_OBJECT
  5
D09E
102
{ACAD_REACTORS
330
D09D
102
}
330
D09D
100
AcDbZombieObject
 90
      499
 91
      511
 93
      610
310
40901902A4063FBFFFFFE000000000000002040AD7A3703D0AD73F4214DD185B99185C990000000000000104090141901A00000000000004100000000000000041025764000000000000300FC0
340
12
340
0
340
F
340
0
 94
        0
1001
ACAD_MLEADERVER
1070
     2
  0
MLINESTYLE
  5
1C
102
{ACAD_REACTORS
330
1B
102
}
330
1B
100
AcDbMlineStyle
  2
STANDARD
 70
     0
  3

 62
   256
 51
90.0
 52
90.0
 71
     2
 49
0.5
 62
   256
  6
BYLAYER
 49
-0.5
 62
   256
  6
BYLAYER
  0
ACAD_PROXY_OBJECT
  5
D07C
102
{ACAD_REACTORS
330
D07B
102
}
330
D07B
100
AcDbZombieObject
 90
      499
 91
      510
 93
       41
310
903313A31580
  0
ACAD_PROXY_OBJECT
  5
D07D
102
{ACAD_REACTORS
330
D07B
102
}
330
D07B
100
AcDbZombieObject
 90
      499
 91
      510
 93
      105
310
903313A324000000000000004000
  0
ACAD_PROXY_OBJECT
  5
D07E
102
{ACAD_REACTORS
330
D07B
102
}
330
D07B
100
AcDbZombieObject
 90
      499
 91
      510
 93
      105
310
903313A344000000000000104000
  0
ACAD_PROXY_OBJECT
  5
D07F
102
{ACAD_REACTORS
330
D07B
102
}
330
D07B
100
AcDbZombieObject
 90
      499
 91
      510
 93
      105
310
903313A354000000000000144000
  0
ACAD_PROXY_OBJECT
  5
D080
102
{ACAD_REACTORS
330
D07B
102
}
330
D07B
100
AcDbZombieObject
 90
      499
 91
      510
 93
      105
310
903313A384000000000000204000
  0
ACAD_PROXY_OBJECT
  5
D081
102
{ACAD_REACTORS
330
D07B
102
}
330
D07B
100
AcDbZombieObject
 90
      499
 91
      510
 93
      113
310
904313A31304000000000000244000
  0
ACAD_PROXY_OBJECT
  5
D082
102
{ACAD_REACTORS
330
D07B
102
}
330
D07B
100
AcDbZombieObject
 90
      499
 91
      510
 93
      113
310
904313A31364000000000000304000
  0
ACAD_PROXY_OBJECT
  5
D083
102
{ACAD_REACTORS
330
D07B
102
}
330
D07B
100
AcDbZombieObject
 90
      499
 91
      510
 93
      113
310
904313A32304000000000000344000
  0
ACAD_PROXY_OBJECT
  5
D084
102
{ACAD_REACTORS
330
D07B
102
}
330
D07B
100
AcDbZombieObject
 90
      499
 91
      510
 93
      113
310
904313A333040000000000003E4000
  0
ACAD_PROXY_OBJECT
  5
D085
102
{ACAD_REACTORS
330
D07B
102
}
330
D07B
100
AcDbZombieObject
 90
      499
 91
      510
 93
      113
310
904313A34304000000000000444000
  0
ACAD_PROXY_OBJECT
  5
D086
102
{ACAD_REACTORS
330
D07B
102
}
330
D07B
100
AcDbZombieObject
 90
      499
 91
      510
 93
      113
310
904313A35304000000000000494000
  0
ACAD_PROXY_OBJECT
  5
D087
102
{ACAD_REACTORS
330
D07B
102
}
330
D07B
100
AcDbZombieObject
 90
      499
 91
      510
 93
      121
310
905313A3130304000000000000594000
  0
ACAD_PROXY_OBJECT
  5
D088
102
{ACAD_REACTORS
330
D07B
102
}
330
D07B
100
AcDbZombieObject
 90
      499
 91
      510
 93
      105
310
903323A310000000000000010100
  0
ACAD_PROXY_OBJECT
  5
D089
102
{ACAD_REACTORS
330
D07B
102
}
330
D07B
100
AcDbZombieObject
 90
      499
 91
      510
 93
      105
310
903343A310000000000000410100
  0
ACAD_PROXY_OBJECT
  5
D08A
102
{ACAD_REACTORS
330
D07B
102
}
330
D07B
100
AcDbZombieObject
 90
      499
 91
      510
 93
      105
310
903383A310000000000000810100
  0
ACAD_PROXY_OBJECT
  5
D08B
102
{ACAD_REACTORS
330
D07B
102
}
330
D07B
100
AcDbZombieObject
 90
      499
 91
      510
 93
      113
310
90431303A310000000000000910100
  0
ACAD_PROXY_OBJECT
  5
D08C
102
{ACAD_REACTORS
330
D07B
102
}
330
D07B
100
AcDbZombieObject
 90
      499
 91
      510
 93
      121
310
9053130303A310000000000001650100
  0
ACAD_PROXY_OBJECT
  5
D08D
102
{ACAD_REACTORS
330
D07B
102
}
330
D07B
100
AcDbZombieObject
 90
      499
 91
      510
 93
      257
310
90E312F31323822203D2031272D3022000000000000200FC000000000000284000
  0
ACAD_PROXY_OBJECT
  5
D08E
102
{ACAD_REACTORS
330
D07B
102
}
330
D07B
100
AcDbZombieObject
 90
      499
 91
      510
 93
      249
310
90D312F363422203D2031272D3022000000000000240FC000000000000284000
  0
ACAD_PROXY_OBJECT
  5
D08F
102
{ACAD_REACTORS
330
D07B
102
}
330
D07B
100
AcDbZombieObject
 90
      499
 91
      510
 93
      249
310
90D312F333222203D2031272D3022000000000000280FC000000000000284000
  0
ACAD_PROXY_OBJECT
  5
D090
102
{ACAD_REACTORS
330
D07B
102
}
330
D07B
100
AcDbZombieObject
 90
      499
 91
      510
 93
      249
310
90D312F313622203D2031272D30220000000000002C0FC000000000000284000
  0
ACAD_PROXY_OBJECT
  5
D091
102
{ACAD_REACTORS
330
D07B
102
}
330
D07B
100
AcDbZombieObject
 90
      499
 91
      510
 93
      249
310
90D332F333222203D2031272D30220000000000002E0FC000000000000284000
  0
ACAD_PROXY_OBJECT
  5
D092
102
{ACAD_REACTORS
330
D07B
102
}
330
D07B
100
AcDbZombieObject
 90
      499
 91
      510
 93
      241
310
90C312F3822203D2031272D3022000000000000300FC000000000000284000
  0
ACAD_PROXY_OBJECT
  5
D093
102
{ACAD_REACTORS
330
D07B
102
}
330
D07B
100
AcDbZombieObject
 90
      499
 91
      510
 93
      249
310
90D332F313622203D2031272D3022000000000000320FC000000000000284000
  0
ACAD_PROXY_OBJECT
  5
D094
102
{ACAD_REACTORS
330
D07B
102
}
330
D07B
100
AcDbZombieObject
 90
      499
 91
      510
 93
      241
310
90C312F3422203D2031272D3022000000000000340FC000000000000284000
  0
ACAD_PROXY_OBJECT
  5
D095
102
{ACAD_REACTORS
330
D07B
102
}
330
D07B
100
AcDbZombieObject
 90
      499
 91
      510
 93
      241
310
90C332F3822203D2031272D3022000000000000360FC000000000000284000
  0
ACAD_PROXY_OBJECT
  5
D096
102
{ACAD_REACTORS
330
D07B
102
}
330
D07B
100
AcDbZombieObject
 90
      499
 91
      510
 93
      241
310
90C312F3222203D2031272D3022000000000000380FC000000000000284000
  0
ACAD_PROXY_OBJECT
  5
D097
102
{ACAD_REACTORS
330
D07B
102
}
330
D07B
100
AcDbZombieObject
 90
      499
 91
      510
 93
      241
310
90C332F3422203D2031272D30220000000000003A0FC000000000000284000
  0
ACAD_PROXY_OBJECT
  5
D098
102
{ACAD_REACTORS
330
D07B
102
}
330
D07B
100
AcDbZombieObject
 90
      499
 91
      510
 93
      161
310
90A3122203D2031272D30224000000000000284000
  0
ACAD_PROXY_OBJECT
  5
D099
102
{ACAD_REACTORS
330
D07B
102
}
330
D07B
100
AcDbZombieObject
 90
      499
 91
      510
 93
      257
310
90E312D312F3222203D2031272D30220000000000003E0FC000000000000284000
  0
ACAD_PROXY_OBJECT
  5
D09A
102
{ACAD_REACTORS
330
D07B
102
}
330
D07B
100
AcDbZombieObject
 90
      499
 91
      510
 93
      225
310
90A3322203D2031272D302200000000000002100000000000000284000
  0
ACAD_PROXY_OBJECT
  5
D09B
102
{ACAD_REACTORS
330
D07B
102
}
330
D07B
100
AcDbZombieObject
 90
      499
 91
      510
 93
      225
310
90A3622203D2031272D302200000000000006100000000000000284000
  0
ACAD_PROXY_OBJECT
  5
D09C
102
{ACAD_REACTORS
330
D07B
102
}
330
D07B
100
AcDbZombieObject
 90
      499
 91
      510
 93
      249
310
90D31272D3022203D2031272D30220000000000000A100000000000000284000
  0
ACAD_PROXY_OBJECT
  5
D070
102
{ACAD_REACTORS
330
D06A
102
}
330
D06A
100
AcDbZombieObject
 90
      499
 91
      509
 93
      436
310
42CC9915DA5C99599C985B595049028333333333333E3BF0000000000000FB0107901411070040501600405405064090741402480A0340
1001
ACAD
1000
AcDbSavedByObjectVersion
1070
     0
  0
ACAD_PROXY_OBJECT
  5
D072
102
{ACAD_REACTORS
330
D06A
102
}
330
D06A
100
AcDbZombieObject
 90
      499
 91
      509
 93
      500
310
424CD108121A5919195B90640502408333333333333E3BF0000000000000FB01079024090700405020000000000001110200405405064090740C02480A0340
1001
ACAD
1000
AcDbSavedByObjectVersion
1070
     0
  0
ACAD_PROXY_OBJECT
  5
D071
102
{ACAD_REACTORS
330
D06A
102
}
330
D06A
100
AcDbZombieObject
 90
      499
 91
      509
 93
      436
310
42CCD915DA5C99599C985B595059028333333333333E3BF0000000000000FB0107901411070040501600405405064090741402480A0340
1001
ACAD
1000
AcDbSavedByObjectVersion
1070
     0
  0
ACAD_PROXY_OBJECT
  5
D06F
102
{ACAD_REACTORS
330
D06A
102
}
330
D06A
100
AcDbZombieObject
 90
      499
 91
      509
 93
      388
310
4150985CDA58D07406404333333333333E3BF0000000000000FB0107A41107004050150841D405064090741402480A0350
1001
ACAD
1000
AcDbSavedByObjectVersion
1070
     0
  0
ACAD_PROXY_OBJECT
  5
D076
102
{ACAD_REACTORS
330
D06A
102
}
330
D06A
100
AcDbZombieObject
 90
      499
 91
      509
 93
      428
310
42109C9A59DA1D195B90C409028333333333333E3BF0000000000000FB010790141107004050150841D405064090741402480A029950
1001
ACAD
1000
AcDbSavedByObjectVersion
1070
     0
  0
ACAD_PROXY_OBJECT
  5
D07A
102
{ACAD_REACTORS
330
D06A
102
}
330
D06A
100
AcDbZombieObject
 90
      499
 91
      509
 93
      452
310
42D0DBDB1BDC90DA185B99D95104090240C333333333333E3BF0000000000000FB0108901411070040501508421405064090741402480A0350
1001
ACAD
1000
AcDbSavedByObjectVersion
1070
     0
  0
ACAD_PROXY_OBJECT
  5
D073
102
{ACAD_REACTORS
330
D06A
102
}
330
D06A
100
AcDbZombieObject
 90
      499
 91
      509
 93
      500
310
4290DBDB98D95C1D1D585B10940D028333333333333E3BF0000000000000FB0107902409070040501000000000000111010841D405064090740C02480A0340
1001
ACAD
1000
AcDbSavedByObjectVersion
1070
     0
  0
ACAD_PROXY_OBJECT
  5
D075
102
{ACAD_REACTORS
330
D06A
102
}
330
D06A
100
AcDbZombieObject
 90
      499
 91
      509
 93
      412
310
40D11A5B50B409028333333333333E3BF0000000000000FB010790141107004050150841D405064090741402480A02677FFFFFD0
1001
ACAD
1000
AcDbSavedByObjectVersion
1070
     0
  0
ACAD_PROXY_OBJECT
  5
D29F
102
{ACAD_REACTORS
330
D06A
102
}
330
D06A
100
AcDbZombieObject
 90
      499
 91
      509
 93
      452
310
43115919D950DBDB1BDC93D999916409028333333333333E3BF0000000000000FB010790141107004050150841D405064090741402480A0350
1001
ACAD
1000
AcDbSavedByObjectVersion
1070
     0
  0
ACAD_PROXY_OBJECT
  5
D079
102
{ACAD_REACTORS
330
D06A
102
}
330
D06A
100
AcDbZombieObject
 90
      499
 91
      509
 93
      444
310
42D19858D95C185D1D195C9B90F409028333333333333E3BF0000000000000FB010790141107004050150841D405064090741402480A0350
1001
ACAD
1000
AcDbSavedByObjectVersion
1070
     0
  0
ACAD_PROXY_OBJECT
  5
D06B
102
{ACAD_REACTORS
330
D06A
102
}
330
D06A
100
AcDbZombieObject
 90
      499
 91
      509
 93
      388
310
41119B185D240901404333333333333E3BF0000000000000F9010740A41107004050150841D405064090741402480A1B50
1001
ACAD
1000
AcDbSavedByObjectVersion
1070
     0
  0
ACAD_PROXY_OBJECT
  5
D06C
102
{ACAD_REACTORS
330
D06A
102
}
330
D06A
100
AcDbZombieObject
 90
      499
 91
      509
 93
      476
310
43519B185D15DA5D1A115919D95CD0140901404333333333333E3BF0000000000000F9010740901411070040501600405405064090741402480A1B50
1001
ACAD
1000
AcDbSavedByObjectVersion
1070
     0
  0
ACAD_PROXY_OBJECT
  5
D06D
102
{ACAD_REACTORS
330
D06A
102
}
330
D06A
100
AcDbZombieObject
 90
      499
 91
      509
 93
      412
310
41D1DBDD5C985D5910240902404333333333333E3BF0000000000000F9010740A411070040501641D405064090741402480A1B50
1001
ACAD
1000
AcDbSavedByObjectVersion
1070
     0
  0
ACAD_PROXY_OBJECT
  5
D06E
102
{ACAD_REACTORS
330
D06A
102
}
330
D06A
100
AcDbZombieObject
 90
      499
 91
      509
 93
      500
310
4411DBDD5C985D5915DA5D1A115919D95CD0340902404333333333333E3BF0000000000000F9010740901411070040501600405405064090741402480A1B50
1001
ACAD
1000
AcDbSavedByObjectVersion
1070
     0
  0
ACAD_PROXY_OBJECT
  5
FB5B
102
{ACAD_REACTORS
330
D06A
102
}
330
D06A
100
AcDbZombieObject
 90
      499
 91
      509
 93
      476
310
41921A5919195B90640502408333333333333E3BF0000000000000FB01079024090700405020000000000001110200405405064090740C02480A0340
1001
ACAD
1000
AcDbSavedByObjectVersion
1070
     0
  0
ACAD_PROXY_OBJECT
  5
D29D
102
{ACAD_REACTORS
330
D06A
102
}
330
D06A
100
AcDbZombieObject
 90
      499
 91
      509
 93
      428
310
42529A5D1D195C93D999914409028333333333333E3BF0000000000000FB010790141107004050150A41D405064090741402480A0350
1001
ACAD
1000
AcDbSavedByObjectVersion
1070
     0
  0
ACAD_PROXY_OBJECT
  5
D078
102
{ACAD_REACTORS
330
D06A
102
}
330
D06A
100
AcDbZombieObject
 90
      499
 91
      509
 93
      444
310
42D31A5B995C185D1D195C9B90E409028333333333333E3BF0000000000000FB010790141107004050750841D405064090741402483A0350
1001
ACAD
1000
AcDbSavedByObjectVersion
1070
     0
  0
ACAD_PROXY_OBJECT
  5
10448
102
{ACAD_REACTORS
330
D06A
102
}
330
D06A
100
AcDbZombieObject
 90
      499
 91
      509
 93
      484
310
42135BD9195B1A5B99D0A409038333333333333E33F0000000000000F901074090290700405010000000000201990108421405064090741402480A1B40
1001
ACAD
1000
AcDbSavedByObjectVersion
1070
     0
  0
ACAD_PROXY_OBJECT
  5
D29E
102
{ACAD_REACTORS
330
D06A
102
}
330
D06A
100
AcDbZombieObject
 90
      499
 91
      509
 93
      444
310
42D3DD995C9A185B99D3D999915409028333333333333E3BF0000000000000FB010790141107004050150941D405064090741402480A0350
1001
ACAD
1000
AcDbSavedByObjectVersion
1070
     0
  0
ACAD_PROXY_OBJECT
  5
D074
102
{ACAD_REACTORS
330
D06A
102
}
330
D06A
100
AcDbZombieObject
 90
      499
 91
      509
 93
      420
310
425499585B1A5CDD1A58D08409028333333333333E3BF0000000000000FB01079019070040501508421405064090741402480A1B40
1001
ACAD
1000
AcDbSavedByObjectVersion
1070
     0
  0
ACAD_PROXY_OBJECT
  5
FB60
102
{ACAD_REACTORS
330
D06A
102
}
330
D06A
100
AcDbZombieObject
 90
      499
 91
      509
 93
      420
310
4194DA1859195911B40902404333333333333E3BF0000000000000F9010740A41107004050150800405405064090840C02480A0B40
1001
ACAD
1000
AcDbSavedByObjectVersion
1070
     0
  0
ACAD_PROXY_OBJECT
  5
FB5F
102
{ACAD_REACTORS
330
D06A
102
}
330
D06A
100
AcDbZombieObject
 90
      499
 91
      509
 93
      516
310
4454DA18591959081DDA5D1A08195919D95CD1A40902404333333333333E3BF0000000000000F901074090142907004050250800405405064090740C02480A0B40
1001
ACAD
1000
AcDbSavedByObjectVersion
1070
     0
  0
ACAD_PROXY_OBJECT
  5
FB5C
102
{ACAD_REACTORS
330
D06A
102
}
330
D06A
100
AcDbZombieObject
 90
      499
 91
      509
 93
      532
310
4394DA1859195CC81BD98811DC985E5174090240C333333333333E3BF0000000000000FB01079024090741D01000000000000111010841D405064090740C02480A0340
1001
ACAD
1000
AcDbSavedByObjectVersion
1070
     0
  0
ACAD_PROXY_OBJECT
  5
FB5D
102
{ACAD_REACTORS
330
D06A
102
}
330
D06A
100
AcDbZombieObject
 90
      499
 91
      509
 93
      476
310
41D4DAD95D18DA1E51840502408333333333333E3BF0000000000000FB01079024090741D01000000000000111010B41D405064090741802480A0340
1001
ACAD
1000
AcDbSavedByObjectVersion
1070
     0
  0
ACAD_PROXY_OBJECT
  5
D077
102
{ACAD_REACTORS
330
D06A
102
}
330
D06A
100
AcDbZombieObject
 90
      499
 91
      509
 93
      412
310
41D51A1A58DAD95B90D409028333333333333E3BF0000000000000FB010790141107004050150C41D405064090741402480A0350
1001
ACAD
1000
AcDbSavedByObjectVersion
1070
     0
  0
ACAD_PROXY_OBJECT
  5
FB5A
102
{ACAD_REACTORS
330
D06A
102
}
330
D06A
100
AcDbZombieObject
 90
      499
 91
      509
 93
      420
310
4255DA5C99599C985B595059028333333333333E3BF0000000000000FB0107901411070040501600405405064090740C02480A0340
1001
ACAD
1000
AcDbSavedByObjectVersion
1070
     0
  0
ACAD_PROXY_OBJECT
  5
FB5E
102
{ACAD_REACTORS
330
D06A
102
}
330
D06A
100
AcDbZombieObject
 90
      499
 91
      509
 93
      404
310
41560B54985E51940902404000000000000E03F0000000000000FB010740501907004050150841D405064090740C02480A1B40
1001
ACAD
1000
AcDbSavedByObjectVersion
1070
     0
  0
XRECORD
  5
10580
102
{ACAD_REACTORS
330
1057F
102
}
330
1057F
100
AcDbXrecord
340
18D
  0
XRECORD
  5
10581
102
{ACAD_REACTORS
330
1057F
102
}
330
1057F
100
AcDbXrecord
340
18C
  0
DICTIONARYVAR
  5
D118
102
{ACAD_REACTORS
330
37
102
}
330
37
100
DictionaryVariables
280
     0
  1
1:1
  0
DICTIONARYVAR
  5
D117
102
{ACAD_REACTORS
330
37
102
}
330
37
100
DictionaryVariables
280
     0
  1
Standard
  0
DICTIONARYVAR
  5
29E
102
{ACAD_REACTORS
330
37
102
}
330
37
100
DictionaryVariables
280
     0
  1
Standard
  0
DICTIONARYVAR
  5
38
102
{ACAD_REACTORS
330
37
102
}
330
37
100
DictionaryVariables
280
     0
  1
-1
  0
DICTIONARYVAR
  5
1CE
102
{ACAD_REACTORS
330
37
102
}
330
37
100
DictionaryVariables
280
     0
  1
2
  0
DICTIONARYVAR
  5
704E
102
{ACAD_REACTORS
330
37
102
}
330
37
100
DictionaryVariables
280
     0
  1
1
  0
DICTIONARYVAR
  5
D11A
102
{ACAD_REACTORS
330
37
102
}
330
37
100
DictionaryVariables
280
     0
  1
0
  0
DICTIONARYVAR
  5
7052
102
{ACAD_REACTORS
330
37
102
}
330
37
100
DictionaryVariables
280
     0
  1
8
  0
DICTIONARYVAR
  5
7051
102
{ACAD_REACTORS
330
37
102
}
330
37
100
DictionaryVariables
280
     0
  1
1
  0
DICTIONARYVAR
  5
104B6
102
{ACAD_REACTORS
330
37
102
}
330
37
100
DictionaryVariables
280
     0
  1
0
  0
DICTIONARYVAR
  5
704F
102
{ACAD_REACTORS
330
37
102
}
330
37
100
DictionaryVariables
280
     0
  1
8
  0
DICTIONARYVAR
  5
7050
102
{ACAD_REACTORS
330
37
102
}
330
37
100
DictionaryVariables
280
     0
  1
2
  0
DICTIONARYVAR
  5
1CF
102
{ACAD_REACTORS
330
37
102
}
330
37
100
DictionaryVariables
280
     0
  1

  0
DICTIONARYVAR
  5
D119
102
{ACAD_REACTORS
330
37
102
}
330
37
100
DictionaryVariables
280
     0
  1
127
  0
DICTIONARYVAR
  5
10447
102
{ACAD_REACTORS
330
37
102
}
330
37
100
DictionaryVariables
280
     0
  1
2
  0
DICTIONARY
  5
1071D
330
D05A
100
AcDbDictionary
  3
ACAD_XREC_ROUNDTRIP
360
1071E
1001
ACAD
1000
TREAT_AS_HARD
1070
     1
  0
DICTIONARY
  5
1071F
330
D052
100
AcDbDictionary
  3
ACAD_XREC_ROUNDTRIP
360
10720
1001
ACAD
1000
TREAT_AS_HARD
1070
     1
  0
DICTIONARY
  5
10721
330
D062
100
AcDbDictionary
  3
ACAD_XREC_ROUNDTRIP
360
10722
1001
ACAD
1000
TREAT_AS_HARD
1070
     1
  0
XRECORD
  5
1071E
102
{ACAD_REACTORS
330
1071D
102
}
330
1071D
100
AcDbXrecord
102
MATERIAL
148
0.0
149
0.0
149
0.0
 93
        0
 94
      127
282
     0
 72
     0
 77
     0
171
     0
175
     0
179
     0
273
     0
  0
XRECORD
  5
10720
102
{ACAD_REACTORS
330
1071F
102
}
330
1071F
100
AcDbXrecord
102
MATERIAL
148
0.0
149
0.0
149
0.0
 93
        0
 94
      127
282
     0
 72
     0
 77
     0
171
     0
175
     0
179
     0
273
     0
  0
XRECORD
  5
10722
102
{ACAD_REACTORS
330
10721
102
}
330
10721
100
AcDbXrecord
102
MATERIAL
148
0.0
149
0.0
149
0.0
 93
        0
 94
      127
282
     0
 72
     0
 77
     0
171
     0
175
     0
179
     0
273
     0
  0
ENDSEC
  0
EOF
