  0
SECTION
  2
HEADER
  9
$ACADVER
  1
AC1012
  9
$DWGCODEPAGE
  3
ansi_932
  9
$INSBASE
 10
0.0
 20
0.0
 30
0.0
  9
$EXTMIN
 10
-62.5000179438523
 20
-20.99999999999153
 30
0.0
  9
$EXTMAX
 10
94.55838013648477
 20
173.0062367118497
 30
0.0
  9
$LIMMIN
 10
0.0
 20
0.0
  9
$LIMMAX
 10
420.0
 20
297.0
  9
$ORTHOMODE
 70
     0
  9
$REGENMODE
 70
     1
  9
$FILLMODE
 70
     1
  9
$QTEXTMODE
 70
     0
  9
$MIRRTEXT
 70
     0
  9
$DRAGMODE
 70
     2
  9
$LTSCALE
 40
0.5
  9
$OSMODE
 70
 16383
  9
$ATTMODE
 70
     1
  9
$TEXTSIZE
 40
4.0
  9
$TRACEWID
 40
1.0
  9
$TEXTSTYLE
  7
STANDARD
  9
$CLAYER
  8
1TEXT
  9
$CELTYPE
  6
BYLAYER
  9
$CECOLOR
 62
   256
  9
$CELTSCALE
 40
1.0
  9
$DELOBJ
 70
     1
  9
$DISPSILH
 70
     0
  9
$DIMSCALE
 40
1.0
  9
$DIMASZ
 40
2.0
  9
$DIMEXO
 40
0.0
  9
$DIMDLI
 40
7.0
  9
$DIMRND
 40
0.0
  9
$DIMDLE
 40
0.0
  9
$DIMEXE
 40
1.0
  9
$DIMTP
 40
0.0
  9
$DIMTM
 40
0.0
  9
$DIMTXT
 40
3.5
  9
$DIMCEN
 40
0.0
  9
$DIMTSZ
 40
0.0
  9
$DIMTOL
 70
     0
  9
$DIMLIM
 70
     0
  9
$DIMTIH
 70
     0
  9
$DIMTOH
 70
     0
  9
$DIMSE1
 70
     0
  9
$DIMSE2
 70
     0
  9
$DIMTAD
 70
     1
  9
$DIMZIN
 70
     8
  9
$DIMBLK
  1

  9
$DIMASO
 70
     1
  9
$DIMSHO
 70
     1
  9
$DIMPOST
  1
 
  9
$DIMAPOST
  1

  9
$DIMALT
 70
     0
  9
$DIMALTD
 70
     2
  9
$DIMALTF
 40
25.4
  9
$DIMLFAC
 40
1.0
  9
$DIMTOFL
 70
     1
  9
$DIMTVP
 40
0.0
  9
$DIMTIX
 70
     0
  9
$DIMSOXD
 70
     0
  9
$DIMSAH
 70
     1
  9
$DIMBLK1
  1
OPEN30
  9
$DIMBLK2
  1
OPEN30
  9
$DIMSTYLE
  2
NEWX10
  9
$DIMCLRD
 70
   256
  9
$DIMCLRE
 70
   256
  9
$DIMCLRT
 70
   201
  9
$DIMTFAC
 40
0.7
  9
$DIMGAP
 40
0.7
  9
$DIMJUST
 70
     0
  9
$DIMSD1
 70
     0
  9
$DIMSD2
 70
     0
  9
$DIMTOLJ
 70
     1
  9
$DIMTZIN
 70
     8
  9
$DIMALTZ
 70
     0
  9
$DIMALTTZ
 70
     0
  9
$DIMFIT
 70
     2
  9
$DIMUPT
 70
     0
  9
$DIMUNIT
 70
     2
  9
$DIMDEC
 70
     2
  9
$DIMTDEC
 70
     4
  9
$DIMALTU
 70
     2
  9
$DIMALTTD
 70
     2
  9
$DIMTXSTY
  7
STANDARD
  9
$DIMAUNIT
 70
     0
  9
$LUNITS
 70
     2
  9
$LUPREC
 70
     4
  9
$SKETCHINC
 40
1.0
  9
$FILLETRAD
 40
0.0
  9
$AUNITS
 70
     0
  9
$AUPREC
 70
     2
  9
$MENU
  1
acad
  9
$ELEVATION
 40
0.0
  9
$PELEVATION
 40
0.0
  9
$THICKNESS
 40
0.0
  9
$LIMCHECK
 70
     0
  9
$CHAMFERA
 40
10.0
  9
$CHAMFERB
 40
10.0
  9
$CHAMFERC
 40
20.0
  9
$CHAMFERD
 40
0.0
  9
$SKPOLY
 70
     0
  9
$TDCREATE
 40
2451318.621352917
  9
$TDUPDATE
 40
2458726.377625
  9
$TDINDWG
 40
0.6789863657
  9
$TDUSRTIMER
 40
0.6789863657
  9
$USRTIMER
 70
     1
  9
$ANGBASE
 50
0.0
  9
$ANGDIR
 70
     0
  9
$PDMODE
 70
     0
  9
$PDSIZE
 40
0.0
  9
$PLINEWID
 40
0.0
  9
$COORDS
 70
     2
  9
$SPLFRAME
 70
     0
  9
$SPLINETYPE
 70
     6
  9
$SPLINESEGS
 70
     8
  9
$ATTDIA
 70
     0
  9
$ATTREQ
 70
     1
  9
$HANDLING
 70
     1
  9
$HANDSEED
  5
105BB
  9
$SURFTAB1
 70
     6
  9
$SURFTAB2
 70
     6
  9
$SURFTYPE
 70
     6
  9
$SURFU
 70
     6
  9
$SURFV
 70
     6
  9
$UCSNAME
  2

  9
$UCSORG
 10
0.0
 20
0.0
 30
0.0
  9
$UCSXDIR
 10
1.0
 20
0.0
 30
0.0
  9
$UCSYDIR
 10
0.0
 20
1.0
 30
0.0
  9
$PUCSNAME
  2

  9
$PUCSORG
 10
0.0
 20
0.0
 30
0.0
  9
$PUCSXDIR
 10
1.0
 20
0.0
 30
0.0
  9
$PUCSYDIR
 10
0.0
 20
1.0
 30
0.0
  9
$USERI1
 70
     0
  9
$USERI2
 70
     0
  9
$USERI3
 70
     0
  9
$USERI4
 70
     0
  9
$USERI5
 70
     0
  9
$USERR1
 40
0.0
  9
$USERR2
 40
0.0
  9
$USERR3
 40
0.0
  9
$USERR4
 40
0.0
  9
$USERR5
 40
0.0
  9
$WORLDVIEW
 70
     1
  9
$SHADEDGE
 70
     3
  9
$SHADEDIF
 70
    70
  9
$TILEMODE
 70
     1
  9
$MAXACTVP
 70
    48
  9
$PINSBASE
 10
0.0
 20
0.0
 30
0.0
  9
$PLIMCHECK
 70
     0
  9
$PEXTMIN
 10
1.000000000000000E+20
 20
1.000000000000000E+20
 30
1.000000000000000E+20
  9
$PEXTMAX
 10
-1.000000000000000E+20
 20
-1.000000000000000E+20
 30
-1.000000000000000E+20
  9
$PLIMMIN
 10
0.0
 20
0.0
  9
$PLIMMAX
 10
420.0
 20
297.0
  9
$UNITMODE
 70
     0
  9
$VISRETAIN
 70
     1
  9
$PLINEGEN
 70
     0
  9
$PSLTSCALE
 70
     1
  9
$TREEDEPTH
 70
  3020
  9
$PICKSTYLE
 70
     1
  9
$CMLSTYLE
  2
STANDARD
  9
$CMLJUST
 70
     0
  9
$CMLSCALE
 40
20.0
  9
$SAVEIMAGES
 70
     1
  0
ENDSEC
  0
SECTION
  2
CLASSES
  0
CLASS
  1
DICTIONARYVAR
  2
AcDbDictionaryVar
  3
ObjectDBX Classes
 90
        0
280
     0
281
     0
  0
CLASS
  1
IDBUFFER
  2
AcDbIdBuffer
  3
ObjectDBX Classes
 90
    32768
280
     0
281
     0
  0
CLASS
  1
LWPOLYLINE
  2
AcDbPolyline
  3
ObjectDBX Classes
 90
    32768
280
     0
281
     1
  0
CLASS
  1
ACDBDICTIONARYWDFLT
  2
AcDbDictionaryWithDefault
  3
ObjectDBX Classes
 90
    32768
280
     0
281
     0
  0
CLASS
  1
ACDBPLACEHOLDER
  2
AcDbPlaceHolder
  3
ObjectDBX Classes
 90
        0
280
     0
281
     0
  0
CLASS
  1
LAYOUT
  2
AcDbLayout
  3
ObjectDBX Classes
 90
        0
280
     0
281
     0
  0
CLASS
  1
TABLESTYLE
  2
AcDbTableStyle
  3
ObjectDBX Classes
 90
     4095
280
     0
281
     0
  0
CLASS
  1
SORTENTSTABLE
  2
AcDbSortentsTable
  3
ObjectDBX Classes
 90
    32768
280
     0
281
     0
  0
CLASS
  1
MATERIAL
  2
AcDbMaterial
  3
ObjectDBX Classes
 90
     1153
280
     0
281
     0
  0
CLASS
  1
VISUALSTYLE
  2
AcDbVisualStyle
  3
ObjectDBX Classes
 90
     4095
280
     0
281
     0
  0
CLASS
  1
SCALE
  2
AcDbScale
  3
ObjectDBX Classes
 90
     1153
280
     0
281
     0
  0
CLASS
  1
MLEADERSTYLE
  2
AcDbMLeaderStyle
  3
ACDB_MLEADERSTYLE_CLASS
 90
     4095
280
     0
281
     0
  0
CLASS
  1
CELLSTYLEMAP
  2
AcDbCellStyleMap
  3
ObjectDBX Classes
 90
     1152
280
     0
281
     0
  0
CLASS
  1
SUN
  2
AcDbSun
  3
SCENEOE
 90
     1153
280
     0
281
     0
  0
CLASS
  1
XRECORD
  2
AcDbXrecord
  3
ObjectDBX Classes
 90
    32768
280
     0
281
     0
  0
CLASS
  1
HATCH
  2
AcDbHatch
  3
ObjectDBX Classes
 90
    32768
280
     0
281
     1
  0
ENDSEC
  0
SECTION
  2
TABLES
  0
TABLE
  2
VPORT
  5
8
330
0
100
AcDbSymbolTable
 70
     1
  0
VPORT
  5
CFAB
330
8
100
AcDbSymbolTableRecord
100
AcDbViewportTableRecord
  2
*ACTIVE
 70
     0
 10
0.0
 20
0.0
 11
1.0
 21
1.0
 12
16.02918109631624
 22
76.00311835592908
 13
0.0
 23
0.0
 14
10.0
 24
10.0
 15
10.0
 25
10.0
 16
0.0
 26
0.0
 36
1.0
 17
0.0
 27
0.0
 37
0.0
 40
208.3014331011348
 41
2.152122641509434
 42
50.0
 43
0.0
 44
0.0
 50
0.0
 51
0.0
 71
    16
 72
   100
 73
     1
 74
     1
 75
     0
 76
     0
 77
     0
 78
     0
1001
ACAD_NAV_VCDISPLAY
1070
     3
  0
ENDTAB
  0
TABLE
  2
LTYPE
  5
5
330
0
100
AcDbSymbolTable
 70
     3
  0
LTYPE
  5
12
330
5
100
AcDbSymbolTableRecord
100
AcDbLinetypeTableRecord
  2
BYBLOCK
 70
     0
  3

 72
    65
 73
     0
 40
0.0
  0
LTYPE
  5
13
330
5
100
AcDbSymbolTableRecord
100
AcDbLinetypeTableRecord
  2
BYLAYER
 70
     0
  3

 72
    65
 73
     0
 40
0.0
  0
LTYPE
  5
14
330
5
100
AcDbSymbolTableRecord
100
AcDbLinetypeTableRecord
  2
CONTINUOUS
 70
     0
  3
Solid line
 72
    65
 73
     0
 40
0.0
  0
LTYPE
  5
6A
330
5
100
AcDbSymbolTableRecord
100
AcDbLinetypeTableRecord
  2
XREF1|CENTER2
 70
    16
  3
Center (.5x) ___ _ ___ _ ___ _ ___ _ ___ _ ___
 72
    65
 73
     4
 40
28.575
 49
19.05
 74
     0
 49
-3.175
 74
     0
 49
3.175
 74
     0
 49
-3.175
 74
     0
  0
LTYPE
  5
A61B
330
5
100
AcDbSymbolTableRecord
100
AcDbLinetypeTableRecord
  2
CENTER2
 70
     0
  3
Center (.5x) ___ _ ___ _ ___ _ ___ _ ___ _ ___
 72
    65
 73
     4
 40
28.575
 49
19.05
 74
     0
 49
-3.175
 74
     0
 49
3.175
 74
     0
 49
-3.175
 74
     0
  0
ENDTAB
  0
TABLE
  2
LAYER
  5
2
102
{ACAD_XDICTIONARY
360
D16C
102
}
330
0
100
AcDbSymbolTable
 70
     5
  0
LAYER
  5
E
102
{ACAD_XDICTIONARY
360
D0B5
102
}
330
2
100
AcDbSymbolTableRecord
100
AcDbLayerTableRecord
  2
0
 70
     0
 62
     7
  6
CONTINUOUS
  0
LAYER
  5
29
102
{ACAD_XDICTIONARY
360
D0B7
102
}
330
2
100
AcDbSymbolTableRecord
100
AcDbLayerTableRecord
  2
1CENTER
 70
     0
 62
     7
  6
CENTER2
  0
LAYER
  5
31
102
{ACAD_XDICTIONARY
360
D0B9
102
}
330
2
100
AcDbSymbolTableRecord
100
AcDbLayerTableRecord
  2
1TEXT
 70
     0
 62
     7
  6
CONTINUOUS
  0
LAYER
  5
243
102
{ACAD_XDICTIONARY
360
D0BF
102
}
330
2
100
AcDbSymbolTableRecord
100
AcDbLayerTableRecord
  2
01
 70
     0
 62
     1
  6
CONTINUOUS
  0
LAYER
  5
24E
102
{ACAD_XDICTIONARY
360
D0C5
102
}
330
2
100
AcDbSymbolTableRecord
100
AcDbLayerTableRecord
  2
1DIM
 70
     0
 62
     7
  6
CONTINUOUS
  0
ENDTAB
  0
TABLE
  2
STYLE
  5
3
330
0
100
AcDbSymbolTable
 70
     1
  0
STYLE
  5
F
330
3
100
AcDbSymbolTableRecord
100
AcDbTextStyleTableRecord
  2
STANDARD
 70
     0
 40
0.0
 41
1.0
 50
0.0
 71
     0
 42
4.0
  3
txt.shx
  4
extfont.shx
  0
ENDTAB
  0
TABLE
  2
VIEW
  5
6
330
0
100
AcDbSymbolTable
 70
     0
  0
ENDTAB
  0
TABLE
  2
UCS
  5
7
330
0
100
AcDbSymbolTable
 70
     0
  0
ENDTAB
  0
TABLE
  2
APPID
  5
9
330
0
100
AcDbSymbolTable
 70
    15
  0
APPID
  5
10
330
9
100
AcDbSymbolTableRecord
100
AcDbRegAppTableRecord
  2
ACAD
 70
     0
  0
APPID
  5
21
330
9
100
AcDbSymbolTableRecord
100
AcDbRegAppTableRecord
  2
DRAWINGVARIABLESXDATA
 70
     0
  0
APPID
  5
64
330
9
100
AcDbSymbolTableRecord
100
AcDbRegAppTableRecord
  2
CONTENTTABDATA
 70
     0
  0
APPID
  5
65
330
9
100
AcDbSymbolTableRecord
100
AcDbRegAppTableRecord
  2
CONTENTCURRENTTAB
 70
     0
  0
APPID
  5
66
330
9
100
AcDbSymbolTableRecord
100
AcDbRegAppTableRecord
  2
CONTENTBLOCKDESCRIPTION
 70
     0
  0
APPID
  5
67
330
9
100
AcDbSymbolTableRecord
100
AcDbRegAppTableRecord
  2
CONTENTBLOCKICON
 70
     0
  0
APPID
  5
68
330
9
100
AcDbSymbolTableRecord
100
AcDbRegAppTableRecord
  2
CONTENTLONGBLOCKNAME
 70
     0
  0
APPID
  5
2AE
330
9
100
AcDbSymbolTableRecord
100
AcDbRegAppTableRecord
  2
ACAD_PSEXT
 70
     0
  0
APPID
  5
D09F
330
9
100
AcDbSymbolTableRecord
100
AcDbRegAppTableRecord
  2
ACAD_MLEADERVER
 70
     0
  0
APPID
  5
D7D9
330
9
100
AcDbSymbolTableRecord
100
AcDbRegAppTableRecord
  2
ACAD_EXEMPT_FROM_CAD_STAND
 70
     0
  0
APPID
  5
DB3E
330
9
100
AcDbSymbolTableRecord
100
AcDbRegAppTableRecord
  2
ACAECLAYERSTANDARD
 70
     0
  0
APPID
  5
F0A5
330
9
100
AcDbSymbolTableRecord
100
AcDbRegAppTableRecord
  2
ACAD_DSTYLE_DIMRADIAL_EXTE
 70
     0
  0
APPID
  5
1028D
330
9
100
AcDbSymbolTableRecord
100
AcDbRegAppTableRecord
  2
ACADANNOTATIVE
 70
     0
  0
APPID
  5
1028E
330
9
100
AcDbSymbolTableRecord
100
AcDbRegAppTableRecord
  2
ACAD_NAV_VCDISPLAY
 70
     0
  0
APPID
  5
1028F
330
9
100
AcDbSymbolTableRecord
100
AcDbRegAppTableRecord
  2
ACDBBLOCKREPETAG
 70
     0
  0
ENDTAB
  0
TABLE
  2
DIMSTYLE
  5
A
330
0
100
AcDbSymbolTable
 70
     1
  0
DIMSTYLE
105
48
330
A
100
AcDbSymbolTableRecord
100
AcDbDimStyleTableRecord
  2
NEWX10
 70
     0
  3
 
  4

  5

  6
OPEN30
  7
OPEN30
 40
1.0
 41
2.0
 42
0.0
 43
7.0
 44
1.0
 45
0.0
 46
0.0
 47
0.0
 48
0.0
140
3.5
141
0.0
142
0.0
143
25.4
144
1.0
145
0.0
146
0.7
147
0.7
 71
     0
 72
     0
 73
     0
 74
     0
 75
     0
 76
     0
 77
     1
 78
     8
170
     0
171
     2
172
     1
173
     1
174
     0
175
     0
176
   256
177
   256
178
   201
179
     2
270
     2
271
     2
272
     4
273
     2
274
     2
340
F
275
     0
280
     0
281
     0
282
     0
283
     1
284
     8
285
     0
286
     0
287
     2
288
     0
  0
ENDTAB
  0
TABLE
  2
BLOCK_RECORD
  5
1
330
0
100
AcDbSymbolTable
 70
     9
  0
BLOCK_RECORD
  5
18
102
{ACAD_XDICTIONARY
360
88F
102
}
330
1
100
AcDbSymbolTableRecord
100
AcDbBlockTableRecord
  2
*MODEL_SPACE
  0
BLOCK_RECORD
  5
15
330
1
100
AcDbSymbolTableRecord
100
AcDbBlockTableRecord
  2
*PAPER_SPACE
  0
BLOCK_RECORD
  5
42
330
1
100
AcDbSymbolTableRecord
100
AcDbBlockTableRecord
  2
_OPEN30
  0
BLOCK_RECORD
  5
5B
330
1
100
AcDbSymbolTableRecord
100
AcDbBlockTableRecord
  2
XREF1
  0
BLOCK_RECORD
  5
FE35
330
1
100
AcDbSymbolTableRecord
100
AcDbBlockTableRecord
  2
A3WAKUKAWAJUN2017_HYOUDAI_
  0
BLOCK_RECORD
  5
1041B
330
1
100
AcDbSymbolTableRecord
100
AcDbBlockTableRecord
  2
*X19
  0
BLOCK_RECORD
  5
10469
330
1
100
AcDbSymbolTableRecord
100
AcDbBlockTableRecord
  2
*X20
  0
BLOCK_RECORD
  5
104BB
330
1
100
AcDbSymbolTableRecord
100
AcDbBlockTableRecord
  2
*X21
  0
BLOCK_RECORD
  5
1050C
330
1
100
AcDbSymbolTableRecord
100
AcDbBlockTableRecord
  2
*X22
  0
BLOCK_RECORD
  5
10549
330
1
100
AcDbSymbolTableRecord
100
AcDbBlockTableRecord
  2
*X23
  0
BLOCK_RECORD
  5
10589
330
1
100
AcDbSymbolTableRecord
100
AcDbBlockTableRecord
  2
*X24
  0
ENDTAB
  0
ENDSEC
  0
SECTION
  2
BLOCKS
  0
BLOCK
  5
19
330
18
100
AcDbEntity
  8
0
100
AcDbBlockBegin
  2
*MODEL_SPACE
 70
     0
 10
0.0
 20
0.0
 30
0.0
  3
*MODEL_SPACE
  1

  0
ENDBLK
  5
1A
330
18
100
AcDbEntity
  8
0
100
AcDbBlockEnd
  0
BLOCK
  5
16
330
15
100
AcDbEntity
 67
     1
  8
0
100
AcDbBlockBegin
  2
*PAPER_SPACE
 70
     0
 10
0.0
 20
0.0
 30
0.0
  3
*PAPER_SPACE
  1

  0
ENDBLK
  5
17
330
15
100
AcDbEntity
 67
     1
  8
0
100
AcDbBlockEnd
  0
BLOCK
  5
43
330
42
100
AcDbEntity
  8
0
100
AcDbBlockBegin
  2
_OPEN30
 70
     0
 10
0.0
 20
0.0
 30
0.0
  3
_OPEN30
  1

  0
LINE
  5
44
330
42
100
AcDbEntity
  8
0
  6
BYBLOCK
 62
     0
100
AcDbLine
 10
-1.0
 20
0.26794919
 30
0.0
 11
0.0
 21
0.0
 31
0.0
  0
LINE
  5
45
330
42
100
AcDbEntity
  8
0
  6
BYBLOCK
 62
     0
100
AcDbLine
 10
0.0
 20
0.0
 30
0.0
 11
-1.0
 21
-0.26794919
 31
0.0
  0
LINE
  5
46
330
42
100
AcDbEntity
  8
0
  6
BYBLOCK
 62
     0
100
AcDbLine
 10
0.0
 20
0.0
 30
0.0
 11
-1.0
 21
0.0
 31
0.0
  0
ENDBLK
  5
47
330
42
100
AcDbEntity
  8
0
100
AcDbBlockEnd
  0
BLOCK
  5
5C
330
5B
100
AcDbEntity
  8
0
100
AcDbBlockBegin
  2
XREF1
 70
     4
 10
0.0
 20
0.0
 30
0.0
  3
XREF1
  1
D:\ACLT\FORMAT\KAWAJUN(9)図面用.dwg
  0
ENDBLK
  5
5D
330
5B
100
AcDbEntity
  8
0
100
AcDbBlockEnd
  0
BLOCK
  5
FE36
330
FE35
100
AcDbEntity
  8
0
100
AcDbBlockBegin
  2
A3WAKUKAWAJUN2017_HYOUDAI_
 70
     0
 10
0.0
 20
0.0
 30
0.0
  3
A3WAKUKAWAJUN2017_HYOUDAI_
  1

  0
LINE
  5
FE37
330
FE35
100
AcDbEntity
  8
0
100
AcDbLine
 10
13.26299999998673
 20
-0.0001000000000317
 30
0.0
 11
9.236999999990758
 21
8.999899999990987
 31
0.0
1001
ACAD
1000
ASC_BOUNDS
1002
{
1070
    19
1005
FE78
1002
}
  0
LINE
  5
FE38
330
FE35
100
AcDbEntity
  8
0
100
AcDbLine
 10
5.657999999994331
 20
0.9999999999989768
 30
0.0
 11
9.236999999990758
 21
8.999999999991019
 31
0.0
1001
ACAD
1000
ASC_BOUNDS
1002
{
1070
    19
1005
FE78
1002
}
  0
LINE
  5
FE39
330
FE35
100
AcDbEntity
  8
0
100
AcDbLine
 10
18.59199999998134
 20
-0.2368999999997641
 30
0.0
 11
16.46099999998353
 21
5.432899999994561
 31
0.0
1001
ACAD
1000
ASC_BOUNDS
1002
{
1070
    19
1005
FE79
1002
}
  0
LINE
  5
FE3A
330
FE35
100
AcDbEntity
  8
0
100
AcDbLine
 10
18.59199999998134
 20
-0.2368999999997641
 30
0.0
 11
22.38199999997767
 21
8.763099999991255
 31
0.0
1001
ACAD
1000
ASC_BOUNDS
1002
{
1070
    19
1005
FE79
1002
}
  0
LINE
  5
FE3B
330
FE35
100
AcDbEntity
  8
0
100
AcDbLine
 10
14.32899999998563
 20
-0.2368999999997641
 30
0.0
 11
16.46099999998353
 21
5.432899999994561
 31
0.0
1001
ACAD
1000
ASC_BOUNDS
1002
{
1070
    19
1005
FE79
1002
}
  0
LINE
  5
FE3C
330
FE35
100
AcDbEntity
  8
0
100
AcDbLine
 10
14.32899999998563
 20
-0.2368999999997641
 30
0.0
 11
10.53899999998941
 21
8.763099999991255
 31
0.0
1001
ACAD
1000
ASC_BOUNDS
1002
{
1070
    19
1005
FE79
1002
}
  0
LINE
  5
FE3D
330
FE35
100
AcDbEntity
  8
0
100
AcDbLine
 10
19.53899999998043
 20
-0.0001000000000317
 30
0.0
 11
23.56599999997638
 21
8.999899999990987
 31
0.0
1001
ACAD
1000
ASC_BOUNDS
1002
{
1070
    19
1005
FE7A
1002
}
  0
LINE
  5
FE3E
330
FE35
100
AcDbEntity
  8
0
100
AcDbLine
 10
26.97358892824991
 20
1.383099999991202
 30
0.0
 11
23.56599999997638
 21
8.999899999990987
 31
0.0
1001
ACAD
1000
ASC_BOUNDS
1002
{
1070
    19
1005
FE7A
1002
}
  0
LINE
  5
FE3F
330
FE35
100
AcDbEntity
  8
0
100
AcDbLine
 10
5.657999999994331
 20
0.9999999999989768
 30
0.0
 11
3.181999999996833
 21
4.668599999995308
 31
0.0
1001
ACAD
1000
ASC_BOUNDS
1002
{
1070
    19
1005
FE78
1002
}
  0
LINE
  5
FE40
330
FE35
100
AcDbEntity
  8
0
100
AcDbLine
 10
4.617999999995391
 20
-0.0001000000000317
 30
0.0
 11
1.420999999998571
 21
4.736799999995242
 31
0.0
1001
ACAD
1000
ASC_BOUNDS
1002
{
1070
    19
1005
FE78
1002
}
  0
LINE
  5
FE41
330
FE35
100
AcDbEntity
  8
0
100
AcDbLine
 10
1.420999999998571
 20
8.763099999991255
 30
0.0
 11
1.420999999998571
 21
0.0
 31
0.0
1001
ACAD
1000
ASC_BOUNDS
1002
{
1070
    19
1005
FE7D
1002
}
  0
LINE
  5
FE42
330
FE35
100
AcDbEntity
  8
0
100
AcDbLine
 10
0.0
 20
8.763099999991255
 30
0.0
 11
0.0
 21
0.0
 31
0.0
1001
ACAD
1000
ASC_BOUNDS
1002
{
1070
    19
1005
FE7D
1002
}
  0
LINE
  5
FE43
330
FE35
100
AcDbEntity
  8
0
100
AcDbLine
 10
6.766999999993232
 20
-0.0001000000000317
 30
0.0
 11
7.826999999992154
 21
2.368399999997621
 31
0.0
1001
ACAD
1000
ASC_BOUNDS
1002
{
1070
    19
1005
FE78
1002
}
  0
LINE
  5
FE44
330
FE35
100
AcDbEntity
  8
0
100
AcDbLine
 10
0.0
 20
0.0
 30
0.0
 11
1.420999999998571
 21
0.0
 31
0.0
1001
ACAD
1000
ASC_BOUNDS
1002
{
1070
    19
1005
FE7D
1002
}
  0
LINE
  5
FE45
330
FE35
100
AcDbEntity
  8
0
100
AcDbLine
 10
4.617999999995391
 20
0.0
 30
0.0
 11
6.766999999993232
 21
0.0
 31
0.0
1001
ACAD
1000
ASC_BOUNDS
1002
{
1070
    19
1005
FE78
1002
}
  0
LINE
  5
FE46
330
FE35
100
AcDbEntity
  8
0
100
AcDbLine
 10
11.70599999998831
 20
-0.0001000000000317
 30
0.0
 11
10.64699999998936
 21
2.368399999997621
 31
0.0
1001
ACAD
1000
ASC_BOUNDS
1002
{
1070
    19
1005
FE78
1002
}
  0
LINE
  5
FE47
330
FE35
100
AcDbEntity
  8
0
100
AcDbLine
 10
7.826999999992154
 20
2.368399999997621
 30
0.0
 11
10.64699999998936
 21
2.368399999997621
 31
0.0
1001
ACAD
1000
ASC_BOUNDS
1002
{
1070
    19
1005
FE78
1002
}
  0
LINE
  5
FE48
330
FE35
100
AcDbEntity
  8
0
100
AcDbLine
 10
11.70599999998831
 20
0.0
 30
0.0
 11
13.26299999998673
 21
0.0
 31
0.0
1001
ACAD
1000
ASC_BOUNDS
1002
{
1070
    19
1005
FE78
1002
}
  0
LINE
  5
FE49
330
FE35
100
AcDbEntity
  8
0
100
AcDbLine
 10
22.15599999997789
 20
2.368399999997621
 30
0.0
 11
24.97599999997499
 21
2.368399999997621
 31
0.0
1001
ACAD
1000
ASC_BOUNDS
1002
{
1070
    19
1005
FE7A
1002
}
  0
LINE
  5
FE4A
330
FE35
100
AcDbEntity
  8
0
100
AcDbLine
 10
19.53899999998043
 20
0.0
 30
0.0
 11
21.09599999997886
 21
0.0
 31
0.0
1001
ACAD
1000
ASC_BOUNDS
1002
{
1070
    19
1005
FE7A
1002
}
  0
LINE
  5
FE4B
330
FE35
100
AcDbEntity
  8
0
100
AcDbLine
 10
21.09599999997886
 20
-0.0001000000000317
 30
0.0
 11
22.15599999997789
 21
2.368399999997621
 31
0.0
1001
ACAD
1000
ASC_BOUNDS
1002
{
1070
    19
1005
FE7A
1002
}
  0
LINE
  5
FE4C
330
FE35
100
AcDbEntity
  8
0
100
AcDbLine
 10
26.02015566812236
 20
0.0330999999912365
 30
0.0
 11
24.97599999997499
 21
2.368399999997621
 31
0.0
1001
ACAD
1000
ASC_BOUNDS
1002
{
1070
    19
1005
FE7A
1002
}
  0
LINE
  5
FE4D
330
FE35
100
AcDbEntity
  8
0
100
AcDbLine
 10
14.32399999998563
 20
3.315799999996671
 30
0.0
 11
16.46099999998353
 21
8.999899999990987
 31
0.0
1001
ACAD
1000
ASC_BOUNDS
1002
{
1070
    19
1005
FE79
1002
}
  0
LINE
  5
FE4E
330
FE35
100
AcDbEntity
  8
0
100
AcDbLine
 10
6.432999999993513
 20
8.763099999991255
 30
0.0
 11
3.181999999996833
 21
4.668599999995308
 31
0.0
1001
ACAD
1000
ASC_BOUNDS
1002
{
1070
    19
1005
FE78
1002
}
  0
LINE
  5
FE4F
330
FE35
100
AcDbEntity
  8
0
100
AcDbLine
 10
4.617999999995391
 20
8.763099999991255
 30
0.0
 11
1.420999999998571
 21
4.736799999995242
 31
0.0
1001
ACAD
1000
ASC_BOUNDS
1002
{
1070
    19
1005
FE78
1002
}
  0
LINE
  5
FE50
330
FE35
100
AcDbEntity
  8
0
100
AcDbLine
 10
0.0
 20
8.763099999991255
 30
0.0
 11
1.420999999998571
 21
8.763099999991255
 31
0.0
1001
ACAD
1000
ASC_BOUNDS
1002
{
1070
    19
1005
FE7D
1002
}
  0
LINE
  5
FE51
330
FE35
100
AcDbEntity
  8
0
100
AcDbLine
 10
4.617999999995391
 20
8.763099999991255
 30
0.0
 11
6.432999999993513
 21
8.763099999991255
 31
0.0
1001
ACAD
1000
ASC_BOUNDS
1002
{
1070
    19
1005
FE78
1002
}
  0
LINE
  5
FE52
330
FE35
100
AcDbEntity
  8
0
100
AcDbLine
 10
14.32399999998563
 20
3.315799999996671
 30
0.0
 11
12.02999999998792
 21
8.763099999991255
 31
0.0
1001
ACAD
1000
ASC_BOUNDS
1002
{
1070
    19
1005
FE79
1002
}
  0
LINE
  5
FE53
330
FE35
100
AcDbEntity
  8
0
100
AcDbLine
 10
10.06399999998996
 20
3.670999999996297
 30
0.0
 11
9.236999999990758
 21
5.5200999999945
 31
0.0
1001
ACAD
1000
ASC_BOUNDS
1002
{
1070
    19
1005
FE78
1002
}
  0
LINE
  5
FE54
330
FE35
100
AcDbEntity
  8
0
100
AcDbLine
 10
8.409999999991555
 20
3.670999999996297
 30
0.0
 11
9.236999999990758
 21
5.5200999999945
 31
0.0
1001
ACAD
1000
ASC_BOUNDS
1002
{
1070
    19
1005
FE78
1002
}
  0
LINE
  5
FE55
330
FE35
100
AcDbEntity
  8
0
100
AcDbLine
 10
8.409999999991555
 20
3.670999999996297
 30
0.0
 11
10.06399999998996
 21
3.670999999996297
 31
0.0
1001
ACAD
1000
ASC_BOUNDS
1002
{
1070
    19
1005
FE78
1002
}
  0
LINE
  5
FE56
330
FE35
100
AcDbEntity
  8
0
100
AcDbLine
 10
10.53899999998941
 20
8.763099999991255
 30
0.0
 11
12.02999999998792
 21
8.763099999991255
 31
0.0
1001
ACAD
1000
ASC_BOUNDS
1002
{
1070
    19
1005
FE79
1002
}
  0
LINE
  5
FE57
330
FE35
100
AcDbEntity
  8
0
100
AcDbLine
 10
22.7389999999773
 20
3.670999999996297
 30
0.0
 11
23.56599999997638
 21
5.5200999999945
 31
0.0
1001
ACAD
1000
ASC_BOUNDS
1002
{
1070
    19
1005
FE7A
1002
}
  0
LINE
  5
FE58
330
FE35
100
AcDbEntity
  8
0
100
AcDbLine
 10
22.7389999999773
 20
3.670999999996297
 30
0.0
 11
24.39299999997559
 21
3.670999999996297
 31
0.0
1001
ACAD
1000
ASC_BOUNDS
1002
{
1070
    19
1005
FE7A
1002
}
  0
LINE
  5
FE59
330
FE35
100
AcDbEntity
  8
0
100
AcDbLine
 10
18.59799999998143
 20
3.315799999996671
 30
0.0
 11
20.89099999997916
 21
8.763099999991255
 31
0.0
1001
ACAD
1000
ASC_BOUNDS
1002
{
1070
    19
1005
FE79
1002
}
  0
LINE
  5
FE5A
330
FE35
100
AcDbEntity
  8
0
100
AcDbLine
 10
18.59799999998143
 20
3.315799999996671
 30
0.0
 11
16.46099999998353
 21
8.999899999990987
 31
0.0
1001
ACAD
1000
ASC_BOUNDS
1002
{
1070
    19
1005
FE79
1002
}
  0
LINE
  5
FE5B
330
FE35
100
AcDbEntity
  8
0
100
AcDbLine
 10
20.89099999997916
 20
8.763099999991255
 30
0.0
 11
22.38199999997767
 21
8.763099999991255
 31
0.0
1001
ACAD
1000
ASC_BOUNDS
1002
{
1070
    19
1005
FE79
1002
}
  0
LINE
  5
FE5C
330
FE35
100
AcDbEntity
  8
0
100
AcDbLine
 10
24.39299999997559
 20
3.670999999996297
 30
0.0
 11
23.56599999997638
 21
5.5200999999945
 31
0.0
1001
ACAD
1000
ASC_BOUNDS
1002
{
1070
    19
1005
FE7A
1002
}
  0
LINE
  5
FE5D
330
FE35
100
AcDbEntity
  8
0
100
AcDbLine
 10
44.99999999995498
 20
-0.2368999999997641
 30
0.0
 11
40.02599999995994
 21
5.341799999994635
 31
0.0
1001
ACAD
1000
ASC_BOUNDS
1002
{
1070
    19
1005
FE7C
1002
}
  0
LINE
  5
FE5E
330
FE35
100
AcDbEntity
  8
0
100
AcDbLine
 10
40.02599999995994
 20
5.341799999994635
 30
0.0
 11
40.02599999995994
 21
0.0
 31
0.0
1001
ACAD
1000
ASC_BOUNDS
1002
{
1070
    19
1005
FE7C
1002
}
  0
LINE
  5
FE5F
330
FE35
100
AcDbEntity
  8
0
100
AcDbLine
 10
38.60499999996136
 20
8.999999999991019
 30
0.0
 11
38.60499999996136
 21
0.0
 31
0.0
1001
ACAD
1000
ASC_BOUNDS
1002
{
1070
    19
1005
FE7C
1002
}
  0
LINE
  5
FE60
330
FE35
100
AcDbEntity
  8
0
100
AcDbLine
 10
44.99999999995498
 20
8.763099999991255
 30
0.0
 11
44.99999999995498
 21
-0.2368999999997641
 31
0.0
1001
ACAD
1000
ASC_BOUNDS
1002
{
1070
    19
1005
FE7C
1002
}
  0
LINE
  5
FE61
330
FE35
100
AcDbEntity
  8
0
100
AcDbLine
 10
38.60499999996136
 20
0.0
 30
0.0
 11
40.02599999995994
 21
0.0
 31
0.0
1001
ACAD
1000
ASC_BOUNDS
1002
{
1070
    19
1005
FE7C
1002
}
  0
LINE
  5
FE62
330
FE35
100
AcDbEntity
  8
0
100
AcDbLine
 10
43.57899999995641
 20
3.421199999996588
 30
0.0
 11
38.60499999996136
 21
8.999899999990987
 31
0.0
1001
ACAD
1000
ASC_BOUNDS
1002
{
1070
    19
1005
FE7C
1002
}
  0
LINE
  5
FE63
330
FE35
100
AcDbEntity
  8
0
100
AcDbLine
 10
43.57899999995641
 20
8.763099999991255
 30
0.0
 11
43.57899999995641
 21
3.421199999996588
 31
0.0
1001
ACAD
1000
ASC_BOUNDS
1002
{
1070
    19
1005
FE7C
1002
}
  0
LINE
  5
FE64
330
FE35
100
AcDbEntity
  8
0
100
AcDbLine
 10
43.57899999995641
 20
8.763099999991255
 30
0.0
 11
44.99999999995498
 21
8.763099999991255
 31
0.0
1001
ACAD
1000
ASC_BOUNDS
1002
{
1070
    19
1005
FE7C
1002
}
  0
LINE
  5
FE65
330
FE35
100
AcDbEntity
  8
0
100
AcDbLine
 10
37.67199999996831
 20
8.763099999991255
 30
0.0
 11
36.23199999996837
 21
8.763099999991255
 31
0.0
  0
LINE
  5
FE66
330
FE35
100
AcDbEntity
  8
0
100
AcDbLine
 10
31.64199999996833
 20
8.763099999991255
 30
0.0
 11
31.64199999996833
 21
2.481619422925121
 31
0.0
  0
LINE
  5
FE67
330
FE35
100
AcDbEntity
  8
0
100
AcDbLine
 10
37.67199999996831
 20
8.763099999991255
 30
0.0
 11
37.67199999996831
 21
2.481619422925121
 31
0.0
  0
LINE
  5
FE68
330
FE35
100
AcDbEntity
  8
0
100
AcDbLine
 10
36.23199999996837
 20
8.763099999991255
 30
0.0
 11
36.23199999996837
 21
2.481619422925064
 31
0.0
  0
LINE
  5
FE69
330
FE35
100
AcDbEntity
  8
0
100
AcDbLine
 10
33.08199999996839
 20
8.763099999991255
 30
0.0
 11
33.08199999996839
 21
2.481619422925121
 31
0.0
  0
ARC
  5
FE6A
330
FE35
100
AcDbEntity
  8
0
100
AcDbCircle
 10
34.65699999996832
 20
3.183099999991214
 30
0.0
 40
3.420000000000007
100
AcDbArc
 50
240.0000000000255
 51
299.9999999999766
  0
ARC
  5
FE6B
330
FE35
100
AcDbEntity
  8
0
100
AcDbCircle
 10
34.65699999996832
 20
3.183099999991214
 30
0.0
 40
1.97999999999999
100
AcDbArc
 50
240.000000000026
 51
299.9999999999703
  0
LINE
  5
FE6C
330
FE35
100
AcDbEntity
  8
0
100
AcDbLine
 10
33.08199999996828
 20
8.763099999991255
 30
0.0
 11
31.64199999996833
 21
8.763099999991255
 31
0.0
  0
ARC
  5
FE6D
330
FE35
100
AcDbEntity
  8
0
100
AcDbCircle
 10
35.06199999996829
 20
2.481619422925064
 30
0.0
 40
1.17
100
AcDbArc
 50
299.9999999999699
 51
0.0
  0
ARC
  5
FE6E
330
FE35
100
AcDbEntity
  8
0
100
AcDbCircle
 10
34.25199999996835
 20
2.481619422925121
 30
0.0
 40
1.17
100
AcDbArc
 50
180.0
 51
240.0000000000238
  0
ARC
  5
FE6F
330
FE35
100
AcDbEntity
  8
0
100
AcDbCircle
 10
35.06199999996841
 20
2.481619422925121
 30
0.0
 40
2.61
100
AcDbArc
 50
299.9999999999756
 51
0.0
  0
ARC
  5
FE70
330
FE35
100
AcDbEntity
  8
0
100
AcDbCircle
 10
34.25199999996835
 20
2.481619422925121
 30
0.0
 40
2.61
100
AcDbArc
 50
180.0
 51
240.0000000000244
  0
LINE
  5
FE71
330
FE35
100
AcDbEntity
  8
0
100
AcDbLine
 10
29.30199999996933
 20
8.763099999991255
 30
0.0
 11
30.74199999996927
 21
8.763099999991255
 31
0.0
1001
ACAD
1000
ASC_BOUNDS
1002
{
1070
    19
1005
FE7A
1002
}
  0
LINE
  5
FE72
330
FE35
100
AcDbEntity
  8
0
100
AcDbLine
 10
30.74199999996927
 20
8.763099999991255
 30
0.0
 11
30.74199999996927
 21
2.373099999991211
 31
0.0
1001
ACAD
1000
ASC_BOUNDS
1002
{
1070
    19
1005
FE7A
1002
}
  0
LINE
  5
FE73
330
FE35
100
AcDbEntity
  8
0
100
AcDbLine
 10
26.02015566812236
 20
0.0330999999912365
 30
0.0
 11
28.40199999996923
 21
0.0330999999912365
 31
0.0
1001
ACAD
1000
ASC_BOUNDS
1002
{
1070
    19
1005
FE7A
1002
}
  0
LINE
  5
FE74
330
FE35
100
AcDbEntity
  8
0
100
AcDbLine
 10
29.30199999996933
 20
8.763099999991255
 30
0.0
 11
29.30199999996933
 21
2.283099999991236
 31
0.0
1001
ACAD
1000
ASC_BOUNDS
1002
{
1070
    19
1005
FE7A
1002
}
  0
LINE
  5
FE75
330
FE35
100
AcDbEntity
  8
0
100
AcDbLine
 10
26.97358892824991
 20
1.383099999991202
 30
0.0
 11
28.40199999996923
 21
1.383099999991202
 31
0.0
1001
ACAD
1000
ASC_BOUNDS
1002
{
1070
    19
1005
FE7A
1002
}
  0
ARC
  5
FE76
330
FE35
100
AcDbEntity
  8
0
100
AcDbCircle
 10
28.40199999996923
 20
2.283099999991236
 30
0.0
 40
0.9
100
AcDbArc
 50
270.0
 51
0.0
1001
ACAD
1000
ASC_BOUNDS
1002
{
1070
    19
1005
FE7A
1002
}
  0
ARC
  5
FE77
330
FE35
100
AcDbEntity
  8
0
100
AcDbCircle
 10
28.40199999996923
 20
2.373099999991211
 30
0.0
 40
2.34
100
AcDbArc
 50
270.0
 51
0.0
1001
ACAD
1000
ASC_BOUNDS
1002
{
1070
    19
1005
FE7A
1002
}
  0
INSERT
  5
FE78
330
FE35
100
AcDbEntity
  8
0
100
AcDbBlockReference
  2
*X19
 10
0.0
 20
0.0
 30
0.0
1001
ACAD
1000
HATCH
1002
{
1070
    19
1000
ANSI37
1040
0.15
1040
0.0
1000
ASC_BOUNDS
1070
     2
1070
     2
1070
    12
1005
FE37
1005
FE38
1005
FE3F
1005
FE4E
1005
FE51
1005
FE4F
1005
FE40
1005
FE45
1005
FE43
1005
FE47
1005
FE46
1005
FE48
1070
     2
1070
     3
1005
FE53
1005
FE55
1005
FE54
1000
ASC_SEEDPOINT
1011
3.614004224891801
1021
2.996669441146025
1031
0.0
1000
R14_HATCH_DATA
1000
FE78
1011
1.0
1021
0.0
1031
0.0
1011
0.0
1021
1.0
1031
0.0
1011
0.0
1021
0.0
1031
1.0
1040
0.0
1010
0.0
1020
0.0
1030
1.0
1000
ANSI37
1070
     0
1070
     1
1071
        2
1071
        7
1070
     0
1070
     1
1071
       17
1040
13.26299999998673
1040
-0.0001000000000317
1040
9.236999999990758
1040
8.999899999990987
1040
9.236999999990758
1040
8.999999999991019
1040
5.657999999994331
1040
0.9999999999989768
1040
3.181999999996833
1040
4.668599999995308
1040
6.432999999993513
1040
8.763099999991255
1040
4.617999999995391
1040
8.763099999991255
1040
1.420999999998571
1040
4.736799999995242
1040
4.617999999995391
1040
-0.0001000000000317
1040
4.617999999995391
1040
0.0
1040
6.766999999993232
1040
0.0
1040
6.766999999993232
1040
-0.0001000000000317
1040
7.826999999992154
1040
2.368399999997621
1040
10.64699999998936
1040
2.368399999997621
1040
11.70599999998831
1040
-0.0001000000000317
1040
11.70599999998831
1040
0.0
1040
13.26299999998673
1040
0.0
1071
       12
1005
FE37
1005
FE38
1005
FE3F
1005
FE4E
1005
FE51
1005
FE4F
1005
FE40
1005
FE45
1005
FE43
1005
FE47
1005
FE46
1005
FE48
1071
       22
1070
     0
1070
     1
1071
        3
1040
9.236999999990758
1040
5.5200999999945
1040
10.06399999998996
1040
3.670999999996297
1040
8.409999999991555
1040
3.670999999996297
1071
        3
1005
FE53
1005
FE55
1005
FE54
1070
     0
1070
     1
1040
0.0
1040
0.15
1070
     0
1070
     2
1040
0.7853981633974483
1040
49.29960901727088
1040
-10.17736998311392
1040
-0.3367596045400932
1040
0.3367596045400932
1070
     0
1040
2.356194490192345
1040
49.29960901727088
1040
-10.17736998311392
1040
-0.3367596045400932
1040
-0.3367596045400932
1070
     0
1040
0.0110235143455945
1071
        2
1040
3.614004224891801
1040
2.996669441146025
1040
0.0
1040
3.614004224891801
1040
2.996669441146025
1040
0.0
1002
}
  0
INSERT
  5
FE79
330
FE35
100
AcDbEntity
  8
0
100
AcDbBlockReference
  2
*X20
 10
0.0
 20
0.0
 30
0.0
1001
ACAD
1000
HATCH
1002
{
1070
    19
1000
ANSI37
1040
0.15
1040
0.0
1000
ASC_BOUNDS
1070
     1
1070
     2
1070
    10
1005
FE39
1005
FE3A
1005
FE5B
1005
FE59
1005
FE5A
1005
FE4D
1005
FE52
1005
FE56
1005
FE3C
1005
FE3B
1000
ASC_SEEDPOINT
1011
14.73245321214324
1021
2.798246178283421
1031
0.0
1000
R14_HATCH_DATA
1000
FE79
1011
1.0
1021
0.0
1031
0.0
1011
0.0
1021
1.0
1031
0.0
1011
0.0
1021
0.0
1031
1.0
1040
0.0
1010
0.0
1020
0.0
1030
1.0
1000
ANSI37
1070
     0
1070
     1
1071
        1
1071
        7
1070
     0
1070
     1
1071
       10
1040
16.46099999998353
1040
5.432899999994561
1040
18.59199999998134
1040
-0.2368999999997641
1040
22.38199999997767
1040
8.763099999991255
1040
20.89099999997916
1040
8.763099999991255
1040
18.59799999998143
1040
3.315799999996671
1040
16.46099999998353
1040
8.999899999990987
1040
14.32399999998563
1040
3.315799999996671
1040
12.02999999998792
1040
8.763099999991255
1040
10.53899999998941
1040
8.763099999991255
1040
14.32899999998563
1040
-0.2368999999997641
1071
       10
1005
FE39
1005
FE3A
1005
FE5B
1005
FE59
1005
FE5A
1005
FE4D
1005
FE52
1005
FE56
1005
FE3C
1005
FE3B
1070
     0
1070
     1
1040
0.0
1040
0.15
1070
     0
1070
     2
1040
0.7853981633974483
1040
49.29960901727088
1040
-10.17736998311392
1040
-0.3367596045400932
1040
0.3367596045400932
1070
     0
1040
2.356194490192345
1040
49.29960901727088
1040
-10.17736998311392
1040
-0.3367596045400932
1040
-0.3367596045400932
1070
     0
1040
0.0110235143455945
1071
        1
1040
14.73245321214324
1040
2.798246178283421
1040
0.0
1002
}
  0
INSERT
  5
FE7A
330
FE35
100
AcDbEntity
  8
0
100
AcDbBlockReference
  2
*X21
 10
0.0
 20
0.0
 30
0.0
1001
ACAD
1000
HATCH
1002
{
1070
    19
1000
ANSI37
1040
0.15
1040
0.0
1000
ASC_BOUNDS
1070
     2
1070
     2
1070
    13
1005
FE3D
1005
FE4A
1005
FE4B
1005
FE49
1005
FE4C
1005
FE73
1005
FE77
1005
FE72
1005
FE71
1005
FE74
1005
FE76
1005
FE75
1005
FE3E
1070
     2
1070
     3
1005
FE57
1005
FE5C
1005
FE58
1000
ASC_SEEDPOINT
1011
21.97929957367762
1021
3.294304244259308
1031
0.0
1000
R14_HATCH_DATA
1000
FE7A
1011
1.0
1021
0.0
1031
0.0
1011
0.0
1021
1.0
1031
0.0
1011
0.0
1021
0.0
1031
1.0
1040
0.0
1010
0.0
1020
0.0
1030
1.0
1000
ANSI37
1070
     0
1070
     1
1071
        2
1071
        7
1070
     1
1070
     1
1071
       15
1040
23.56599999997638
1040
8.999899999990987
1040
0.0
1040
19.53899999998043
1040
-0.0001000000000317
1040
0.0
1040
19.53899999998043
1040
0.0
1040
0.0
1040
21.09599999997886
1040
0.0
1040
0.0
1040
21.09599999997886
1040
-0.0001000000000317
1040
0.0
1040
22.15599999997789
1040
2.368399999997621
1040
0.0
1040
24.97599999997499
1040
2.368399999997621
1040
0.0
1040
26.02015566812236
1040
0.0330999999912365
1040
0.0
1040
28.40199999996923
1040
0.0330999999912365
1040
0.414213562373095
1040
30.74199999996923
1040
2.373099999991211
1040
0.0
1040
30.74199999996927
1040
8.763099999991255
1040
0.0
1040
29.30199999996933
1040
8.763099999991255
1040
0.0
1040
29.30199999996933
1040
2.283099999991236
1040
-0.414213562373095
1040
28.40199999996923
1040
1.383099999991237
1040
0.0
1040
26.97358892824991
1040
1.383099999991202
1040
0.0
1071
       13
1005
FE3D
1005
FE4A
1005
FE4B
1005
FE49
1005
FE4C
1005
FE73
1005
FE77
1005
FE72
1005
FE71
1005
FE74
1005
FE76
1005
FE75
1005
FE3E
1071
       22
1070
     0
1070
     1
1071
        3
1040
22.7389999999773
1040
3.670999999996297
1040
23.56599999997638
1040
5.5200999999945
1040
24.39299999997559
1040
3.670999999996297
1071
        3
1005
FE57
1005
FE5C
1005
FE58
1070
     0
1070
     1
1040
0.0
1040
0.15
1070
     0
1070
     2
1040
0.7853981633974483
1040
49.29960901727088
1040
-10.17736998311392
1040
-0.3367596045400932
1040
0.3367596045400932
1070
     0
1040
2.356194490192345
1040
49.29960901727088
1040
-10.17736998311392
1040
-0.3367596045400932
1040
-0.3367596045400932
1070
     0
1040
0.0110235143455945
1071
        2
1040
21.97929957367762
1040
3.294304244259308
1040
0.0
1040
21.97929957367762
1040
3.294304244259308
1040
0.0
1002
}
  0
INSERT
  5
FE7B
330
FE35
100
AcDbEntity
  8
0
100
AcDbBlockReference
  2
*X22
 10
0.0
 20
0.0
 30
0.0
1001
ACAD
1000
HATCH
1002
{
1070
    19
1000
ANSI37
1040
0.15
1040
0.0
1000
R14_HATCH_DATA
1000
FE7B
1011
1.0
1021
0.0
1031
0.0
1011
0.0
1021
1.0
1031
0.0
1011
0.0
1021
0.0
1031
1.0
1040
0.0
1010
0.0
1020
0.0
1030
1.0
1000
ANSI37
1070
     0
1070
     1
1071
        1
1071
        7
1070
     1
1070
     1
1071
       12
1040
31.64199999996833
1040
2.481619422925121
1040
0.2679491924310942
1040
32.94699999997067
1040
0.2212931190493919
1040
0.2679491924301353
1040
36.36699999995983
1040
0.2212931190459813
1040
0.2679491924321411
1040
37.67199999996831
1040
2.481619422928361
1040
0.0
1040
37.67199999996831
1040
8.763099999991255
1040
0.0
1040
36.23199999996837
1040
8.763099999991255
1040
0.0
1040
36.23199999996837
1040
2.481619422925064
1040
-0.2679491924310291
1040
35.64699999996708
1040
1.468369700498386
1040
-0.267949192430519
1040
33.66699999997093
1040
1.468369700497703
1040
-0.267949192431809
1040
33.08199999996839
1040
2.481619422926997
1040
0.0
1040
33.08199999996839
1040
8.763099999991255
1040
0.0
1040
31.64199999996833
1040
8.763099999991255
1040
0.0
1071
        0
1070
     0
1070
     1
1040
0.0
1040
0.15
1070
     0
1070
     2
1040
0.7853981633974483
1040
49.29960901727088
1040
-10.17736998311392
1040
-0.3367596045400932
1040
0.3367596045400932
1070
     0
1040
2.356194490192345
1040
49.29960901727088
1040
-10.17736998311392
1040
-0.3367596045400932
1040
-0.3367596045400932
1070
     0
1040
0.0110235143455945
1071
        1
1040
32.30357378967278
1040
3.988785755459219
1040
0.0
1002
}
  0
INSERT
  5
FE7C
330
FE35
100
AcDbEntity
  8
0
100
AcDbBlockReference
  2
*X23
 10
0.0
 20
0.0
 30
0.0
1001
ACAD
1000
HATCH
1002
{
1070
    19
1000
ANSI37
1040
0.15
1040
0.0
1000
ASC_BOUNDS
1070
     1
1070
     2
1070
     8
1005
FE5D
1005
FE60
1005
FE64
1005
FE63
1005
FE62
1005
FE5F
1005
FE61
1005
FE5E
1000
ASC_SEEDPOINT
1011
39.74896370716704
1021
4.484843821435049
1031
0.0
1000
R14_HATCH_DATA
1000
FE7C
1011
1.0
1021
0.0
1031
0.0
1011
0.0
1021
1.0
1031
0.0
1011
0.0
1021
0.0
1031
1.0
1040
0.0
1010
0.0
1020
0.0
1030
1.0
1000
ANSI37
1070
     0
1070
     1
1071
        1
1071
        7
1070
     0
1070
     1
1071
        9
1040
40.02599999995994
1040
5.341799999994635
1040
44.99999999995498
1040
-0.2368999999997641
1040
44.99999999995498
1040
8.763099999991255
1040
43.57899999995641
1040
8.763099999991255
1040
43.57899999995641
1040
3.421199999996588
1040
38.60499999996136
1040
8.999899999990987
1040
38.60499999996136
1040
8.999999999991019
1040
38.60499999996136
1040
0.0
1040
40.02599999995994
1040
0.0
1071
        8
1005
FE5D
1005
FE60
1005
FE64
1005
FE63
1005
FE62
1005
FE5F
1005
FE61
1005
FE5E
1070
     0
1070
     1
1040
0.0
1040
0.15
1070
     0
1070
     2
1040
0.7853981633974483
1040
49.29960901727088
1040
-10.17736998311392
1040
-0.3367596045400932
1040
0.3367596045400932
1070
     0
1040
2.356194490192345
1040
49.29960901727088
1040
-10.17736998311392
1040
-0.3367596045400932
1040
-0.3367596045400932
1070
     0
1040
0.0110235143455945
1071
        1
1040
39.74896370716704
1040
4.484843821435049
1040
0.0
1002
}
  0
INSERT
  5
FE7D
330
FE35
100
AcDbEntity
  8
0
100
AcDbBlockReference
  2
*X24
 10
0.0
 20
0.0
 30
0.0
1001
ACAD
1000
HATCH
1002
{
1070
    19
1000
ANSI37
1040
0.15
1040
0.0
1000
ASC_BOUNDS
1070
     1
1070
     2
1070
     4
1005
FE41
1005
FE50
1005
FE42
1005
FE44
1000
ASC_SEEDPOINT
1011
1.079051535452663
1021
4.148538732891836
1031
0.0
1000
R14_HATCH_DATA
1000
FE7D
1011
1.0
1021
0.0
1031
0.0
1011
0.0
1021
1.0
1031
0.0
1011
0.0
1021
0.0
1031
1.0
1040
0.0
1010
0.0
1020
0.0
1030
1.0
1000
ANSI37
1070
     0
1070
     1
1071
        1
1071
        7
1070
     0
1070
     1
1071
        4
1040
1.420999999998571
1040
0.0
1040
1.420999999998571
1040
8.763099999991255
1040
0.0
1040
8.763099999991255
1040
0.0
1040
0.0
1071
        4
1005
FE41
1005
FE50
1005
FE42
1005
FE44
1070
     0
1070
     1
1040
0.0
1040
0.15
1070
     0
1070
     2
1040
0.7853981633974483
1040
49.29960901727088
1040
-10.17736998311392
1040
-0.3367596045400932
1040
0.3367596045400932
1070
     0
1040
2.356194490192345
1040
49.29960901727088
1040
-10.17736998311392
1040
-0.3367596045400932
1040
-0.3367596045400932
1070
     0
1040
0.0053004257112761
1071
        1
1040
1.079051535452663
1040
4.148538732891836
1040
0.0
1002
}
  0
ENDBLK
  5
FE7E
330
FE35
100
AcDbEntity
  8
0
100
AcDbBlockEnd
  0
BLOCK
  5
105A9
330
1041B
100
AcDbEntity
  8
0
100
AcDbBlockBegin
  2
*X19
 70
     1
 10
0.0
 20
0.0
 30
0.0
  3
*X19
  1

  0
LINE
  5
1041C
330
1041B
100
AcDbEntity
  8
0
  6
CONTINUOUS
100
AcDbLine
 10
3.418023043697893
 20
7.251849696850613
 30
0.0
 11
4.929273346838536
 21
8.763099999991255
 31
0.0
  0
LINE
  5
1041D
330
1041B
100
AcDbEntity
  8
0
  6
CONTINUOUS
100
AcDbLine
 10
1.483656411257782
 20
4.643963855330318
 30
0.0
 11
5.60279255591872
 21
8.763099999991255
 31
0.0
  0
LINE
  5
1041E
330
1041B
100
AcDbEntity
  8
0
  6
CONTINUOUS
100
AcDbLine
 10
1.755053947328235
 20
4.241842182320584
 30
0.0
 11
6.276311764998907
 21
8.763099999991255
 31
0.0
  0
LINE
  5
1041F
330
1041B
100
AcDbEntity
  8
0
  6
CONTINUOUS
100
AcDbLine
 10
2.026451483398688
 20
3.839720509310849
 30
0.0
 11
4.441040904851878
 21
6.254309930764039
 31
0.0
  0
LINE
  5
10420
330
1041B
100
AcDbEntity
  8
0
  6
CONTINUOUS
100
AcDbLine
 10
2.297849019469139
 20
3.437598836301114
 30
0.0
 11
3.321765168359338
 21
4.461514985191313
 31
0.0
  0
LINE
  5
10421
330
1041B
100
AcDbEntity
  8
0
  6
CONTINUOUS
100
AcDbLine
 10
2.569246555539591
 20
3.03547716329138
 30
0.0
 11
3.593163397972743
 21
4.059394005724531
 31
0.0
  0
LINE
  5
10422
330
1041B
100
AcDbEntity
  8
0
  6
CONTINUOUS
100
AcDbLine
 10
2.840644091610043
 20
2.633355490281646
 30
0.0
 11
3.864561627586149
 21
3.657273026257751
 31
0.0
  0
LINE
  5
10423
330
1041B
100
AcDbEntity
  8
0
  6
CONTINUOUS
100
AcDbLine
 10
3.112041627680496
 20
2.231233817271911
 30
0.0
 11
4.135959857199554
 21
3.25515204679097
 31
0.0
  0
LINE
  5
10424
330
1041B
100
AcDbEntity
  8
0
  6
CONTINUOUS
100
AcDbLine
 10
3.383439163750948
 20
1.829112144262177
 30
0.0
 11
4.40735808681296
 21
2.853031067324189
 31
0.0
  0
LINE
  5
10425
330
1041B
100
AcDbEntity
  8
0
  6
CONTINUOUS
100
AcDbLine
 10
3.654836699821399
 20
1.426990471252442
 30
0.0
 11
4.678756316426365
 21
2.450910087857407
 31
0.0
  0
LINE
  5
10426
330
1041B
100
AcDbEntity
  8
0
  6
CONTINUOUS
100
AcDbLine
 10
3.926234235891853
 20
1.024868798242709
 30
0.0
 11
4.95015454603977
 21
2.048789108390626
 31
0.0
  0
LINE
  5
10427
330
1041B
100
AcDbEntity
  8
0
  6
CONTINUOUS
100
AcDbLine
 10
4.197631771962304
 20
0.6227471252329737
 30
0.0
 11
5.221552775653176
 21
1.646668128923846
 31
0.0
  0
LINE
  5
10428
330
1041B
100
AcDbEntity
  8
0
  6
CONTINUOUS
100
AcDbLine
 10
8.715877546767851
 20
7.835069736359266
 30
0.0
 11
9.435953450375058
 21
8.555145639966472
 31
0.0
  0
LINE
  5
10429
330
1041B
100
AcDbEntity
  8
0
  6
CONTINUOUS
100
AcDbLine
 10
8.170620868422267
 20
6.616293848933497
 30
0.0
 11
9.644120833743461
 21
8.08979381425469
 31
0.0
  0
LINE
  5
1042A
330
1041B
100
AcDbEntity
  8
0
  6
CONTINUOUS
100
AcDbLine
 10
7.625364190076684
 20
5.397517961507727
 30
0.0
 11
9.852288217111864
 21
7.624441988542907
 31
0.0
  0
LINE
  5
1042B
330
1041B
100
AcDbEntity
  8
0
  6
CONTINUOUS
100
AcDbLine
 10
7.080107511731101
 20
4.178742074081957
 30
0.0
 11
10.06045560048027
 21
7.159090162831124
 31
0.0
  0
LINE
  5
1042C
330
1041B
100
AcDbEntity
  8
0
  6
CONTINUOUS
100
AcDbLine
 10
6.534850833385518
 20
2.959966186656187
 30
0.0
 11
10.26862298384867
 21
6.693738337119342
 31
0.0
  0
LINE
  5
1042D
330
1041B
100
AcDbEntity
  8
0
  6
CONTINUOUS
100
AcDbLine
 10
4.469029308032756
 20
0.2206254522232385
 30
0.0
 11
5.492951005266582
 21
1.244547149457064
 31
0.0
  0
LINE
  5
1042E
330
1041B
100
AcDbEntity
  8
0
  6
CONTINUOUS
100
AcDbLine
 10
5.989594155039935
 20
1.741190299230417
 30
0.0
 11
8.806950407233131
 21
4.558546551423613
 31
0.0
  0
LINE
  5
1042F
330
1041B
100
AcDbEntity
  8
0
  6
CONTINUOUS
100
AcDbLine
 10
9.401251593263643
 20
5.152847737454126
 30
0.0
 11
10.47679036721708
 21
6.228386511407559
 31
0.0
  0
LINE
  5
10430
330
1041B
100
AcDbEntity
  8
0
  6
CONTINUOUS
100
AcDbLine
 10
4.921837203428691
 20
-0.0000858614610131
 30
0.0
 11
8.592923064886001
 21
3.670999999996297
 31
0.0
  0
LINE
  5
10431
330
1041B
100
AcDbEntity
  8
0
  6
CONTINUOUS
100
AcDbLine
 10
9.609390446785305
 20
4.6874673818956
 30
0.0
 11
10.68495775058548
 21
5.763034685695775
 31
0.0
  0
LINE
  5
10432
330
1041B
100
AcDbEntity
  8
0
  6
CONTINUOUS
100
AcDbLine
 10
5.595387755019432
 20
-0.0000545189504582
 30
0.0
 11
7.716137258923768
 21
2.120694984953879
 31
0.0
  0
LINE
  5
10433
330
1041B
100
AcDbEntity
  8
0
  6
CONTINUOUS
100
AcDbLine
 10
6.268938306610172
 20
-0.000023176439905
 30
0.0
 11
7.170485805526503
 21
0.9015243224764267
 31
0.0
  0
LINE
  5
10434
330
1041B
100
AcDbEntity
  8
0
  6
CONTINUOUS
100
AcDbLine
 10
7.963842273967511
 20
2.368399999997621
 30
0.0
 11
9.266442273966188
 21
3.670999999996297
 31
0.0
  0
LINE
  5
10435
330
1041B
100
AcDbEntity
  8
0
  6
CONTINUOUS
100
AcDbLine
 10
8.637361483047696
 20
2.368399999997621
 30
0.0
 11
9.939961483046375
 21
3.670999999996297
 31
0.0
  0
LINE
  5
10436
330
1041B
100
AcDbEntity
  8
0
  6
CONTINUOUS
100
AcDbLine
 10
9.817529300306965
 20
4.222087026337075
 30
0.0
 11
10.89312513395388
 21
5.297682859983993
 31
0.0
  0
LINE
  5
10437
330
1041B
100
AcDbEntity
  8
0
  6
CONTINUOUS
100
AcDbLine
 10
10.02566815382863
 20
3.756706670778549
 30
0.0
 11
11.10129251732229
 21
4.832331034272211
 31
0.0
  0
LINE
  5
10438
330
1041B
100
AcDbEntity
  8
0
  6
CONTINUOUS
100
AcDbLine
 10
9.310880692127883
 20
2.368399999997621
 30
0.0
 11
11.30945990069069
 21
4.366979208560428
 31
0.0
  0
LINE
  5
10439
330
1041B
100
AcDbEntity
  8
0
  6
CONTINUOUS
100
AcDbLine
 10
9.98439990120807
 20
2.36839999999762
 30
0.0
 11
11.5176272840591
 21
3.901627382848645
 31
0.0
  0
LINE
  5
1043A
330
1041B
100
AcDbEntity
  8
0
  6
CONTINUOUS
100
AcDbLine
 10
10.65037369446246
 20
2.36085458417182
 30
0.0
 11
11.7257946674275
 21
3.436275557136862
 31
0.0
  0
LINE
  5
1043B
330
1041B
100
AcDbEntity
  8
0
  6
CONTINUOUS
100
AcDbLine
 10
10.85847197087848
 20
1.895433651507656
 30
0.0
 11
11.9339620507959
 21
2.97092373142508
 31
0.0
  0
LINE
  5
1043C
330
1041B
100
AcDbEntity
  8
0
  6
CONTINUOUS
100
AcDbLine
 10
11.0665702472945
 20
1.430012718843491
 30
0.0
 11
12.14212943416431
 21
2.505571905713296
 31
0.0
  0
LINE
  5
1043D
330
1041B
100
AcDbEntity
  8
0
  6
CONTINUOUS
100
AcDbLine
 10
11.27466852371052
 20
0.9645917861793256
 30
0.0
 11
12.35029681753271
 21
2.040220080001513
 31
0.0
  0
LINE
  5
1043E
330
1041B
100
AcDbEntity
  8
0
  6
CONTINUOUS
100
AcDbLine
 10
11.48276680012654
 20
0.4991708535151611
 30
0.0
 11
12.55846420090111
 21
1.57486825428973
 31
0.0
  0
LINE
  5
1043F
330
1041B
100
AcDbEntity
  8
0
  6
CONTINUOUS
100
AcDbLine
 10
11.69086507654257
 20
0.0337499208509957
 30
0.0
 11
12.76663158426952
 21
1.109516428577947
 31
0.0
  0
LINE
  5
10440
330
1041B
100
AcDbEntity
  8
0
  6
CONTINUOUS
100
AcDbLine
 10
12.33057447873954
 20
-0.0000598860322123
 30
0.0
 11
12.97479896763792
 21
0.6441646028661663
 31
0.0
  0
LINE
  5
10441
330
1041B
100
AcDbEntity
  8
0
  6
CONTINUOUS
100
AcDbLine
 10
13.00413694809395
 20
-0.0000166257579952
 30
0.0
 11
13.18296635100632
 21
0.1788127771543824
 31
0.0
  0
LINE
  5
10442
330
1041B
100
AcDbEntity
  8
0
  6
CONTINUOUS
100
AcDbLine
 10
4.772852165289667
 20
-0.000092794222212
 30
0.0
 11
4.296495091028902
 21
0.4762642800385528
 31
0.0
  0
LINE
  5
10443
330
1041B
100
AcDbEntity
  8
0
  6
CONTINUOUS
100
AcDbLine
 10
5.446340034776103
 20
-0.0000614546284616
 30
0.0
 11
2.898195908335625
 21
2.548082671812017
 31
0.0
  0
LINE
  5
10444
330
1041B
100
AcDbEntity
  8
0
  6
CONTINUOUS
100
AcDbLine
 10
6.119827904262539
 20
-0.0000301150347113
 30
0.0
 11
1.499896725642348
 21
4.61990106358548
 31
0.0
  0
LINE
  5
10445
330
1041B
100
AcDbEntity
  8
0
  6
CONTINUOUS
100
AcDbLine
 10
6.775136745476159
 20
0.0181802528318542
 30
0.0
 11
5.699826040202669
 21
1.093490958105344
 31
0.0
  0
LINE
  5
10446
330
1041B
100
AcDbEntity
  8
0
  6
CONTINUOUS
100
AcDbLine
 10
6.983376846288489
 20
0.4834593610997118
 30
0.0
 11
5.908008617934405
 21
1.558827589453796
 31
0.0
  0
LINE
  5
10447
330
1041B
100
AcDbEntity
  8
0
  6
CONTINUOUS
100
AcDbLine
 10
5.377063484962296
 20
1.416253513345719
 30
0.0
 11
1.702276957014131
 21
5.091040041293883
 31
0.0
  0
LINE
  5
10448
330
1041B
100
AcDbEntity
  8
0
  6
CONTINUOUS
100
AcDbLine
 10
3.978745891735324
 20
3.488090315652877
 30
0.0
 11
2.000373521109399
 21
5.466462686278803
 31
0.0
  0
LINE
  5
10449
330
1041B
100
AcDbEntity
  8
0
  6
CONTINUOUS
100
AcDbLine
 10
7.191616947100819
 20
0.948738469367568
 30
0.0
 11
6.11619119566614
 21
2.024164220802247
 31
0.0
  0
LINE
  5
1044A
330
1041B
100
AcDbEntity
  8
0
  6
CONTINUOUS
100
AcDbLine
 10
7.399857047913149
 20
1.414017577635424
 30
0.0
 11
6.324373773397875
 21
2.489500852150698
 31
0.0
  0
LINE
  5
1044B
330
1041B
100
AcDbEntity
  8
0
  6
CONTINUOUS
100
AcDbLine
 10
7.608097148725479
 20
1.879296685903281
 30
0.0
 11
6.53255635112961
 21
2.95483748349915
 31
0.0
  0
LINE
  5
1044C
330
1041B
100
AcDbEntity
  8
0
  6
CONTINUOUS
100
AcDbLine
 10
7.816337249537808
 20
2.344575794171138
 30
0.0
 11
6.740738928861345
 21
3.420174114847601
 31
0.0
  0
LINE
  5
1044D
330
1041B
100
AcDbEntity
  8
0
  6
CONTINUOUS
100
AcDbLine
 10
3.310241080789734
 20
4.830114335678653
 30
0.0
 11
2.298470085204666
 21
5.84188533126372
 31
0.0
  0
LINE
  5
1044E
330
1041B
100
AcDbEntity
  8
0
  6
CONTINUOUS
100
AcDbLine
 10
3.60832983563551
 20
5.205544789913063
 30
0.0
 11
2.596566649299935
 21
6.217307976248638
 31
0.0
  0
LINE
  5
1044F
330
1041B
100
AcDbEntity
  8
0
  6
CONTINUOUS
100
AcDbLine
 10
3.906418590481286
 20
5.580975244147473
 30
0.0
 11
2.894663213395203
 21
6.592730621233557
 31
0.0
  0
LINE
  5
10450
330
1041B
100
AcDbEntity
  8
0
  6
CONTINUOUS
100
AcDbLine
 10
4.204507345327062
 20
5.956405698381884
 30
0.0
 11
3.192759777490472
 21
6.968153266218474
 31
0.0
  0
LINE
  5
10451
330
1041B
100
AcDbEntity
  8
0
  6
CONTINUOUS
100
AcDbLine
 10
8.466032252791512
 20
2.368399999997621
 30
0.0
 11
6.948921506593081
 21
3.885510746196053
 31
0.0
  0
LINE
  5
10452
330
1041B
100
AcDbEntity
  8
0
  6
CONTINUOUS
100
AcDbLine
 10
9.139551461871699
 20
2.36839999999762
 30
0.0
 11
7.157104084324816
 21
4.350847377544504
 31
0.0
  0
LINE
  5
10453
330
1041B
100
AcDbEntity
  8
0
  6
CONTINUOUS
100
AcDbLine
 10
4.502596100172839
 20
6.331836152616295
 30
0.0
 11
3.49085634158574
 21
7.343575911203393
 31
0.0
  0
LINE
  5
10454
330
1041B
100
AcDbEntity
  8
0
  6
CONTINUOUS
100
AcDbLine
 10
4.800684855018615
 20
6.707266606850705
 30
0.0
 11
3.788952905681008
 21
7.718998556188312
 31
0.0
  0
LINE
  5
10455
330
1041B
100
AcDbEntity
  8
0
  6
CONTINUOUS
100
AcDbLine
 10
12.18154012887317
 20
-0.0000694579236642
 30
0.0
 11
11.32140332908496
 21
0.8600673418645499
 31
0.0
  0
LINE
  5
10456
330
1041B
100
AcDbEntity
  8
0
  6
CONTINUOUS
100
AcDbLine
 10
12.85501608323566
 20
-0.0000262032059659
 30
0.0
 11
10.77672456435345
 21
2.078265315676246
 31
0.0
  0
LINE
  5
10457
330
1041B
100
AcDbEntity
  8
0
  6
CONTINUOUS
100
AcDbLine
 10
9.813070670951886
 20
2.36839999999762
 30
0.0
 11
8.51047067095321
 21
3.670999999996297
 31
0.0
  0
LINE
  5
10458
330
1041B
100
AcDbEntity
  8
0
  6
CONTINUOUS
100
AcDbLine
 10
10.48658988003207
 20
2.36839999999762
 30
0.0
 11
9.183989880033396
 21
3.670999999996297
 31
0.0
  0
LINE
  5
10459
330
1041B
100
AcDbEntity
  8
0
  6
CONTINUOUS
100
AcDbLine
 10
8.441048632286794
 20
3.740422038662712
 30
0.0
 11
7.365286662056551
 21
4.816184008892956
 31
0.0
  0
LINE
  5
1045A
330
1041B
100
AcDbEntity
  8
0
  6
CONTINUOUS
100
AcDbLine
 10
8.649187485808454
 20
4.205802394221237
 30
0.0
 11
7.573469239788285
 21
5.281520640241407
 31
0.0
  0
LINE
  5
1045B
330
1041B
100
AcDbEntity
  8
0
  6
CONTINUOUS
100
AcDbLine
 10
5.098773609864391
 20
7.082697061085115
 30
0.0
 11
4.087049469776277
 21
8.09442120117323
 31
0.0
  0
LINE
  5
1045C
330
1041B
100
AcDbEntity
  8
0
  6
CONTINUOUS
100
AcDbLine
 10
5.396862364710167
 20
7.458127515319526
 30
0.0
 11
4.385146033871544
 21
8.469843846158149
 31
0.0
  0
LINE
  5
1045D
330
1041B
100
AcDbEntity
  8
0
  6
CONTINUOUS
100
AcDbLine
 10
13.04801363231285
 20
0.4804954567970334
 30
0.0
 11
9.85750908911358
 21
3.670999999996297
 31
0.0
  0
LINE
  5
1045E
330
1041B
100
AcDbEntity
  8
0
  6
CONTINUOUS
100
AcDbLine
 10
8.857326339330116
 20
4.671182749779763
 30
0.0
 11
7.781651817520021
 21
5.746857271589858
 31
0.0
  0
LINE
  5
1045F
330
1041B
100
AcDbEntity
  8
0
  6
CONTINUOUS
100
AcDbLine
 10
5.694951119555943
 20
7.833557969553937
 30
0.0
 11
4.765409089118624
 21
8.763099999991255
 31
0.0
  0
LINE
  5
10460
330
1041B
100
AcDbEntity
  8
0
  6
CONTINUOUS
100
AcDbLine
 10
12.50286117236978
 20
1.699167125820288
 30
0.0
 11
9.68611877250287
 21
4.515909525687196
 31
0.0
  0
LINE
  5
10461
330
1041B
100
AcDbEntity
  8
0
  6
CONTINUOUS
100
AcDbLine
 10
9.065465192851777
 20
5.136563105338288
 30
0.0
 11
7.989834395251757
 21
6.21219390293831
 31
0.0
  0
LINE
  5
10462
330
1041B
100
AcDbEntity
  8
0
  6
CONTINUOUS
100
AcDbLine
 10
5.993039874401719
 20
8.208988423788346
 30
0.0
 11
5.43892829819881
 21
8.763099999991255
 31
0.0
  0
LINE
  5
10463
330
1041B
100
AcDbEntity
  8
0
  6
CONTINUOUS
100
AcDbLine
 10
11.95770871242671
 20
2.917838794843543
 30
0.0
 11
8.19801697298349
 21
6.677530534286761
 31
0.0
  0
LINE
  5
10464
330
1041B
100
AcDbEntity
  8
0
  6
CONTINUOUS
100
AcDbLine
 10
6.291128629247495
 20
8.584418878022756
 30
0.0
 11
6.112447507278997
 21
8.763099999991255
 31
0.0
  0
LINE
  5
10465
330
1041B
100
AcDbEntity
  8
0
  6
CONTINUOUS
100
AcDbLine
 10
11.41255625248364
 20
4.136510463866797
 30
0.0
 11
8.406199550715227
 21
7.142867165635211
 31
0.0
  0
LINE
  5
10466
330
1041B
100
AcDbEntity
  8
0
  6
CONTINUOUS
100
AcDbLine
 10
10.86740379254057
 20
5.355182132890051
 30
0.0
 11
8.614382128446962
 21
7.608203796983664
 31
0.0
  0
LINE
  5
10467
330
1041B
100
AcDbEntity
  8
0
  6
CONTINUOUS
100
AcDbLine
 10
10.3222513325975
 20
6.573853801913305
 30
0.0
 11
8.822564706178696
 21
8.073540428332114
 31
0.0
  0
LINE
  5
10468
330
1041B
100
AcDbEntity
  8
0
  6
CONTINUOUS
100
AcDbLine
 10
9.777098872654436
 20
7.792525470936562
 30
0.0
 11
9.030747283910433
 21
8.538877059680566
 31
0.0
  0
ENDBLK
  5
105AA
330
1041B
100
AcDbEntity
  8
0
100
AcDbBlockEnd
  0
BLOCK
  5
105AB
330
10469
100
AcDbEntity
  8
0
100
AcDbBlockBegin
  2
*X20
 70
     1
 10
0.0
 20
0.0
 30
0.0
  3
*X20
  1

  0
LINE
  5
1046A
330
10469
100
AcDbEntity
  8
0
  6
CONTINUOUS
100
AcDbLine
 10
10.67292308101235
 20
8.445076852443387
 30
0.0
 11
10.99094622856022
 21
8.763099999991255
 31
0.0
  0
LINE
  5
1046B
330
10469
100
AcDbEntity
  8
0
  6
CONTINUOUS
100
AcDbLine
 10
10.87250383178748
 20
7.971138394138331
 30
0.0
 11
11.6644654376404
 21
8.763099999991255
 31
0.0
  0
LINE
  5
1046C
330
10469
100
AcDbEntity
  8
0
  6
CONTINUOUS
100
AcDbLine
 10
11.07208458256261
 20
7.497199935833273
 30
0.0
 11
12.12126590876355
 21
8.546381262034211
 31
0.0
  0
LINE
  5
1046D
330
10469
100
AcDbEntity
  8
0
  6
CONTINUOUS
100
AcDbLine
 10
11.27166533333774
 20
7.023261477528216
 30
0.0
 11
12.32085164573666
 21
8.072447789927136
 31
0.0
  0
LINE
  5
1046E
330
10469
100
AcDbEntity
  8
0
  6
CONTINUOUS
100
AcDbLine
 10
11.47124608411287
 20
6.549323019223158
 30
0.0
 11
12.52043738270977
 21
7.59851431782006
 31
0.0
  0
LINE
  5
1046F
330
10469
100
AcDbEntity
  8
0
  6
CONTINUOUS
100
AcDbLine
 10
11.670826834888
 20
6.075384560918101
 30
0.0
 11
12.72002311968288
 21
7.124580845712984
 31
0.0
  0
LINE
  5
10470
330
10469
100
AcDbEntity
  8
0
  6
CONTINUOUS
100
AcDbLine
 10
11.87040758566313
 20
5.601446102613043
 30
0.0
 11
12.91960885665599
 21
6.650647373605907
 31
0.0
  0
LINE
  5
10471
330
10469
100
AcDbEntity
  8
0
  6
CONTINUOUS
100
AcDbLine
 10
12.06998833643825
 20
5.127507644307986
 30
0.0
 11
13.1191945936291
 21
6.176713901498832
 31
0.0
  0
LINE
  5
10472
330
10469
100
AcDbEntity
  8
0
  6
CONTINUOUS
100
AcDbLine
 10
12.26956908721338
 20
4.65356918600293
 30
0.0
 11
13.31878033060221
 21
5.702780429391757
 31
0.0
  0
LINE
  5
10473
330
10469
100
AcDbEntity
  8
0
  6
CONTINUOUS
100
AcDbLine
 10
12.46914983798851
 20
4.179630727697873
 30
0.0
 11
13.51836606757532
 21
5.228846957284683
 31
0.0
  0
LINE
  5
10474
330
10469
100
AcDbEntity
  8
0
  6
CONTINUOUS
100
AcDbLine
 10
12.66873058876364
 20
3.705692269392816
 30
0.0
 11
13.71795180454843
 21
4.754913485177607
 31
0.0
  0
LINE
  5
10475
330
10469
100
AcDbEntity
  8
0
  6
CONTINUOUS
100
AcDbLine
 10
12.86831133953877
 20
3.231753811087759
 30
0.0
 11
13.91753754152154
 21
4.280980013070531
 31
0.0
  0
LINE
  5
10476
330
10469
100
AcDbEntity
  8
0
  6
CONTINUOUS
100
AcDbLine
 10
13.0678920903139
 20
2.757815352782702
 30
0.0
 11
14.11712327849465
 21
3.807046540963456
 31
0.0
  0
LINE
  5
10477
330
10469
100
AcDbEntity
  8
0
  6
CONTINUOUS
100
AcDbLine
 10
13.26747284108903
 20
2.283876894477644
 30
0.0
 11
14.31670901546777
 21
3.333113068856379
 31
0.0
  0
LINE
  5
10478
330
10469
100
AcDbEntity
  8
0
  6
CONTINUOUS
100
AcDbLine
 10
16.36767838827179
 20
8.751678487061342
 30
0.0
 11
16.50332410898388
 21
8.887324207773432
 31
0.0
  0
LINE
  5
10479
330
10469
100
AcDbEntity
  8
0
  6
CONTINUOUS
100
AcDbLine
 10
15.96190732182191
 20
7.67238821153127
 30
0.0
 11
16.68735328004734
 21
8.397834169756699
 31
0.0
  0
LINE
  5
1047A
330
10469
100
AcDbEntity
  8
0
  6
CONTINUOUS
100
AcDbLine
 10
15.55613625537202
 20
6.593097936001196
 30
0.0
 11
16.87138245111079
 21
7.908344131739965
 31
0.0
  0
LINE
  5
1047B
330
10469
100
AcDbEntity
  8
0
  6
CONTINUOUS
100
AcDbLine
 10
15.15036518892213
 20
5.513807660471122
 30
0.0
 11
17.05541162217424
 21
7.418854093723231
 31
0.0
  0
LINE
  5
1047C
330
10469
100
AcDbEntity
  8
0
  6
CONTINUOUS
100
AcDbLine
 10
14.74459412247225
 20
4.434517384941048
 30
0.0
 11
17.2394407932377
 21
6.929364055706499
 31
0.0
  0
LINE
  5
1047D
330
10469
100
AcDbEntity
  8
0
  6
CONTINUOUS
100
AcDbLine
 10
14.33882305602236
 20
3.355227109410975
 30
0.0
 11
17.42346996430115
 21
6.439874017689766
 31
0.0
  0
LINE
  5
1047E
330
10469
100
AcDbEntity
  8
0
  6
CONTINUOUS
100
AcDbLine
 10
13.46705359186416
 20
1.809938436172586
 30
0.0
 11
16.0819338255367
 21
4.424818669845129
 31
0.0
  0
LINE
  5
1047F
330
10469
100
AcDbEntity
  8
0
  6
CONTINUOUS
100
AcDbLine
 10
16.63283254238972
 20
4.975717386698149
 30
0.0
 11
17.60749913536461
 21
5.950383979673033
 31
0.0
  0
LINE
  5
10480
330
10469
100
AcDbEntity
  8
0
  6
CONTINUOUS
100
AcDbLine
 10
13.66663434263929
 20
1.335999977867529
 30
0.0
 11
15.67604797733754
 21
3.345413612565779
 31
0.0
  0
LINE
  5
10481
330
10469
100
AcDbEntity
  8
0
  6
CONTINUOUS
100
AcDbLine
 10
13.86621509341442
 20
0.8620615195624723
 30
0.0
 11
15.27016212913838
 21
2.26600855528643
 31
0.0
  0
LINE
  5
10482
330
10469
100
AcDbEntity
  8
0
  6
CONTINUOUS
100
AcDbLine
 10
16.81682257348267
 20
4.486188208710908
 30
0.0
 11
17.79152830642806
 21
5.460893941656299
 31
0.0
  0
LINE
  5
10483
330
10469
100
AcDbEntity
  8
0
  6
CONTINUOUS
100
AcDbLine
 10
17.00081260457561
 20
3.996659030723667
 30
0.0
 11
17.97555747749151
 21
4.971403903639565
 31
0.0
  0
LINE
  5
10484
330
10469
100
AcDbEntity
  8
0
  6
CONTINUOUS
100
AcDbLine
 10
20.74362343514722
 20
8.412989070375462
 30
0.0
 11
21.09373436476302
 21
8.763099999991256
 31
0.0
  0
LINE
  5
10485
330
10469
100
AcDbEntity
  8
0
  6
CONTINUOUS
100
AcDbLine
 10
20.25401257174777
 20
7.249858997895826
 30
0.0
 11
21.7672535738432
 21
8.763099999991255
 31
0.0
  0
LINE
  5
10486
330
10469
100
AcDbEntity
  8
0
  6
CONTINUOUS
100
AcDbLine
 10
14.06579584418955
 20
0.3881230612574149
 30
0.0
 11
14.86427628093921
 21
1.186603498007082
 31
0.0
  0
LINE
  5
10487
330
10469
100
AcDbEntity
  8
0
  6
CONTINUOUS
100
AcDbLine
 10
14.26537659496467
 20
-0.0858153970476412
 30
0.0
 11
14.45839043274005
 21
0.1071984407277329
 31
0.0
  0
LINE
  5
10488
330
10469
100
AcDbEntity
  8
0
  6
CONTINUOUS
100
AcDbLine
 10
17.18480263566856
 20
3.507129852736426
 30
0.0
 11
18.15958664855496
 21
4.481913865622833
 31
0.0
  0
LINE
  5
10489
330
10469
100
AcDbEntity
  8
0
  6
CONTINUOUS
100
AcDbLine
 10
17.3687926667615
 20
3.017600674749186
 30
0.0
 11
18.34361581961842
 21
3.9924238276061
 31
0.0
  0
LINE
  5
1048A
330
10469
100
AcDbEntity
  8
0
  6
CONTINUOUS
100
AcDbLine
 10
19.76440170834832
 20
6.086728925416191
 30
0.0
 11
22.33924590259489
 21
8.661573119662755
 31
0.0
  0
LINE
  5
1048B
330
10469
100
AcDbEntity
  8
0
  6
CONTINUOUS
100
AcDbLine
 10
19.27479084494887
 20
4.923598852936555
 30
0.0
 11
21.84929622842713
 21
7.498104236414807
 31
0.0
  0
LINE
  5
1048C
330
10469
100
AcDbEntity
  8
0
  6
CONTINUOUS
100
AcDbLine
 10
17.55278269785445
 20
2.528071496761945
 30
0.0
 11
18.52764499068187
 21
3.502933789589366
 31
0.0
  0
LINE
  5
1048D
330
10469
100
AcDbEntity
  8
0
  6
CONTINUOUS
100
AcDbLine
 10
18.78517998154942
 20
3.760468780456919
 30
0.0
 11
21.35934655425936
 21
6.33463535316686
 31
0.0
  0
LINE
  5
1048E
330
10469
100
AcDbEntity
  8
0
  6
CONTINUOUS
100
AcDbLine
 10
17.73677272894739
 20
2.038542318774704
 30
0.0
 11
20.8693968800916
 21
5.171166469918914
 31
0.0
  0
LINE
  5
1048F
330
10469
100
AcDbEntity
  8
0
  6
CONTINUOUS
100
AcDbLine
 10
17.92076276004034
 20
1.549013140787464
 30
0.0
 11
20.37944720592384
 21
4.007697586670968
 31
0.0
  0
LINE
  5
10490
330
10469
100
AcDbEntity
  8
0
  6
CONTINUOUS
100
AcDbLine
 10
18.10475279113329
 20
1.059483962800223
 30
0.0
 11
19.88949753175608
 21
2.84422870342302
 31
0.0
  0
LINE
  5
10491
330
10469
100
AcDbEntity
  8
0
  6
CONTINUOUS
100
AcDbLine
 10
18.28874282222623
 20
0.5699547848129822
 30
0.0
 11
19.39954785758832
 21
1.680759820175074
 31
0.0
  0
LINE
  5
10492
330
10469
100
AcDbEntity
  8
0
  6
CONTINUOUS
100
AcDbLine
 10
18.47273285331918
 20
0.0804256068257416
 30
0.0
 11
18.90959818342056
 21
0.517290936927127
 31
0.0
  0
LINE
  5
10493
330
10469
100
AcDbEntity
  8
0
  6
CONTINUOUS
100
AcDbLine
 10
14.3590401358224
 20
-0.1570118376323384
 30
0.0
 11
14.24903296539946
 21
-0.0470046672093929
 31
0.0
  0
LINE
  5
10494
330
10469
100
AcDbEntity
  8
0
  6
CONTINUOUS
100
AcDbLine
 10
14.54309291258661
 20
0.332454594683643
 30
0.0
 11
13.75908329123172
 21
1.116464216038529
 31
0.0
  0
LINE
  5
10495
330
10469
100
AcDbEntity
  8
0
  6
CONTINUOUS
100
AcDbLine
 10
14.72714568935081
 20
0.8219210269996244
 30
0.0
 11
13.26913361706399
 21
2.27993309928645
 31
0.0
  0
LINE
  5
10496
330
10469
100
AcDbEntity
  8
0
  6
CONTINUOUS
100
AcDbLine
 10
14.91119846611502
 20
1.311387459315606
 30
0.0
 11
12.77918394289625
 21
3.443401982534371
 31
0.0
  0
LINE
  5
10497
330
10469
100
AcDbEntity
  8
0
  6
CONTINUOUS
100
AcDbLine
 10
15.09525124287922
 20
1.800853891631587
 30
0.0
 11
12.28923426872852
 21
4.606870865782293
 31
0.0
  0
LINE
  5
10498
330
10469
100
AcDbEntity
  8
0
  6
CONTINUOUS
100
AcDbLine
 10
15.27930401964343
 20
2.290320323947569
 30
0.0
 11
11.79928459456078
 21
5.770339749030213
 31
0.0
  0
LINE
  5
10499
330
10469
100
AcDbEntity
  8
0
  6
CONTINUOUS
100
AcDbLine
 10
15.46335679640763
 20
2.77978675626355
 30
0.0
 11
14.48885470994921
 21
3.754288842721972
 31
0.0
  0
LINE
  5
1049A
330
10469
100
AcDbEntity
  8
0
  6
CONTINUOUS
100
AcDbLine
 10
13.88507249233704
 20
4.358071060334137
 30
0.0
 11
11.30933492039305
 21
6.933808632278135
 31
0.0
  0
LINE
  5
1049B
330
10469
100
AcDbEntity
  8
0
  6
CONTINUOUS
100
AcDbLine
 10
18.75840522805855
 20
0.1582575336928151
 30
0.0
 11
18.25383727664818
 21
0.6628254851031863
 31
0.0
  0
LINE
  5
1049C
330
10469
100
AcDbEntity
  8
0
  6
CONTINUOUS
100
AcDbLine
 10
15.64740957317184
 20
3.269253188579531
 30
0.0
 11
14.67288388101266
 21
4.243778880738705
 31
0.0
  0
LINE
  5
1049D
330
10469
100
AcDbEntity
  8
0
  6
CONTINUOUS
100
AcDbLine
 10
13.39509276772158
 20
5.521569994029786
 30
0.0
 11
10.81938524622531
 21
8.097277515526056
 31
0.0
  0
LINE
  5
1049E
330
10469
100
AcDbEntity
  8
0
  6
CONTINUOUS
100
AcDbLine
 10
18.95798597883369
 20
0.6321959919978686
 30
0.0
 11
17.84825644852853
 21
1.741925522303024
 31
0.0
  0
LINE
  5
1049F
330
10469
100
AcDbEntity
  8
0
  6
CONTINUOUS
100
AcDbLine
 10
19.15756672960882
 20
1.106134450302922
 30
0.0
 11
17.44267562040888
 21
2.821025559502861
 31
0.0
  0
LINE
  5
104A0
330
10469
100
AcDbEntity
  8
0
  6
CONTINUOUS
100
AcDbLine
 10
15.83146234993604
 20
3.758719620895513
 30
0.0
 11
14.85691305207612
 21
4.733268918755439
 31
0.0
  0
LINE
  5
104A1
330
10469
100
AcDbEntity
  8
0
  6
CONTINUOUS
100
AcDbLine
 10
16.01551512670025
 20
4.248186053211494
 30
0.0
 11
15.04094222313957
 21
5.222758956772172
 31
0.0
  0
LINE
  5
104A2
330
10469
100
AcDbEntity
  8
0
  6
CONTINUOUS
100
AcDbLine
 10
12.90511304310612
 20
6.685068927725435
 30
0.0
 11
10.8270819708403
 21
8.763099999991255
 31
0.0
  0
LINE
  5
104A3
330
10469
100
AcDbEntity
  8
0
  6
CONTINUOUS
100
AcDbLine
 10
12.41513331849066
 20
7.848567861421083
 30
0.0
 11
11.50060117992049
 21
8.763099999991255
 31
0.0
  0
LINE
  5
104A4
330
10469
100
AcDbEntity
  8
0
  6
CONTINUOUS
100
AcDbLine
 10
19.35714748038395
 20
1.580072908607975
 30
0.0
 11
17.03709479228923
 21
3.900125596702697
 31
0.0
  0
LINE
  5
104A5
330
10469
100
AcDbEntity
  8
0
  6
CONTINUOUS
100
AcDbLine
 10
19.55672823115909
 20
2.054011366913028
 30
0.0
 11
16.63151396416958
 21
4.979225633902534
 31
0.0
  0
LINE
  5
104A6
330
10469
100
AcDbEntity
  8
0
  6
CONTINUOUS
100
AcDbLine
 10
16.19956790346445
 20
4.737652485527476
 30
0.0
 11
15.22497139420302
 21
5.712248994788904
 31
0.0
  0
LINE
  5
104A7
330
10469
100
AcDbEntity
  8
0
  6
CONTINUOUS
100
AcDbLine
 10
16.38362068022866
 20
5.227118917843457
 30
0.0
 11
15.40900056526648
 21
6.201739032805637
 31
0.0
  0
LINE
  5
104A8
330
10469
100
AcDbEntity
  8
0
  6
CONTINUOUS
100
AcDbLine
 10
19.75630898193422
 20
2.527949825218081
 30
0.0
 11
18.70774536448286
 21
3.576513442669441
 31
0.0
  0
LINE
  5
104A9
330
10469
100
AcDbEntity
  8
0
  6
CONTINUOUS
100
AcDbLine
 10
19.95588973270936
 20
3.001888283523134
 30
0.0
 11
18.90726987211446
 21
4.050508144118028
 31
0.0
  0
LINE
  5
104AA
330
10469
100
AcDbEntity
  8
0
  6
CONTINUOUS
100
AcDbLine
 10
20.15547048348449
 20
3.475826741828186
 30
0.0
 11
19.10679437974606
 21
4.524502845566614
 31
0.0
  0
LINE
  5
104AB
330
10469
100
AcDbEntity
  8
0
  6
CONTINUOUS
100
AcDbLine
 10
20.35505123425962
 20
3.94976520013324
 30
0.0
 11
19.30631888737766
 21
4.998497547015201
 31
0.0
  0
LINE
  5
104AC
330
10469
100
AcDbEntity
  8
0
  6
CONTINUOUS
100
AcDbLine
 10
20.55463198503475
 20
4.423703658438292
 30
0.0
 11
19.50584339500926
 21
5.472492248463787
 31
0.0
  0
LINE
  5
104AD
330
10469
100
AcDbEntity
  8
0
  6
CONTINUOUS
100
AcDbLine
 10
18.37481191085755
 20
3.909446896294752
 30
0.0
 11
15.59302973632993
 21
6.691229070822371
 31
0.0
  0
LINE
  5
104AE
330
10469
100
AcDbEntity
  8
0
  6
CONTINUOUS
100
AcDbLine
 10
17.96904084440766
 20
4.988737171824825
 30
0.0
 11
15.77705890739338
 21
7.180719108839104
 31
0.0
  0
LINE
  5
104AF
330
10469
100
AcDbEntity
  8
0
  6
CONTINUOUS
100
AcDbLine
 10
17.56326977795777
 20
6.068027447354899
 30
0.0
 11
15.96108807845684
 21
7.670209146855838
 31
0.0
  0
LINE
  5
104B0
330
10469
100
AcDbEntity
  8
0
  6
CONTINUOUS
100
AcDbLine
 10
17.15749871150789
 20
7.147317722884972
 30
0.0
 11
16.14511724952029
 21
8.15969918487257
 31
0.0
  0
LINE
  5
104B1
330
10469
100
AcDbEntity
  8
0
  6
CONTINUOUS
100
AcDbLine
 10
16.751727645058
 20
8.226607998415046
 30
0.0
 11
16.32914642058374
 21
8.649189222889303
 31
0.0
  0
LINE
  5
104B2
330
10469
100
AcDbEntity
  8
0
  6
CONTINUOUS
100
AcDbLine
 10
20.75421273580989
 20
4.897642116743345
 30
0.0
 11
19.70536790264086
 21
5.946486949912374
 31
0.0
  0
LINE
  5
104B3
330
10469
100
AcDbEntity
  8
0
  6
CONTINUOUS
100
AcDbLine
 10
20.95379348658502
 20
5.371580575048398
 30
0.0
 11
19.90489241027246
 21
6.42048165136096
 31
0.0
  0
LINE
  5
104B4
330
10469
100
AcDbEntity
  8
0
  6
CONTINUOUS
100
AcDbLine
 10
21.15337423736015
 20
5.845519033353452
 30
0.0
 11
20.10441691790406
 21
6.894476352809547
 31
0.0
  0
LINE
  5
104B5
330
10469
100
AcDbEntity
  8
0
  6
CONTINUOUS
100
AcDbLine
 10
21.35295498813529
 20
6.319457491658505
 30
0.0
 11
20.30394142553566
 21
7.368471054258134
 31
0.0
  0
LINE
  5
104B6
330
10469
100
AcDbEntity
  8
0
  6
CONTINUOUS
100
AcDbLine
 10
21.55253573891042
 20
6.793395949963558
 30
0.0
 11
20.50346593316726
 21
7.842465755706721
 31
0.0
  0
LINE
  5
104B7
330
10469
100
AcDbEntity
  8
0
  6
CONTINUOUS
100
AcDbLine
 10
21.75211648968556
 20
7.267334408268612
 30
0.0
 11
20.70299044079886
 21
8.316460457155308
 31
0.0
  0
LINE
  5
104B8
330
10469
100
AcDbEntity
  8
0
  6
CONTINUOUS
100
AcDbLine
 10
21.95169724046069
 20
7.741272866573663
 30
0.0
 11
20.9298701070431
 21
8.763099999991256
 31
0.0
  0
LINE
  5
104B9
330
10469
100
AcDbEntity
  8
0
  6
CONTINUOUS
100
AcDbLine
 10
22.15127799123582
 20
8.215211324878716
 30
0.0
 11
21.60338931612328
 21
8.763099999991256
 31
0.0
  0
LINE
  5
104BA
330
10469
100
AcDbEntity
  8
0
  6
CONTINUOUS
100
AcDbLine
 10
22.35085874201096
 20
8.689149783183769
 30
0.0
 11
22.27690852520347
 21
8.763099999991255
 31
0.0
  0
ENDBLK
  5
105AC
330
10469
100
AcDbEntity
  8
0
100
AcDbBlockEnd
  0
BLOCK
  5
105AD
330
104BB
100
AcDbEntity
  8
0
100
AcDbBlockBegin
  2
*X21
 70
     1
 10
0.0
 20
0.0
 30
0.0
  3
*X21
  1

  0
LINE
  5
104BC
330
104BB
100
AcDbEntity
  8
0
  6
CONTINUOUS
100
AcDbLine
 10
23.19462913593892
 20
8.169917934846424
 30
0.0
 11
23.70775465517246
 21
8.683043454079957
 31
0.0
  0
LINE
  5
104BD
330
104BB
100
AcDbEntity
  8
0
  6
CONTINUOUS
100
AcDbLine
 10
22.64923161835078
 20
6.951001208178088
 30
0.0
 11
23.9159364069932
 21
8.217705996820516
 31
0.0
  0
LINE
  5
104BE
330
104BB
100
AcDbEntity
  8
0
  6
CONTINUOUS
100
AcDbLine
 10
22.10383410076263
 20
5.732084481509751
 30
0.0
 11
24.12411815881395
 21
7.752368539561078
 31
0.0
  0
LINE
  5
104BF
330
104BB
100
AcDbEntity
  8
0
  6
CONTINUOUS
100
AcDbLine
 10
21.55843658317447
 20
4.513167754841414
 30
0.0
 11
24.3322999106347
 21
7.287031082301639
 31
0.0
  0
LINE
  5
104C0
330
104BB
100
AcDbEntity
  8
0
  6
CONTINUOUS
100
AcDbLine
 10
21.01303906558632
 20
3.294251028173077
 30
0.0
 11
24.54048166245544
 21
6.821693625042199
 31
0.0
  0
LINE
  5
104C1
330
104BB
100
AcDbEntity
  8
0
  6
CONTINUOUS
100
AcDbLine
 10
20.46764154799817
 20
2.075334301504738
 30
0.0
 11
23.28571549467848
 21
4.89340824818505
 31
0.0
  0
LINE
  5
104C2
330
104BB
100
AcDbEntity
  8
0
  6
CONTINUOUS
100
AcDbLine
 10
19.92224403041002
 20
0.8564175748364002
 30
0.0
 11
22.74075865492779
 21
3.674932199354171
 31
0.0
  0
LINE
  5
104C3
330
104BB
100
AcDbEntity
  8
0
  6
CONTINUOUS
100
AcDbLine
 10
23.67305085490148
 20
5.280743608408048
 30
0.0
 11
24.74866341427619
 21
6.356356167782759
 31
0.0
  0
LINE
  5
104C4
330
104BB
100
AcDbEntity
  8
0
  6
CONTINUOUS
100
AcDbLine
 10
23.88118970842314
 20
4.815363252849522
 30
0.0
 11
24.95684516609694
 21
5.89101871052332
 31
0.0
  0
LINE
  5
104C5
330
104BB
100
AcDbEntity
  8
0
  6
CONTINUOUS
100
AcDbLine
 10
19.73925852647308
 20
-0.0000871381807288
 30
0.0
 11
23.4103456646501
 21
3.670999999996297
 31
0.0
  0
LINE
  5
104C6
330
104BB
100
AcDbEntity
  8
0
  6
CONTINUOUS
100
AcDbLine
 10
24.0893285619448
 20
4.349982897290997
 30
0.0
 11
25.16502691791769
 21
5.42568125326388
 31
0.0
  0
LINE
  5
104C7
330
104BB
100
AcDbEntity
  8
0
  6
CONTINUOUS
100
AcDbLine
 10
20.41282099582748
 20
-0.0000438779065108
 30
0.0
 11
21.64944178675636
 21
1.236576913022366
 31
0.0
  0
LINE
  5
104C8
330
104BB
100
AcDbEntity
  8
0
  6
CONTINUOUS
100
AcDbLine
 10
22.78126487373161
 20
2.36839999999762
 30
0.0
 11
24.08386487373029
 21
3.670999999996297
 31
0.0
  0
LINE
  5
104C9
330
104BB
100
AcDbEntity
  8
0
  6
CONTINUOUS
100
AcDbLine
 10
24.29746741546646
 20
3.884602541732471
 30
0.0
 11
25.37320866973843
 21
4.960343796004441
 31
0.0
  0
LINE
  5
104CA
330
104BB
100
AcDbEntity
  8
0
  6
CONTINUOUS
100
AcDbLine
 10
21.08638346518189
 20
-0.0000006176322938
 30
0.0
 11
21.10379033335899
 21
0.0174062505448083
 31
0.0
  0
LINE
  5
104CB
330
104BB
100
AcDbEntity
  8
0
  6
CONTINUOUS
100
AcDbLine
 10
23.4547840828118
 20
2.36839999999762
 30
0.0
 11
25.58139042155918
 21
4.495006338745002
 31
0.0
  0
LINE
  5
104CC
330
104BB
100
AcDbEntity
  8
0
  6
CONTINUOUS
100
AcDbLine
 10
29.30199999996933
 20
8.215615917155148
 30
0.0
 11
29.84948408280543
 21
8.763099999991255
 31
0.0
  0
LINE
  5
104CD
330
104BB
100
AcDbEntity
  8
0
  6
CONTINUOUS
100
AcDbLine
 10
24.12830329189199
 20
2.36839999999762
 30
0.0
 11
25.78957217337993
 21
4.029668881485562
 31
0.0
  0
LINE
  5
104CE
330
104BB
100
AcDbEntity
  8
0
  6
CONTINUOUS
100
AcDbLine
 10
29.30199999996933
 20
7.54209670807496
 30
0.0
 11
30.52300329188562
 21
8.763099999991255
 31
0.0
  0
LINE
  5
104CF
330
104BB
100
AcDbEntity
  8
0
  6
CONTINUOUS
100
AcDbLine
 10
24.80182250097217
 20
2.36839999999762
 30
0.0
 11
25.99775392520067
 21
3.564331424226122
 31
0.0
  0
LINE
  5
104D0
330
104BB
100
AcDbEntity
  8
0
  6
CONTINUOUS
100
AcDbLine
 10
29.30199999996933
 20
6.868577498994774
 30
0.0
 11
30.74199999996926
 21
8.308577498994712
 31
0.0
  0
LINE
  5
104D1
330
104BB
100
AcDbEntity
  8
0
  6
CONTINUOUS
100
AcDbLine
 10
25.13028238392013
 20
2.023340673865392
 30
0.0
 11
26.20593567702142
 21
3.098993966966683
 31
0.0
  0
LINE
  5
104D2
330
104BB
100
AcDbEntity
  8
0
  6
CONTINUOUS
100
AcDbLine
 10
25.33838066033617
 20
1.557919741201244
 30
0.0
 11
26.41411742884217
 21
2.633656509707244
 31
0.0
  0
LINE
  5
104D3
330
104BB
100
AcDbEntity
  8
0
  6
CONTINUOUS
100
AcDbLine
 10
25.54647893675221
 20
1.092498808537098
 30
0.0
 11
26.62229918066291
 21
2.168319052447804
 31
0.0
  0
LINE
  5
104D4
330
104BB
100
AcDbEntity
  8
0
  6
CONTINUOUS
100
AcDbLine
 10
25.75457721316825
 20
0.62707787587295
 30
0.0
 11
26.83048093248366
 21
1.702981595188365
 31
0.0
  0
LINE
  5
104D5
330
104BB
100
AcDbEntity
  8
0
  6
CONTINUOUS
100
AcDbLine
 10
29.30199999996933
 20
6.195058289914587
 30
0.0
 11
30.74199999996926
 21
7.635058289914522
 31
0.0
  0
LINE
  5
104D6
330
104BB
100
AcDbEntity
  8
0
  6
CONTINUOUS
100
AcDbLine
 10
29.30199999996933
 20
5.521539080834401
 30
0.0
 11
30.74199999996926
 21
6.961539080834331
 31
0.0
  0
LINE
  5
104D7
330
104BB
100
AcDbEntity
  8
0
  6
CONTINUOUS
100
AcDbLine
 10
29.30199999996933
 20
4.848019871754214
 30
0.0
 11
30.74199999996925
 21
6.288019871754143
 31
0.0
  0
LINE
  5
104D8
330
104BB
100
AcDbEntity
  8
0
  6
CONTINUOUS
100
AcDbLine
 10
29.30199999996933
 20
4.174500662674028
 30
0.0
 11
30.74199999996925
 21
5.614500662673953
 31
0.0
  0
LINE
  5
104D9
330
104BB
100
AcDbEntity
  8
0
  6
CONTINUOUS
100
AcDbLine
 10
25.96267548958429
 20
0.1616569432088024
 30
0.0
 11
27.18411854636669
 21
1.383099999991207
 31
0.0
  0
LINE
  5
104DA
330
104BB
100
AcDbEntity
  8
0
  6
CONTINUOUS
100
AcDbLine
 10
29.30199999996933
 20
3.500981453593841
 30
0.0
 11
30.74199999996925
 21
4.940981453593762
 31
0.0
  0
LINE
  5
104DB
330
104BB
100
AcDbEntity
  8
0
  6
CONTINUOUS
100
AcDbLine
 10
26.50763775544691
 20
0.0330999999912356
 30
0.0
 11
27.85763775544689
 21
1.383099999991223
 31
0.0
  0
LINE
  5
104DC
330
104BB
100
AcDbEntity
  8
0
  6
CONTINUOUS
100
AcDbLine
 10
29.30199999996933
 20
2.827462244513656
 30
0.0
 11
30.74199999996925
 21
4.267462244513574
 31
0.0
  0
LINE
  5
104DD
330
104BB
100
AcDbEntity
  8
0
  6
CONTINUOUS
100
AcDbLine
 10
27.18115696452709
 20
0.0330999999912356
 30
0.0
 11
28.55073879889363
 21
1.402681834357775
 31
0.0
  0
LINE
  5
104DE
330
104BB
100
AcDbEntity
  8
0
  6
CONTINUOUS
100
AcDbLine
 10
29.28241816560272
 20
2.134361201066866
 30
0.0
 11
30.74199999996924
 21
3.593943035433383
 31
0.0
  0
LINE
  5
104DF
330
104BB
100
AcDbEntity
  8
0
  6
CONTINUOUS
100
AcDbLine
 10
27.85467617360728
 20
0.0330999999912356
 30
0.0
 11
30.74199999996924
 21
2.920423826353195
 31
0.0
  0
LINE
  5
104E0
330
104BB
100
AcDbEntity
  8
0
  6
CONTINUOUS
100
AcDbLine
 10
28.53897559587887
 20
0.0438802131826428
 30
0.0
 11
30.73121978677781
 21
2.236124404081585
 31
0.0
  0
LINE
  5
104E1
330
104BB
100
AcDbEntity
  8
0
  6
CONTINUOUS
100
AcDbLine
 10
29.45140055588722
 20
0.2827859641107988
 30
0.0
 11
30.49231403584965
 21
1.323699444073236
 31
0.0
  0
LINE
  5
104E2
330
104BB
100
AcDbEntity
  8
0
  6
CONTINUOUS
100
AcDbLine
 10
19.59027867740337
 20
-0.0000967065718083
 30
0.0
 11
19.55485265190471
 21
0.035329318926844
 31
0.0
  0
LINE
  5
104E3
330
104BB
100
AcDbEntity
  8
0
  6
CONTINUOUS
100
AcDbLine
 10
20.26375463176586
 20
-0.0000534518541091
 30
0.0
 11
19.76305575737534
 21
0.5006454225364014
 31
0.0
  0
LINE
  5
104E4
330
104BB
100
AcDbEntity
  8
0
  6
CONTINUOUS
100
AcDbLine
 10
20.93723058612834
 20
-0.0000101971364099
 30
0.0
 11
19.97125886284597
 21
0.965961526145958
 31
0.0
  0
LINE
  5
104E5
330
104BB
100
AcDbEntity
  8
0
  6
CONTINUOUS
100
AcDbLine
 10
21.25514828313686
 20
0.355591314935257
 30
0.0
 11
20.1794619683166
 21
1.431277629755512
 31
0.0
  0
LINE
  5
104E6
330
104BB
100
AcDbEntity
  8
0
  6
CONTINUOUS
100
AcDbLine
 10
21.46338838394921
 20
0.8208704232030986
 30
0.0
 11
20.38766507378723
 21
1.896593733365069
 31
0.0
  0
LINE
  5
104E7
330
104BB
100
AcDbEntity
  8
0
  6
CONTINUOUS
100
AcDbLine
 10
21.67162848476155
 20
1.28614953147094
 30
0.0
 11
20.59586817925786
 21
2.361909836974626
 31
0.0
  0
LINE
  5
104E8
330
104BB
100
AcDbEntity
  8
0
  6
CONTINUOUS
100
AcDbLine
 10
21.8798685855739
 20
1.751428639738782
 30
0.0
 11
20.80407128472849
 21
2.827225940584183
 31
0.0
  0
LINE
  5
104E9
330
104BB
100
AcDbEntity
  8
0
  6
CONTINUOUS
100
AcDbLine
 10
22.08810868638624
 20
2.216707748006623
 30
0.0
 11
21.01227439019912
 21
3.292542044193739
 31
0.0
  0
LINE
  5
104EA
330
104BB
100
AcDbEntity
  8
0
  6
CONTINUOUS
100
AcDbLine
 10
22.60993564347543
 20
2.36839999999762
 30
0.0
 11
21.22047749566975
 21
3.757858147803296
 31
0.0
  0
LINE
  5
104EB
330
104BB
100
AcDbEntity
  8
0
  6
CONTINUOUS
100
AcDbLine
 10
23.28345485255561
 20
2.36839999999762
 30
0.0
 11
21.42868060114038
 21
4.223174251412853
 31
0.0
  0
LINE
  5
104EC
330
104BB
100
AcDbEntity
  8
0
  6
CONTINUOUS
100
AcDbLine
 10
26.29227406164219
 20
0.0330999999912356
 30
0.0
 11
25.80009199592872
 21
0.5252820657046957
 31
0.0
  0
LINE
  5
104ED
330
104BB
100
AcDbEntity
  8
0
  6
CONTINUOUS
100
AcDbLine
 10
23.9569740616358
 20
2.36839999999762
 30
0.0
 11
21.63688370661101
 21
4.688490355022409
 31
0.0
  0
LINE
  5
104EE
330
104BB
100
AcDbEntity
  8
0
  6
CONTINUOUS
100
AcDbLine
 10
26.96579327072237
 20
0.0330999999912356
 30
0.0
 11
25.2554132311971
 21
1.743480039516508
 31
0.0
  0
LINE
  5
104EF
330
104BB
100
AcDbEntity
  8
0
  6
CONTINUOUS
100
AcDbLine
 10
24.63049327071599
 20
2.36839999999762
 30
0.0
 11
23.32789327071731
 21
3.670999999996297
 31
0.0
  0
LINE
  5
104F0
330
104BB
100
AcDbEntity
  8
0
  6
CONTINUOUS
100
AcDbLine
 10
22.92098674744635
 20
4.077906523267254
 30
0.0
 11
21.84508681208164
 21
5.153806458631966
 31
0.0
  0
LINE
  5
104F1
330
104BB
100
AcDbEntity
  8
0
  6
CONTINUOUS
100
AcDbLine
 10
27.63931247980256
 20
0.0330999999912356
 30
0.0
 11
24.0014124797975
 21
3.670999999996297
 31
0.0
  0
LINE
  5
104F2
330
104BB
100
AcDbEntity
  8
0
  6
CONTINUOUS
100
AcDbLine
 10
23.129125600968
 20
4.5432868788258
 30
0.0
 11
22.05328991755227
 21
5.619122562241522
 31
0.0
  0
LINE
  5
104F3
330
104BB
100
AcDbEntity
  8
0
  6
CONTINUOUS
100
AcDbLine
 10
28.31283168888275
 20
0.0330999999912356
 30
0.0
 11
24.16488385994816
 21
4.181047828925828
 31
0.0
  0
LINE
  5
104F4
330
104BB
100
AcDbEntity
  8
0
  6
CONTINUOUS
100
AcDbLine
 10
23.33726445448964
 20
5.008667234384345
 30
0.0
 11
22.2614930230229
 21
6.084438665851079
 31
0.0
  0
LINE
  5
104F5
330
104BB
100
AcDbEntity
  8
0
  6
CONTINUOUS
100
AcDbLine
 10
28.92085740005492
 20
0.0985934978992438
 30
0.0
 11
27.63635089796295
 21
1.383099999991217
 31
0.0
  0
LINE
  5
104F6
330
104BB
100
AcDbEntity
  8
0
  6
CONTINUOUS
100
AcDbLine
 10
26.43704649509776
 20
2.582404402856405
 30
0.0
 11
23.61992702019732
 21
5.399523877756844
 31
0.0
  0
LINE
  5
104F7
330
104BB
100
AcDbEntity
  8
0
  6
CONTINUOUS
100
AcDbLine
 10
23.54540330801128
 20
5.47404758994289
 30
0.0
 11
22.46969612849353
 21
6.549754769460635
 31
0.0
  0
LINE
  5
104F8
330
104BB
100
AcDbEntity
  8
0
  6
CONTINUOUS
100
AcDbLine
 10
29.42225615078443
 20
0.2707139562499279
 30
0.0
 11
28.30987010704312
 21
1.383099999991234
 31
0.0
  0
LINE
  5
104F9
330
104BB
100
AcDbEntity
  8
0
  6
CONTINUOUS
100
AcDbLine
 10
25.89179548232307
 20
3.801174624711282
 30
0.0
 11
22.67789923396416
 21
7.015070873070191
 31
0.0
  0
LINE
  5
104FA
330
104BB
100
AcDbEntity
  8
0
  6
CONTINUOUS
100
AcDbLine
 10
29.83624534690007
 20
0.5302439692144705
 30
0.0
 11
28.85811781497101
 21
1.508371501143527
 31
0.0
  0
LINE
  5
104FB
330
104BB
100
AcDbEntity
  8
0
  6
CONTINUOUS
100
AcDbLine
 10
25.34654446954838
 20
5.01994484656616
 30
0.0
 11
22.88610233943479
 21
7.480386976679748
 31
0.0
  0
LINE
  5
104FC
330
104BB
100
AcDbEntity
  8
0
  6
CONTINUOUS
100
AcDbLine
 10
30.17865975401872
 20
0.8613487711760022
 30
0.0
 11
29.18888744090175
 21
1.851121084292977
 31
0.0
  0
LINE
  5
104FD
330
104BB
100
AcDbEntity
  8
0
  6
CONTINUOUS
100
AcDbLine
 10
24.80129345677369
 20
6.238715068421037
 30
0.0
 11
23.09430544490542
 21
7.945703080289305
 31
0.0
  0
LINE
  5
104FE
330
104BB
100
AcDbEntity
  8
0
  6
CONTINUOUS
100
AcDbLine
 10
30.45496647202376
 20
1.258561262251155
 30
0.0
 11
29.30199999996933
 21
2.411527734305588
 31
0.0
  0
LINE
  5
104FF
330
104BB
100
AcDbEntity
  8
0
  6
CONTINUOUS
100
AcDbLine
 10
24.256042443999
 20
7.457485290275915
 30
0.0
 11
23.30250855037605
 21
8.411019183898862
 31
0.0
  0
LINE
  5
10500
330
104BB
100
AcDbEntity
  8
0
  6
CONTINUOUS
100
AcDbLine
 10
30.64868582078271
 20
1.738361122572387
 30
0.0
 11
29.30199999996933
 21
3.085046943385775
 31
0.0
  0
LINE
  5
10501
330
104BB
100
AcDbEntity
  8
0
  6
CONTINUOUS
100
AcDbLine
 10
23.71079143122431
 20
8.676255512130794
 30
0.0
 11
23.51071165584668
 21
8.876335287508416
 31
0.0
  0
LINE
  5
10502
330
104BB
100
AcDbEntity
  8
0
  6
CONTINUOUS
100
AcDbLine
 10
30.73802122914428
 20
2.322544923291007
 30
0.0
 11
29.30199999996933
 21
3.758566152465961
 31
0.0
  0
LINE
  5
10503
330
104BB
100
AcDbEntity
  8
0
  6
CONTINUOUS
100
AcDbLine
 10
30.74199999996924
 20
2.992085361546236
 30
0.0
 11
29.30199999996933
 21
4.432085361546148
 31
0.0
  0
LINE
  5
10504
330
104BB
100
AcDbEntity
  8
0
  6
CONTINUOUS
100
AcDbLine
 10
30.74199999996924
 20
3.665604570626419
 30
0.0
 11
29.30199999996933
 21
5.105604570626333
 31
0.0
  0
LINE
  5
10505
330
104BB
100
AcDbEntity
  8
0
  6
CONTINUOUS
100
AcDbLine
 10
30.74199999996925
 20
4.339123779706602
 30
0.0
 11
29.30199999996933
 21
5.77912377970652
 31
0.0
  0
LINE
  5
10506
330
104BB
100
AcDbEntity
  8
0
  6
CONTINUOUS
100
AcDbLine
 10
30.74199999996925
 20
5.012642988786785
 30
0.0
 11
29.30199999996933
 21
6.452642988786707
 31
0.0
  0
LINE
  5
10507
330
104BB
100
AcDbEntity
  8
0
  6
CONTINUOUS
100
AcDbLine
 10
30.74199999996925
 20
5.68616219786697
 30
0.0
 11
29.30199999996933
 21
7.126162197866894
 31
0.0
  0
LINE
  5
10508
330
104BB
100
AcDbEntity
  8
0
  6
CONTINUOUS
100
AcDbLine
 10
30.74199999996925
 20
6.359681406947153
 30
0.0
 11
29.30199999996933
 21
7.799681406947081
 31
0.0
  0
LINE
  5
10509
330
104BB
100
AcDbEntity
  8
0
  6
CONTINUOUS
100
AcDbLine
 10
30.74199999996926
 20
7.033200616027337
 30
0.0
 11
29.30199999996933
 21
8.473200616027269
 31
0.0
  0
LINE
  5
1050A
330
104BB
100
AcDbEntity
  8
0
  6
CONTINUOUS
100
AcDbLine
 10
30.74199999996926
 20
7.706719825107518
 30
0.0
 11
29.68561982508552
 21
8.763099999991255
 31
0.0
  0
LINE
  5
1050B
330
104BB
100
AcDbEntity
  8
0
  6
CONTINUOUS
100
AcDbLine
 10
30.74199999996926
 20
8.380239034187703
 30
0.0
 11
30.35913903416571
 21
8.763099999991255
 31
0.0
  0
ENDBLK
  5
105AE
330
104BB
100
AcDbEntity
  8
0
100
AcDbBlockEnd
  0
BLOCK
  5
105AF
330
1050C
100
AcDbEntity
  8
0
100
AcDbBlockBegin
  2
*X22
 70
     1
 10
0.0
 20
0.0
 30
0.0
  3
*X22
  1

  0
LINE
  5
1050D
330
1050C
100
AcDbEntity
  8
0
  6
CONTINUOUS
100
AcDbLine
 10
31.64199999996833
 20
8.535058289913598
 30
0.0
 11
31.87004171004599
 21
8.763099999991255
 31
0.0
  0
LINE
  5
1050E
330
1050C
100
AcDbEntity
  8
0
  6
CONTINUOUS
100
AcDbLine
 10
31.64199999996833
 20
7.861539080833412
 30
0.0
 11
32.54356091912618
 21
8.763099999991255
 31
0.0
  0
LINE
  5
1050F
330
1050C
100
AcDbEntity
  8
0
  6
CONTINUOUS
100
AcDbLine
 10
31.64199999996833
 20
7.188019871753226
 30
0.0
 11
33.08199999996839
 21
8.628019871753281
 31
0.0
  0
LINE
  5
10510
330
1050C
100
AcDbEntity
  8
0
  6
CONTINUOUS
100
AcDbLine
 10
31.64199999996833
 20
6.51450066267304
 30
0.0
 11
33.08199999996839
 21
7.954500662673095
 31
0.0
  0
LINE
  5
10511
330
1050C
100
AcDbEntity
  8
0
  6
CONTINUOUS
100
AcDbLine
 10
31.64199999996833
 20
5.840981453592853
 30
0.0
 11
33.08199999996839
 21
7.280981453592908
 31
0.0
  0
LINE
  5
10512
330
1050C
100
AcDbEntity
  8
0
  6
CONTINUOUS
100
AcDbLine
 10
31.64199999996833
 20
5.167462244512667
 30
0.0
 11
33.08199999996839
 21
6.607462244512721
 31
0.0
  0
LINE
  5
10513
330
1050C
100
AcDbEntity
  8
0
  6
CONTINUOUS
100
AcDbLine
 10
31.64199999996833
 20
4.493943035432481
 30
0.0
 11
33.08199999996839
 21
5.933943035432535
 31
0.0
  0
LINE
  5
10514
330
1050C
100
AcDbEntity
  8
0
  6
CONTINUOUS
100
AcDbLine
 10
31.64199999996833
 20
3.820423826352293
 30
0.0
 11
33.08199999996839
 21
5.260423826352348
 31
0.0
  0
LINE
  5
10515
330
1050C
100
AcDbEntity
  8
0
  6
CONTINUOUS
100
AcDbLine
 10
31.64199999996833
 20
3.146904617272106
 30
0.0
 11
33.08199999996839
 21
4.586904617272161
 31
0.0
  0
LINE
  5
10516
330
1050C
100
AcDbEntity
  8
0
  6
CONTINUOUS
100
AcDbLine
 10
36.23199999996837
 20
8.410423826352325
 30
0.0
 11
36.5846761736073
 21
8.763099999991255
 31
0.0
  0
LINE
  5
10517
330
1050C
100
AcDbEntity
  8
0
  6
CONTINUOUS
100
AcDbLine
 10
36.23199999996837
 20
7.73690461727214
 30
0.0
 11
37.25819538268748
 21
8.763099999991255
 31
0.0
  0
LINE
  5
10518
330
1050C
100
AcDbEntity
  8
0
  6
CONTINUOUS
100
AcDbLine
 10
31.64257403601376
 20
2.473959444237348
 30
0.0
 11
33.08199999996839
 21
3.913385408191974
 31
0.0
  0
LINE
  5
10519
330
1050C
100
AcDbEntity
  8
0
  6
CONTINUOUS
100
AcDbLine
 10
36.23199999996837
 20
7.063385408191953
 30
0.0
 11
37.67199999996831
 21
8.503385408191894
 31
0.0
  0
LINE
  5
1051A
330
1050C
100
AcDbEntity
  8
0
  6
CONTINUOUS
100
AcDbLine
 10
31.72013636841932
 20
1.87800256756272
 30
0.0
 11
33.08199999996839
 21
3.239866199111788
 31
0.0
  0
LINE
  5
1051B
330
1050C
100
AcDbEntity
  8
0
  6
CONTINUOUS
100
AcDbLine
 10
36.23199999996837
 20
6.389866199111767
 30
0.0
 11
37.67199999996831
 21
7.829866199111708
 31
0.0
  0
LINE
  5
1051C
330
1050C
100
AcDbEntity
  8
0
  6
CONTINUOUS
100
AcDbLine
 10
31.89042734314753
 20
1.374774333210744
 30
0.0
 11
33.08199999996839
 21
2.566346990031601
 31
0.0
  0
LINE
  5
1051D
330
1050C
100
AcDbEntity
  8
0
  6
CONTINUOUS
100
AcDbLine
 10
36.23199999996837
 20
5.71634699003158
 30
0.0
 11
37.67199999996831
 21
7.156346990031521
 31
0.0
  0
LINE
  5
1051E
330
1050C
100
AcDbEntity
  8
0
  6
CONTINUOUS
100
AcDbLine
 10
32.14210568064475
 20
0.952933461627778
 30
0.0
 11
33.18745552475986
 21
1.998283305742888
 31
0.0
  0
LINE
  5
1051F
330
1050C
100
AcDbEntity
  8
0
  6
CONTINUOUS
100
AcDbLine
 10
36.23199999996837
 20
5.042827780951393
 30
0.0
 11
37.67199999996831
 21
6.482827780951334
 31
0.0
  0
LINE
  5
10520
330
1050C
100
AcDbEntity
  8
0
  6
CONTINUOUS
100
AcDbLine
 10
32.45820639400955
 20
0.5955149659123915
 30
0.0
 11
33.47242681921943
 21
1.60973539112227
 31
0.0
  0
LINE
  5
10521
330
1050C
100
AcDbEntity
  8
0
  6
CONTINUOUS
100
AcDbLine
 10
36.23199999996837
 20
4.369308571871207
 30
0.0
 11
37.67199999996831
 21
5.809308571871147
 31
0.0
  0
LINE
  5
10522
330
1050C
100
AcDbEntity
  8
0
  6
CONTINUOUS
100
AcDbLine
 10
32.83432456621412
 20
0.2981139290367771
 30
0.0
 11
33.89722476612215
 21
1.361014128944803
 31
0.0
  0
LINE
  5
10523
330
1050C
100
AcDbEntity
  8
0
  6
CONTINUOUS
100
AcDbLine
 10
36.23199999996837
 20
3.69578936279102
 30
0.0
 11
37.67199999996831
 21
5.135789362790962
 31
0.0
  0
LINE
  5
10524
330
1050C
100
AcDbEntity
  8
0
  6
CONTINUOUS
100
AcDbLine
 10
33.2711633111245
 20
0.0614334648669672
 30
0.0
 11
34.43247338014423
 21
1.222743533886696
 31
0.0
  0
LINE
  5
10525
330
1050C
100
AcDbEntity
  8
0
  6
CONTINUOUS
100
AcDbLine
 10
36.23199999996837
 20
3.022270153710834
 30
0.0
 11
37.67199999996831
 21
4.462270153710775
 31
0.0
  0
LINE
  5
10526
330
1050C
100
AcDbEntity
  8
0
  6
CONTINUOUS
100
AcDbLine
 10
33.76515245874577
 20
-0.1180965965919523
 30
0.0
 11
35.1587445516215
 21
1.27549549628378
 31
0.0
  0
LINE
  5
10527
330
1050C
100
AcDbEntity
  8
0
  6
CONTINUOUS
100
AcDbLine
 10
36.21639478609585
 20
2.333145730758136
 30
0.0
 11
37.67199999996831
 21
3.788750944630588
 31
0.0
  0
LINE
  5
10528
330
1050C
100
AcDbEntity
  8
0
  6
CONTINUOUS
100
AcDbLine
 10
34.34060583368432
 20
-0.2161624307335863
 30
0.0
 11
37.67199999996831
 21
3.115231735550401
 31
0.0
  0
LINE
  5
10529
330
1050C
100
AcDbEntity
  8
0
  6
CONTINUOUS
100
AcDbLine
 10
35.01698193613905
 20
-0.2133055373590427
 30
0.0
 11
37.66876712070525
 21
2.438479647207154
 31
0.0
  0
LINE
  5
1052A
330
1050C
100
AcDbEntity
  8
0
  6
CONTINUOUS
100
AcDbLine
 10
35.90743367693304
 20
0.0036269943547609
 30
0.0
 11
37.51723902192366
 21
1.613432339345381
 31
0.0
  0
LINE
  5
1052B
330
1050C
100
AcDbEntity
  8
0
  6
CONTINUOUS
100
AcDbLine
 10
32.55309425579761
 20
0.5074718966376706
 30
0.0
 11
32.27784730925847
 21
0.7827188431768102
 31
0.0
  0
LINE
  5
1052C
330
1050C
100
AcDbEntity
  8
0
  6
CONTINUOUS
100
AcDbLine
 10
33.87496468909684
 20
-0.1408793275813673
 30
0.0
 11
31.67993083278052
 21
2.054154528734943
 31
0.0
  0
LINE
  5
1052D
330
1050C
100
AcDbEntity
  8
0
  6
CONTINUOUS
100
AcDbLine
 10
34.64362813207632
 20
-0.2360235614806649
 30
0.0
 11
31.64199999996833
 21
2.765604570627322
 31
0.0
  0
LINE
  5
1052E
330
1050C
100
AcDbEntity
  8
0
  6
CONTINUOUS
100
AcDbLine
 10
35.25801106796118
 20
-0.1768872882853429
 30
0.0
 11
31.64199999996833
 21
3.439123779707508
 31
0.0
  0
LINE
  5
1052F
330
1050C
100
AcDbEntity
  8
0
  6
CONTINUOUS
100
AcDbLine
 10
35.79065650332146
 20
-0.0360135145654361
 30
0.0
 11
34.54143210838231
 21
1.213210880373721
 31
0.0
  0
LINE
  5
10530
330
1050C
100
AcDbEntity
  8
0
  6
CONTINUOUS
100
AcDbLine
 10
33.08199999996839
 20
2.67264298878764
 30
0.0
 11
31.64199999996833
 21
4.112642988787695
 31
0.0
  0
LINE
  5
10531
330
1050C
100
AcDbEntity
  8
0
  6
CONTINUOUS
100
AcDbLine
 10
36.25975597779143
 20
0.1684062200447833
 30
0.0
 11
35.15395110240023
 21
1.274211095435983
 31
0.0
  0
LINE
  5
10532
330
1050C
100
AcDbEntity
  8
0
  6
CONTINUOUS
100
AcDbLine
 10
33.08199999996839
 20
3.346162197867826
 30
0.0
 11
31.64199999996833
 21
4.786162197867881
 31
0.0
  0
LINE
  5
10533
330
1050C
100
AcDbEntity
  8
0
  6
CONTINUOUS
100
AcDbLine
 10
36.67226329638774
 20
0.4294181105286579
 30
0.0
 11
35.63766478748767
 21
1.464016619428737
 31
0.0
  0
LINE
  5
10534
330
1050C
100
AcDbEntity
  8
0
  6
CONTINUOUS
100
AcDbLine
 10
33.08199999996839
 20
4.019681406948012
 30
0.0
 11
31.64199999996833
 21
5.459681406948068
 31
0.0
  0
LINE
  5
10535
330
1050C
100
AcDbEntity
  8
0
  6
CONTINUOUS
100
AcDbLine
 10
37.01677749710036
 20
0.7584231188962329
 30
0.0
 11
35.99563422741351
 21
1.779566388583076
 31
0.0
  0
LINE
  5
10536
330
1050C
100
AcDbEntity
  8
0
  6
CONTINUOUS
100
AcDbLine
 10
33.08199999996839
 20
4.693200616028199
 30
0.0
 11
31.64199999996833
 21
6.133200616028255
 31
0.0
  0
LINE
  5
10537
330
1050C
100
AcDbEntity
  8
0
  6
CONTINUOUS
100
AcDbLine
 10
37.29859977568887
 20
1.1501200493879
 30
0.0
 11
36.20680593341555
 21
2.241913891661226
 31
0.0
  0
LINE
  5
10538
330
1050C
100
AcDbEntity
  8
0
  6
CONTINUOUS
100
AcDbLine
 10
33.08199999996839
 20
5.366719825108386
 30
0.0
 11
31.64199999996833
 21
6.80671982510844
 31
0.0
  0
LINE
  5
10539
330
1050C
100
AcDbEntity
  8
0
  6
CONTINUOUS
100
AcDbLine
 10
37.5148623517228
 20
1.607376682434161
 30
0.0
 11
36.23199999996837
 21
2.890239034188594
 31
0.0
  0
LINE
  5
1053A
330
1050C
100
AcDbEntity
  8
0
  6
CONTINUOUS
100
AcDbLine
 10
33.08199999996839
 20
6.040239034188573
 30
0.0
 11
31.64199999996833
 21
7.480239034188627
 31
0.0
  0
LINE
  5
1053B
330
1050C
100
AcDbEntity
  8
0
  6
CONTINUOUS
100
AcDbLine
 10
37.64705163358367
 20
2.148706609653477
 30
0.0
 11
36.23199999996837
 21
3.56375824326878
 31
0.0
  0
LINE
  5
1053C
330
1050C
100
AcDbEntity
  8
0
  6
CONTINUOUS
100
AcDbLine
 10
33.08199999996839
 20
6.713758243268758
 30
0.0
 11
31.64199999996833
 21
8.153758243268815
 31
0.0
  0
LINE
  5
1053D
330
1050C
100
AcDbEntity
  8
0
  6
CONTINUOUS
100
AcDbLine
 10
37.67199999996831
 20
2.797277452349026
 30
0.0
 11
36.23199999996837
 21
4.237277452348967
 31
0.0
  0
LINE
  5
1053E
330
1050C
100
AcDbEntity
  8
0
  6
CONTINUOUS
100
AcDbLine
 10
37.67199999996831
 20
3.470796661429213
 30
0.0
 11
36.23199999996837
 21
4.910796661429154
 31
0.0
  0
LINE
  5
1053F
330
1050C
100
AcDbEntity
  8
0
  6
CONTINUOUS
100
AcDbLine
 10
37.67199999996831
 20
4.144315870509399
 30
0.0
 11
36.23199999996837
 21
5.58431587050934
 31
0.0
  0
LINE
  5
10540
330
1050C
100
AcDbEntity
  8
0
  6
CONTINUOUS
100
AcDbLine
 10
33.08199999996839
 20
7.387277452348945
 30
0.0
 11
31.70617745232608
 21
8.763099999991255
 31
0.0
  0
LINE
  5
10541
330
1050C
100
AcDbEntity
  8
0
  6
CONTINUOUS
100
AcDbLine
 10
33.08199999996839
 20
8.060796661429132
 30
0.0
 11
32.37969666140626
 21
8.763099999991255
 31
0.0
  0
LINE
  5
10542
330
1050C
100
AcDbEntity
  8
0
  6
CONTINUOUS
100
AcDbLine
 10
33.08199999996839
 20
8.734315870509318
 30
0.0
 11
33.05321587048645
 21
8.763099999991255
 31
0.0
  0
LINE
  5
10543
330
1050C
100
AcDbEntity
  8
0
  6
CONTINUOUS
100
AcDbLine
 10
37.67199999996831
 20
4.817835079589585
 30
0.0
 11
36.23199999996837
 21
6.257835079589526
 31
0.0
  0
LINE
  5
10544
330
1050C
100
AcDbEntity
  8
0
  6
CONTINUOUS
100
AcDbLine
 10
37.67199999996831
 20
5.491354288669771
 30
0.0
 11
36.23199999996837
 21
6.931354288669713
 31
0.0
  0
LINE
  5
10545
330
1050C
100
AcDbEntity
  8
0
  6
CONTINUOUS
100
AcDbLine
 10
37.67199999996831
 20
6.164873497749958
 30
0.0
 11
36.23199999996837
 21
7.6048734977499
 31
0.0
  0
LINE
  5
10546
330
1050C
100
AcDbEntity
  8
0
  6
CONTINUOUS
100
AcDbLine
 10
37.67199999996831
 20
6.838392706830144
 30
0.0
 11
36.23199999996837
 21
8.278392706830086
 31
0.0
  0
LINE
  5
10547
330
1050C
100
AcDbEntity
  8
0
  6
CONTINUOUS
100
AcDbLine
 10
37.67199999996831
 20
7.511911915910332
 30
0.0
 11
36.42081191588738
 21
8.763099999991255
 31
0.0
  0
LINE
  5
10548
330
1050C
100
AcDbEntity
  8
0
  6
CONTINUOUS
100
AcDbLine
 10
37.67199999996831
 20
8.185431124990519
 30
0.0
 11
37.09433112496757
 21
8.763099999991255
 31
0.0
  0
ENDBLK
  5
105B0
330
1050C
100
AcDbEntity
  8
0
100
AcDbBlockEnd
  0
BLOCK
  5
105B1
330
10549
100
AcDbEntity
  8
0
100
AcDbBlockBegin
  2
*X23
 70
     1
 10
0.0
 20
0.0
 30
0.0
  3
*X23
  1

  0
LINE
  5
1054A
330
10549
100
AcDbEntity
  8
0
  6
CONTINUOUS
100
AcDbLine
 10
38.60499999996136
 20
8.762866199104765
 30
0.0
 11
38.71672554182345
 21
8.874591740966855
 31
0.0
  0
LINE
  5
1054B
330
10549
100
AcDbEntity
  8
0
  6
CONTINUOUS
100
AcDbLine
 10
38.60499999996136
 20
8.089346990024577
 30
0.0
 11
39.03418785440363
 21
8.518534844466847
 31
0.0
  0
LINE
  5
1054C
330
10549
100
AcDbEntity
  8
0
  6
CONTINUOUS
100
AcDbLine
 10
38.60499999996136
 20
7.41582778094439
 30
0.0
 11
39.35165016698382
 21
8.16247794796684
 31
0.0
  0
LINE
  5
1054D
330
10549
100
AcDbEntity
  8
0
  6
CONTINUOUS
100
AcDbLine
 10
38.60499999996136
 20
6.742308571864204
 30
0.0
 11
39.66911247956399
 21
7.806421051466834
 31
0.0
  0
LINE
  5
1054E
330
10549
100
AcDbEntity
  8
0
  6
CONTINUOUS
100
AcDbLine
 10
38.60499999996136
 20
6.068789362784018
 30
0.0
 11
39.98657479214418
 21
7.450364154966827
 31
0.0
  0
LINE
  5
1054F
330
10549
100
AcDbEntity
  8
0
  6
CONTINUOUS
100
AcDbLine
 10
38.60499999996136
 20
5.395270153703832
 30
0.0
 11
40.30403710472435
 21
7.09430725846682
 31
0.0
  0
LINE
  5
10550
330
10549
100
AcDbEntity
  8
0
  6
CONTINUOUS
100
AcDbLine
 10
38.60499999996136
 20
4.721750944623645
 30
0.0
 11
40.62149941730453
 21
6.738250361966813
 31
0.0
  0
LINE
  5
10551
330
10549
100
AcDbEntity
  8
0
  6
CONTINUOUS
100
AcDbLine
 10
38.60499999996136
 20
4.048231735543458
 30
0.0
 11
40.93896172988471
 21
6.382193465466806
 31
0.0
  0
LINE
  5
10552
330
10549
100
AcDbEntity
  8
0
  6
CONTINUOUS
100
AcDbLine
 10
38.60499999996136
 20
3.374712526463272
 30
0.0
 11
40.02599999995994
 21
4.795712526461843
 31
0.0
  0
LINE
  5
10553
330
10549
100
AcDbEntity
  8
0
  6
CONTINUOUS
100
AcDbLine
 10
38.60499999996136
 20
2.701193317383085
 30
0.0
 11
40.02599999995994
 21
4.122193317381657
 31
0.0
  0
LINE
  5
10554
330
10549
100
AcDbEntity
  8
0
  6
CONTINUOUS
100
AcDbLine
 10
40.28339754687704
 20
5.053110073378947
 30
0.0
 11
41.25642404246489
 21
6.026136568966799
 31
0.0
  0
LINE
  5
10555
330
10549
100
AcDbEntity
  8
0
  6
CONTINUOUS
100
AcDbLine
 10
40.60085985945722
 20
4.697053176878939
 30
0.0
 11
41.57388635504507
 21
5.670079672466793
 31
0.0
  0
LINE
  5
10556
330
10549
100
AcDbEntity
  8
0
  6
CONTINUOUS
100
AcDbLine
 10
43.57899999995641
 20
8.348712526458318
 30
0.0
 11
43.99338747348935
 21
8.763099999991255
 31
0.0
  0
LINE
  5
10557
330
10549
100
AcDbEntity
  8
0
  6
CONTINUOUS
100
AcDbLine
 10
43.57899999995641
 20
7.675193317378131
 30
0.0
 11
44.66690668256953
 21
8.763099999991255
 31
0.0
  0
LINE
  5
10558
330
10549
100
AcDbEntity
  8
0
  6
CONTINUOUS
100
AcDbLine
 10
38.60499999996136
 20
2.027674108302898
 30
0.0
 11
40.02599999995994
 21
3.44867410830147
 31
0.0
  0
LINE
  5
10559
330
10549
100
AcDbEntity
  8
0
  6
CONTINUOUS
100
AcDbLine
 10
38.60499999996136
 20
1.354154899222712
 30
0.0
 11
40.02599999995994
 21
2.775154899221284
 31
0.0
  0
LINE
  5
1055A
330
10549
100
AcDbEntity
  8
0
  6
CONTINUOUS
100
AcDbLine
 10
38.60499999996136
 20
0.6806356901425255
 30
0.0
 11
40.02599999995994
 21
2.101635690141098
 31
0.0
  0
LINE
  5
1055B
330
10549
100
AcDbEntity
  8
0
  6
CONTINUOUS
100
AcDbLine
 10
38.60499999996136
 20
0.0071164810623383
 30
0.0
 11
40.02599999995994
 21
1.428116481060911
 31
0.0
  0
LINE
  5
1055C
330
10549
100
AcDbEntity
  8
0
  6
CONTINUOUS
100
AcDbLine
 10
40.9183221720374
 20
4.340996280378933
 30
0.0
 11
41.89134866762525
 21
5.314022775966786
 31
0.0
  0
LINE
  5
1055D
330
10549
100
AcDbEntity
  8
0
  6
CONTINUOUS
100
AcDbLine
 10
41.23578448461758
 20
3.984939383878926
 30
0.0
 11
42.20881098020543
 21
4.957965879466778
 31
0.0
  0
LINE
  5
1055E
330
10549
100
AcDbEntity
  8
0
  6
CONTINUOUS
100
AcDbLine
 10
41.55324679719776
 20
3.628882487378919
 30
0.0
 11
42.52627329278561
 21
4.601908982966772
 31
0.0
  0
LINE
  5
1055F
330
10549
100
AcDbEntity
  8
0
  6
CONTINUOUS
100
AcDbLine
 10
41.87070910977793
 20
3.272825590878912
 30
0.0
 11
42.84373560536579
 21
4.245852086466765
 31
0.0
  0
LINE
  5
10560
330
10549
100
AcDbEntity
  8
0
  6
CONTINUOUS
100
AcDbLine
 10
43.57899999995641
 20
7.001674108297943
 30
0.0
 11
44.99999999995498
 21
8.422674108296516
 31
0.0
  0
LINE
  5
10561
330
10549
100
AcDbEntity
  8
0
  6
CONTINUOUS
100
AcDbLine
 10
43.57899999995641
 20
6.328154899217758
 30
0.0
 11
44.99999999995498
 21
7.749154899216329
 31
0.0
  0
LINE
  5
10562
330
10549
100
AcDbEntity
  8
0
  6
CONTINUOUS
100
AcDbLine
 10
43.57899999995641
 20
5.654635690137571
 30
0.0
 11
44.99999999995498
 21
7.075635690136142
 31
0.0
  0
LINE
  5
10563
330
10549
100
AcDbEntity
  8
0
  6
CONTINUOUS
100
AcDbLine
 10
43.57899999995641
 20
4.981116481057384
 30
0.0
 11
44.99999999995498
 21
6.402116481055955
 31
0.0
  0
LINE
  5
10564
330
10549
100
AcDbEntity
  8
0
  6
CONTINUOUS
100
AcDbLine
 10
39.27140272797921
 20
-0.0000000000000009
 30
0.0
 11
40.02599999995994
 21
0.7545972719807246
 31
0.0
  0
LINE
  5
10565
330
10549
100
AcDbEntity
  8
0
  6
CONTINUOUS
100
AcDbLine
 10
39.9449219370594
 20
-0.0000000000000009
 30
0.0
 11
40.02599999995994
 21
0.0810780629005379
 31
0.0
  0
LINE
  5
10566
330
10549
100
AcDbEntity
  8
0
  6
CONTINUOUS
100
AcDbLine
 10
42.18817142235812
 20
2.916768694378905
 30
0.0
 11
43.16119791794597
 21
3.889795189966758
 31
0.0
  0
LINE
  5
10567
330
10549
100
AcDbEntity
  8
0
  6
CONTINUOUS
100
AcDbLine
 10
42.50563373493829
 20
2.560711797878898
 30
0.0
 11
43.47866023052615
 21
3.533738293466751
 31
0.0
  0
LINE
  5
10568
330
10549
100
AcDbEntity
  8
0
  6
CONTINUOUS
100
AcDbLine
 10
43.57899999995641
 20
4.307597271977198
 30
0.0
 11
44.99999999995498
 21
5.728597271975769
 31
0.0
  0
LINE
  5
10569
330
10549
100
AcDbEntity
  8
0
  6
CONTINUOUS
100
AcDbLine
 10
43.57899999995641
 20
3.634078062897011
 30
0.0
 11
44.99999999995498
 21
5.055078062895582
 31
0.0
  0
LINE
  5
1056A
330
10549
100
AcDbEntity
  8
0
  6
CONTINUOUS
100
AcDbLine
 10
42.82309604751848
 20
2.204654901378891
 30
0.0
 11
44.99999999995498
 21
4.381558853815395
 31
0.0
  0
LINE
  5
1056B
330
10549
100
AcDbEntity
  8
0
  6
CONTINUOUS
100
AcDbLine
 10
43.14055836009865
 20
1.848598004878885
 30
0.0
 11
44.99999999995498
 21
3.70803964473521
 31
0.0
  0
LINE
  5
1056C
330
10549
100
AcDbEntity
  8
0
  6
CONTINUOUS
100
AcDbLine
 10
43.45802067267883
 20
1.492541108378878
 30
0.0
 11
44.99999999995498
 21
3.034520435655023
 31
0.0
  0
LINE
  5
1056D
330
10549
100
AcDbEntity
  8
0
  6
CONTINUOUS
100
AcDbLine
 10
43.77548298525902
 20
1.136484211878871
 30
0.0
 11
44.99999999995498
 21
2.361001226574837
 31
0.0
  0
LINE
  5
1056E
330
10549
100
AcDbEntity
  8
0
  6
CONTINUOUS
100
AcDbLine
 10
44.09294529783919
 20
0.7804273153788639
 30
0.0
 11
44.99999999995498
 21
1.687482017494649
 31
0.0
  0
LINE
  5
1056F
330
10549
100
AcDbEntity
  8
0
  6
CONTINUOUS
100
AcDbLine
 10
44.41040761041938
 20
0.4243704188788566
 30
0.0
 11
44.99999999995498
 21
1.013962808414463
 31
0.0
  0
LINE
  5
10570
330
10549
100
AcDbEntity
  8
0
  6
CONTINUOUS
100
AcDbLine
 10
44.72786992299955
 20
0.0683135223788494
 30
0.0
 11
44.99999999995498
 21
0.340443599334276
 31
0.0
  0
LINE
  5
10571
330
10549
100
AcDbEntity
  8
0
  6
CONTINUOUS
100
AcDbLine
 10
39.12223903415696
 20
-0.0000000000000009
 30
0.0
 11
38.60499999996136
 21
0.5172390341955961
 31
0.0
  0
LINE
  5
10572
330
10549
100
AcDbEntity
  8
0
  6
CONTINUOUS
100
AcDbLine
 10
39.79575824323715
 20
-0.0000000000000009
 30
0.0
 11
38.60499999996136
 21
1.190758243275783
 31
0.0
  0
LINE
  5
10573
330
10549
100
AcDbEntity
  8
0
  6
CONTINUOUS
100
AcDbLine
 10
40.02599999995994
 20
0.443277452357397
 30
0.0
 11
38.60499999996136
 21
1.864277452355969
 31
0.0
  0
LINE
  5
10574
330
10549
100
AcDbEntity
  8
0
  6
CONTINUOUS
100
AcDbLine
 10
40.02599999995994
 20
1.116796661437583
 30
0.0
 11
38.60499999996136
 21
2.537796661436155
 31
0.0
  0
LINE
  5
10575
330
10549
100
AcDbEntity
  8
0
  6
CONTINUOUS
100
AcDbLine
 10
40.02599999995994
 20
1.79031587051777
 30
0.0
 11
38.60499999996136
 21
3.211315870516341
 31
0.0
  0
LINE
  5
10576
330
10549
100
AcDbEntity
  8
0
  6
CONTINUOUS
100
AcDbLine
 10
40.02599999995994
 20
2.463835079597956
 30
0.0
 11
38.60499999996136
 21
3.884835079596527
 31
0.0
  0
LINE
  5
10577
330
10549
100
AcDbEntity
  8
0
  6
CONTINUOUS
100
AcDbLine
 10
40.02599999995994
 20
3.137354288678143
 30
0.0
 11
38.60499999996136
 21
4.558354288676714
 31
0.0
  0
LINE
  5
10578
330
10549
100
AcDbEntity
  8
0
  6
CONTINUOUS
100
AcDbLine
 10
40.02599999995994
 20
3.810873497758329
 30
0.0
 11
38.60499999996136
 21
5.2318734977569
 31
0.0
  0
LINE
  5
10579
330
10549
100
AcDbEntity
  8
0
  6
CONTINUOUS
100
AcDbLine
 10
40.02599999995994
 20
4.484392706838515
 30
0.0
 11
38.60499999996136
 21
5.905392706837086
 31
0.0
  0
LINE
  5
1057A
330
10549
100
AcDbEntity
  8
0
  6
CONTINUOUS
100
AcDbLine
 10
44.99999999995498
 20
0.183911915923658
 30
0.0
 11
41.53858364506288
 21
3.64532827081576
 31
0.0
  0
LINE
  5
1057B
330
10549
100
AcDbEntity
  8
0
  6
CONTINUOUS
100
AcDbLine
 10
40.02599999995994
 20
5.157911915918703
 30
0.0
 11
38.60499999996136
 21
6.578911915917274
 31
0.0
  0
LINE
  5
1057C
330
10549
100
AcDbEntity
  8
0
  6
CONTINUOUS
100
AcDbLine
 10
44.99999999995498
 20
0.8574311250038447
 30
0.0
 11
38.60499999996136
 21
7.25243112499746
 31
0.0
  0
LINE
  5
1057D
330
10549
100
AcDbEntity
  8
0
  6
CONTINUOUS
100
AcDbLine
 10
44.99999999995498
 20
1.530950334084031
 30
0.0
 11
38.60499999996136
 21
7.925950334077647
 31
0.0
  0
LINE
  5
1057E
330
10549
100
AcDbEntity
  8
0
  6
CONTINUOUS
100
AcDbLine
 10
44.99999999995498
 20
2.204469543164218
 30
0.0
 11
43.57899999995641
 21
3.625469543162789
 31
0.0
  0
LINE
  5
1057F
330
10549
100
AcDbEntity
  8
0
  6
CONTINUOUS
100
AcDbLine
 10
41.89876730984767
 20
5.305702233271528
 30
0.0
 11
38.60499999996136
 21
8.599469543157834
 31
0.0
  0
LINE
  5
10580
330
10549
100
AcDbEntity
  8
0
  6
CONTINUOUS
100
AcDbLine
 10
44.99999999995498
 20
2.877988752244405
 30
0.0
 11
43.57899999995641
 21
4.298988752242975
 31
0.0
  0
LINE
  5
10581
330
10549
100
AcDbEntity
  8
0
  6
CONTINUOUS
100
AcDbLine
 10
44.99999999995498
 20
3.551507961324591
 30
0.0
 11
43.57899999995641
 21
4.972507961323163
 31
0.0
  0
LINE
  5
10582
330
10549
100
AcDbEntity
  8
0
  6
CONTINUOUS
100
AcDbLine
 10
44.99999999995498
 20
4.225027170404777
 30
0.0
 11
43.57899999995641
 21
5.646027170403348
 31
0.0
  0
LINE
  5
10583
330
10549
100
AcDbEntity
  8
0
  6
CONTINUOUS
100
AcDbLine
 10
44.99999999995498
 20
4.898546379484964
 30
0.0
 11
43.57899999995641
 21
6.319546379483535
 31
0.0
  0
LINE
  5
10584
330
10549
100
AcDbEntity
  8
0
  6
CONTINUOUS
100
AcDbLine
 10
44.99999999995498
 20
5.572065588565151
 30
0.0
 11
43.57899999995641
 21
6.993065588563722
 31
0.0
  0
LINE
  5
10585
330
10549
100
AcDbEntity
  8
0
  6
CONTINUOUS
100
AcDbLine
 10
44.99999999995498
 20
6.245584797645336
 30
0.0
 11
43.57899999995641
 21
7.666584797643908
 31
0.0
  0
LINE
  5
10586
330
10549
100
AcDbEntity
  8
0
  6
CONTINUOUS
100
AcDbLine
 10
44.99999999995498
 20
6.919104006725522
 30
0.0
 11
43.57899999995641
 21
8.340104006724093
 31
0.0
  0
LINE
  5
10587
330
10549
100
AcDbEntity
  8
0
  6
CONTINUOUS
100
AcDbLine
 10
44.99999999995498
 20
7.592623215805709
 30
0.0
 11
43.82952321576943
 21
8.763099999991255
 31
0.0
  0
LINE
  5
10588
330
10549
100
AcDbEntity
  8
0
  6
CONTINUOUS
100
AcDbLine
 10
44.99999999995498
 20
8.266142424885896
 30
0.0
 11
44.50304242484962
 21
8.763099999991255
 31
0.0
  0
ENDBLK
  5
105B2
330
10549
100
AcDbEntity
  8
0
100
AcDbBlockEnd
  0
BLOCK
  5
105B3
330
10589
100
AcDbEntity
  8
0
100
AcDbBlockBegin
  2
*X24
 70
     1
 10
0.0
 20
0.0
 30
0.0
  3
*X24
  1

  0
LINE
  5
1058A
330
10589
100
AcDbEntity
  8
0
  6
CONTINUOUS
100
AcDbLine
 10
0.0
 20
8.548461116714023
 30
0.0
 11
0.2146388832772324
 21
8.763099999991255
 31
0.0
  0
LINE
  5
1058B
330
10589
100
AcDbEntity
  8
0
  6
CONTINUOUS
100
AcDbLine
 10
-0.0000000000000002
 20
7.874941907633837
 30
0.0
 11
0.8881580923574184
 21
8.763099999991255
 31
0.0
  0
LINE
  5
1058C
330
10589
100
AcDbEntity
  8
0
  6
CONTINUOUS
100
AcDbLine
 10
0.0
 20
7.20142269855365
 30
0.0
 11
1.420999999998572
 21
8.622422698552223
 31
0.0
  0
LINE
  5
1058D
330
10589
100
AcDbEntity
  8
0
  6
CONTINUOUS
100
AcDbLine
 10
-0.0000000000000001
 20
6.527903489473465
 30
0.0
 11
1.420999999998571
 21
7.948903489472036
 31
0.0
  0
LINE
  5
1058E
330
10589
100
AcDbEntity
  8
0
  6
CONTINUOUS
100
AcDbLine
 10
-0.0000000000000002
 20
5.854384280393278
 30
0.0
 11
1.420999999998571
 21
7.275384280391849
 31
0.0
  0
LINE
  5
1058F
330
10589
100
AcDbEntity
  8
0
  6
CONTINUOUS
100
AcDbLine
 10
-0.0000000000000002
 20
5.180865071313091
 30
0.0
 11
1.420999999998571
 21
6.601865071311663
 31
0.0
  0
LINE
  5
10590
330
10589
100
AcDbEntity
  8
0
  6
CONTINUOUS
100
AcDbLine
 10
0.0
 20
4.507345862232905
 30
0.0
 11
1.420999999998571
 21
5.928345862231477
 31
0.0
  0
LINE
  5
10591
330
10589
100
AcDbEntity
  8
0
  6
CONTINUOUS
100
AcDbLine
 10
-0.0000000000000003
 20
3.833826653152718
 30
0.0
 11
1.420999999998571
 21
5.25482665315129
 31
0.0
  0
LINE
  5
10592
330
10589
100
AcDbEntity
  8
0
  6
CONTINUOUS
100
AcDbLine
 10
-0.0000000000000002
 20
3.160307444072532
 30
0.0
 11
1.420999999998571
 21
4.581307444071103
 31
0.0
  0
LINE
  5
10593
330
10589
100
AcDbEntity
  8
0
  6
CONTINUOUS
100
AcDbLine
 10
-0.0000000000000001
 20
2.486788234992345
 30
0.0
 11
1.420999999998571
 21
3.907788234990917
 31
0.0
  0
LINE
  5
10594
330
10589
100
AcDbEntity
  8
0
  6
CONTINUOUS
100
AcDbLine
 10
-0.0000000000000006
 20
1.813269025912159
 30
0.0
 11
1.420999999998571
 21
3.234269025910731
 31
0.0
  0
LINE
  5
10595
330
10589
100
AcDbEntity
  8
0
  6
CONTINUOUS
100
AcDbLine
 10
0.0
 20
1.139749816831973
 30
0.0
 11
1.420999999998571
 21
2.560749816830544
 31
0.0
  0
LINE
  5
10596
330
10589
100
AcDbEntity
  8
0
  6
CONTINUOUS
100
AcDbLine
 10
0.0000000000000002
 20
0.466230607751787
 30
0.0
 11
1.420999999998571
 21
1.887230607750358
 31
0.0
  0
LINE
  5
10597
330
10589
100
AcDbEntity
  8
0
  6
CONTINUOUS
100
AcDbLine
 10
0.2072886013284003
 20
-0.0000000000000009
 30
0.0
 11
1.420999999998571
 21
1.213711398670171
 31
0.0
  0
LINE
  5
10598
330
10589
100
AcDbEntity
  8
0
  6
CONTINUOUS
100
AcDbLine
 10
0.8808078104085864
 20
-0.0000000000000009
 30
0.0
 11
1.420999999998571
 21
0.5401921895899839
 31
0.0
  0
LINE
  5
10599
330
10589
100
AcDbEntity
  8
0
  6
CONTINUOUS
100
AcDbLine
 10
0.0581249075061505
 20
-0.0000000000000009
 30
0.0
 11
-0.0000000000000002
 21
0.0581249075061496
 31
0.0
  0
LINE
  5
1059A
330
10589
100
AcDbEntity
  8
0
  6
CONTINUOUS
100
AcDbLine
 10
0.7316441165863372
 20
-0.0000000000000009
 30
0.0
 11
-0.0000000000000002
 21
0.7316441165863363
 31
0.0
  0
LINE
  5
1059B
330
10589
100
AcDbEntity
  8
0
  6
CONTINUOUS
100
AcDbLine
 10
1.405163325666523
 20
-0.0000000000000009
 30
0.0
 11
-0.0000000000000002
 21
1.405163325666523
 31
0.0
  0
LINE
  5
1059C
330
10589
100
AcDbEntity
  8
0
  6
CONTINUOUS
100
AcDbLine
 10
1.420999999998572
 20
0.6576825347481381
 30
0.0
 11
-0.0000000000000001
 21
2.07868253474671
 31
0.0
  0
LINE
  5
1059D
330
10589
100
AcDbEntity
  8
0
  6
CONTINUOUS
100
AcDbLine
 10
1.420999999998571
 20
1.331201743828324
 30
0.0
 11
-0.0000000000000001
 21
2.752201743826896
 31
0.0
  0
LINE
  5
1059E
330
10589
100
AcDbEntity
  8
0
  6
CONTINUOUS
100
AcDbLine
 10
1.420999999998571
 20
2.004720952908511
 30
0.0
 11
-0.0000000000000002
 21
3.425720952907082
 31
0.0
  0
LINE
  5
1059F
330
10589
100
AcDbEntity
  8
0
  6
CONTINUOUS
100
AcDbLine
 10
1.420999999998571
 20
2.678240161988697
 30
0.0
 11
-0.0000000000000001
 21
4.099240161987269
 31
0.0
  0
LINE
  5
105A0
330
10589
100
AcDbEntity
  8
0
  6
CONTINUOUS
100
AcDbLine
 10
1.420999999998572
 20
3.351759371068884
 30
0.0
 11
0.0
 21
4.772759371067455
 31
0.0
  0
LINE
  5
105A1
330
10589
100
AcDbEntity
  8
0
  6
CONTINUOUS
100
AcDbLine
 10
1.420999999998571
 20
4.02527858014907
 30
0.0
 11
-0.0000000000000003
 21
5.446278580147642
 31
0.0
  0
LINE
  5
105A2
330
10589
100
AcDbEntity
  8
0
  6
CONTINUOUS
100
AcDbLine
 10
1.420999999998571
 20
4.698797789229257
 30
0.0
 11
0.0
 21
6.119797789227828
 31
0.0
  0
LINE
  5
105A3
330
10589
100
AcDbEntity
  8
0
  6
CONTINUOUS
100
AcDbLine
 10
1.420999999998571
 20
5.372316998309444
 30
0.0
 11
-0.0000000000000001
 21
6.793316998308015
 31
0.0
  0
LINE
  5
105A4
330
10589
100
AcDbEntity
  8
0
  6
CONTINUOUS
100
AcDbLine
 10
1.420999999998572
 20
6.045836207389629
 30
0.0
 11
-0.0000000000000004
 21
7.466836207388202
 31
0.0
  0
LINE
  5
105A5
330
10589
100
AcDbEntity
  8
0
  6
CONTINUOUS
100
AcDbLine
 10
1.420999999998571
 20
6.719355416469816
 30
0.0
 11
0.0
 21
8.140355416468388
 31
0.0
  0
LINE
  5
105A6
330
10589
100
AcDbEntity
  8
0
  6
CONTINUOUS
100
AcDbLine
 10
1.420999999998571
 20
7.392874625550003
 30
0.0
 11
0.0507746255573185
 21
8.763099999991255
 31
0.0
  0
LINE
  5
105A7
330
10589
100
AcDbEntity
  8
0
  6
CONTINUOUS
100
AcDbLine
 10
1.420999999998571
 20
8.06639383463019
 30
0.0
 11
0.7242938346375052
 21
8.763099999991255
 31
0.0
  0
LINE
  5
105A8
330
10589
100
AcDbEntity
  8
0
  6
CONTINUOUS
100
AcDbLine
 10
1.420999999998571
 20
8.739913043710375
 30
0.0
 11
1.397813043717691
 21
8.763099999991255
 31
0.0
  0
ENDBLK
  5
105B4
330
10589
100
AcDbEntity
  8
0
100
AcDbBlockEnd
  0
ENDSEC
  0
SECTION
  2
ENTITIES
  0
TEXT
  5
E3BA
330
18
100
AcDbEntity
  8
1TEXT
100
AcDbText
 10
-62.5000179438523
 20
165.0062367118497
 30
0.0
 40
8.0
  1
PC-447-X
100
AcDbText
  0
LINE
  5
E3E4
330
18
100
AcDbEntity
  8
1DIM
100
AcDbLine
 10
-61.26977361225829
 20
154.7906380986238
 30
0.0
 11
8.730226387741709
 21
154.7906380986238
 31
0.0
  0
LINE
  5
E401
330
18
100
AcDbEntity
  8
1CENTER
100
AcDbLine
 10
0.0000003460374103
 20
10.00000000000848
 30
0.0
 11
0.0000003460374103
 21
-1.999999999991523
 31
0.0
  0
LINE
  5
E404
330
18
100
AcDbEntity
  8
1CENTER
100
AcDbLine
 10
3.0
 20
99.99998100000795
 30
0.0
 11
-3.0
 21
99.99998100000795
 31
0.0
  0
LINE
  5
E405
330
18
100
AcDbEntity
  8
1CENTER
100
AcDbLine
 10
0.0
 20
96.99998100000795
 30
0.0
 11
0.0
 21
102.9999810000079
 31
0.0
  0
LINE
  5
E868
330
18
100
AcDbEntity
  8
1CENTER
100
AcDbLine
 10
61.49999965396259
 20
10.00000000000801
 30
0.0
 11
61.49999965396259
 21
-1.999999999991988
 31
0.0
  0
ARC
  5
F65E
330
18
100
AcDbEntity
  8
01
100
AcDbCircle
 10
9.631638043392059
 20
12.00000000000048
 30
0.0
 40
2.0
100
AcDbArc
 50
90.0
 51
176.9999999999944
  0
LINE
  5
F660
330
18
100
AcDbEntity
  8
01
100
AcDbLine
 10
6.999999999999773
 20
0.0000000000000217
 30
0.0
 11
-7.000000000000455
 21
0.0000000000000217
 31
0.0
  0
LINE
  5
F662
330
18
100
AcDbEntity
  8
01
100
AcDbLine
 10
6.999999999999773
 20
0.0000000000000217
 30
0.0
 11
7.634378973882804
 21
12.1046719124861
 31
0.0
  0
ARC
  5
F663
330
18
100
AcDbEntity
  8
01
100
AcDbCircle
 10
-9.63163804339274
 20
12.00000000000048
 30
0.0
 40
2.0
100
AcDbArc
 50
2.999999999979492
 51
90.0
  0
LINE
  5
F664
330
18
100
AcDbEntity
  8
01
100
AcDbLine
 10
-7.000000000000455
 20
0.0000000000000217
 30
0.0
 11
-7.634378973883486
 21
12.1046719124861
 31
0.0
  0
ARC
  5
F665
330
18
100
AcDbEntity
  8
01
100
AcDbCircle
 10
71.13163769735488
 20
12.00000000000047
 30
0.0
 40
2.0
100
AcDbArc
 50
90.0
 51
176.9999999999936
  0
LINE
  5
F667
330
18
100
AcDbEntity
  8
01
100
AcDbLine
 10
68.49999965396259
 20
0.000000000000011
 30
0.0
 11
54.49999965396213
 21
0.000000000000011
 31
0.0
  0
LINE
  5
F668
330
18
100
AcDbEntity
  8
01
100
AcDbLine
 10
68.49999965396259
 20
0.000000000000011
 30
0.0
 11
69.13437862784562
 21
12.10467191248609
 31
0.0
  0
ARC
  5
F669
330
18
100
AcDbEntity
  8
01
100
AcDbCircle
 10
51.8683616105703
 20
12.00000000000047
 30
0.0
 40
2.0
100
AcDbArc
 50
2.999999999993347
 51
90.0
  0
LINE
  5
F66A
330
18
100
AcDbEntity
  8
01
100
AcDbLine
 10
54.49999965396213
 20
0.000000000000011
 30
0.0
 11
53.8656206800791
 21
12.10467191248609
 31
0.0
  0
LINE
  5
F675
330
18
100
AcDbEntity
  8
01
100
AcDbLine
 10
-5.500000000000341
 20
-1.999999999999978
 30
0.0
 11
-4.750000000000341
 21
0.0000000000000217
 31
0.0
  0
LINE
  5
F676
330
18
100
AcDbEntity
  8
01
100
AcDbLine
 10
-5.500000000000341
 20
-1.999999999999978
 30
0.0
 11
-6.250000000000341
 21
0.0000000000000217
 31
0.0
  0
LINE
  5
F678
330
18
100
AcDbEntity
  8
01
100
AcDbLine
 10
61.49998904226763
 20
-1.999999999999989
 30
0.0
 11
62.24998904226763
 21
0.000000000000011
 31
0.0
  0
LINE
  5
F679
330
18
100
AcDbEntity
  8
01
100
AcDbLine
 10
61.49998904226763
 20
-1.999999999999989
 30
0.0
 11
60.74998904226763
 21
0.000000000000011
 31
0.0
  0
ARC
  5
F8ED
330
18
100
AcDbEntity
  8
01
100
AcDbCircle
 10
3.75135106385153
 20
27.32355217738816
 30
0.0
 40
8.963561861832522
100
AcDbArc
 50
248.9644649790035
 51
268.7579516421179
  0
LINE
  5
F8EE
330
18
100
AcDbEntity
  8
01
100
AcDbLine
 10
0.5337000225687234
 20
18.95744074571032
 30
0.0
 11
0.5338748621385321
 21
18.95737355721032
 31
0.0
  0
LINE
  5
F8EF
330
18
100
AcDbEntity
  8
01
100
AcDbLine
 10
0.307493740205814
 20
18.99999157982031
 30
0.0
 11
0.5322669676185114
 21
18.95798923336135
 31
0.0
  0
ARC
  5
F8F0
330
18
100
AcDbEntity
  8
01
100
AcDbCircle
 10
-4.901466862543998
 20
20.28028959979112
 30
0.0
 40
1.920291554315521
100
AcDbArc
 50
271.3975842681166
 51
311.4017505241262
  0
ARC
  5
F8F1
330
18
100
AcDbEntity
  8
01
100
AcDbCircle
 10
-3.208175837617432
 20
18.3599913915946
 30
0.0
 40
0.6400086084292288
100
AcDbArc
 50
90.00082193006227
 51
131.3368992755292
  0
LINE
  5
F8F2
330
18
100
AcDbEntity
  8
01
100
AcDbLine
 10
-3.631495571884784
 20
18.84000328476488
 30
0.0
 11
-3.631427697614868
 21
18.84006313499324
 31
0.0
  0
LINE
  5
F8F3
330
18
100
AcDbEntity
  8
01
100
AcDbLine
 10
11.41013001517115
 20
18.90789465120135
 30
0.0
 11
9.307336212433825
 21
18.90716263573679
 31
0.0
  0
LINE
  5
F8F4
330
18
100
AcDbEntity
  8
01
100
AcDbLine
 10
8.971710739186278
 20
19.00000000000048
 30
0.0
 11
11.0773378923401
 21
19.00000000000048
 31
0.0
  0
LINE
  5
F8F5
330
18
100
AcDbEntity
  8
01
100
AcDbLine
 10
-0.2777431969719828
 20
19.00000000050434
 30
0.0
 11
0.3041908868564178
 21
19.00000000038337
 31
0.0
  0
LINE
  5
F8F6
330
18
100
AcDbEntity
  8
01
100
AcDbLine
 10
0.5338654127955351
 20
18.95734897866898
 30
0.0
 11
-0.0767037661197492
 21
18.95724640476376
 31
0.0
  0
LINE
  5
F8F7
330
18
100
AcDbEntity
  8
01
100
AcDbLine
 10
-3.547296830335085
 20
18.8399574907776
 30
0.0
 11
-3.631429776518758
 21
18.83992867899453
 31
0.0
  0
SPLINE
  5
F8F8
330
18
100
AcDbEntity
  8
01
100
AcDbSpline
210
0.0
220
0.0
230
1.0
 70
    24
 71
     3
 72
     8
 73
     4
 74
     0
 42
0.0000000001
 43
0.0000000001
 40
-7.900438273198858
 40
-7.900438273198858
 40
-7.900438273198858
 40
-7.900438273198858
 40
-2.444871772888626
 40
-2.444871772888626
 40
-2.444871772888626
 40
-2.444871772888626
 10
-3.207625054044343
 20
19.00000000821139
 30
0.0
 10
-3.212979799715754
 20
19.00000000822231
 30
0.0
 10
-3.188754445145491
 20
19.00000000823322
 30
0.0
 10
-3.153041976651707
 20
19.00000000824459
 30
0.0
  0
LINE
  5
F8F9
330
18
100
AcDbEntity
  8
01
100
AcDbLine
 10
-8.314430362666712
 20
19.00000000254979
 30
0.0
 11
-8.154808566235147
 21
19.00000000262755
 31
0.0
  0
LINE
  5
F8FA
330
18
100
AcDbEntity
  8
01
100
AcDbLine
 10
-11.39755497333033
 20
18.87197491569128
 30
0.0
 11
-11.65714706870347
 21
18.87201451070592
 31
0.0
  0
LINE
  5
F8FB
330
18
100
AcDbEntity
  8
01
100
AcDbLine
 10
-11.27316886104552
 20
19.00000000526284
 30
0.0
 11
-11.0387082105143
 21
19.00000000514734
 31
0.0
  0
ARC
  5
F8FC
330
18
100
AcDbEntity
  8
01
100
AcDbCircle
 10
-5.847293081484509
 20
22.19967636479125
 30
0.0
 40
3.83967495787654
100
AcDbArc
 50
238.9958343595358
 51
269.0312660892761
  0
LINE
  5
F8FD
330
18
100
AcDbEntity
  8
01
100
AcDbLine
 10
-8.154808566235147
 20
19.00000000262755
 30
0.0
 11
-7.825111161898235
 21
18.90857633244152
 31
0.0
  0
ARC
  5
F8FE
330
18
100
AcDbEntity
  8
01
100
AcDbCircle
 10
-11.27316679402645
 20
18.36000112149718
 30
0.0
 40
0.6399988837692929
100
AcDbArc
 50
90.00018504949726
 51
126.750155347037
  0
ARC
  5
F8FF
330
18
100
AcDbEntity
  8
01
100
AcDbCircle
 10
-13.19318193354491
 20
20.92004484660406
 30
0.0
 40
2.560045187641685
100
AcDbArc
 50
273.1106202586338
 51
306.8701145229692
  0
ARC
  5
F900
330
18
100
AcDbEntity
  8
01
100
AcDbCircle
 10
-13.00000000000034
 20
17.3652449255997
 30
0.0
 40
1.0
100
AcDbArc
 50
93.11062025863383
 51
180.0
  0
ARC
  5
F901
330
18
100
AcDbEntity
  8
01
100
AcDbCircle
 10
13.38964408883169
 20
22.20959025872937
 30
0.0
 40
3.849632430841973
100
AcDbArc
 50
239.0554291365135
 51
265.3915989852441
  0
ARC
  5
F902
330
18
100
AcDbEntity
  8
01
100
AcDbCircle
 10
12.99999999999966
 20
17.37563616310083
 30
0.0
 40
1.0
100
AcDbArc
 50
0.0
 51
85.39159898521875
  0
LINE
  5
F903
330
18
100
AcDbEntity
  8
01
100
AcDbLine
 10
11.0773378923401
 20
19.00000000000048
 30
0.0
 11
11.41013001517115
 21
18.90789465120135
 31
0.0
  0
ARC
  5
F904
330
18
100
AcDbEntity
  8
01
100
AcDbCircle
 10
-6.005356780135912
 20
22.19970088458879
 30
0.0
 40
3.839700885631521
100
AcDbArc
 50
239.0044575576828
 51
270.0013202054993
  0
LINE
  5
F905
330
18
100
AcDbEntity
  8
01
100
AcDbLine
 10
-4.817187429994533
 20
18.35999999999969
 30
0.0
 11
-6.005268306006087
 21
18.3599999999765
 31
0.0
  0
ARC
  5
F906
330
18
100
AcDbEntity
  8
01
100
AcDbCircle
 10
-4.817197738729078
 20
20.27996952375999
 30
0.0
 40
1.91996952378764
100
AcDbArc
 50
270.0003076335242
 51
311.4080479496681
  0
ARC
  5
F907
330
18
100
AcDbEntity
  8
01
100
AcDbCircle
 10
-3.123876179508784
 20
18.35986181817545
 30
0.0
 40
0.6401381900788206
100
AcDbArc
 50
90.00012392719367
 51
131.4107005870697
  0
LINE
  5
F908
330
18
100
AcDbEntity
  8
01
100
AcDbLine
 10
-0.3072622283574447
 20
19.00000000050797
 30
0.0
 11
-3.123877564088048
 21
19.00000000825278
 31
0.0
  0
LINE
  5
F909
330
18
100
AcDbEntity
  8
01
100
AcDbLine
 10
-0.0767037661197492
 20
18.95724640476376
 30
0.0
 11
-0.3072622283574447
 21
19.00000000050797
 31
0.0
  0
ARC
  5
F90A
330
18
100
AcDbEntity
  8
01
100
AcDbCircle
 10
3.139369597042446
 20
27.31763529581396
 30
0.0
 40
8.957635306643825
100
AcDbArc
 50
248.9592701232167
 51
270.0028174204388
  0
LINE
  5
F90B
330
18
100
AcDbEntity
  8
01
100
AcDbLine
 10
3.363250605448798
 20
18.35999999999969
 30
0.0
 11
3.139810073202284
 21
18.35999999999969
 31
0.0
  0
ARC
  5
F90C
330
18
100
AcDbEntity
  8
01
100
AcDbCircle
 10
3.362978201657484
 20
27.32178247868207
 30
0.0
 40
8.961782482822008
100
AcDbArc
 50
270.0017415717932
 51
291.0239200595997
  0
LINE
  5
F90D
330
18
100
AcDbEntity
  8
01
100
AcDbLine
 10
6.812524293245247
 20
19.00000000028333
 30
0.0
 11
6.578086431173347
 21
18.9565792927506
 31
0.0
  0
LINE
  5
F90E
330
18
100
AcDbEntity
  8
01
100
AcDbLine
 10
8.971710739186278
 20
19.00000000000048
 30
0.0
 11
6.812524293245247
 21
19.00000000028333
 31
0.0
  0
LINE
  5
F90F
330
18
100
AcDbEntity
  8
01
100
AcDbLine
 10
9.307336212433825
 20
18.90716263573679
 30
0.0
 11
8.971710739186278
 21
19.00000000000048
 31
0.0
  0
ARC
  5
F910
330
18
100
AcDbEntity
  8
01
100
AcDbCircle
 10
11.28308730406854
 20
22.20070378331186
 30
0.0
 40
3.84070379837675
100
AcDbArc
 50
239.0410225626541
 51
269.9949314518468
  0
LINE
  5
F911
330
18
100
AcDbEntity
  8
01
100
AcDbLine
 10
12.99999999998602
 20
18.35999999998651
 30
0.0
 11
11.28274754445158
 21
18.35999999996331
 31
0.0
  0
ARC
  5
F912
330
18
100
AcDbEntity
  8
01
100
AcDbCircle
 10
12.99999999999966
 20
17.35999999998651
 30
0.0
 40
1.0
100
AcDbArc
 50
0.0
 51
90.00000000078165
  0
LINE
  5
F913
330
18
100
AcDbEntity
  8
01
100
AcDbLine
 10
13.99999999999966
 20
14.50000000000048
 30
0.0
 11
13.99999999999966
 21
17.35999999998651
 31
0.0
  0
LINE
  5
F914
330
18
100
AcDbEntity
  8
01
100
AcDbLine
 10
-12.9334790170941
 20
18.35999999999972
 30
0.0
 11
-13.00000000000034
 21
18.35999999999972
 31
0.0
  0
ARC
  5
F915
330
18
100
AcDbEntity
  8
01
100
AcDbCircle
 10
-12.93342826396645
 20
20.92006297774702
 30
0.0
 40
2.560062978250126
100
AcDbArc
 50
269.9988641138819
 51
306.8652956607507
  0
ARC
  5
F916
330
18
100
AcDbEntity
  8
01
100
AcDbCircle
 10
-11.01281810366652
 20
18.35823186498288
 30
0.0
 40
0.6417681441372567
100
AcDbArc
 50
89.9934088615219
 51
126.8337475783016
  0
LINE
  5
F917
330
18
100
AcDbEntity
  8
01
100
AcDbLine
 10
-8.314430362666712
 20
19.00000000207367
 30
0.0
 11
-11.01274427654096
 21
19.00000000487358
 31
0.0
  0
LINE
  5
F918
330
18
100
AcDbEntity
  8
01
100
AcDbLine
 10
-7.982692869118068
 20
18.90828099610192
 30
0.0
 11
-8.314430362666712
 21
19.00000000207367
 31
0.0
  0
LINE
  5
F919
330
18
100
AcDbEntity
  8
01
100
AcDbLine
 10
-14.00000000000034
 20
14.5000000000005
 30
0.0
 11
-14.00000000000034
 21
17.3652449255997
 31
0.0
  0
ARC
  5
F91A
330
18
100
AcDbEntity
  8
01
100
AcDbCircle
 10
-13.50000000000034
 20
14.5000000000005
 30
0.0
 40
0.5
100
AcDbArc
 50
180.0
 51
270.0
  0
ARC
  5
F91B
330
18
100
AcDbEntity
  8
01
100
AcDbCircle
 10
-13.00000000000034
 20
17.35999999999972
 30
0.0
 40
1.0
100
AcDbArc
 50
90.0
 51
180.0
  0
LINE
  5
F91C
330
18
100
AcDbEntity
  8
01
100
AcDbLine
 10
-13.50000000000034
 20
14.0000000000005
 30
0.0
 11
13.49999999999966
 21
14.00000000000048
 31
0.0
  0
ARC
  5
F91D
330
18
100
AcDbEntity
  8
01
100
AcDbCircle
 10
13.49999999999966
 20
14.50000000000048
 30
0.0
 40
0.5
100
AcDbArc
 50
270.0
 51
0.0
  0
LINE
  5
F91E
330
18
100
AcDbEntity
  8
01
100
AcDbLine
 10
48.49999965397669
 20
19.0000000052491
 30
0.0
 11
74.49999965397669
 21
19.00000000488769
 31
0.0
  0
ARC
  5
F91F
330
18
100
AcDbEntity
  8
01
100
AcDbCircle
 10
48.49999965396304
 20
18.0000000052491
 30
0.0
 40
1.0
100
AcDbArc
 50
89.9999999991923
 51
180.0
  0
ARC
  5
F920
330
18
100
AcDbEntity
  8
01
100
AcDbCircle
 10
74.49999965396304
 20
18.00000000488769
 30
0.0
 40
1.0
100
AcDbArc
 50
0.0
 51
89.9999999991923
  0
LINE
  5
F921
330
18
100
AcDbEntity
  8
01
100
AcDbLine
 10
75.49999965396304
 20
14.50000000000047
 30
0.0
 11
75.49999965396304
 21
18.00000000488769
 31
0.0
  0
LINE
  5
F922
330
18
100
AcDbEntity
  8
01
100
AcDbLine
 10
47.49999965396304
 20
14.50000000000047
 30
0.0
 11
47.49999965396304
 21
18.0000000052491
 31
0.0
  0
ARC
  5
F923
330
18
100
AcDbEntity
  8
01
100
AcDbCircle
 10
47.99999965396304
 20
14.50000000000047
 30
0.0
 40
0.5
100
AcDbArc
 50
180.0
 51
270.0
  0
ARC
  5
F924
330
18
100
AcDbEntity
  8
01
100
AcDbCircle
 10
48.49999965396304
 20
17.3599999999998
 30
0.0
 40
1.0
100
AcDbArc
 50
90.0
 51
180.0
  0
LINE
  5
F925
330
18
100
AcDbEntity
  8
01
100
AcDbLine
 10
74.49999965396304
 20
18.3599999999998
 30
0.0
 11
48.49999965396304
 21
18.3599999999998
 31
0.0
  0
ARC
  5
F926
330
18
100
AcDbEntity
  8
01
100
AcDbCircle
 10
74.49999965396304
 20
17.3599999999998
 30
0.0
 40
1.0
100
AcDbArc
 50
0.0
 51
90.0
  0
LINE
  5
F927
330
18
100
AcDbEntity
  8
01
100
AcDbLine
 10
47.99999965396304
 20
14.00000000000047
 30
0.0
 11
74.99999965396304
 21
14.00000000000047
 31
0.0
  0
ARC
  5
F928
330
18
100
AcDbEntity
  8
01
100
AcDbCircle
 10
74.99999965396304
 20
14.50000000000047
 30
0.0
 40
0.5
100
AcDbArc
 50
270.0
 51
0.0
  0
SPLINE
  5
F929
330
18
100
AcDbEntity
  8
01
100
AcDbSpline
210
0.0
220
0.0
230
1.0
 70
     8
 71
     3
 72
    16
 73
    12
 74
     0
 42
0.0000000001
 43
0.0000000001
 40
0.0749157465481849
 40
0.0749157465481849
 40
0.0749157465481849
 40
0.0749157465481849
 40
1.748470837029055
 40
3.842644084675119
 40
5.937061628101671
 40
10.34219975859504
 40
12.10895473073052
 40
14.05240113565012
 40
16.15536861853083
 40
21.78587890911973
 40
28.10683695487748
 40
28.10683695487748
 40
28.10683695487748
 40
28.10683695487748
 10
-13.38312367435266
 20
86.07444883122997
 30
0.0
 10
-13.32251414819537
 20
86.62899062069636
 30
0.0
 10
-13.20930794611998
 20
87.8800124971055
 30
0.0
 10
-13.10055701618388
 20
89.83125619007996
 30
0.0
 10
-13.01456498924837
 20
92.69471156464687
 30
0.0
 10
-12.99220323217129
 20
95.45017972183695
 30
0.0
 10
-12.92775243148886
 20
98.15458337603938
 30
0.0
 10
-12.846473132349
 20
100.0906969137683
 30
0.0
 10
-12.63678742898982
 20
103.3098382230743
 30
0.0
 10
-12.15605358649078
 20
107.9711158234665
 30
0.0
 10
-11.59902619478534
 20
111.9162225957841
 30
0.0
 10
-11.28721082749992
 20
113.9999844857572
 30
0.0
  0
SPLINE
  5
F92B
330
18
100
AcDbEntity
  8
01
100
AcDbSpline
210
0.0
220
0.0
230
1.0
 70
     8
 71
     3
 72
    15
 73
    11
 74
     0
 42
0.0000000001
 43
0.0000000001
 40
0.0
 40
0.0
 40
0.0
 40
0.0
 40
3.493640287228975
 40
6.638008980219288
 40
11.93382547945192
 40
14.0546235502012
 40
15.99808462017263
 40
22.1700379813184
 40
24.26446308851444
 40
28.1070585197468
 40
28.1070585197468
 40
28.1070585197468
 40
28.1070585197468
 10
-8.976174022234446
 20
113.9999844873143
 30
0.0
 10
-9.14871247050128
 20
112.8483177248697
 30
0.0
 10
-9.466556956625666
 20
110.6584747122121
 30
0.0
 10
-9.977611004253063
 20
106.7134761806121
 30
0.0
 10
-10.33433830482188
 20
103.2104115927392
 30
0.0
 10
-10.53853915196056
 20
100.0968587522454
 30
0.0
 10
-10.68203691538373
 20
96.68743712648772
 30
0.0
 10
-10.68949535591294
 20
93.28340148382375
 30
0.0
 10
-10.81024217713731
 20
89.24888439043906
 30
0.0
 10
-10.94123243542687
 20
87.2732799916177
 30
0.0
 10
-11.08180117538821
 20
85.99998451740356
 30
0.0
  0
SPLINE
  5
F92C
330
18
100
AcDbEntity
  8
01
100
AcDbSpline
210
0.0
220
0.0
230
1.0
 70
     8
 71
     3
 72
    15
 73
    11
 74
     0
 42
0.0000000001
 43
0.0000000001
 40
0.0
 40
0.0
 40
0.0
 40
0.0
 40
1.74846237898379
 40
3.84256878553861
 40
5.936921973137405
 40
12.10880377842109
 40
14.05224019798898
 40
16.16119853171031
 40
21.78163744366258
 40
28.106705310346
 40
28.106705310346
 40
28.106705310346
 40
28.106705310346
 10
-8.919738620235094
 20
85.99998452311746
 30
0.0
 10
-8.85505852355
 20
86.57922004102255
 30
0.0
 10
-8.738199460593606
 20
87.85491631291887
 30
0.0
 10
-8.627511168842105
 20
89.83111915337366
 30
0.0
 10
-8.523918206090585
 20
93.28305501382071
 30
0.0
 10
-8.516361198801249
 20
96.68699481467063
 30
0.0
 10
-8.37389395738235
 20
100.0924966074578
 30
0.0
 10
-8.164586415571208
 20
103.3101948815171
 30
0.0
 10
-7.686054091445968
 20
107.9717745969762
 30
0.0
 10
-7.128787876452932
 20
111.9148319839698
 30
0.0
 10
-6.816987576293414
 20
113.999984478479
 30
0.0
  0
SPLINE
  5
F92E
330
18
100
AcDbEntity
  8
01
100
AcDbSpline
210
0.0
220
0.0
230
1.0
 70
     8
 71
     3
 72
    13
 73
     9
 74
     0
 42
0.0000000001
 43
0.0000000001
 40
0.0
 40
0.0
 40
0.0
 40
0.0
 40
1.682420265271217
 40
3.00573903054893
 40
5.917193180786717
 40
12.26916351375373
 40
18.94966470607942
 40
28.07179545915368
 40
28.07179545915368
 40
28.07179545915368
 40
28.07179545915368
 10
-2.704447224221113
 20
85.99998445772889
 30
0.0
 10
-2.790193784573106
 20
86.55416434620446
 30
0.0
 10
-2.945246227805299
 20
87.54411877175534
 30
0.0
 10
-3.20810109766235
 20
89.49894020873734
 30
0.0
 10
-3.571060571884018
 20
93.01004273802543
 30
0.0
 10
-3.810689169974935
 20
98.32249850869236
 30
0.0
 10
-3.691316747463148
 20
105.7088633504779
 30
0.0
 10
-3.357786014428498
 20
110.966917469828
 30
0.0
 10
-3.144273356250395
 20
113.9999844872743
 30
0.0
  0
SPLINE
  5
F92F
330
18
100
AcDbEntity
  8
01
100
AcDbSpline
210
0.0
220
0.0
230
1.0
 70
     8
 71
     3
 72
    16
 73
    12
 74
     0
 42
0.0000000001
 43
0.0000000001
 40
0.0
 40
0.0
 40
0.0
 40
0.0
 40
1.902299695850037
 40
3.804592089176442
 40
6.02393360168768
 40
10.25165046427139
 40
12.05658602328645
 40
13.93234155891947
 40
16.29474149388233
 40
21.80707771479981
 40
28.10682696170245
 40
28.10682696170245
 40
28.10682696170245
 40
28.10682696170245
 10
-5.471828417344923
 20
85.99998448436389
 30
0.0
 10
-5.401834688439024
 20
86.63021675933095
 30
0.0
 10
-5.289344044965176
 20
87.89365230090215
 30
0.0
 10
-5.178708237535275
 20
89.89878151430702
 30
0.0
 10
-5.096124558517161
 20
92.68084095615647
 30
0.0
 10
-5.071861548854272
 20
95.43149484759458
 30
0.0
 10
-5.011562643782511
 20
98.066994142822
 30
0.0
 10
-4.928407744741222
 20
100.0797425105854
 30
0.0
 10
-4.716503880479948
 20
103.3233591606956
 30
0.0
 10
-4.229024722557327
 20
108.024130628609
 30
0.0
 10
-3.679104482874394
 20
111.9232987810735
 30
0.0
 10
-3.367713888497079
 20
113.9999844859455
 30
0.0
  0
SPLINE
  5
F930
330
18
100
AcDbEntity
  8
01
100
AcDbSpline
210
0.0
220
0.0
230
1.0
 70
     8
 71
     3
 72
    14
 73
    10
 74
     0
 42
0.0000000001
 43
0.0000000001
 40
0.0
 40
0.0
 40
0.0
 40
0.0
 40
4.913620295944927
 40
9.124371924796257
 40
15.80282771213012
 40
22.15481342386133
 40
25.06629779435956
 40
26.38963327978918
 40
28.07209797502323
 40
28.07209797502323
 40
28.07209797502323
 40
28.07209797502323
 10
0.3027989453092204
 20
113.9999844873461
 30
0.0
 10
0.1880177920805721
 20
112.3661861269635
 30
0.0
 10
-0.014810629856882
 20
109.3312997502295
 30
0.0
 10
-0.2710645820079236
 20
104.0698428731636
 30
0.0
 10
-0.3644041484884752
 20
98.3216590103513
 30
0.0
 10
-0.1240772281737605
 20
93.00984776653392
 30
0.0
 10
0.2399978334473616
 20
89.4988507559189
 30
0.0
 10
0.5037521683353674
 20
87.54411043890984
 30
0.0
 10
0.659235975777321
 20
86.55420882604055
 30
0.0
 10
0.7448041213304322
 20
85.99998434554134
 30
0.0
  0
SPLINE
  5
F932
330
18
100
AcDbEntity
  8
01
100
AcDbSpline
210
0.0
220
0.0
230
1.0
 70
     8
 71
     3
 72
    13
 73
     9
 74
     0
 42
0.0000000001
 43
0.0000000001
 40
0.0
 40
0.0
 40
0.0
 40
0.0
 40
3.139200149200263
 40
10.53573736744847
 40
12.2191563138801
 40
14.71334032560244
 40
20.53313039148475
 40
28.01569298188301
 40
28.01569298188301
 40
28.01569298188301
 40
28.01569298188301
 10
4.197505342255269
 20
85.99998448875901
 30
0.0
 10
4.231170169166646
 20
87.04585265772691
 30
0.0
 10
4.379342008336138
 20
90.5547199381205
 30
0.0
 10
4.629194799744297
 20
94.62038318190586
 30
0.0
 10
4.785288094915629
 20
98.47536900820403
 30
0.0
 10
4.880446956315595
 20
101.8065671830429
 30
0.0
 10
4.918138510502317
 20
107.0723566166422
 30
0.0
 10
4.856299291485684
 20
111.5061886920172
 30
0.0
 10
4.812724146946366
 20
113.9999844888213
 30
0.0
  0
SPLINE
  5
F933
330
18
100
AcDbEntity
  8
01
100
AcDbSpline
210
0.0
220
0.0
230
1.0
 70
     8
 71
     3
 72
    14
 73
    10
 74
     0
 42
0.0000000001
 43
0.0000000001
 40
0.0
 40
0.0
 40
0.0
 40
0.0
 40
4.156974287866068
 40
7.482422587178115
 40
13.30176600850905
 40
15.79567212649156
 40
17.47891498162796
 40
24.87576109150285
 40
28.01569063831086
 40
28.01569063831086
 40
28.01569063831086
 40
28.01569063831086
 10
3.542833547286918
 20
113.9999846805865
 30
0.0
 10
3.566887609413627
 20
112.6145492335251
 30
0.0
 10
3.605909803615177
 20
110.1206620796994
 30
0.0
 10
3.638248019511749
 20
105.686872094872
 30
0.0
 10
3.610688894333109
 20
101.8070958994023
 30
0.0
 10
3.515462001533123
 20
98.47620015711225
 30
0.0
 10
3.359419158485352
 20
94.62126108585078
 30
0.0
 10
3.109537540913138
 20
90.55531076991672
 30
0.0
 10
2.961401739552784
 20
87.04609562108332
 30
0.0
 10
2.927735781627504
 20
85.99998424312223
 30
0.0
  0
SPLINE
  5
F934
330
18
100
AcDbEntity
  8
01
100
AcDbSpline
210
0.0
220
0.0
230
1.0
 70
     8
 71
     3
 72
    13
 73
     9
 74
     0
 42
0.0000000001
 43
0.0000000001
 40
0.0
 40
0.0
 40
0.0
 40
0.0
 40
3.133312703521778
 40
8.72364691368758
 40
10.66074716761358
 40
14.70742054887597
 40
20.31133381239151
 40
28.01570133520993
 40
28.01570133520993
 40
28.01570133520993
 40
28.01570133520993
 10
2.504060513102658
 20
85.9999844910182
 30
0.0
 10
2.537246220762867
 20
87.0438980905689
 30
0.0
 10
2.660624827590922
 20
89.94926028706293
 30
0.0
 10
2.865454564044043
 20
93.49699653012037
 30
0.0
 10
3.053649952752764
 20
97.35046139376088
 30
0.0
 10
3.181708732787385
 20
101.2111554671416
 30
0.0
 10
3.225664989945344
 20
106.9964585953245
 30
0.0
 10
3.164368022576454
 20
111.4322567484475
 30
0.0
 10
3.119414281039766
 20
113.9999844885648
 30
0.0
  0
SPLINE
  5
F935
330
18
100
AcDbEntity
  8
01
100
AcDbSpline
210
0.0
220
0.0
230
1.0
 70
     8
 71
     3
 72
    12
 73
     8
 74
     0
 42
0.0000000001
 43
0.0000000001
 40
-0.9557953123868796
 40
-0.9557953123868796
 40
-0.9557953123868796
 40
-0.9557953123868796
 40
-0.504646885953934
 40
-0.504646885953934
 40
-0.268760273236548
 40
-0.268760273236548
 40
-0.0443483742477996
 40
-0.0443483742477996
 40
-0.0443483742477996
 40
-0.0443483742477996
 10
5.842731794846586
 20
85.99998452192874
 30
0.0
 10
5.924850128844625
 20
90.67485595308715
 30
0.0
 10
6.463009421945671
 20
95.32573689347343
 30
0.0
 10
6.719878118369522
 20
102.4440728566216
 30
0.0
 10
6.68848228192364
 20
104.6082798416912
 30
0.0
 10
6.433769002918368
 20
109.3721895127652
 30
0.0
 10
6.229604490737572
 20
111.6862857683943
 30
0.0
 10
6.00080502295792
 20
113.9999844903079
 30
0.0
  0
SPLINE
  5
F936
330
18
100
AcDbEntity
  8
01
100
AcDbSpline
210
0.0
220
0.0
230
1.0
 70
     8
 71
     3
 72
    14
 73
    10
 74
     0
 42
0.0000000001
 43
0.0000000001
 40
0.0
 40
0.0
 40
0.0
 40
0.0
 40
3.486409113640426
 40
6.624410033820986
 40
11.73389709643761
 40
13.49668857914141
 40
15.43663664153755
 40
24.21485537135493
 40
28.04929570458765
 40
28.04929570458765
 40
28.04929570458765
 40
28.04929570458765
 10
8.309967079618318
 20
113.9999844878445
 30
0.0
 10
8.42429035318115
 20
112.8435446376003
 30
0.0
 10
8.629465563718654
 20
110.6447170850922
 30
0.0
 10
8.909764515655624
 20
106.7434467783948
 30
0.0
 10
9.01658579211066
 20
103.406703165667
 30
0.0
 10
8.96185515610027
 20
100.4694375688852
 30
0.0
 10
8.789212506590943
 20
96.31224705920856
 30
0.0
 10
8.360656582116675
 20
91.47858423275072
 30
0.0
 10
8.172575849572794
 20
87.27806476796438
 30
0.0
 10
8.150345283186752
 20
85.99998452530387
 30
0.0
  0
SPLINE
  5
F937
330
18
100
AcDbEntity
  8
01
100
AcDbSpline
210
0.0
220
0.0
230
1.0
 70
     8
 71
     3
 72
    14
 73
    10
 74
     0
 42
0.0000000001
 43
0.0000000001
 40
0.0
 40
0.0
 40
0.0
 40
0.0
 40
1.879840185001525
 40
3.759771558456823
 40
10.23398232393179
 40
12.65678443456378
 40
16.29121176247311
 40
21.58260053589057
 40
28.04940334950079
 40
28.04940334950079
 40
28.04940334950079
 40
28.04940334950079
 10
7.820647878850068
 20
85.99998454422227
 30
0.0
 10
7.831388277865116
 20
86.6265073157462
 30
0.0
 10
7.868888127860359
 20
87.87929062705159
 30
0.0
 10
8.043650599954034
 20
91.28628939824846
 30
0.0
 10
8.33005511911999
 20
94.8676951435488
 30
0.0
 10
8.583695509826654
 20
99.03692183859373
 30
0.0
 10
8.709762316427472
 20
102.8191479630183
 30
0.0
 10
8.537696080579039
 20
107.9501749024245
 30
0.0
 10
8.190533872655223
 20
111.8548710252991
 30
0.0
 10
7.978229586070071
 20
113.9999843320362
 30
0.0
  0
SPLINE
  5
F938
330
18
100
AcDbEntity
  8
01
100
AcDbSpline
210
0.0
220
0.0
230
1.0
 70
     8
 71
     3
 72
    14
 73
    10
 74
     0
 42
0.0000000001
 43
0.0000000001
 40
0.0188314404175744
 40
0.0188314404175744
 40
0.0188314404175744
 40
0.0188314404175744
 40
2.246778642567524
 40
4.454295678818903
 40
6.642200076927969
 40
13.93522143140578
 40
17.58171446865356
 40
22.36539720357699
 40
28.01909204064502
 40
28.01909204064502
 40
28.01909204064502
 40
28.01909204064502
 10
13.18868901224901
 20
86.01881570175071
 30
0.0
 10
13.1884141291673
 20
86.7614560474364
 30
0.0
 10
13.17990011645655
 20
88.2399847677663
 30
0.0
 10
13.12676893308513
 20
90.44721083733991
 30
0.0
 10
12.97030691352175
 20
94.3403315393595
 30
0.0
 10
12.70973277107974
 20
98.70867005998541
 30
0.0
 10
12.56553385632826
 20
103.9486415276557
 30
0.0
 10
12.64210948382201
 20
108.6437631983778
 30
0.0
 10
12.81950682038529
 20
112.1185983953034
 30
0.0
 10
12.92901573404593
 20
113.9999844887717
 30
0.0
  0
SPLINE
  5
F939
330
18
100
AcDbEntity
  8
01
100
AcDbSpline
210
0.0
220
0.0
230
1.0
 70
     8
 71
     3
 72
    15
 73
    11
 74
     0
 42
0.0000000001
 43
0.0000000001
 40
0.0
 40
0.0
 40
0.0
 40
0.0
 40
2.971179107656773
 40
5.654036841566644
 40
10.43835732296506
 40
14.08531944755776
 40
21.37821209458093
 40
23.56579430062702
 40
25.77283774233795
 40
28.01909023721158
 40
28.01909023721158
 40
28.01909023721158
 40
28.01909023721158
 10
11.39309169790384
 20
113.9999846889674
 30
0.0
 10
11.3356400321736
 20
113.0112994773905
 30
0.0
 10
11.23298246998927
 20
111.1292798407382
 30
0.0
 10
11.09006895566186
 20
107.6528477213771
 30
0.0
 10
11.02955565897507
 20
103.9477037403232
 30
0.0
 10
11.17384029452641
 20
98.70743257751899
 30
0.0
 10
11.43434212644301
 20
94.33906875606287
 30
0.0
 10
11.59080019877096
 20
90.44626500371366
 30
0.0
 10
11.64404519375124
 20
88.23319897234221
 30
0.0
 10
11.65247908765569
 20
86.74872674717669
 30
0.0
 10
11.65268378565524
 20
85.9999844973651
 30
0.0
  0
SPLINE
  5
F93A
330
18
100
AcDbEntity
  8
01
100
AcDbSpline
210
0.0
220
0.0
230
1.0
 70
     8
 71
     3
 72
    15
 73
    11
 74
     0
 42
0.0000000001
 43
0.0000000001
 40
0.0
 40
0.0
 40
0.0
 40
0.0
 40
2.408767065915088
 40
4.674054036119469
 40
6.963579758454107
 40
13.65611621261132
 40
17.53074055455834
 40
19.59910609104012
 40
22.0983562315317
 40
28.01907262395785
 40
28.01907262395785
 40
28.01907262395785
 40
28.01907262395785
 10
11.26870557799747
 20
85.99998448884632
 30
0.0
 10
11.26828013373971
 20
86.80289644490965
 30
0.0
 10
11.25891425201944
 20
88.36096097730994
 30
0.0
 10
11.1989667284797
 20
90.6814863109286
 30
0.0
 10
11.041836391476
 20
94.42736333235841
 30
0.0
 10
10.79339799229949
 20
98.70597413074726
 30
0.0
 10
10.67080419299951
 20
102.9165857408731
 30
0.0
 10
10.67578349923757
 20
105.730869343348
 30
0.0
 10
10.75189657434383
 20
109.2263242349047
 30
0.0
 10
10.89369336727673
 20
112.029812793107
 30
0.0
 10
11.00828099349256
 20
113.9999844882251
 30
0.0
  0
LINE
  5
F93B
330
18
100
AcDbEntity
  8
01
100
AcDbLine
 10
2.927735781627447
 20
85.99998424312223
 30
0.0
 11
2.504060513102658
 21
85.9999844910182
 31
0.0
  0
LINE
  5
F93C
330
18
100
AcDbEntity
  8
01
100
AcDbLine
 10
4.197505342255269
 20
85.99998448875901
 30
0.0
 11
2.927735781627447
 21
85.99998424312223
 31
0.0
  0
LINE
  5
F93D
330
18
100
AcDbEntity
  8
01
100
AcDbLine
 10
5.842731794846586
 20
85.99998452192874
 30
0.0
 11
4.197505342255269
 21
85.99998448875901
 31
0.0
  0
LINE
  5
F93E
330
18
100
AcDbEntity
  8
01
100
AcDbLine
 10
7.820647878850068
 20
85.99998454422227
 30
0.0
 11
5.842731794846586
 21
85.99998452192874
 31
0.0
  0
LINE
  5
F93F
330
18
100
AcDbEntity
  8
01
100
AcDbLine
 10
8.150345283186752
 20
85.99998452530387
 30
0.0
 11
7.820647878850068
 21
85.99998454422227
 31
0.0
  0
LINE
  5
F940
330
18
100
AcDbEntity
  8
01
100
AcDbLine
 10
11.26870557799747
 20
85.99998448884632
 30
0.0
 11
8.150345283186752
 21
85.99998452530387
 31
0.0
  0
LINE
  5
F941
330
18
100
AcDbEntity
  8
01
100
AcDbLine
 10
11.65268378565524
 20
85.99998449736556
 30
0.0
 11
11.26870557799747
 21
85.99998448884632
 31
0.0
  0
LINE
  5
F942
330
18
100
AcDbEntity
  8
01
100
AcDbLine
 10
12.99553671138561
 20
85.99998448989088
 30
0.0
 11
11.65268378565524
 21
85.99998449736556
 31
0.0
  0
ARC
  5
F943
330
18
100
AcDbEntity
  8
01
100
AcDbCircle
 10
12.99553671695195
 20
86.99998448989088
 30
0.0
 40
1.0
100
AcDbArc
 50
269.9999996810725
 51
0.0
  0
LINE
  5
F944
330
18
100
AcDbEntity
  8
01
100
AcDbLine
 10
-11.4145932982192
 20
85.99998468622715
 30
0.0
 11
-13.00446317743059
 21
85.99998451830942
 31
0.0
  0
LINE
  5
F945
330
18
100
AcDbEntity
  8
01
100
AcDbLine
 10
-11.08180117538821
 20
85.99998451740356
 30
0.0
 11
-11.4145932982192
 21
85.99998468622715
 31
0.0
  0
LINE
  5
F946
330
18
100
AcDbEntity
  8
01
100
AcDbLine
 10
-8.919738620235094
 20
85.99998452311746
 30
0.0
 11
-11.08180117538821
 21
85.99998451740356
 31
0.0
  0
LINE
  5
F947
330
18
100
AcDbEntity
  8
01
100
AcDbLine
 10
-8.687451860304137
 20
85.99998460642354
 30
0.0
 11
-8.919738620235094
 21
85.99998452311746
 31
0.0
  0
LINE
  5
F948
330
18
100
AcDbEntity
  8
01
100
AcDbLine
 10
-5.471828417344923
 20
85.99998448436389
 30
0.0
 11
-8.687451860304137
 21
85.99998460642354
 31
0.0
  0
LINE
  5
F949
330
18
100
AcDbEntity
  8
01
100
AcDbLine
 10
-2.704447224221113
 20
85.99998445772889
 30
0.0
 11
-5.471828417344923
 21
85.99998448436389
 31
0.0
  0
LINE
  5
F94A
330
18
100
AcDbEntity
  8
01
100
AcDbLine
 10
0.5099852240397098
 20
85.99998409504967
 30
0.0
 11
-2.704447224221113
 21
85.99998445772889
 31
0.0
  0
LINE
  5
F94B
330
18
100
AcDbEntity
  8
01
100
AcDbLine
 10
0.7448041426505796
 20
85.99998420788613
 30
0.0
 11
0.5099852240397098
 21
85.99998409504967
 31
0.0
  0
LINE
  5
F94C
330
18
100
AcDbEntity
  8
01
100
AcDbLine
 10
2.504060513102658
 20
85.9999844910182
 30
0.0
 11
0.7448041426505796
 21
85.99998420788613
 31
0.0
  0
LINE
  5
F94D
330
18
100
AcDbEntity
  8
01
100
AcDbLine
 10
-14.00446328304805
 20
86.99998451830942
 30
0.0
 11
-14.00446328304805
 21
112.9999844876908
 31
0.0
  0
ARC
  5
F94E
330
18
100
AcDbEntity
  8
01
100
AcDbCircle
 10
-13.00446328304805
 20
86.99998451830942
 30
0.0
 40
1.0
100
AcDbArc
 50
180.0
 51
270.0000060514347
  0
LINE
  5
F94F
330
18
100
AcDbEntity
  8
01
100
AcDbLine
 10
6.00080502295792
 20
113.9999844903079
 30
0.0
 11
7.978229586070071
 21
113.9999843320362
 31
0.0
  0
LINE
  5
F950
330
18
100
AcDbEntity
  8
01
100
AcDbLine
 10
4.812724146946366
 20
113.9999844888213
 30
0.0
 11
6.00080502295792
 21
113.9999844903079
 31
0.0
  0
LINE
  5
F951
330
18
100
AcDbEntity
  8
01
100
AcDbLine
 10
3.542833547286918
 20
113.9999846805865
 30
0.0
 11
4.812724146946366
 21
113.9999844888213
 31
0.0
  0
LINE
  5
F952
330
18
100
AcDbEntity
  8
01
100
AcDbLine
 10
3.119414281039766
 20
113.9999844885653
 30
0.0
 11
3.542833547286918
 21
113.9999846805865
 31
0.0
  0
LINE
  5
F953
330
18
100
AcDbEntity
  8
01
100
AcDbLine
 10
0.3027989453092204
 20
113.9999844873461
 30
0.0
 11
3.119414281039766
 21
113.9999844885653
 31
0.0
  0
LINE
  5
F954
330
18
100
AcDbEntity
  8
01
100
AcDbLine
 10
0.0722404830712975
 20
113.9999846106672
 30
0.0
 11
0.3027989453092204
 21
113.9999844873461
 31
0.0
  0
LINE
  5
F955
330
18
100
AcDbEntity
  8
01
100
AcDbLine
 10
-3.144273356250395
 20
113.9999844872743
 30
0.0
 11
0.0722404830712975
 21
113.9999846106672
 31
0.0
  0
LINE
  5
F956
330
18
100
AcDbEntity
  8
01
100
AcDbLine
 10
-3.367713888497079
 20
113.9999844859455
 30
0.0
 11
-3.144273356250395
 21
113.9999844872743
 31
0.0
  0
LINE
  5
F957
330
18
100
AcDbEntity
  8
01
100
AcDbLine
 10
-6.582549714221514
 20
113.9999848082259
 30
0.0
 11
-3.367713888497079
 21
113.9999844859455
 31
0.0
  0
LINE
  5
F958
330
18
100
AcDbEntity
  8
01
100
AcDbLine
 10
-6.816987576293414
 20
113.999984478479
 30
0.0
 11
-6.582549714221514
 21
113.9999848082259
 31
0.0
  0
LINE
  5
F959
330
18
100
AcDbEntity
  8
01
100
AcDbLine
 10
-8.976174022234446
 20
113.9999844873143
 30
0.0
 11
-6.816987576293414
 21
113.999984478479
 31
0.0
  0
LINE
  5
F95A
330
18
100
AcDbEntity
  8
01
100
AcDbLine
 10
-9.311799495481822
 20
113.9999851486083
 30
0.0
 11
-8.976174022234446
 21
113.9999844873161
 31
0.0
  0
LINE
  5
F95B
330
18
100
AcDbEntity
  8
01
100
AcDbLine
 10
-11.28721082749992
 20
113.9999844857572
 30
0.0
 11
-9.311799495481822
 21
113.9999851486638
 31
0.0
  0
LINE
  5
F95C
330
18
100
AcDbEntity
  8
01
100
AcDbLine
 10
-13.0044632819221
 20
113.9999844876908
 30
0.0
 11
-11.28721082749992
 21
113.9999844857572
 31
0.0
  0
ARC
  5
F95D
330
18
100
AcDbEntity
  8
01
100
AcDbCircle
 10
-13.00446328304805
 20
112.9999844876908
 30
0.0
 40
1.0
100
AcDbArc
 50
89.99999993548757
 51
180.0
  0
LINE
  5
F95E
330
18
100
AcDbEntity
  8
01
100
AcDbLine
 10
11.39309169790384
 20
113.9999846889674
 30
0.0
 11
12.99553684729413
 21
113.9999844801011
 31
0.0
  0
ARC
  5
F95F
330
18
100
AcDbEntity
  8
01
100
AcDbCircle
 10
12.99553671695195
 20
112.9999844801011
 30
0.0
 40
1.0
100
AcDbArc
 50
0.0
 51
89.99999253194281
  0
LINE
  5
F960
330
18
100
AcDbEntity
  8
01
100
AcDbLine
 10
11.00828099349256
 20
113.9999844882251
 30
0.0
 11
11.39309169790384
 21
113.9999846889674
 31
0.0
  0
LINE
  5
F961
330
18
100
AcDbEntity
  8
01
100
AcDbLine
 10
8.309967079618318
 20
113.9999844878445
 30
0.0
 11
11.00828099349256
 21
113.9999844882251
 31
0.0
  0
LINE
  5
F962
330
18
100
AcDbEntity
  8
01
100
AcDbLine
 10
7.978229586070071
 20
113.9999843320362
 30
0.0
 11
8.309967079618318
 21
113.9999844878445
 31
0.0
  0
LINE
  5
F963
330
18
100
AcDbEntity
  8
01
100
AcDbLine
 10
13.99553671695195
 20
112.9999844801011
 30
0.0
 11
13.99553671695195
 21
86.99998448989088
 31
0.0
  0
TEXT
  5
FAD9
330
18
100
AcDbEntity
  8
1TEXT
100
AcDbText
 10
-53.13644027892532
 20
149.2906380986238
 30
0.0
 40
4.0
  1
表面処理
 72
     1
 11
-43.86977361225865
 21
149.2906380986238
 31
0.0
100
AcDbText
  0
TEXT
  5
FADA
330
18
100
AcDbEntity
  8
1TEXT
100
AcDbText
 10
-60.13644027892532
 20
142.4553494390995
 30
0.0
 40
4.0
  1
マットブラック
 72
     1
 11
-43.86977361225865
 21
142.4553494390995
 31
0.0
100
AcDbText
  0
LINE
  5
FADC
330
18
100
AcDbEntity
  8
1DIM
100
AcDbLine
 10
-61.26977361225829
 20
140.7906380986238
 30
0.0
 11
8.730226387741709
 21
140.7906380986238
 31
0.0
  0
LINE
  5
FADD
330
18
100
AcDbEntity
  8
1DIM
100
AcDbLine
 10
-61.26977361225829
 20
147.7906380986238
 30
0.0
 11
8.730226387741709
 21
147.7906380986238
 31
0.0
  0
LINE
  5
FADE
330
18
100
AcDbEntity
  8
1DIM
100
AcDbLine
 10
-61.26977361225829
 20
133.7906380986238
 30
0.0
 11
8.730226387741709
 21
133.7906380986238
 31
0.0
  0
LINE
  5
FADF
330
18
100
AcDbEntity
  8
1DIM
100
AcDbLine
 10
-61.26977361225829
 20
133.7906380986238
 30
0.0
 11
8.730226387741709
 21
133.7906380986238
 31
0.0
  0
LINE
  5
FAE0
330
18
100
AcDbEntity
  8
1DIM
100
AcDbLine
 10
-26.26977361225829
 20
154.7906380986238
 30
0.0
 11
-26.26977361225829
 21
126.7906380986238
 31
0.0
  0
TEXT
  5
FAE1
330
18
100
AcDbEntity
  8
1TEXT
100
AcDbText
 10
-23.80310694559108
 20
142.0762811149744
 30
0.0
 40
4.0
  1
PC-447-003
 41
0.8
 72
     1
 11
-8.869773612257745
 21
142.0762811149744
 31
0.0
100
AcDbText
  0
TEXT
  5
FAE2
330
18
100
AcDbEntity
  8
1TEXT
100
AcDbText
 10
-15.73644027892532
 20
149.2906380986238
 30
0.0
 40
4.0
  1
コード
 72
     1
 11
-8.869773612258655
 21
149.2906380986238
 31
0.0
100
AcDbText
  0
LINE
  5
FAE3
330
18
100
AcDbEntity
  8
1DIM
100
AcDbLine
 10
-61.2697736122583
 20
126.7906380986238
 30
0.0
 11
-61.26977361225829
 21
154.7906380986238
 31
0.0
  0
LINE
  5
FAE4
330
18
100
AcDbEntity
  8
1DIM
100
AcDbLine
 10
8.730226387741709
 20
126.7906380986238
 30
0.0
 11
8.730226387741709
 21
154.7906380986238
 31
0.0
  0
TEXT
  5
FAE5
330
18
100
AcDbEntity
  8
1TEXT
100
AcDbText
 10
-60.00310694559199
 20
135.4553494390995
 30
0.0
 40
4.0
  1
パールブラック
 72
     1
 11
-43.86977361225865
 21
135.4553494390995
 31
0.0
100
AcDbText
  0
TEXT
  5
FAE6
330
18
100
AcDbEntity
  8
1TEXT
100
AcDbText
 10
-22.75199583447997
 20
135.0762811149744
 30
0.0
 40
4.0
  1
PC-447-GQ
 41
0.8
 72
     1
 11
-8.869773612257745
 21
135.0762811149744
 31
0.0
100
AcDbText
  0
TEXT
  5
FAE7
330
18
100
AcDbEntity
  8
1TEXT
100
AcDbText
 10
-61.08977361225865
 20
128.4553494390995
 30
0.0
 40
4.0
  1
ショットニッケル
 41
0.9
 72
     1
 11
-43.86977361225865
 21
128.4553494390995
 31
0.0
100
AcDbText
  0
LINE
  5
FAE8
330
18
100
AcDbEntity
  8
1DIM
100
AcDbLine
 10
-61.26977361225829
 20
126.7906380986238
 30
0.0
 11
8.730226387741709
 21
126.7906380986238
 31
0.0
  0
TEXT
  5
FAEB
330
18
100
AcDbEntity
  8
1TEXT
100
AcDbText
 10
-22.74088472336886
 20
128.0762811149744
 30
0.0
 40
4.0
  1
PC-447-MQ
 41
0.8
 72
     1
 11
-8.869773612257745
 21
128.0762811149744
 31
0.0
100
AcDbText
  0
TEXT
  5
103B9
330
18
100
AcDbEntity
  8
01
  6
CONTINUOUS
100
AcDbText
 10
7.45687926049665
 20
55.71681176271354
 30
0.0
 40
3.5
  1
材質：亜鉛ダイキャスト
100
AcDbText
  0
TEXT
  5
103BA
330
18
100
AcDbEntity
  8
01
  6
CONTINUOUS
100
AcDbText
 10
7.573545927163317
 20
49.8834784293802
 30
0.0
 40
3.5
  1
仕上げ：各種メッキ
100
AcDbText
  0
SPLINE
  5
103BB
330
18
100
AcDbEntity
  8
01
100
AcDbSpline
210
0.0
220
0.0
230
1.0
 70
     8
 71
     7
 72
    16
 73
     8
 74
     0
 42
0.000000001
 43
0.0000000001
 40
1.064449208650307
 40
1.064449208650307
 40
1.064449208650307
 40
1.064449208650307
 40
1.064449208650307
 40
1.064449208650307
 40
1.064449208650307
 40
1.064449208650307
 40
4.68233057538734
 40
4.68233057538734
 40
4.68233057538734
 40
4.68233057538734
 40
4.68233057538734
 40
4.68233057538734
 40
4.68233057538734
 40
4.68233057538734
 10
-11.4145932982192
 20
85.99998468622715
 30
0.0
 10
-11.34147730547058
 20
86.6547317739134
 30
0.0
 10
-11.27998965163654
 20
87.31053018163101
 30
0.0
 10
-11.22884934301983
 20
87.9672053235492
 30
0.0
 10
-11.18677538592318
 20
88.62458261383762
 30
0.0
 10
-11.15248678664933
 20
89.28248746666503
 30
0.0
 10
-11.12470255150107
 20
89.94074529620019
 30
0.0
 10
-11.10214168678108
 20
90.59918151661321
 30
0.0
  0
SPLINE
  5
103BC
330
18
100
AcDbEntity
  8
01
100
AcDbSpline
210
0.0
220
0.0
230
1.0
 70
     8
 71
     7
 72
    36
 73
    28
 74
     0
 42
0.000000001
 43
0.0000000001
 40
4.68233057538734
 40
4.68233057538734
 40
4.68233057538734
 40
4.68233057538734
 40
4.68233057538734
 40
4.68233057538734
 40
4.68233057538734
 40
4.68233057538734
 40
5.548169441004966
 40
5.548169441004966
 40
5.548169441004966
 40
5.548169441004966
 40
5.548169441004966
 40
6.413984795120618
 40
6.413984795120618
 40
6.413984795120618
 40
6.413984795120618
 40
6.413984795120618
 40
10.3246952260912
 40
10.3246952260912
 40
10.3246952260912
 40
10.3246952260912
 40
10.3246952260912
 40
11.82869086194716
 40
11.82869086194716
 40
11.82869086194716
 40
11.82869086194716
 40
11.82869086194716
 40
15.24003206940937
 40
15.24003206940937
 40
15.24003206940937
 40
15.24003206940937
 40
15.24003206940937
 40
15.24003206940937
 40
15.24003206940937
 40
15.24003206940937
 10
-11.10214168678108
 20
90.59918151661321
 30
0.0
 10
-11.09791653566886
 20
90.72280165047658
 30
0.0
 10
-11.09386953171322
 20
90.84642697694261
 30
0.0
 10
-11.08999360645744
 20
90.97005728422727
 30
0.0
 10
-11.08628169143471
 20
91.09369236054471
 30
0.0
 10
-11.08272671819084
 20
91.2173319941109
 30
0.0
 10
-11.07591661079603
 20
91.46461659466667
 30
0.0
 10
-11.06967770730968
 20
91.71191772948504
 30
0.0
 10
-11.06669230438838
 20
91.83557026059697
 30
0.0
 10
-11.06383211729867
 20
91.95922594338543
 30
0.0
 10
-11.06108835541194
 20
92.08288428696295
 30
0.0
 10
-11.04654538149181
 20
92.76509398492789
 30
0.0
 10
-11.03501072537911
 20
93.44735478367755
 30
0.0
 10
-11.02685189340623
 20
94.00596782412748
 30
0.0
 10
-11.01924650023899
 20
94.56459064620384
 30
0.0
 10
-11.01146298612606
 20
95.12321101358674
 30
0.0
 10
-10.99942652997477
 20
95.89664734905608
 30
0.0
 10
-10.98424369753356
 20
96.67003206288943
 30
0.0
 10
-10.97972771106824
 20
96.88484228124814
 30
0.0
 10
-10.97485690442126
 20
97.09964427778839
 30
0.0
 10
-10.96957524104734
 20
97.31443593293868
 30
0.0
 10
-10.95078789114247
 20
98.01637419739625
 30
0.0
 10
-10.92641510856676
 20
98.71815672666769
 30
0.0
 10
-10.90670415888958
 20
99.20510710381647
 30
0.0
 10
-10.88409199750369
 20
99.69193127330043
 30
0.0
 10
-10.85847316812165
 20
100.1786036372652
 30
0.0
 10
-10.82974221445615
 20
100.6650985978564
 30
0.0
 10
-10.7977936802197
 20
101.1513905572194
 30
0.0
  0
SPLINE
  5
103BD
330
18
100
AcDbEntity
  8
01
100
AcDbSpline
210
0.0
220
0.0
230
1.0
 70
     8
 71
     7
 72
    31
 73
    23
 74
     0
 42
0.000000001
 43
0.0000000001
 40
15.24003206940937
 40
15.24003206940937
 40
15.24003206940937
 40
15.24003206940937
 40
15.24003206940937
 40
15.24003206940937
 40
15.24003206940937
 40
15.24003206940937
 40
16.55191477697822
 40
16.55191477697822
 40
16.55191477697822
 40
16.55191477697822
 40
16.55191477697822
 40
18.19178232035384
 40
18.19178232035384
 40
18.19178232035384
 40
18.19178232035384
 40
18.19178232035384
 40
21.14367331219705
 40
21.14367331219705
 40
21.14367331219705
 40
21.14367331219705
 40
21.14367331219705
 40
28.17806661286037
 40
28.17806661286037
 40
28.17806661286037
 40
28.17806661286037
 40
28.17806661286037
 40
28.17806661286037
 40
28.17806661286037
 40
28.17806661286037
 10
-10.7977936802197
 20
101.1513905572194
 30
0.0
 10
-10.7855563601146
 20
101.3383971796435
 30
0.0
 10
-10.77291175164318
 20
101.5253810781862
 30
0.0
 10
-10.7598611903186
 20
101.712340157542
 30
0.0
 10
-10.74640601165244
 20
101.8992723224043
 30
0.0
 10
-10.73254755115848
 20
102.0861754774666
 30
0.0
 10
-10.70046148192604
 20
102.5066396067461
 30
0.0
 10
-10.66634730104649
 20
102.9269356573288
 30
0.0
 10
-10.64678731279743
 20
103.1603830620776
 30
0.0
 10
-10.6266381041179
 20
103.3937797490423
 30
0.0
 10
-10.60591804738728
 20
103.6271262976003
 30
0.0
 10
-10.54635327789079
 20
104.2803762794276
 30
0.0
 10
-10.48260090253815
 20
104.9332422391396
 30
0.0
 10
-10.43995561748115
 20
105.3527881523812
 30
0.0
 10
-10.39571903188711
 20
105.7721723659462
 30
0.0
 10
-10.34996081868907
 20
106.1913933839898
 30
0.0
 10
-10.19024822798413
 20
107.6090661992591
 30
0.0
 10
-10.01471573532588
 20
109.0248370394635
 30
0.0
 10
-9.88416458382575
 20
110.021253473377
 30
0.0
 10
-9.747652856795426
 20
111.0168930566539
 30
0.0
 10
-9.606125081859503
 20
112.0118392316919
 30
0.0
 10
-9.460525786644453
 20
113.0061754408886
 30
0.0
 10
-9.3117994987755
 20
113.9999851266422
 30
0.0
  0
SPLINE
  5
103BE
330
18
100
AcDbEntity
  8
01
100
AcDbSpline
210
0.0
220
0.0
230
1.0
 70
     8
 71
     7
 72
    16
 73
     8
 74
     0
 42
0.000000001
 43
0.0000000001
 40
-23.04381371596524
 40
-23.04381371596524
 40
-23.04381371596524
 40
-23.04381371596524
 40
-23.04381371596524
 40
-23.04381371596524
 40
-23.04381371596524
 40
-23.04381371596524
 40
-15.89253398896464
 40
-15.89253398896464
 40
-15.89253398896464
 40
-15.89253398896464
 40
-15.89253398896464
 40
-15.89253398896464
 40
-15.89253398896464
 40
-15.89253398896464
 10
-6.582549720279204
 20
113.9999847677693
 30
0.0
 10
-6.775910591183006
 20
112.7086191752298
 30
0.0
 10
-6.96428590132787
 20
111.4163890307179
 30
0.0
 10
-7.1455001348303
 20
110.1231170464641
 30
0.0
 10
-7.317377775807088
 20
108.8286259346984
 30
0.0
 10
-7.477743308374684
 20
107.5327384076488
 30
0.0
 10
-7.624421216649765
 20
106.2352771775469
 30
0.0
 10
-7.755235984748893
 20
104.9360649566212
 30
0.0
  0
SPLINE
  5
103BF
330
18
100
AcDbEntity
  8
01
100
AcDbSpline
210
0.0
220
0.0
230
1.0
 70
     8
 71
     7
 72
    36
 73
    28
 74
     0
 42
0.000000001
 43
0.0000000001
 40
-15.89253398896464
 40
-15.89253398896464
 40
-15.89253398896464
 40
-15.89253398896464
 40
-15.89253398896464
 40
-15.89253398896464
 40
-15.89253398896464
 40
-15.89253398896464
 40
-14.24008230498157
 40
-14.24008230498157
 40
-14.24008230498157
 40
-14.24008230498157
 40
-14.24008230498157
 40
-12.91812578859504
 40
-12.91812578859504
 40
-12.91812578859504
 40
-12.91812578859504
 40
-12.91812578859504
 40
-9.94376156633398
 40
-9.94376156633398
 40
-9.94376156633398
 40
-9.94376156633398
 40
-9.94376156633398
 40
-2.74678776745222
 40
-2.74678776745222
 40
-2.74678776745222
 40
-2.74678776745222
 40
-2.74678776745222
 40
-0.6686764633571958
 40
-0.6686764633571958
 40
-0.6686764633571958
 40
-0.6686764633571958
 40
-0.6686764633571958
 40
-0.6686764633571958
 40
-0.6686764633571958
 40
-0.6686764633571958
 10
-7.755235984748893
 20
104.9360649566212
 30
0.0
 10
-7.778753604024544
 20
104.7012200704632
 30
0.0
 10
-7.801873459079914
 20
104.4662971529203
 30
0.0
 10
-7.824544177870692
 20
104.2313046762599
 30
0.0
 10
-7.846714388345063
 20
103.9962511127484
 30
0.0
 10
-7.868332718459968
 20
103.7611449346529
 30
0.0
 10
-7.90615979689376
 20
103.3378750453518
 30
0.0
 10
-7.941865898980282
 20
102.9144895854649
 30
0.0
 10
-7.957322010943997
 20
102.7262928528532
 30
0.0
 10
-7.972370610450824
 20
102.5380673506635
 30
0.0
 10
-7.987017419565532
 20
102.349810108438
 30
0.0
 10
-8.03333191814177
 20
101.7378666660072
 30
0.0
 10
-8.075523457173361
 20
101.1255252255811
 30
0.0
 10
-8.102650500072414
 20
100.7014304984906
 30
0.0
 10
-8.127588881531906
 20
100.2771911235665
 30
0.0
 10
-8.150232309594358
 20
99.85283015436168
 30
0.0
 10
-8.219453853164921
 20
98.40131956950943
 30
0.0
 10
-8.259351932110135
 20
96.94892622789091
 30
0.0
 10
-8.277545285198883
 20
95.92094725169197
 30
0.0
 10
-8.290344773954317
 20
94.89280366610608
 30
0.0
 10
-8.30239402217724
 20
93.86463414733332
 30
0.0
 10
-8.322940055561915
 20
92.53972810316797
 30
0.0
 10
-8.357664958427463
 20
91.21523963394674
 30
0.0
 10
-8.366277832877373
 20
90.91850718599352
 30
0.0
 10
-8.375844237836205
 20
90.6218002988823
 30
0.0
 10
-8.386485050506181
 20
90.32512127195031
 30
0.0
 10
-8.398321148085202
 20
90.02847240453383
 30
0.0
 10
-8.411473407773215
 20
89.73185599596826
 30
0.0
  0
SPLINE
  5
103C0
330
18
100
AcDbEntity
  8
01
100
AcDbSpline
210
0.0
220
0.0
230
1.0
 70
     8
 71
     7
 72
    16
 73
     8
 74
     0
 42
0.000000001
 43
0.0000000001
 40
-0.6686764633571958
 40
-0.6686764633571958
 40
-0.6686764633571958
 40
-0.6686764633571958
 40
-0.6686764633571958
 40
-0.6686764633571958
 40
-0.6686764633571958
 40
-0.6686764633571958
 40
0.5320611689249688
 40
0.5320611689249688
 40
0.5320611689249688
 40
0.5320611689249688
 40
0.5320611689249688
 40
0.5320611689249688
 40
0.5320611689249688
 40
0.5320611689249688
 10
-8.411473407773215
 20
89.73185599596826
 30
0.0
 10
-8.43495397730102
 20
89.19751877423886
 30
0.0
 10
-8.462618811097187
 20
88.66343717128501
 30
0.0
 10
-8.495146335338873
 20
88.12970036334326
 30
0.0
 10
-8.53321497620324
 20
87.59639752664924
 30
0.0
 10
-8.577503159867447
 20
87.0636178374404
 30
0.0
 10
-8.628689312508655
 20
86.53145047195284
 30
0.0
 10
-8.687451860304137
 20
85.99998460642354
 30
0.0
  0
SPLINE
  5
103C1
330
18
100
AcDbEntity
  8
01
100
AcDbSpline
210
0.0
220
0.0
230
1.0
 70
     8
 71
     7
 72
    31
 73
    23
 74
     0
 42
0.000000001
 43
0.0000000001
 40
0.0
 40
0.0
 40
0.0
 40
0.0
 40
0.0
 40
0.0
 40
0.0
 40
0.0
 40
1.455534783294948
 40
1.455534783294948
 40
1.455534783294948
 40
1.455534783294948
 40
1.455534783294948
 40
2.50271738429488
 40
2.50271738429488
 40
2.50271738429488
 40
2.50271738429488
 40
2.50271738429488
 40
4.804303393981634
 40
4.804303393981634
 40
4.804303393981634
 40
4.804303393981634
 40
4.804303393981634
 40
9.897565796269538
 40
9.897565796269538
 40
9.897565796269538
 40
9.897565796269538
 40
9.897565796269538
 40
9.897565796269538
 40
9.897565796269538
 40
9.897565796269538
 10
0.5099852240397098
 20
85.99998409504967
 30
0.0
 10
0.4781160808496878
 20
86.20545951277533
 30
0.0
 10
0.44616772227225
 20
86.4109246063769
 30
0.0
 10
0.414281287971491
 20
86.61640011112983
 30
0.0
 10
0.3825979176099139
 20
86.82190676231009
 30
0.0
 10
0.351258750851386
 20
87.02746529519224
 30
0.0
 10
0.2982071842986187
 20
87.3810375075597
 30
0.0
 10
0.2470078169181846
 20
87.73488571621935
 30
0.0
 10
0.2259240202269979
 20
87.88299137216897
 30
0.0
 10
0.2051938568520626
 20
88.03114693151171
 30
0.0
 10
0.1848320076569934
 20
88.17935318608004
 30
0.0
 10
0.1209419472242388
 20
88.6534642637295
 30
0.0
 10
0.0611187046728077
 20
89.12810996953583
 30
0.0
 10
0.0218647995646819
 20
89.45456431615064
 30
0.0
 10
-0.0155857468838718
 20
89.78123324795403
 30
0.0
 10
-0.0512917807719901
 20
90.10809778585933
 30
0.0
 10
-0.1605970420008163
 20
91.15886009883131
 30
0.0
 10
-0.2531087059745261
 20
92.21124980460324
 30
0.0
 10
-0.3091461271804548
 20
92.93675314145928
 30
0.0
 10
-0.3577887368517878
 20
93.66280708032234
 30
0.0
 10
-0.3993224684088688
 20
94.38930091451464
 30
0.0
 10
-0.4340332552785213
 20
95.11612393735929
 30
0.0
 10
-0.462207030882567
 20
95.84316544217988
 30
0.0
  0
SPLINE
  5
103C2
330
18
100
AcDbEntity
  8
01
100
AcDbSpline
210
0.0
220
0.0
230
1.0
 70
     8
 71
     7
 72
    16
 73
     8
 74
     0
 42
0.000000001
 43
0.0000000001
 40
9.897565796269538
 40
9.897565796269538
 40
9.897565796269538
 40
9.897565796269538
 40
9.897565796269538
 40
9.897565796269538
 40
9.897565796269538
 40
9.897565796269538
 40
10.48743159139802
 40
10.48743159139802
 40
10.48743159139802
 40
10.48743159139802
 40
10.48743159139802
 40
10.48743159139802
 40
10.48743159139802
 40
10.48743159139802
 10
-0.462207030882567
 20
95.84316544217988
 30
0.0
 10
-0.5631122344520492
 20
98.4374436040486
 30
0.0
 10
-0.5806820357850171
 20
101.0350064225369
 30
0.0
 10
-0.5293553904274546
 20
103.632073531319
 30
0.0
 10
-0.4247783480008849
 20
106.2267767757368
 30
0.0
 10
-0.2800617598827699
 20
108.819275334041
 30
0.0
 10
-0.1097812307790633
 20
111.410042680661
 30
0.0
 10
0.0722404830712975
 20
113.9999846106672
 30
0.0
  0
LINE
  5
103C3
330
18
100
AcDbEntity
  8
1DIM
100
AcDbLine
 10
-13.99999651011707
 20
87.00444428862234
 30
0.0
 11
-13.99999651011707
 21
73.99998100000795
 31
0.0
1001
ACAD
1000
DSTYLE
1002
{
1070
    45
1040
0.5
1002
}
  0
LINE
  5
103C4
330
18
100
AcDbEntity
  8
1DIM
100
AcDbLine
 10
13.99999201355715
 20
86.99998274883818
 30
0.0
 11
13.99999201355715
 21
73.99998100000795
 31
0.0
1001
ACAD
1000
DSTYLE
1002
{
1070
    45
1040
0.5
1002
}
  0
LINE
  5
103C5
330
18
100
AcDbEntity
  8
1DIM
100
AcDbLine
 10
-11.99999651011707
 20
74.99998100000795
 30
0.0
 11
11.99999201355715
 21
74.99998100000795
 31
0.0
1001
ACAD
1000
DSTYLE
1002
{
1070
    45
1040
0.5
1002
}
  0
LINE
  5
103C9
330
18
100
AcDbEntity
  8
1DIM
100
AcDbLine
 10
13.0000005815302
 20
85.99997938266948
 30
0.0
 11
40.20514846225205
 21
85.99997938266947
 31
0.0
1001
ACAD
1000
DSTYLE
1002
{
1070
    45
1040
0.5
1002
}
  0
LINE
  5
103CA
330
18
100
AcDbEntity
  8
1DIM
100
AcDbLine
 10
13.00000057677809
 20
113.9999826173464
 30
0.0
 11
40.20514846225206
 21
113.9999826173464
 31
0.0
1001
ACAD
1000
DSTYLE
1002
{
1070
    45
1040
0.5
1002
}
  0
LINE
  5
103CB
330
18
100
AcDbEntity
  8
1DIM
100
AcDbLine
 10
39.20514846225205
 20
87.99997938266947
 30
0.0
 11
39.20514846225205
 21
111.9999826173464
 31
0.0
1001
ACAD
1000
DSTYLE
1002
{
1070
    45
1040
0.5
1002
}
  0
LINE
  5
103CF
330
18
100
AcDbEntity
  8
1DIM
100
AcDbLine
 10
7.0
 20
0.0000000000000142
 30
0.0
 11
37.49999999999999
 21
0.0000000000000056
 31
0.0
1001
ACAD
1000
DSTYLE
1002
{
1070
    45
1040
0.5
1002
}
  0
LINE
  5
103D0
330
18
100
AcDbEntity
  8
1DIM
100
AcDbLine
 10
12.9999991536547
 20
18.94622664633216
 30
0.0
 11
37.5
 21
18.94622664633216
 31
0.0
1001
ACAD
1000
DSTYLE
1002
{
1070
    45
1040
0.5
1002
}
  0
LINE
  5
103D1
330
18
100
AcDbEntity
  8
1DIM
100
AcDbLine
 10
36.49999999999999
 20
2.000000000000006
 30
0.0
 11
36.5
 21
16.94622664633216
 31
0.0
1001
ACAD
1000
DSTYLE
1002
{
1070
    45
1040
0.5
1002
}
  0
LINE
  5
103D5
330
18
100
AcDbEntity
  8
1DIM
100
AcDbLine
 10
-7.000000000000455
 20
0.0000000000000107
 30
0.0
 11
-7.000000000000456
 21
-20.99999999999153
 31
0.0
1001
ACAD
1000
DSTYLE
1002
{
1070
    45
1040
0.5
1002
}
  0
LINE
  5
103D6
330
18
100
AcDbEntity
  8
1DIM
100
AcDbLine
 10
7.0
 20
0.0000000000000142
 30
0.0
 11
6.999999999999999
 21
-20.99999999999153
 31
0.0
1001
ACAD
1000
DSTYLE
1002
{
1070
    45
1040
0.5
1002
}
  0
LINE
  5
103D7
330
18
100
AcDbEntity
  8
1DIM
100
AcDbLine
 10
-5.000000000000456
 20
-19.99999999999153
 30
0.0
 11
4.999999999999999
 21
-19.99999999999153
 31
0.0
1001
ACAD
1000
DSTYLE
1002
{
1070
    45
1040
0.5
1002
}
  0
SOLID
  5
103DB
330
18
100
AcDbEntity
  8
1DIM
100
AcDbTrace
 10
62.29374666316578
 20
-1.865762002132302
 30
0.0
 11
61.49999845175444
 21
0.0000018864646449
 31
0.0
 12
62.85595396695877
 22
-1.507478047696355
 32
0.0
 13
62.85595396695877
 23
-1.507478047696355
 33
0.0
1001
ACAD
1000
DSTYLE
1002
{
1070
    45
1040
0.5
1002
}
  0
LINE
  5
103DC
330
18
100
AcDbEntity
  8
1DIM
100
AcDbLine
 10
62.57485031506228
 20
-1.686620024914328
 30
0.0
 11
74.69171346981811
 21
-20.69999999999153
 31
0.0
1001
ACAD
1000
DSTYLE
1002
{
1070
    45
1040
0.5
1002
}
  0
LINE
  5
103DD
330
18
100
AcDbEntity
  8
1DIM
100
AcDbLine
 10
74.69171346981811
 20
-20.69999999999153
 30
0.0
 11
94.55838013648477
 21
-20.69999999999153
 31
0.0
1001
ACAD
1000
DSTYLE
1002
{
1070
    45
1040
0.5
1002
}
  0
TEXT
  5
103DE
330
18
100
AcDbEntity
  8
1DIM
  6
CONTINUOUS
100
AcDbText
 10
77.39171346981811
 20
-19.99999999999153
 30
0.0
 40
3.5
  1
M4-10
100
AcDbText
  0
SOLID
  5
103DF
330
18
100
AcDbEntity
  8
1DIM
100
AcDbTrace
 10
0.932295073309448
 20
16.92070456554223
 30
0.0
 11
0.2163015403464215
 21
15.02374268615029
 31
0.0
 12
0.2783618403735173
 22
17.05038020437392
 32
0.0
 13
0.2783618403735173
 23
17.05038020437392
 33
0.0
1001
ACAD
1000
DSTYLE
1002
{
1070
    45
1040
0.5
1002
}
  0
LINE
  5
103E0
330
18
100
AcDbEntity
  8
1DIM
100
AcDbLine
 10
0.6053284568414816
 20
16.98554238495808
 30
0.0
 11
6.990212593829983
 21
49.1834784293802
 31
0.0
1001
ACAD
1000
DSTYLE
1002
{
1070
    45
1040
0.5
1002
}
  0
LINE
  5
103E1
330
18
100
AcDbEntity
  8
1DIM
100
AcDbLine
 10
13.00000057677809
 20
113.9999826173464
 30
0.0
 11
32.08160204587872
 21
113.9999826173464
 31
0.0
1001
ACAD
1000
DSTYLE
1002
{
1070
    45
1040
0.5
1002
}
  0
LINE
  5
103E2
330
18
100
AcDbEntity
  8
1DIM
100
AcDbLine
 10
3.0
 20
99.99998100000795
 30
0.0
 11
32.08160204587872
 21
99.99998100000793
 31
0.0
1001
ACAD
1000
DSTYLE
1002
{
1070
    45
1040
0.5
1002
}
  0
LINE
  5
103E3
330
18
100
AcDbEntity
  8
1DIM
100
AcDbLine
 10
31.08160204587872
 20
111.9999826173464
 30
0.0
 11
31.08160204587872
 21
101.9999810000079
 31
0.0
1001
ACAD
1000
DSTYLE
1002
{
1070
    45
1040
0.5
1002
}
  0
LINE
  5
103E7
330
18
100
AcDbEntity
  8
1DIM
100
AcDbLine
 10
54.49999965396213
 20
0.000000000000011
 30
0.0
 11
54.49999965396213
 21
-20.99999999999153
 31
0.0
1001
ACAD
1000
DSTYLE
1002
{
1070
    45
1040
0.5
1002
}
  0
LINE
  5
103E8
330
18
100
AcDbEntity
  8
1DIM
100
AcDbLine
 10
68.49999965396236
 20
0.0000000000000107
 30
0.0
 11
68.49999965396236
 21
-20.99999999999153
 31
0.0
1001
ACAD
1000
DSTYLE
1002
{
1070
    45
1040
0.5
1002
}
  0
LINE
  5
103E9
330
18
100
AcDbEntity
  8
1DIM
100
AcDbLine
 10
56.49999965396213
 20
-19.99999999999153
 30
0.0
 11
66.49999965396236
 21
-19.99999999999153
 31
0.0
1001
ACAD
1000
DSTYLE
1002
{
1070
    45
1040
0.5
1002
}
  0
LINE
  5
103ED
330
18
100
AcDbEntity
  8
0
  6
BYBLOCK
100
AcDbLine
 10
-11.99999651011707
 20
74.46408262000794
 30
0.0
 11
-13.99999651011707
 21
74.99998100000795
 31
0.0
  0
LINE
  5
103EE
330
18
100
AcDbEntity
  8
0
  6
BYBLOCK
100
AcDbLine
 10
-13.99999651011707
 20
74.99998100000795
 30
0.0
 11
-11.99999651011707
 21
75.53587938000796
 31
0.0
  0
LINE
  5
103EF
330
18
100
AcDbEntity
  8
0
  6
BYBLOCK
100
AcDbLine
 10
-13.99999651011707
 20
74.99998100000795
 30
0.0
 11
-11.99999651011707
 21
74.99998100000795
 31
0.0
  0
LINE
  5
103F0
330
18
100
AcDbEntity
  8
0
  6
BYBLOCK
100
AcDbLine
 10
11.99999201355715
 20
75.53587938000796
 30
0.0
 11
13.99999201355715
 21
74.99998100000795
 31
0.0
  0
LINE
  5
103F1
330
18
100
AcDbEntity
  8
0
  6
BYBLOCK
100
AcDbLine
 10
13.99999201355715
 20
74.99998100000795
 30
0.0
 11
11.99999201355715
 21
74.46408262000794
 31
0.0
  0
LINE
  5
103F2
330
18
100
AcDbEntity
  8
0
  6
BYBLOCK
100
AcDbLine
 10
13.99999201355715
 20
74.99998100000795
 30
0.0
 11
11.99999201355715
 21
74.99998100000795
 31
0.0
  0
TEXT
  5
103F3
330
18
100
AcDbEntity
  8
1DIM
  6
CONTINUOUS
100
AcDbText
 10
-2.916668914946629
 20
75.69998100000795
 30
0.0
 40
3.5
  1
28
100
AcDbText
1001
ACAD
1000
DSTYLE
1002
{
1070
    45
1040
0.5
1002
}
  0
LINE
  5
103F4
330
18
100
AcDbEntity
  8
0
  6
BYBLOCK
100
AcDbLine
 10
39.74104684225205
 20
87.99997938266947
 30
0.0
 11
39.20514846225205
 21
85.99997938266947
 31
0.0
  0
LINE
  5
103F5
330
18
100
AcDbEntity
  8
0
  6
BYBLOCK
100
AcDbLine
 10
39.20514846225205
 20
85.99997938266947
 30
0.0
 11
38.66925008225206
 21
87.99997938266947
 31
0.0
  0
LINE
  5
103F6
330
18
100
AcDbEntity
  8
0
  6
BYBLOCK
100
AcDbLine
 10
39.20514846225205
 20
85.99997938266947
 30
0.0
 11
39.20514846225205
 21
87.99997938266947
 31
0.0
  0
LINE
  5
103F7
330
18
100
AcDbEntity
  8
0
  6
BYBLOCK
100
AcDbLine
 10
38.66925008225206
 20
111.9999826173464
 30
0.0
 11
39.20514846225206
 21
113.9999826173464
 31
0.0
  0
LINE
  5
103F8
330
18
100
AcDbEntity
  8
0
  6
BYBLOCK
100
AcDbLine
 10
39.20514846225206
 20
113.9999826173464
 30
0.0
 11
39.74104684225206
 21
111.9999826173464
 31
0.0
  0
LINE
  5
103F9
330
18
100
AcDbEntity
  8
0
  6
BYBLOCK
100
AcDbLine
 10
39.20514846225206
 20
113.9999826173464
 30
0.0
 11
39.20514846225206
 21
111.9999826173464
 31
0.0
  0
TEXT
  5
103FA
330
18
100
AcDbEntity
  8
1DIM
  6
CONTINUOUS
100
AcDbText
 10
38.50514846225202
 20
97.08331433334126
 30
0.0
 40
3.5
  1
28
 50
90.0
100
AcDbText
1001
ACAD
1000
DSTYLE
1002
{
1070
    45
1040
0.5
1002
}
  0
LINE
  5
103FB
330
18
100
AcDbEntity
  8
0
  6
BYBLOCK
100
AcDbLine
 10
37.03589837999999
 20
2.000000000000006
 30
0.0
 11
36.49999999999999
 21
0.0000000000000059
 31
0.0
  0
LINE
  5
103FC
330
18
100
AcDbEntity
  8
0
  6
BYBLOCK
100
AcDbLine
 10
36.49999999999999
 20
0.0000000000000059
 30
0.0
 11
35.96410161999999
 21
2.000000000000006
 31
0.0
  0
LINE
  5
103FD
330
18
100
AcDbEntity
  8
0
  6
BYBLOCK
100
AcDbLine
 10
36.49999999999999
 20
0.0000000000000059
 30
0.0
 11
36.49999999999999
 21
2.000000000000006
 31
0.0
  0
LINE
  5
103FE
330
18
100
AcDbEntity
  8
0
  6
BYBLOCK
100
AcDbLine
 10
35.96410162
 20
16.94622664633216
 30
0.0
 11
36.5
 21
18.94622664633216
 31
0.0
  0
LINE
  5
103FF
330
18
100
AcDbEntity
  8
0
  6
BYBLOCK
100
AcDbLine
 10
36.5
 20
18.94622664633216
 30
0.0
 11
37.03589838
 21
16.94622664633216
 31
0.0
  0
LINE
  5
10400
330
18
100
AcDbEntity
  8
0
  6
BYBLOCK
100
AcDbLine
 10
36.5
 20
18.94622664633216
 30
0.0
 11
36.5
 21
16.94622664633216
 31
0.0
  0
TEXT
  5
10401
330
18
100
AcDbEntity
  8
1DIM
  6
CONTINUOUS
100
AcDbText
 10
35.79999999999999
 20
7.138969804647569
 30
0.0
 40
3.5
  1
19
 50
90.0
100
AcDbText
1001
ACAD
1000
DSTYLE
1002
{
1070
    45
1040
0.5
1002
}
  0
LINE
  5
10402
330
18
100
AcDbEntity
  8
0
  6
BYBLOCK
100
AcDbLine
 10
-5.000000000000456
 20
-20.53589837999153
 30
0.0
 11
-7.000000000000456
 21
-19.99999999999153
 31
0.0
  0
LINE
  5
10403
330
18
100
AcDbEntity
  8
0
  6
BYBLOCK
100
AcDbLine
 10
-7.000000000000456
 20
-19.99999999999153
 30
0.0
 11
-5.000000000000456
 21
-19.46410161999153
 31
0.0
  0
LINE
  5
10404
330
18
100
AcDbEntity
  8
0
  6
BYBLOCK
100
AcDbLine
 10
-7.000000000000456
 20
-19.99999999999153
 30
0.0
 11
-5.000000000000456
 21
-19.99999999999153
 31
0.0
  0
LINE
  5
10405
330
18
100
AcDbEntity
  8
0
  6
BYBLOCK
100
AcDbLine
 10
4.999999999999999
 20
-19.46410161999153
 30
0.0
 11
6.999999999999999
 21
-19.99999999999153
 31
0.0
  0
LINE
  5
10406
330
18
100
AcDbEntity
  8
0
  6
BYBLOCK
100
AcDbLine
 10
6.999999999999999
 20
-19.99999999999153
 30
0.0
 11
4.999999999999999
 21
-20.53589837999153
 31
0.0
  0
LINE
  5
10407
330
18
100
AcDbEntity
  8
0
  6
BYBLOCK
100
AcDbLine
 10
6.999999999999999
 20
-19.99999999999153
 30
0.0
 11
4.999999999999999
 21
-19.99999999999153
 31
0.0
  0
TEXT
  5
10408
330
18
100
AcDbEntity
  8
1DIM
  6
CONTINUOUS
100
AcDbText
 10
-2.333333333333562
 20
-19.29999999999153
 30
0.0
 40
3.5
  1
14
100
AcDbText
1001
ACAD
1000
DSTYLE
1002
{
1070
    45
1040
0.5
1002
}
  0
LINE
  5
10409
330
18
100
AcDbEntity
  8
0
  6
BYBLOCK
100
AcDbLine
 10
30.54570366587872
 20
111.9999826173464
 30
0.0
 11
31.08160204587872
 21
113.9999826173464
 31
0.0
  0
LINE
  5
1040A
330
18
100
AcDbEntity
  8
0
  6
BYBLOCK
100
AcDbLine
 10
31.08160204587872
 20
113.9999826173464
 30
0.0
 11
31.61750042587872
 21
111.9999826173464
 31
0.0
  0
LINE
  5
1040B
330
18
100
AcDbEntity
  8
0
  6
BYBLOCK
100
AcDbLine
 10
31.08160204587872
 20
113.9999826173464
 30
0.0
 11
31.08160204587872
 21
111.9999826173464
 31
0.0
  0
LINE
  5
1040C
330
18
100
AcDbEntity
  8
0
  6
BYBLOCK
100
AcDbLine
 10
31.61750042587872
 20
101.9999810000079
 30
0.0
 11
31.08160204587872
 21
99.99998100000795
 31
0.0
  0
LINE
  5
1040D
330
18
100
AcDbEntity
  8
0
  6
BYBLOCK
100
AcDbLine
 10
31.08160204587872
 20
99.99998100000795
 30
0.0
 11
30.54570366587872
 21
101.9999810000079
 31
0.0
  0
LINE
  5
1040E
330
18
100
AcDbEntity
  8
0
  6
BYBLOCK
100
AcDbLine
 10
31.08160204587872
 20
99.99998100000795
 30
0.0
 11
31.08160204587872
 21
101.9999810000079
 31
0.0
  0
TEXT
  5
1040F
330
18
100
AcDbEntity
  8
1DIM
  6
CONTINUOUS
100
AcDbText
 10
30.38160204587871
 20
102.9166459792596
 30
0.0
 40
3.5
  1
14
 50
90.0
100
AcDbText
1001
ACAD
1000
DSTYLE
1002
{
1070
    45
1040
0.5
1002
}
  0
LINE
  5
10410
330
18
100
AcDbEntity
  8
0
  6
BYBLOCK
100
AcDbLine
 10
56.49999965396213
 20
-20.53589837999153
 30
0.0
 11
54.49999965396213
 21
-19.99999999999153
 31
0.0
  0
LINE
  5
10411
330
18
100
AcDbEntity
  8
0
  6
BYBLOCK
100
AcDbLine
 10
54.49999965396213
 20
-19.99999999999153
 30
0.0
 11
56.49999965396213
 21
-19.46410161999153
 31
0.0
  0
LINE
  5
10412
330
18
100
AcDbEntity
  8
0
  6
BYBLOCK
100
AcDbLine
 10
54.49999965396213
 20
-19.99999999999153
 30
0.0
 11
56.49999965396213
 21
-19.99999999999153
 31
0.0
  0
LINE
  5
10413
330
18
100
AcDbEntity
  8
0
  6
BYBLOCK
100
AcDbLine
 10
66.49999965396236
 20
-19.46410161999153
 30
0.0
 11
68.49999965396236
 21
-19.99999999999153
 31
0.0
  0
LINE
  5
10414
330
18
100
AcDbEntity
  8
0
  6
BYBLOCK
100
AcDbLine
 10
68.49999965396236
 20
-19.99999999999153
 30
0.0
 11
66.49999965396236
 21
-20.53589837999153
 31
0.0
  0
LINE
  5
10415
330
18
100
AcDbEntity
  8
0
  6
BYBLOCK
100
AcDbLine
 10
68.49999965396236
 20
-19.99999999999153
 30
0.0
 11
66.49999965396236
 21
-19.99999999999153
 31
0.0
  0
TEXT
  5
10416
330
18
100
AcDbEntity
  8
1DIM
  6
CONTINUOUS
100
AcDbText
 10
59.16666632062891
 20
-19.29999999999153
 30
0.0
 40
3.5
  1
14
100
AcDbText
1001
ACAD
1000
DSTYLE
1002
{
1070
    45
1040
0.5
1002
}
  0
VIEWPORT
  5
57
330
15
100
AcDbEntity
 67
     1
  8
0
100
AcDbViewport
 68
     1
 10
0.0
 20
0.0
 30
0.0
 40
639.1804245283018
 41
297.0
 68
     1
 69
     1
1001
ACAD
1000
MVIEW
1002
{
1070
    16
1010
0.0
1020
0.0
1030
0.0
1010
0.0
1020
0.0
1030
1.0
1040
0.0
1040
297.0
1040
-4.171999999999912
1040
12.83903210976956
1040
50.0
1040
0.0
1040
0.0
1070
    16
1070
   100
1070
     0
1070
     1
1070
     0
1070
     0
1070
     0
1070
     0
1040
0.0
1040
0.0
1040
0.0
1040
10.0
1040
10.0
1040
10.0
1040
10.0
1070
     0
1002
{
1002
}
1002
}
  0
ENDSEC
  0
SECTION
  2
OBJECTS
  0
DICTIONARY
  5
C
330
0
100
AcDbDictionary
  3
ACAD_CIP_PREVIOUS_PRODUCT_INFO
350
FB6E
  3
ACAD_COLOR
350
18D
  3
ACAD_GROUP
350
D
  3
ACAD_LAYOUT
350
18E
  3
ACAD_MATERIAL
350
18C
  3
ACAD_MLEADERSTYLE
350
D09D
  3
ACAD_MLINESTYLE
350
1B
  3
ACAD_PLOTSETTINGS
350
18F
  3
ACAD_SCALELIST
350
D07B
  3
ACAD_VISUALSTYLE
350
D06A
  3
ACDBHEADERROUNDTRIPXREC
350
10417
  3
ACDBVARIABLEDICTIONARY
350
37
  3
AEC_PROPERTY_SET_DEFS
350
102A3
  3
CONTENTDICTIONARY
350
D8
  3
DRAWINGVARIABLESDICT
350
20
  3
DWGPROPS
350
1041A
1001
ACAD
1000
TREAT_AS_HARD
1070
     0
  0
DICTIONARY
  5
D16C
330
2
100
AcDbDictionary
  3
ACAD_LAYERSTATES
360
D16D
1001
ACAD
1000
TREAT_AS_HARD
1070
     1
  0
DICTIONARY
  5
D0B5
330
E
100
AcDbDictionary
  3
ADSK_XREC_LAYER_RECONCILED
360
D0B6
1001
ACAD
1000
TREAT_AS_HARD
1070
     1
  0
DICTIONARY
  5
D0B7
330
29
100
AcDbDictionary
  3
ADSK_XREC_LAYER_RECONCILED
360
D0B8
1001
ACAD
1000
TREAT_AS_HARD
1070
     1
  0
DICTIONARY
  5
D0B9
330
31
100
AcDbDictionary
  3
ADSK_XREC_LAYER_RECONCILED
360
D0BA
1001
ACAD
1000
TREAT_AS_HARD
1070
     1
  0
DICTIONARY
  5
D0BF
330
243
100
AcDbDictionary
  3
ADSK_XREC_LAYER_RECONCILED
360
D0C0
1001
ACAD
1000
TREAT_AS_HARD
1070
     1
  0
DICTIONARY
  5
D0C5
330
24E
100
AcDbDictionary
  3
ADSK_XREC_LAYER_RECONCILED
360
D0C6
1001
ACAD
1000
TREAT_AS_HARD
1070
     1
  0
DICTIONARY
  5
88F
330
18
100
AcDbDictionary
  3
ACAD_SORTENTS
360
890
1001
ACAD
1000
TREAT_AS_HARD
1070
     1
  0
XRECORD
  5
FB6E
102
{ACAD_REACTORS
330
C
102
}
330
C
100
AcDbXrecord
300
ACDLT
300
2012
300
ACDLT_F_S
  0
DICTIONARY
  5
18D
102
{ACAD_REACTORS
330
C
102
}
330
C
100
AcDbDictionary
1001
ACAD
1000
TREAT_AS_HARD
1070
     0
  0
DICTIONARY
  5
D
102
{ACAD_REACTORS
330
C
102
}
330
C
100
AcDbDictionary
1001
ACAD
1000
TREAT_AS_HARD
1070
     0
  0
DICTIONARY
  5
18E
102
{ACAD_REACTORS
330
C
102
}
330
C
100
AcDbDictionary
1001
ACAD
1000
TREAT_AS_HARD
1070
     0
  0
DICTIONARY
  5
18C
102
{ACAD_REACTORS
330
C
102
}
330
C
100
AcDbDictionary
  3
BYBLOCK
350
D05A
  3
BYLAYER
350
D052
  3
GLOBAL
350
D062
1001
ACAD
1000
TREAT_AS_HARD
1070
     0
  0
DICTIONARY
  5
D09D
102
{ACAD_REACTORS
330
C
102
}
330
C
100
AcDbDictionary
  3
STANDARD
350
D09E
1001
ACAD
1000
TREAT_AS_HARD
1070
     0
  0
DICTIONARY
  5
1B
102
{ACAD_REACTORS
330
C
102
}
330
C
100
AcDbDictionary
  3
STANDARD
350
1C
1001
ACAD
1000
TREAT_AS_HARD
1070
     0
  0
DICTIONARY
  5
18F
102
{ACAD_REACTORS
330
C
102
}
330
C
100
AcDbDictionary
1001
ACAD
1000
TREAT_AS_HARD
1070
     0
  0
DICTIONARY
  5
D07B
102
{ACAD_REACTORS
330
C
102
}
330
C
100
AcDbDictionary
  3
A0
350
D07C
  3
A1
350
D07D
  3
A2
350
D07E
  3
A3
350
D07F
  3
A4
350
D080
  3
A5
350
D081
  3
A6
350
D082
  3
A7
350
D083
  3
A8
350
D084
  3
A9
350
D085
  3
B0
350
D086
  3
B1
350
D087
  3
B2
350
D088
  3
B3
350
D089
  3
B4
350
D08A
  3
B5
350
D08B
  3
B6
350
D08C
  3
B7
350
D08D
  3
B8
350
D08E
  3
B9
350
D08F
  3
C0
350
D090
  3
C1
350
D091
  3
C2
350
D092
  3
C3
350
D093
  3
C4
350
D094
  3
C5
350
D095
  3
C6
350
D096
  3
C7
350
D097
  3
C8
350
D098
  3
C9
350
D099
  3
D0
350
D09A
  3
D1
350
D09B
  3
D2
350
D09C
1001
ACAD
1000
TREAT_AS_HARD
1070
     0
  0
DICTIONARY
  5
D06A
102
{ACAD_REACTORS
330
C
102
}
330
C
100
AcDbDictionary
  3
2DWIREFRAME
350
D070
  3
3D_HIDDEN
350
D072
  3
3DWIREFRAME
350
D071
  3
BASIC
350
D06F
  3
BRIGHTEN
350
D076
  3
COLORCHANGE
350
D07A
  3
CONCEPTUAL
350
D073
  3
DIM
350
D075
  3
EDGECOLOROFF
350
D29F
  3
FACEPATTERN
350
D079
  3
FLAT
350
D06B
  3
FLATWITHEDGES
350
D06C
  3
GOURAUD
350
D06D
  3
GOURAUDWITHEDGES
350
D06E
  3
HIDDEN
350
FB62
  3
JITTEROFF
350
D29D
  3
LINEPATTERN
350
D078
  3
MODELING
350
10307
  3
OVERHANGOFF
350
D29E
  3
REALISTIC
350
D074
  3
SHADED
350
FB67
  3
SHADED_WITH_EDGES
350
FB66
  3
SHADES_OF_GRAY
350
FB63
  3
SKETCHY
350
FB64
  3
THICKEN
350
D077
  3
WIREFRAME
350
FB61
  3
X-RAY
350
FB65
1001
ACAD
1000
TREAT_AS_HARD
1070
     0
  0
DICTIONARY
  5
10417
102
{ACAD_REACTORS
330
C
102
}
330
C
100
AcDbDictionary
  3
COLORDICT
350
10418
  3
MATERIALDICT
350
10419
1001
ACAD
1000
TREAT_AS_HARD
1070
     0
  0
DICTIONARY
  5
37
102
{ACAD_REACTORS
330
C
102
}
330
C
100
AcDbDictionary
  3
CANNOSCALE
350
D118
  3
CMLEADERSTYLE
350
D117
  3
CTABLESTYLE
350
29E
  3
DIMADEC
350
38
  3
DIMASSOC
350
1CE
  3
HIDETEXT
350
704E
  3
INDEXCTL
350
D11A
  3
INTERSECTIONCOLOR
350
7052
  3
INTERSECTIONDISPLAY
350
7051
  3
MSLTSCALE
350
1038C
  3
OBSCOLOR
350
704F
  3
OBSLTYPE
350
7050
  3
PROJECTNAME
350
1CF
  3
SORTENTS
350
D119
  3
XCLIPFRAME
350
10306
1001
ACAD
1000
TREAT_AS_HARD
1070
     0
  0
DICTIONARY
  5
102A3
102
{ACAD_REACTORS
330
C
102
}
330
C
100
AcDbDictionary
1001
ACAD
1000
TREAT_AS_HARD
1070
     0
  0
DICTIONARY
  5
D8
102
{ACAD_REACTORS
330
C
102
}
330
C
100
AcDbDictionary
1001
ACAD
1000
TREAT_AS_HARD
1070
     0
  0
DICTIONARY
  5
20
102
{ACAD_REACTORS
330
C
102
}
330
C
100
AcDbDictionary
1001
DRAWINGVARIABLESXDATA
1000
POLARANG
1000
0.261799387799149410000000
1000
POLARMODE
1000
1
1000
POLARSTYLE
1000
1
1001
ACAD
1000
TREAT_AS_HARD
1070
     0
  0
XRECORD
  5
1041A
102
{ACAD_REACTORS
330
C
102
}
330
C
100
AcDbXrecord
  1
DWGPROPS COOKIE
  2

  3

  4

  6

  7

  8
3684
  9

300
=
301
=
302
=
303
=
304
=
305
=
306
=
307
=
308
=
309
=
 40
0.0
 41
2451318.246352917
 42
2458726.002625
  1

 90
        0
  0
DICTIONARY
  5
D16D
102
{ACAD_REACTORS
330
D16C
102
}
330
D16C
100
AcDbDictionary
1001
ACAD
1000
TREAT_AS_HARD
1070
     0
  0
ACAD_PROXY_OBJECT
  5
D0B6
102
{ACAD_REACTORS
330
D0B5
102
}
330
D0B5
100
AcDbZombieObject
 90
      499
 91
      514
 93
       34
310
40C8804040
  0
ACAD_PROXY_OBJECT
  5
D0B8
102
{ACAD_REACTORS
330
D0B7
102
}
330
D0B7
100
AcDbZombieObject
 90
      499
 91
      514
 93
       34
310
40C8804040
  0
ACAD_PROXY_OBJECT
  5
D0BA
102
{ACAD_REACTORS
330
D0B9
102
}
330
D0B9
100
AcDbZombieObject
 90
      499
 91
      514
 93
       34
310
40C8804040
  0
ACAD_PROXY_OBJECT
  5
D0C0
102
{ACAD_REACTORS
330
D0BF
102
}
330
D0BF
100
AcDbZombieObject
 90
      499
 91
      514
 93
       34
310
40C8804040
  0
ACAD_PROXY_OBJECT
  5
D0C6
102
{ACAD_REACTORS
330
D0C5
102
}
330
D0C5
100
AcDbZombieObject
 90
      499
 91
      514
 93
       34
310
40C8804040
  0
SORTENTSTABLE
  5
890
102
{ACAD_REACTORS
330
88F
102
}
330
88F
100
AcDbSortentsTable
330
18
331
0
  5
C618
331
E401
  5
F915
331
E404
  5
F916
331
E405
  5
F917
331
0
  5
E863
331
0
  5
E868
331
E868
  5
F91C
331
0
  5
E882
331
0
  5
E883
331
0
  5
F65E
331
0
  5
F660
331
F65E
  5
F938
331
F660
  5
F939
331
F662
  5
F93A
331
F663
  5
F93B
331
F664
  5
F93C
331
F665
  5
F93D
331
F667
  5
F93E
331
F668
  5
F93F
331
F669
  5
F940
331
F66A
  5
F941
331
F675
  5
F942
331
F676
  5
F943
331
F678
  5
F944
331
F679
  5
F945
331
F8ED
  5
F946
331
F8EE
  5
F947
331
F8EF
  5
F948
331
F8F0
  5
F949
331
F8F1
  5
F94A
331
F8F2
  5
F94B
331
F8F3
  5
F94C
331
F8F4
  5
F94D
331
F8F5
  5
F94E
331
F8F6
  5
F94F
331
F8F7
  5
F950
331
F8F8
  5
F951
331
F8F9
  5
F952
331
F8FA
  5
F953
331
F8FB
  5
F954
331
F8FC
  5
F955
331
F8FD
  5
F956
331
F8FE
  5
F957
331
F8FF
  5
F958
331
F900
  5
F959
331
F901
  5
F95A
331
F902
  5
F95B
331
F903
  5
F95C
331
F904
  5
F95D
331
F905
  5
F95E
331
F906
  5
F95F
331
F907
  5
F960
331
F908
  5
F961
331
F909
  5
F962
331
F90A
  5
F963
331
F90B
  5
FAD9
331
F90C
  5
FADA
331
F90D
  5
FADC
331
F90E
  5
FADD
331
F90F
  5
FADE
331
F910
  5
FADF
331
F911
  5
FAE0
331
F912
  5
FAE1
331
F913
  5
FAE2
331
F914
  5
FAE3
331
F915
  5
FAE4
331
F916
  5
FAE5
331
F917
  5
FAE6
331
F918
  5
FAE7
331
F919
  5
FAE8
331
F91A
  5
FAEB
331
F91B
  5
103B9
331
F91C
  5
103BA
331
F91D
  5
103BB
331
F91E
  5
103BC
331
F91F
  5
103BD
331
F920
  5
103BE
331
F921
  5
103BF
331
F922
  5
103C0
331
F923
  5
103C1
331
F924
  5
103C2
331
F925
  5
103C3
331
F926
  5
103C4
331
F927
  5
103C5
331
F928
  5
103C6
331
F929
  5
103C7
331
F92B
  5
103CB
331
F92C
  5
103CC
331
F92E
  5
103D0
331
F92F
  5
103D1
331
F930
  5
103D2
331
F932
  5
103D5
331
F933
  5
103D6
331
F934
  5
103D7
331
F935
  5
103D8
331
F936
  5
103D9
331
F937
  5
103DA
331
F938
  5
103DB
331
F939
  5
103DC
331
F93A
  5
103DD
331
F93B
  5
103DE
331
F93C
  5
103DF
331
F93D
  5
103E0
331
F93E
  5
103E1
331
F93F
  5
103E2
331
F940
  5
103E3
331
F941
  5
103E4
331
F942
  5
103E5
331
F943
  5
103E6
331
F944
  5
103E7
331
F945
  5
103E8
331
F946
  5
103E9
331
F947
  5
103EA
331
F948
  5
103EB
331
F949
  5
103EC
331
F94A
  5
103ED
331
F94B
  5
103EE
331
F94C
  5
103EF
331
F94D
  5
103F0
331
F94E
  5
103F1
331
F94F
  5
103F2
331
F950
  5
103F3
331
F951
  5
103F4
331
F952
  5
103F5
331
F953
  5
103F6
331
F954
  5
103F7
331
F955
  5
103F8
331
F956
  5
103F9
331
F957
  5
103FA
331
F958
  5
103FB
331
F959
  5
103FC
331
F95A
  5
103FD
331
F95B
  5
103FE
331
F95C
  5
103FF
331
F95D
  5
10400
331
F95E
  5
10401
331
F95F
  5
10402
331
F960
  5
10403
331
F961
  5
10404
331
F962
  5
10405
331
F963
  5
10406
331
FAD9
  5
10407
331
FADA
  5
10408
331
FADC
  5
10409
331
FADD
  5
1040A
331
FADE
  5
1040B
331
FADF
  5
1040C
331
FAE0
  5
1040D
331
FAE1
  5
1040E
331
FAE2
  5
1040F
331
FAE3
  5
10410
331
FAE4
  5
10411
331
FAE5
  5
10412
331
FAE6
  5
10413
331
FAE7
  5
10414
331
FAE8
  5
10415
331
FAEB
  5
10416
331
103B9
  5
F91F
331
103BA
  5
F920
331
103BB
  5
103C8
331
103BC
  5
103C9
331
103BD
  5
103CA
331
103BE
  5
103CD
331
103BF
  5
103CE
331
103C0
  5
103CF
331
103C1
  5
103D3
331
103C2
  5
103D4
331
103C3
  5
E401
331
103C4
  5
E404
331
103C5
  5
E405
331
0
  5
E869
331
0
  5
E8FE
331
0
  5
E93B
331
103C9
  5
F8EE
331
103CA
  5
F8EF
331
103CB
  5
F8F3
331
0
  5
F665
331
0
  5
F667
331
0
  5
F668
331
103CF
  5
F8FB
331
103D0
  5
F8FC
331
103D1
  5
F8FD
331
0
  5
F676
331
0
  5
F678
331
0
  5
F679
331
103D5
  5
F90B
331
103D6
  5
F90C
331
103D7
  5
F90D
331
0
  5
F8F0
331
0
  5
F8F1
331
0
  5
F8F2
331
103DB
  5
F918
331
103DC
  5
F919
331
103DD
  5
F91A
331
103DE
  5
F91B
331
103DF
  5
F91D
331
103E0
  5
F91E
331
103E1
  5
F921
331
103E2
  5
F922
331
103E3
  5
F923
331
0
  5
F902
331
0
  5
F903
331
0
  5
F904
331
103E7
  5
F92C
331
103E8
  5
F92E
331
103E9
  5
F92F
331
0
  5
F908
331
0
  5
F909
331
0
  5
F90A
331
103ED
  5
F662
331
103EE
  5
F663
331
103EF
  5
F664
331
103F0
  5
F669
331
103F1
  5
F66A
331
103F2
  5
F675
331
103F3
  5
F8ED
331
103F4
  5
F8F4
331
103F5
  5
F8F5
331
103F6
  5
F8F6
331
103F7
  5
F8F7
331
103F8
  5
F8F8
331
103F9
  5
F8F9
331
103FA
  5
F8FA
331
103FB
  5
F8FE
331
103FC
  5
F8FF
331
103FD
  5
F900
331
103FE
  5
F901
331
103FF
  5
F905
331
10400
  5
F906
331
10401
  5
F907
331
10402
  5
F90E
331
10403
  5
F90F
331
10404
  5
F910
331
10405
  5
F911
331
10406
  5
F912
331
10407
  5
F913
331
10408
  5
F914
331
10409
  5
F924
331
1040A
  5
F925
331
1040B
  5
F926
331
1040C
  5
F927
331
1040D
  5
F928
331
1040E
  5
F929
331
1040F
  5
F92B
331
10410
  5
F930
331
10411
  5
F932
331
10412
  5
F933
331
10413
  5
F934
331
10414
  5
F935
331
10415
  5
F936
331
10416
  5
F937
  0
MATERIAL
  5
D05A
102
{ACAD_REACTORS
330
18C
102
}
102
{ACAD_XDICTIONARY
360
105B5
102
}
330
18C
100
AcDbMaterial
  1
BYBLOCK
 72
     0
 73
     2
 43
0.0208333333333333
 43
0.0
 43
0.0
 43
0.0
 43
0.0
 43
0.0208333333333333
 43
0.0
 43
0.0
 43
0.0
 43
0.0
 43
1.0
 43
0.0
 43
0.0
 43
0.0
 43
0.0
 43
1.0
 77
     0
 78
     2
 47
0.0208333333333333
 47
0.0
 47
0.0
 47
0.0
 47
0.0
 47
0.0208333333333333
 47
0.0
 47
0.0
 47
0.0
 47
0.0
 47
1.0
 47
0.0
 47
0.0
 47
0.0
 47
0.0
 47
1.0
171
     0
172
     2
 49
0.0208333333333333
 49
0.0
 49
0.0
 49
0.0
 49
0.0
 49
0.0208333333333333
 49
0.0
 49
0.0
 49
0.0
 49
0.0
 49
1.0
 49
0.0
 49
0.0
 49
0.0
 49
0.0
 49
1.0
175
     0
176
     2
142
0.0208333333333333
142
0.0
142
0.0
142
0.0
142
0.0
142
0.0208333333333333
142
0.0
142
0.0
142
0.0
142
0.0
142
1.0
142
0.0
142
0.0
142
0.0
142
0.0
142
1.0
179
     0
270
     2
144
0.0208333333333333
144
0.0
144
0.0
144
0.0
144
0.0
144
0.0208333333333333
144
0.0
144
0.0
144
0.0
144
0.0
144
1.0
144
0.0
144
0.0
144
0.0
144
0.0
144
1.0
274
     2
147
0.0208333333333333
147
0.0
147
0.0
147
0.0
147
0.0
147
0.0208333333333333
147
0.0
147
0.0
147
0.0
147
0.0
147
1.0
147
0.0
147
0.0
147
0.0
147
0.0
147
1.0
  0
MATERIAL
  5
D052
102
{ACAD_REACTORS
330
18C
102
}
102
{ACAD_XDICTIONARY
360
105B7
102
}
330
18C
100
AcDbMaterial
  1
BYLAYER
 72
     0
 73
     2
 43
0.0208333333333333
 43
0.0
 43
0.0
 43
0.0
 43
0.0
 43
0.0208333333333333
 43
0.0
 43
0.0
 43
0.0
 43
0.0
 43
1.0
 43
0.0
 43
0.0
 43
0.0
 43
0.0
 43
1.0
 77
     0
 78
     2
 47
0.0208333333333333
 47
0.0
 47
0.0
 47
0.0
 47
0.0
 47
0.0208333333333333
 47
0.0
 47
0.0
 47
0.0
 47
0.0
 47
1.0
 47
0.0
 47
0.0
 47
0.0
 47
0.0
 47
1.0
171
     0
172
     2
 49
0.0208333333333333
 49
0.0
 49
0.0
 49
0.0
 49
0.0
 49
0.0208333333333333
 49
0.0
 49
0.0
 49
0.0
 49
0.0
 49
1.0
 49
0.0
 49
0.0
 49
0.0
 49
0.0
 49
1.0
175
     0
176
     2
142
0.0208333333333333
142
0.0
142
0.0
142
0.0
142
0.0
142
0.0208333333333333
142
0.0
142
0.0
142
0.0
142
0.0
142
1.0
142
0.0
142
0.0
142
0.0
142
0.0
142
1.0
179
     0
270
     2
144
0.0208333333333333
144
0.0
144
0.0
144
0.0
144
0.0
144
0.0208333333333333
144
0.0
144
0.0
144
0.0
144
0.0
144
1.0
144
0.0
144
0.0
144
0.0
144
0.0
144
1.0
274
     2
147
0.0208333333333333
147
0.0
147
0.0
147
0.0
147
0.0
147
0.0208333333333333
147
0.0
147
0.0
147
0.0
147
0.0
147
1.0
147
0.0
147
0.0
147
0.0
147
0.0
147
1.0
  0
MATERIAL
  5
D062
102
{ACAD_REACTORS
330
18C
102
}
102
{ACAD_XDICTIONARY
360
105B9
102
}
330
18C
100
AcDbMaterial
  1
GLOBAL
 72
     0
 73
     2
 43
0.0208333333333333
 43
0.0
 43
0.0
 43
0.0
 43
0.0
 43
0.0208333333333333
 43
0.0
 43
0.0
 43
0.0
 43
0.0
 43
1.0
 43
0.0
 43
0.0
 43
0.0
 43
0.0
 43
1.0
 77
     0
 78
     2
 47
0.0208333333333333
 47
0.0
 47
0.0
 47
0.0
 47
0.0
 47
0.0208333333333333
 47
0.0
 47
0.0
 47
0.0
 47
0.0
 47
1.0
 47
0.0
 47
0.0
 47
0.0
 47
0.0
 47
1.0
171
     0
172
     2
 49
0.0208333333333333
 49
0.0
 49
0.0
 49
0.0
 49
0.0
 49
0.0208333333333333
 49
0.0
 49
0.0
 49
0.0
 49
0.0
 49
1.0
 49
0.0
 49
0.0
 49
0.0
 49
0.0
 49
1.0
175
     0
176
     2
142
0.0208333333333333
142
0.0
142
0.0
142
0.0
142
0.0
142
0.0208333333333333
142
0.0
142
0.0
142
0.0
142
0.0
142
1.0
142
0.0
142
0.0
142
0.0
142
0.0
142
1.0
179
     0
270
     2
144
0.0208333333333333
144
0.0
144
0.0
144
0.0
144
0.0
144
0.0208333333333333
144
0.0
144
0.0
144
0.0
144
0.0
144
1.0
144
0.0
144
0.0
144
0.0
144
0.0
144
1.0
274
     2
147
0.0208333333333333
147
0.0
147
0.0
147
0.0
147
0.0
147
0.0208333333333333
147
0.0
147
0.0
147
0.0
147
0.0
147
1.0
147
0.0
147
0.0
147
0.0
147
0.0
147
1.0
  0
ACAD_PROXY_OBJECT
  5
D09E
102
{ACAD_REACTORS
330
D09D
102
}
330
D09D
100
AcDbZombieObject
 90
      499
 91
      511
 93
      610
310
40901902A4063FBFFFFFE000000000000002040AD7A3703D0AD73F4214DD185B99185C990000000000000104090141901A00000000000004100000000000000041025764000000000000300FC0
340
12
340
0
340
F
340
0
 94
        0
1001
ACAD_MLEADERVER
1070
     2
  0
MLINESTYLE
  5
1C
102
{ACAD_REACTORS
330
1B
102
}
330
1B
100
AcDbMlineStyle
  2
STANDARD
 70
     0
  3

 62
   256
 51
90.0
 52
90.0
 71
     2
 49
0.5
 62
   256
  6
BYLAYER
 49
-0.5
 62
   256
  6
BYLAYER
  0
ACAD_PROXY_OBJECT
  5
D07C
102
{ACAD_REACTORS
330
D07B
102
}
330
D07B
100
AcDbZombieObject
 90
      499
 91
      510
 93
       41
310
903313A31580
  0
ACAD_PROXY_OBJECT
  5
D07D
102
{ACAD_REACTORS
330
D07B
102
}
330
D07B
100
AcDbZombieObject
 90
      499
 91
      510
 93
      105
310
903313A324000000000000004000
  0
ACAD_PROXY_OBJECT
  5
D07E
102
{ACAD_REACTORS
330
D07B
102
}
330
D07B
100
AcDbZombieObject
 90
      499
 91
      510
 93
      105
310
903313A344000000000000104000
  0
ACAD_PROXY_OBJECT
  5
D07F
102
{ACAD_REACTORS
330
D07B
102
}
330
D07B
100
AcDbZombieObject
 90
      499
 91
      510
 93
      105
310
903313A354000000000000144000
  0
ACAD_PROXY_OBJECT
  5
D080
102
{ACAD_REACTORS
330
D07B
102
}
330
D07B
100
AcDbZombieObject
 90
      499
 91
      510
 93
      105
310
903313A384000000000000204000
  0
ACAD_PROXY_OBJECT
  5
D081
102
{ACAD_REACTORS
330
D07B
102
}
330
D07B
100
AcDbZombieObject
 90
      499
 91
      510
 93
      113
310
904313A31304000000000000244000
  0
ACAD_PROXY_OBJECT
  5
D082
102
{ACAD_REACTORS
330
D07B
102
}
330
D07B
100
AcDbZombieObject
 90
      499
 91
      510
 93
      113
310
904313A31364000000000000304000
  0
ACAD_PROXY_OBJECT
  5
D083
102
{ACAD_REACTORS
330
D07B
102
}
330
D07B
100
AcDbZombieObject
 90
      499
 91
      510
 93
      113
310
904313A32304000000000000344000
  0
ACAD_PROXY_OBJECT
  5
D084
102
{ACAD_REACTORS
330
D07B
102
}
330
D07B
100
AcDbZombieObject
 90
      499
 91
      510
 93
      113
310
904313A333040000000000003E4000
  0
ACAD_PROXY_OBJECT
  5
D085
102
{ACAD_REACTORS
330
D07B
102
}
330
D07B
100
AcDbZombieObject
 90
      499
 91
      510
 93
      113
310
904313A34304000000000000444000
  0
ACAD_PROXY_OBJECT
  5
D086
102
{ACAD_REACTORS
330
D07B
102
}
330
D07B
100
AcDbZombieObject
 90
      499
 91
      510
 93
      113
310
904313A35304000000000000494000
  0
ACAD_PROXY_OBJECT
  5
D087
102
{ACAD_REACTORS
330
D07B
102
}
330
D07B
100
AcDbZombieObject
 90
      499
 91
      510
 93
      121
310
905313A3130304000000000000594000
  0
ACAD_PROXY_OBJECT
  5
D088
102
{ACAD_REACTORS
330
D07B
102
}
330
D07B
100
AcDbZombieObject
 90
      499
 91
      510
 93
      105
310
903323A310000000000000010100
  0
ACAD_PROXY_OBJECT
  5
D089
102
{ACAD_REACTORS
330
D07B
102
}
330
D07B
100
AcDbZombieObject
 90
      499
 91
      510
 93
      105
310
903343A310000000000000410100
  0
ACAD_PROXY_OBJECT
  5
D08A
102
{ACAD_REACTORS
330
D07B
102
}
330
D07B
100
AcDbZombieObject
 90
      499
 91
      510
 93
      105
310
903383A310000000000000810100
  0
ACAD_PROXY_OBJECT
  5
D08B
102
{ACAD_REACTORS
330
D07B
102
}
330
D07B
100
AcDbZombieObject
 90
      499
 91
      510
 93
      113
310
90431303A310000000000000910100
  0
ACAD_PROXY_OBJECT
  5
D08C
102
{ACAD_REACTORS
330
D07B
102
}
330
D07B
100
AcDbZombieObject
 90
      499
 91
      510
 93
      121
310
9053130303A310000000000001650100
  0
ACAD_PROXY_OBJECT
  5
D08D
102
{ACAD_REACTORS
330
D07B
102
}
330
D07B
100
AcDbZombieObject
 90
      499
 91
      510
 93
      257
310
90E312F31323822203D2031272D3022000000000000200FC000000000000284000
  0
ACAD_PROXY_OBJECT
  5
D08E
102
{ACAD_REACTORS
330
D07B
102
}
330
D07B
100
AcDbZombieObject
 90
      499
 91
      510
 93
      249
310
90D312F363422203D2031272D3022000000000000240FC000000000000284000
  0
ACAD_PROXY_OBJECT
  5
D08F
102
{ACAD_REACTORS
330
D07B
102
}
330
D07B
100
AcDbZombieObject
 90
      499
 91
      510
 93
      249
310
90D312F333222203D2031272D3022000000000000280FC000000000000284000
  0
ACAD_PROXY_OBJECT
  5
D090
102
{ACAD_REACTORS
330
D07B
102
}
330
D07B
100
AcDbZombieObject
 90
      499
 91
      510
 93
      249
310
90D312F313622203D2031272D30220000000000002C0FC000000000000284000
  0
ACAD_PROXY_OBJECT
  5
D091
102
{ACAD_REACTORS
330
D07B
102
}
330
D07B
100
AcDbZombieObject
 90
      499
 91
      510
 93
      249
310
90D332F333222203D2031272D30220000000000002E0FC000000000000284000
  0
ACAD_PROXY_OBJECT
  5
D092
102
{ACAD_REACTORS
330
D07B
102
}
330
D07B
100
AcDbZombieObject
 90
      499
 91
      510
 93
      241
310
90C312F3822203D2031272D3022000000000000300FC000000000000284000
  0
ACAD_PROXY_OBJECT
  5
D093
102
{ACAD_REACTORS
330
D07B
102
}
330
D07B
100
AcDbZombieObject
 90
      499
 91
      510
 93
      249
310
90D332F313622203D2031272D3022000000000000320FC000000000000284000
  0
ACAD_PROXY_OBJECT
  5
D094
102
{ACAD_REACTORS
330
D07B
102
}
330
D07B
100
AcDbZombieObject
 90
      499
 91
      510
 93
      241
310
90C312F3422203D2031272D3022000000000000340FC000000000000284000
  0
ACAD_PROXY_OBJECT
  5
D095
102
{ACAD_REACTORS
330
D07B
102
}
330
D07B
100
AcDbZombieObject
 90
      499
 91
      510
 93
      241
310
90C332F3822203D2031272D3022000000000000360FC000000000000284000
  0
ACAD_PROXY_OBJECT
  5
D096
102
{ACAD_REACTORS
330
D07B
102
}
330
D07B
100
AcDbZombieObject
 90
      499
 91
      510
 93
      241
310
90C312F3222203D2031272D3022000000000000380FC000000000000284000
  0
ACAD_PROXY_OBJECT
  5
D097
102
{ACAD_REACTORS
330
D07B
102
}
330
D07B
100
AcDbZombieObject
 90
      499
 91
      510
 93
      241
310
90C332F3422203D2031272D30220000000000003A0FC000000000000284000
  0
ACAD_PROXY_OBJECT
  5
D098
102
{ACAD_REACTORS
330
D07B
102
}
330
D07B
100
AcDbZombieObject
 90
      499
 91
      510
 93
      161
310
90A3122203D2031272D30224000000000000284000
  0
ACAD_PROXY_OBJECT
  5
D099
102
{ACAD_REACTORS
330
D07B
102
}
330
D07B
100
AcDbZombieObject
 90
      499
 91
      510
 93
      257
310
90E312D312F3222203D2031272D30220000000000003E0FC000000000000284000
  0
ACAD_PROXY_OBJECT
  5
D09A
102
{ACAD_REACTORS
330
D07B
102
}
330
D07B
100
AcDbZombieObject
 90
      499
 91
      510
 93
      225
310
90A3322203D2031272D302200000000000002100000000000000284000
  0
ACAD_PROXY_OBJECT
  5
D09B
102
{ACAD_REACTORS
330
D07B
102
}
330
D07B
100
AcDbZombieObject
 90
      499
 91
      510
 93
      225
310
90A3622203D2031272D302200000000000006100000000000000284000
  0
ACAD_PROXY_OBJECT
  5
D09C
102
{ACAD_REACTORS
330
D07B
102
}
330
D07B
100
AcDbZombieObject
 90
      499
 91
      510
 93
      249
310
90D31272D3022203D2031272D30220000000000000A100000000000000284000
  0
ACAD_PROXY_OBJECT
  5
D070
102
{ACAD_REACTORS
330
D06A
102
}
330
D06A
100
AcDbZombieObject
 90
      499
 91
      509
 93
      436
310
42CC9915DA5C99599C985B595049028333333333333E3BF0000000000000FB0107901411070040501600405405064090741402480A0340
1001
ACAD
1000
AcDbSavedByObjectVersion
1070
     0
  0
ACAD_PROXY_OBJECT
  5
D072
102
{ACAD_REACTORS
330
D06A
102
}
330
D06A
100
AcDbZombieObject
 90
      499
 91
      509
 93
      500
310
424CD108121A5919195B90640502408333333333333E3BF0000000000000FB01079024090700405020000000000001110200405405064090740C02480A0340
1001
ACAD
1000
AcDbSavedByObjectVersion
1070
     0
  0
ACAD_PROXY_OBJECT
  5
D071
102
{ACAD_REACTORS
330
D06A
102
}
330
D06A
100
AcDbZombieObject
 90
      499
 91
      509
 93
      436
310
42CCD915DA5C99599C985B595059028333333333333E3BF0000000000000FB0107901411070040501600405405064090741402480A0340
1001
ACAD
1000
AcDbSavedByObjectVersion
1070
     0
  0
ACAD_PROXY_OBJECT
  5
D06F
102
{ACAD_REACTORS
330
D06A
102
}
330
D06A
100
AcDbZombieObject
 90
      499
 91
      509
 93
      388
310
4150985CDA58D07406404333333333333E3BF0000000000000FB0107A41107004050150841D405064090741402480A0350
1001
ACAD
1000
AcDbSavedByObjectVersion
1070
     0
  0
ACAD_PROXY_OBJECT
  5
D076
102
{ACAD_REACTORS
330
D06A
102
}
330
D06A
100
AcDbZombieObject
 90
      499
 91
      509
 93
      428
310
42109C9A59DA1D195B90C409028333333333333E3BF0000000000000FB010790141107004050150841D405064090741402480A029950
1001
ACAD
1000
AcDbSavedByObjectVersion
1070
     0
  0
ACAD_PROXY_OBJECT
  5
D07A
102
{ACAD_REACTORS
330
D06A
102
}
330
D06A
100
AcDbZombieObject
 90
      499
 91
      509
 93
      452
310
42D0DBDB1BDC90DA185B99D95104090240C333333333333E3BF0000000000000FB0108901411070040501508421405064090741402480A0350
1001
ACAD
1000
AcDbSavedByObjectVersion
1070
     0
  0
ACAD_PROXY_OBJECT
  5
D073
102
{ACAD_REACTORS
330
D06A
102
}
330
D06A
100
AcDbZombieObject
 90
      499
 91
      509
 93
      500
310
4290DBDB98D95C1D1D585B10940D028333333333333E3BF0000000000000FB0107902409070040501000000000000111010841D405064090740C02480A0340
1001
ACAD
1000
AcDbSavedByObjectVersion
1070
     0
  0
ACAD_PROXY_OBJECT
  5
D075
102
{ACAD_REACTORS
330
D06A
102
}
330
D06A
100
AcDbZombieObject
 90
      499
 91
      509
 93
      412
310
40D11A5B50B409028333333333333E3BF0000000000000FB010790141107004050150841D405064090741402480A02677FFFFFD0
1001
ACAD
1000
AcDbSavedByObjectVersion
1070
     0
  0
ACAD_PROXY_OBJECT
  5
D29F
102
{ACAD_REACTORS
330
D06A
102
}
330
D06A
100
AcDbZombieObject
 90
      499
 91
      509
 93
      452
310
43115919D950DBDB1BDC93D999916409028333333333333E3BF0000000000000FB010790141107004050150841D405064090741402480A0350
1001
ACAD
1000
AcDbSavedByObjectVersion
1070
     0
  0
ACAD_PROXY_OBJECT
  5
D079
102
{ACAD_REACTORS
330
D06A
102
}
330
D06A
100
AcDbZombieObject
 90
      499
 91
      509
 93
      444
310
42D19858D95C185D1D195C9B90F409028333333333333E3BF0000000000000FB010790141107004050150841D405064090741402480A0350
1001
ACAD
1000
AcDbSavedByObjectVersion
1070
     0
  0
ACAD_PROXY_OBJECT
  5
D06B
102
{ACAD_REACTORS
330
D06A
102
}
330
D06A
100
AcDbZombieObject
 90
      499
 91
      509
 93
      388
310
41119B185D240901404333333333333E3BF0000000000000F9010740A41107004050150841D405064090741402480A1B50
1001
ACAD
1000
AcDbSavedByObjectVersion
1070
     0
  0
ACAD_PROXY_OBJECT
  5
D06C
102
{ACAD_REACTORS
330
D06A
102
}
330
D06A
100
AcDbZombieObject
 90
      499
 91
      509
 93
      476
310
43519B185D15DA5D1A115919D95CD0140901404333333333333E3BF0000000000000F9010740901411070040501600405405064090741402480A1B50
1001
ACAD
1000
AcDbSavedByObjectVersion
1070
     0
  0
ACAD_PROXY_OBJECT
  5
D06D
102
{ACAD_REACTORS
330
D06A
102
}
330
D06A
100
AcDbZombieObject
 90
      499
 91
      509
 93
      412
310
41D1DBDD5C985D5910240902404333333333333E3BF0000000000000F9010740A411070040501641D405064090741402480A1B50
1001
ACAD
1000
AcDbSavedByObjectVersion
1070
     0
  0
ACAD_PROXY_OBJECT
  5
D06E
102
{ACAD_REACTORS
330
D06A
102
}
330
D06A
100
AcDbZombieObject
 90
      499
 91
      509
 93
      500
310
4411DBDD5C985D5915DA5D1A115919D95CD0340902404333333333333E3BF0000000000000F9010740901411070040501600405405064090741402480A1B50
1001
ACAD
1000
AcDbSavedByObjectVersion
1070
     0
  0
ACAD_PROXY_OBJECT
  5
FB62
102
{ACAD_REACTORS
330
D06A
102
}
330
D06A
100
AcDbZombieObject
 90
      499
 91
      509
 93
      476
310
41921A5919195B90640502408333333333333E3BF0000000000000FB01079024090700405020000000000001110200405405064090740C02480A0340
1001
ACAD
1000
AcDbSavedByObjectVersion
1070
     0
  0
ACAD_PROXY_OBJECT
  5
D29D
102
{ACAD_REACTORS
330
D06A
102
}
330
D06A
100
AcDbZombieObject
 90
      499
 91
      509
 93
      428
310
42529A5D1D195C93D999914409028333333333333E3BF0000000000000FB010790141107004050150A41D405064090741402480A0350
1001
ACAD
1000
AcDbSavedByObjectVersion
1070
     0
  0
ACAD_PROXY_OBJECT
  5
D078
102
{ACAD_REACTORS
330
D06A
102
}
330
D06A
100
AcDbZombieObject
 90
      499
 91
      509
 93
      444
310
42D31A5B995C185D1D195C9B90E409028333333333333E3BF0000000000000FB010790141107004050750841D405064090741402483A0350
1001
ACAD
1000
AcDbSavedByObjectVersion
1070
     0
  0
ACAD_PROXY_OBJECT
  5
10307
102
{ACAD_REACTORS
330
D06A
102
}
330
D06A
100
AcDbZombieObject
 90
      499
 91
      509
 93
      484
310
42135BD9195B1A5B99D0A409038333333333333E33F0000000000000F901074090290700405010000000000201990108421405064090741402480A1B40
1001
ACAD
1000
AcDbSavedByObjectVersion
1070
     0
  0
ACAD_PROXY_OBJECT
  5
D29E
102
{ACAD_REACTORS
330
D06A
102
}
330
D06A
100
AcDbZombieObject
 90
      499
 91
      509
 93
      444
310
42D3DD995C9A185B99D3D999915409028333333333333E3BF0000000000000FB010790141107004050150941D405064090741402480A0350
1001
ACAD
1000
AcDbSavedByObjectVersion
1070
     0
  0
ACAD_PROXY_OBJECT
  5
D074
102
{ACAD_REACTORS
330
D06A
102
}
330
D06A
100
AcDbZombieObject
 90
      499
 91
      509
 93
      420
310
425499585B1A5CDD1A58D08409028333333333333E3BF0000000000000FB01079019070040501508421405064090741402480A1B40
1001
ACAD
1000
AcDbSavedByObjectVersion
1070
     0
  0
ACAD_PROXY_OBJECT
  5
FB67
102
{ACAD_REACTORS
330
D06A
102
}
330
D06A
100
AcDbZombieObject
 90
      499
 91
      509
 93
      420
310
4194DA1859195911B40902404333333333333E3BF0000000000000F9010740A41107004050150800405405064090840C02480A0B40
1001
ACAD
1000
AcDbSavedByObjectVersion
1070
     0
  0
ACAD_PROXY_OBJECT
  5
FB66
102
{ACAD_REACTORS
330
D06A
102
}
330
D06A
100
AcDbZombieObject
 90
      499
 91
      509
 93
      516
310
4454DA18591959081DDA5D1A08195919D95CD1A40902404333333333333E3BF0000000000000F901074090142907004050250800405405064090740C02480A0B40
1001
ACAD
1000
AcDbSavedByObjectVersion
1070
     0
  0
ACAD_PROXY_OBJECT
  5
FB63
102
{ACAD_REACTORS
330
D06A
102
}
330
D06A
100
AcDbZombieObject
 90
      499
 91
      509
 93
      532
310
4394DA1859195CC81BD98811DC985E5174090240C333333333333E3BF0000000000000FB01079024090741D01000000000000111010841D405064090740C02480A0340
1001
ACAD
1000
AcDbSavedByObjectVersion
1070
     0
  0
ACAD_PROXY_OBJECT
  5
FB64
102
{ACAD_REACTORS
330
D06A
102
}
330
D06A
100
AcDbZombieObject
 90
      499
 91
      509
 93
      476
310
41D4DAD95D18DA1E51840502408333333333333E3BF0000000000000FB01079024090741D01000000000000111010B41D405064090741802480A0340
1001
ACAD
1000
AcDbSavedByObjectVersion
1070
     0
  0
ACAD_PROXY_OBJECT
  5
D077
102
{ACAD_REACTORS
330
D06A
102
}
330
D06A
100
AcDbZombieObject
 90
      499
 91
      509
 93
      412
310
41D51A1A58DAD95B90D409028333333333333E3BF0000000000000FB010790141107004050150C41D405064090741402480A0350
1001
ACAD
1000
AcDbSavedByObjectVersion
1070
     0
  0
ACAD_PROXY_OBJECT
  5
FB61
102
{ACAD_REACTORS
330
D06A
102
}
330
D06A
100
AcDbZombieObject
 90
      499
 91
      509
 93
      420
310
4255DA5C99599C985B595059028333333333333E3BF0000000000000FB0107901411070040501600405405064090740C02480A0340
1001
ACAD
1000
AcDbSavedByObjectVersion
1070
     0
  0
ACAD_PROXY_OBJECT
  5
FB65
102
{ACAD_REACTORS
330
D06A
102
}
330
D06A
100
AcDbZombieObject
 90
      499
 91
      509
 93
      404
310
41560B54985E51940902404000000000000E03F0000000000000FB010740501907004050150841D405064090740C02480A1B40
1001
ACAD
1000
AcDbSavedByObjectVersion
1070
     0
  0
XRECORD
  5
10418
102
{ACAD_REACTORS
330
10417
102
}
330
10417
100
AcDbXrecord
340
18D
  0
XRECORD
  5
10419
102
{ACAD_REACTORS
330
10417
102
}
330
10417
100
AcDbXrecord
340
18C
  0
DICTIONARYVAR
  5
D118
102
{ACAD_REACTORS
330
37
102
}
330
37
100
DictionaryVariables
280
     0
  1
1:1
  0
DICTIONARYVAR
  5
D117
102
{ACAD_REACTORS
330
37
102
}
330
37
100
DictionaryVariables
280
     0
  1
Standard
  0
DICTIONARYVAR
  5
29E
102
{ACAD_REACTORS
330
37
102
}
330
37
100
DictionaryVariables
280
     0
  1
Standard
  0
DICTIONARYVAR
  5
38
102
{ACAD_REACTORS
330
37
102
}
330
37
100
DictionaryVariables
280
     0
  1
-1
  0
DICTIONARYVAR
  5
1CE
102
{ACAD_REACTORS
330
37
102
}
330
37
100
DictionaryVariables
280
     0
  1
2
  0
DICTIONARYVAR
  5
704E
102
{ACAD_REACTORS
330
37
102
}
330
37
100
DictionaryVariables
280
     0
  1
1
  0
DICTIONARYVAR
  5
D11A
102
{ACAD_REACTORS
330
37
102
}
330
37
100
DictionaryVariables
280
     0
  1
0
  0
DICTIONARYVAR
  5
7052
102
{ACAD_REACTORS
330
37
102
}
330
37
100
DictionaryVariables
280
     0
  1
8
  0
DICTIONARYVAR
  5
7051
102
{ACAD_REACTORS
330
37
102
}
330
37
100
DictionaryVariables
280
     0
  1
1
  0
DICTIONARYVAR
  5
1038C
102
{ACAD_REACTORS
330
37
102
}
330
37
100
DictionaryVariables
280
     0
  1
0
  0
DICTIONARYVAR
  5
704F
102
{ACAD_REACTORS
330
37
102
}
330
37
100
DictionaryVariables
280
     0
  1
8
  0
DICTIONARYVAR
  5
7050
102
{ACAD_REACTORS
330
37
102
}
330
37
100
DictionaryVariables
280
     0
  1
2
  0
DICTIONARYVAR
  5
1CF
102
{ACAD_REACTORS
330
37
102
}
330
37
100
DictionaryVariables
280
     0
  1

  0
DICTIONARYVAR
  5
D119
102
{ACAD_REACTORS
330
37
102
}
330
37
100
DictionaryVariables
280
     0
  1
127
  0
DICTIONARYVAR
  5
10306
102
{ACAD_REACTORS
330
37
102
}
330
37
100
DictionaryVariables
280
     0
  1
2
  0
DICTIONARY
  5
105B5
330
D05A
100
AcDbDictionary
  3
ACAD_XREC_ROUNDTRIP
360
105B6
1001
ACAD
1000
TREAT_AS_HARD
1070
     1
  0
DICTIONARY
  5
105B7
330
D052
100
AcDbDictionary
  3
ACAD_XREC_ROUNDTRIP
360
105B8
1001
ACAD
1000
TREAT_AS_HARD
1070
     1
  0
DICTIONARY
  5
105B9
330
D062
100
AcDbDictionary
  3
ACAD_XREC_ROUNDTRIP
360
105BA
1001
ACAD
1000
TREAT_AS_HARD
1070
     1
  0
XRECORD
  5
105B6
102
{ACAD_REACTORS
330
105B5
102
}
330
105B5
100
AcDbXrecord
102
MATERIAL
148
0.0
149
0.0
149
0.0
 93
        0
 94
      127
282
     0
 72
     0
 77
     0
171
     0
175
     0
179
     0
273
     0
  0
XRECORD
  5
105B8
102
{ACAD_REACTORS
330
105B7
102
}
330
105B7
100
AcDbXrecord
102
MATERIAL
148
0.0
149
0.0
149
0.0
 93
        0
 94
      127
282
     0
 72
     0
 77
     0
171
     0
175
     0
179
     0
273
     0
  0
XRECORD
  5
105BA
102
{ACAD_REACTORS
330
105B9
102
}
330
105B9
100
AcDbXrecord
102
MATERIAL
148
0.0
149
0.0
149
0.0
 93
        0
 94
      127
282
     0
 72
     0
 77
     0
171
     0
175
     0
179
     0
273
     0
  0
ENDSEC
  0
EOF
