  0
SECTION
  2
HEADER
  9
$ACADVER
  1
AC1012
  9
$DWGCODEPAGE
  3
ansi_932
  9
$INSBASE
 10
0.0
 20
0.0
 30
0.0
  9
$EXTMIN
 10
-142.4959482375016
 20
-87.39831052683239
 30
0.0
  9
$EXTMAX
 10
139.1551694708856
 20
155.029922281447
 30
0.0
  9
$LIMMIN
 10
0.0
 20
0.0
  9
$LIMMAX
 10
420.0
 20
297.0
  9
$ORTHOMODE
 70
     0
  9
$REGENMODE
 70
     1
  9
$FILLMODE
 70
     1
  9
$QTEXTMODE
 70
     0
  9
$MIRRTEXT
 70
     0
  9
$DRAGMODE
 70
     2
  9
$LTSCALE
 40
0.5
  9
$OSMODE
 70
 16383
  9
$ATTMODE
 70
     1
  9
$TEXTSIZE
 40
4.0
  9
$TRACEWID
 40
1.0
  9
$TEXTSTYLE
  7
STANDARD
  9
$CLAYER
  8
1TEXT
  9
$CELTYPE
  6
BYLAYER
  9
$CECOLOR
 62
   256
  9
$CELTSCALE
 40
1.0
  9
$DELOBJ
 70
     1
  9
$DISPSILH
 70
     0
  9
$DIMSCALE
 40
1.0
  9
$DIMASZ
 40
2.0
  9
$DIMEXO
 40
0.0
  9
$DIMDLI
 40
7.0
  9
$DIMRND
 40
0.0
  9
$DIMDLE
 40
0.0
  9
$DIMEXE
 40
1.0
  9
$DIMTP
 40
0.0
  9
$DIMTM
 40
0.0
  9
$DIMTXT
 40
3.5
  9
$DIMCEN
 40
0.0
  9
$DIMTSZ
 40
0.0
  9
$DIMTOL
 70
     0
  9
$DIMLIM
 70
     0
  9
$DIMTIH
 70
     0
  9
$DIMTOH
 70
     0
  9
$DIMSE1
 70
     0
  9
$DIMSE2
 70
     0
  9
$DIMTAD
 70
     1
  9
$DIMZIN
 70
     8
  9
$DIMBLK
  1

  9
$DIMASO
 70
     1
  9
$DIMSHO
 70
     1
  9
$DIMPOST
  1
 
  9
$DIMAPOST
  1

  9
$DIMALT
 70
     0
  9
$DIMALTD
 70
     2
  9
$DIMALTF
 40
25.4
  9
$DIMLFAC
 40
1.0
  9
$DIMTOFL
 70
     1
  9
$DIMTVP
 40
0.0
  9
$DIMTIX
 70
     0
  9
$DIMSOXD
 70
     0
  9
$DIMSAH
 70
     1
  9
$DIMBLK1
  1
OPEN30
  9
$DIMBLK2
  1
OPEN30
  9
$DIMSTYLE
  2
NEWX10
  9
$DIMCLRD
 70
   256
  9
$DIMCLRE
 70
   256
  9
$DIMCLRT
 70
   201
  9
$DIMTFAC
 40
0.7
  9
$DIMGAP
 40
0.7
  9
$DIMJUST
 70
     0
  9
$DIMSD1
 70
     0
  9
$DIMSD2
 70
     0
  9
$DIMTOLJ
 70
     1
  9
$DIMTZIN
 70
     8
  9
$DIMALTZ
 70
     0
  9
$DIMALTTZ
 70
     0
  9
$DIMFIT
 70
     2
  9
$DIMUPT
 70
     0
  9
$DIMUNIT
 70
     2
  9
$DIMDEC
 70
     2
  9
$DIMTDEC
 70
     4
  9
$DIMALTU
 70
     2
  9
$DIMALTTD
 70
     2
  9
$DIMTXSTY
  7
STANDARD
  9
$DIMAUNIT
 70
     0
  9
$LUNITS
 70
     2
  9
$LUPREC
 70
     4
  9
$SKETCHINC
 40
1.0
  9
$FILLETRAD
 40
0.0
  9
$AUNITS
 70
     0
  9
$AUPREC
 70
     2
  9
$MENU
  1
acad
  9
$ELEVATION
 40
0.0
  9
$PELEVATION
 40
0.0
  9
$THICKNESS
 40
0.0
  9
$LIMCHECK
 70
     0
  9
$CHAMFERA
 40
10.0
  9
$CHAMFERB
 40
10.0
  9
$CHAMFERC
 40
20.0
  9
$CHAMFERD
 40
0.0
  9
$SKPOLY
 70
     0
  9
$TDCREATE
 40
2451318.621352917
  9
$TDUPDATE
 40
2458730.596047303
  9
$TDINDWG
 40
0.675361956
  9
$TDUSRTIMER
 40
0.675361956
  9
$USRTIMER
 70
     1
  9
$ANGBASE
 50
0.0
  9
$ANGDIR
 70
     0
  9
$PDMODE
 70
     0
  9
$PDSIZE
 40
0.0
  9
$PLINEWID
 40
0.0
  9
$COORDS
 70
     2
  9
$SPLFRAME
 70
     0
  9
$SPLINETYPE
 70
     6
  9
$SPLINESEGS
 70
     8
  9
$ATTDIA
 70
     0
  9
$ATTREQ
 70
     1
  9
$HANDLING
 70
     1
  9
$HANDSEED
  5
10A89
  9
$SURFTAB1
 70
     6
  9
$SURFTAB2
 70
     6
  9
$SURFTYPE
 70
     6
  9
$SURFU
 70
     6
  9
$SURFV
 70
     6
  9
$UCSNAME
  2

  9
$UCSORG
 10
0.0
 20
0.0
 30
0.0
  9
$UCSXDIR
 10
1.0
 20
0.0
 30
0.0
  9
$UCSYDIR
 10
0.0
 20
1.0
 30
0.0
  9
$PUCSNAME
  2

  9
$PUCSORG
 10
0.0
 20
0.0
 30
0.0
  9
$PUCSXDIR
 10
1.0
 20
0.0
 30
0.0
  9
$PUCSYDIR
 10
0.0
 20
1.0
 30
0.0
  9
$USERI1
 70
     0
  9
$USERI2
 70
     0
  9
$USERI3
 70
     0
  9
$USERI4
 70
     0
  9
$USERI5
 70
     0
  9
$USERR1
 40
0.0
  9
$USERR2
 40
0.0
  9
$USERR3
 40
0.0
  9
$USERR4
 40
0.0
  9
$USERR5
 40
0.0
  9
$WORLDVIEW
 70
     1
  9
$SHADEDGE
 70
     3
  9
$SHADEDIF
 70
    70
  9
$TILEMODE
 70
     1
  9
$MAXACTVP
 70
    48
  9
$PINSBASE
 10
0.0
 20
0.0
 30
0.0
  9
$PLIMCHECK
 70
     0
  9
$PEXTMIN
 10
1.000000000000000E+20
 20
1.000000000000000E+20
 30
1.000000000000000E+20
  9
$PEXTMAX
 10
-1.000000000000000E+20
 20
-1.000000000000000E+20
 30
-1.000000000000000E+20
  9
$PLIMMIN
 10
0.0
 20
0.0
  9
$PLIMMAX
 10
420.0
 20
297.0
  9
$UNITMODE
 70
     0
  9
$VISRETAIN
 70
     1
  9
$PLINEGEN
 70
     0
  9
$PSLTSCALE
 70
     1
  9
$TREEDEPTH
 70
  3020
  9
$PICKSTYLE
 70
     1
  9
$CMLSTYLE
  2
STANDARD
  9
$CMLJUST
 70
     0
  9
$CMLSCALE
 40
20.0
  9
$SAVEIMAGES
 70
     1
  0
ENDSEC
  0
SECTION
  2
CLASSES
  0
CLASS
  1
DICTIONARYVAR
  2
AcDbDictionaryVar
  3
ObjectDBX Classes
 90
        0
280
     0
281
     0
  0
CLASS
  1
IDBUFFER
  2
AcDbIdBuffer
  3
ObjectDBX Classes
 90
    32768
280
     0
281
     0
  0
CLASS
  1
LWPOLYLINE
  2
AcDbPolyline
  3
ObjectDBX Classes
 90
    32768
280
     0
281
     1
  0
CLASS
  1
ACDBDICTIONARYWDFLT
  2
AcDbDictionaryWithDefault
  3
ObjectDBX Classes
 90
    32768
280
     0
281
     0
  0
CLASS
  1
ACDBPLACEHOLDER
  2
AcDbPlaceHolder
  3
ObjectDBX Classes
 90
        0
280
     0
281
     0
  0
CLASS
  1
LAYOUT
  2
AcDbLayout
  3
ObjectDBX Classes
 90
        0
280
     0
281
     0
  0
CLASS
  1
TABLESTYLE
  2
AcDbTableStyle
  3
ObjectDBX Classes
 90
     4095
280
     0
281
     0
  0
CLASS
  1
SORTENTSTABLE
  2
AcDbSortentsTable
  3
ObjectDBX Classes
 90
    32768
280
     0
281
     0
  0
CLASS
  1
MATERIAL
  2
AcDbMaterial
  3
ObjectDBX Classes
 90
     1153
280
     0
281
     0
  0
CLASS
  1
VISUALSTYLE
  2
AcDbVisualStyle
  3
ObjectDBX Classes
 90
     4095
280
     0
281
     0
  0
CLASS
  1
SCALE
  2
AcDbScale
  3
ObjectDBX Classes
 90
     1153
280
     0
281
     0
  0
CLASS
  1
MLEADERSTYLE
  2
AcDbMLeaderStyle
  3
ACDB_MLEADERSTYLE_CLASS
 90
     4095
280
     0
281
     0
  0
CLASS
  1
CELLSTYLEMAP
  2
AcDbCellStyleMap
  3
ObjectDBX Classes
 90
     1152
280
     0
281
     0
  0
CLASS
  1
SUN
  2
AcDbSun
  3
SCENEOE
 90
     1153
280
     0
281
     0
  0
CLASS
  1
DIMASSOC
  2
AcDbDimAssoc
  3
"AcDbDimAssoc|Product Desc:     AcDim ARX App For Dimension|Company:          Autodesk, Inc.|WEB Address:      www.autodesk.com"
 90
        0
280
     0
281
     0
  0
CLASS
  1
XRECORD
  2
AcDbXrecord
  3
ObjectDBX Classes
 90
    32768
280
     0
281
     0
  0
CLASS
  1
HATCH
  2
AcDbHatch
  3
ObjectDBX Classes
 90
    32768
280
     0
281
     1
  0
ENDSEC
  0
SECTION
  2
TABLES
  0
TABLE
  2
VPORT
  5
8
330
0
100
AcDbSymbolTable
 70
     1
  0
VPORT
  5
CFAB
330
8
100
AcDbSymbolTableRecord
100
AcDbViewportTableRecord
  2
*ACTIVE
 70
     0
 10
0.0
 20
0.0
 11
1.0
 21
1.0
 12
-1.67038938330797
 22
33.81580587730731
 13
0.0
 23
0.0
 14
10.0
 24
10.0
 15
10.0
 25
10.0
 16
0.0
 26
0.0
 36
1.0
 17
0.0
 27
0.0
 37
0.0
 40
260.2913657520474
 41
2.152122641509434
 42
50.0
 43
0.0
 44
0.0
 50
0.0
 51
0.0
 71
    16
 72
   100
 73
     1
 74
     1
 75
     0
 76
     0
 77
     0
 78
     0
  0
ENDTAB
  0
TABLE
  2
LTYPE
  5
5
330
0
100
AcDbSymbolTable
 70
     2
  0
LTYPE
  5
12
330
5
100
AcDbSymbolTableRecord
100
AcDbLinetypeTableRecord
  2
BYBLOCK
 70
     0
  3

 72
    65
 73
     0
 40
0.0
  0
LTYPE
  5
13
330
5
100
AcDbSymbolTableRecord
100
AcDbLinetypeTableRecord
  2
BYLAYER
 70
     0
  3

 72
    65
 73
     0
 40
0.0
  0
LTYPE
  5
14
330
5
100
AcDbSymbolTableRecord
100
AcDbLinetypeTableRecord
  2
CONTINUOUS
 70
     0
  3
Solid line
 72
    65
 73
     0
 40
0.0
  0
LTYPE
  5
A61B
330
5
100
AcDbSymbolTableRecord
100
AcDbLinetypeTableRecord
  2
CENTER2
 70
     0
  3
Center (.5x) ___ _ ___ _ ___ _ ___ _ ___ _ ___
 72
    65
 73
     4
 40
28.575
 49
19.05
 74
     0
 49
-3.175
 74
     0
 49
3.175
 74
     0
 49
-3.175
 74
     0
  0
ENDTAB
  0
TABLE
  2
LAYER
  5
2
102
{ACAD_XDICTIONARY
360
D16C
102
}
330
0
100
AcDbSymbolTable
 70
     5
  0
LAYER
  5
E
102
{ACAD_XDICTIONARY
360
D0B5
102
}
330
2
100
AcDbSymbolTableRecord
100
AcDbLayerTableRecord
  2
0
 70
     0
 62
     7
  6
CONTINUOUS
  0
LAYER
  5
29
102
{ACAD_XDICTIONARY
360
D0B7
102
}
330
2
100
AcDbSymbolTableRecord
100
AcDbLayerTableRecord
  2
1CENTER
 70
     0
 62
     7
  6
CENTER2
  0
LAYER
  5
31
102
{ACAD_XDICTIONARY
360
D0B9
102
}
330
2
100
AcDbSymbolTableRecord
100
AcDbLayerTableRecord
  2
1TEXT
 70
     0
 62
     7
  6
CONTINUOUS
  0
LAYER
  5
243
102
{ACAD_XDICTIONARY
360
D0BF
102
}
330
2
100
AcDbSymbolTableRecord
100
AcDbLayerTableRecord
  2
01
 70
     0
 62
     1
  6
CONTINUOUS
  0
LAYER
  5
24E
102
{ACAD_XDICTIONARY
360
D0C5
102
}
330
2
100
AcDbSymbolTableRecord
100
AcDbLayerTableRecord
  2
1DIM
 70
     0
 62
     7
  6
CONTINUOUS
  0
ENDTAB
  0
TABLE
  2
STYLE
  5
3
330
0
100
AcDbSymbolTable
 70
     1
  0
STYLE
  5
F
330
3
100
AcDbSymbolTableRecord
100
AcDbTextStyleTableRecord
  2
STANDARD
 70
     0
 40
0.0
 41
1.0
 50
0.0
 71
     0
 42
4.0
  3
txt.shx
  4
extfont.shx
  0
ENDTAB
  0
TABLE
  2
VIEW
  5
6
330
0
100
AcDbSymbolTable
 70
     0
  0
ENDTAB
  0
TABLE
  2
UCS
  5
7
330
0
100
AcDbSymbolTable
 70
     0
  0
ENDTAB
  0
TABLE
  2
APPID
  5
9
330
0
100
AcDbSymbolTable
 70
    16
  0
APPID
  5
10
330
9
100
AcDbSymbolTableRecord
100
AcDbRegAppTableRecord
  2
ACAD
 70
     0
  0
APPID
  5
21
330
9
100
AcDbSymbolTableRecord
100
AcDbRegAppTableRecord
  2
DRAWINGVARIABLESXDATA
 70
     0
  0
APPID
  5
64
330
9
100
AcDbSymbolTableRecord
100
AcDbRegAppTableRecord
  2
CONTENTTABDATA
 70
     0
  0
APPID
  5
65
330
9
100
AcDbSymbolTableRecord
100
AcDbRegAppTableRecord
  2
CONTENTCURRENTTAB
 70
     0
  0
APPID
  5
66
330
9
100
AcDbSymbolTableRecord
100
AcDbRegAppTableRecord
  2
CONTENTBLOCKDESCRIPTION
 70
     0
  0
APPID
  5
67
330
9
100
AcDbSymbolTableRecord
100
AcDbRegAppTableRecord
  2
CONTENTBLOCKICON
 70
     0
  0
APPID
  5
68
330
9
100
AcDbSymbolTableRecord
100
AcDbRegAppTableRecord
  2
CONTENTLONGBLOCKNAME
 70
     0
  0
APPID
  5
2AE
330
9
100
AcDbSymbolTableRecord
100
AcDbRegAppTableRecord
  2
ACAD_PSEXT
 70
     0
  0
APPID
  5
D09F
330
9
100
AcDbSymbolTableRecord
100
AcDbRegAppTableRecord
  2
ACAD_MLEADERVER
 70
     0
  0
APPID
  5
D7D9
330
9
100
AcDbSymbolTableRecord
100
AcDbRegAppTableRecord
  2
ACAD_EXEMPT_FROM_CAD_STAND
 70
     0
  0
APPID
  5
DB3E
330
9
100
AcDbSymbolTableRecord
100
AcDbRegAppTableRecord
  2
ACAECLAYERSTANDARD
 70
     0
  0
APPID
  5
F056
330
9
100
AcDbSymbolTableRecord
100
AcDbRegAppTableRecord
  2
ACADANNOTATIVE
 70
     0
  0
APPID
  5
F057
330
9
100
AcDbSymbolTableRecord
100
AcDbRegAppTableRecord
  2
ACDBBLOCKREPETAG
 70
     0
  0
APPID
  5
F8B8
330
9
100
AcDbSymbolTableRecord
100
AcDbRegAppTableRecord
  2
ACAD_DSTYLE_DIMRADIAL_EXTE
 70
     0
  0
APPID
  5
F8B9
330
9
100
AcDbSymbolTableRecord
100
AcDbRegAppTableRecord
  2
ACAD_NAV_VCDISPLAY
 70
     0
  0
APPID
  5
104C0
330
9
100
AcDbSymbolTableRecord
100
AcDbRegAppTableRecord
  2
ACAD_OBJECT_CHANGE_GUID
 70
     0
  0
ENDTAB
  0
TABLE
  2
DIMSTYLE
  5
A
330
0
100
AcDbSymbolTable
 70
     1
  0
DIMSTYLE
105
48
330
A
100
AcDbSymbolTableRecord
100
AcDbDimStyleTableRecord
  2
NEWX10
 70
     0
  3
 
  4

  5

  6
OPEN30
  7
OPEN30
 40
1.0
 41
2.0
 42
0.0
 43
7.0
 44
1.0
 45
0.0
 46
0.0
 47
0.0
 48
0.0
140
3.5
141
0.0
142
0.0
143
25.4
144
1.0
145
0.0
146
0.7
147
0.7
 71
     0
 72
     0
 73
     0
 74
     0
 75
     0
 76
     0
 77
     1
 78
     8
170
     0
171
     2
172
     1
173
     1
174
     0
175
     0
176
   256
177
   256
178
   201
179
     2
270
     2
271
     2
272
     4
273
     2
274
     2
340
F
275
     0
280
     0
281
     0
282
     0
283
     1
284
     8
285
     0
286
     0
287
     2
288
     0
  0
ENDTAB
  0
TABLE
  2
BLOCK_RECORD
  5
1
330
0
100
AcDbSymbolTable
 70
     8
  0
BLOCK_RECORD
  5
18
102
{ACAD_XDICTIONARY
360
88F
102
}
330
1
100
AcDbSymbolTableRecord
100
AcDbBlockTableRecord
  2
*MODEL_SPACE
  0
BLOCK_RECORD
  5
15
330
1
100
AcDbSymbolTableRecord
100
AcDbBlockTableRecord
  2
*PAPER_SPACE
  0
BLOCK_RECORD
  5
42
330
1
100
AcDbSymbolTableRecord
100
AcDbBlockTableRecord
  2
_OPEN30
  0
BLOCK_RECORD
  5
F0A6
330
1
100
AcDbSymbolTableRecord
100
AcDbBlockTableRecord
  2
A3WAKUKAWAJUN2017_HYOUDAI_
  0
BLOCK_RECORD
  5
108E9
330
1
100
AcDbSymbolTableRecord
100
AcDbBlockTableRecord
  2
*X98
  0
BLOCK_RECORD
  5
10937
330
1
100
AcDbSymbolTableRecord
100
AcDbBlockTableRecord
  2
*X99
  0
BLOCK_RECORD
  5
10989
330
1
100
AcDbSymbolTableRecord
100
AcDbBlockTableRecord
  2
*X100
  0
BLOCK_RECORD
  5
109DA
330
1
100
AcDbSymbolTableRecord
100
AcDbBlockTableRecord
  2
*X101
  0
BLOCK_RECORD
  5
10A17
330
1
100
AcDbSymbolTableRecord
100
AcDbBlockTableRecord
  2
*X102
  0
BLOCK_RECORD
  5
10A57
330
1
100
AcDbSymbolTableRecord
100
AcDbBlockTableRecord
  2
*X103
  0
ENDTAB
  0
ENDSEC
  0
SECTION
  2
BLOCKS
  0
BLOCK
  5
19
330
18
100
AcDbEntity
  8
0
100
AcDbBlockBegin
  2
*MODEL_SPACE
 70
     0
 10
0.0
 20
0.0
 30
0.0
  3
*MODEL_SPACE
  1

  0
ENDBLK
  5
1A
330
18
100
AcDbEntity
  8
0
100
AcDbBlockEnd
  0
BLOCK
  5
16
330
15
100
AcDbEntity
 67
     1
  8
0
100
AcDbBlockBegin
  2
*PAPER_SPACE
 70
     0
 10
0.0
 20
0.0
 30
0.0
  3
*PAPER_SPACE
  1

  0
ENDBLK
  5
17
330
15
100
AcDbEntity
 67
     1
  8
0
100
AcDbBlockEnd
  0
BLOCK
  5
43
330
42
100
AcDbEntity
  8
0
100
AcDbBlockBegin
  2
_OPEN30
 70
     0
 10
0.0
 20
0.0
 30
0.0
  3
_OPEN30
  1

  0
LINE
  5
44
330
42
100
AcDbEntity
  8
0
  6
BYBLOCK
 62
     0
100
AcDbLine
 10
-1.0
 20
0.26794919
 30
0.0
 11
0.0
 21
0.0
 31
0.0
  0
LINE
  5
45
330
42
100
AcDbEntity
  8
0
  6
BYBLOCK
 62
     0
100
AcDbLine
 10
0.0
 20
0.0
 30
0.0
 11
-1.0
 21
-0.26794919
 31
0.0
  0
LINE
  5
46
330
42
100
AcDbEntity
  8
0
  6
BYBLOCK
 62
     0
100
AcDbLine
 10
0.0
 20
0.0
 30
0.0
 11
-1.0
 21
0.0
 31
0.0
  0
ENDBLK
  5
47
330
42
100
AcDbEntity
  8
0
100
AcDbBlockEnd
  0
BLOCK
  5
F7A5
330
F0A6
100
AcDbEntity
  8
0
100
AcDbBlockBegin
  2
A3WAKUKAWAJUN2017_HYOUDAI_
 70
     0
 10
0.0
 20
0.0
 30
0.0
  3
A3WAKUKAWAJUN2017_HYOUDAI_
  1

  0
LINE
  5
F0A8
330
F0A6
100
AcDbEntity
  8
0
100
AcDbLine
 10
13.26299999998673
 20
-0.0001000000000317
 30
0.0
 11
9.236999999990758
 21
8.999899999990987
 31
0.0
1001
ACAD
1000
ASC_BOUNDS
1002
{
1070
    19
1005
F0E9
1002
}
  0
LINE
  5
F0A9
330
F0A6
100
AcDbEntity
  8
0
100
AcDbLine
 10
5.657999999994331
 20
0.9999999999989768
 30
0.0
 11
9.236999999990758
 21
8.999999999991019
 31
0.0
1001
ACAD
1000
ASC_BOUNDS
1002
{
1070
    19
1005
F0E9
1002
}
  0
LINE
  5
F0AA
330
F0A6
100
AcDbEntity
  8
0
100
AcDbLine
 10
18.59199999998134
 20
-0.2368999999997641
 30
0.0
 11
16.46099999998353
 21
5.432899999994561
 31
0.0
1001
ACAD
1000
ASC_BOUNDS
1002
{
1070
    19
1005
F0EA
1002
}
  0
LINE
  5
F0AB
330
F0A6
100
AcDbEntity
  8
0
100
AcDbLine
 10
18.59199999998134
 20
-0.2368999999997641
 30
0.0
 11
22.38199999997767
 21
8.763099999991255
 31
0.0
1001
ACAD
1000
ASC_BOUNDS
1002
{
1070
    19
1005
F0EA
1002
}
  0
LINE
  5
F0AC
330
F0A6
100
AcDbEntity
  8
0
100
AcDbLine
 10
14.32899999998563
 20
-0.2368999999997641
 30
0.0
 11
16.46099999998353
 21
5.432899999994561
 31
0.0
1001
ACAD
1000
ASC_BOUNDS
1002
{
1070
    19
1005
F0EA
1002
}
  0
LINE
  5
F0AD
330
F0A6
100
AcDbEntity
  8
0
100
AcDbLine
 10
14.32899999998563
 20
-0.2368999999997641
 30
0.0
 11
10.53899999998941
 21
8.763099999991255
 31
0.0
1001
ACAD
1000
ASC_BOUNDS
1002
{
1070
    19
1005
F0EA
1002
}
  0
LINE
  5
F0AE
330
F0A6
100
AcDbEntity
  8
0
100
AcDbLine
 10
19.53899999998043
 20
-0.0001000000000317
 30
0.0
 11
23.56599999997638
 21
8.999899999990987
 31
0.0
1001
ACAD
1000
ASC_BOUNDS
1002
{
1070
    19
1005
F0EB
1002
}
  0
LINE
  5
F0AF
330
F0A6
100
AcDbEntity
  8
0
100
AcDbLine
 10
26.97358892824991
 20
1.383099999991202
 30
0.0
 11
23.56599999997638
 21
8.999899999990987
 31
0.0
1001
ACAD
1000
ASC_BOUNDS
1002
{
1070
    19
1005
F0EB
1002
}
  0
LINE
  5
F0B0
330
F0A6
100
AcDbEntity
  8
0
100
AcDbLine
 10
5.657999999994331
 20
0.9999999999989768
 30
0.0
 11
3.181999999996833
 21
4.668599999995308
 31
0.0
1001
ACAD
1000
ASC_BOUNDS
1002
{
1070
    19
1005
F0E9
1002
}
  0
LINE
  5
F0B1
330
F0A6
100
AcDbEntity
  8
0
100
AcDbLine
 10
4.617999999995391
 20
-0.0001000000000317
 30
0.0
 11
1.420999999998571
 21
4.736799999995242
 31
0.0
1001
ACAD
1000
ASC_BOUNDS
1002
{
1070
    19
1005
F0E9
1002
}
  0
LINE
  5
F0B2
330
F0A6
100
AcDbEntity
  8
0
100
AcDbLine
 10
1.420999999998571
 20
8.763099999991255
 30
0.0
 11
1.420999999998571
 21
0.0
 31
0.0
1001
ACAD
1000
ASC_BOUNDS
1002
{
1070
    19
1005
F0EE
1002
}
  0
LINE
  5
F0B3
330
F0A6
100
AcDbEntity
  8
0
100
AcDbLine
 10
0.0
 20
8.763099999991255
 30
0.0
 11
0.0
 21
0.0
 31
0.0
1001
ACAD
1000
ASC_BOUNDS
1002
{
1070
    19
1005
F0EE
1002
}
  0
LINE
  5
F0B4
330
F0A6
100
AcDbEntity
  8
0
100
AcDbLine
 10
6.766999999993232
 20
-0.0001000000000317
 30
0.0
 11
7.826999999992154
 21
2.368399999997621
 31
0.0
1001
ACAD
1000
ASC_BOUNDS
1002
{
1070
    19
1005
F0E9
1002
}
  0
LINE
  5
F0B5
330
F0A6
100
AcDbEntity
  8
0
100
AcDbLine
 10
0.0
 20
0.0
 30
0.0
 11
1.420999999998571
 21
0.0
 31
0.0
1001
ACAD
1000
ASC_BOUNDS
1002
{
1070
    19
1005
F0EE
1002
}
  0
LINE
  5
F0B6
330
F0A6
100
AcDbEntity
  8
0
100
AcDbLine
 10
4.617999999995391
 20
0.0
 30
0.0
 11
6.766999999993232
 21
0.0
 31
0.0
1001
ACAD
1000
ASC_BOUNDS
1002
{
1070
    19
1005
F0E9
1002
}
  0
LINE
  5
F0B7
330
F0A6
100
AcDbEntity
  8
0
100
AcDbLine
 10
11.70599999998831
 20
-0.0001000000000317
 30
0.0
 11
10.64699999998936
 21
2.368399999997621
 31
0.0
1001
ACAD
1000
ASC_BOUNDS
1002
{
1070
    19
1005
F0E9
1002
}
  0
LINE
  5
F0B8
330
F0A6
100
AcDbEntity
  8
0
100
AcDbLine
 10
7.826999999992154
 20
2.368399999997621
 30
0.0
 11
10.64699999998936
 21
2.368399999997621
 31
0.0
1001
ACAD
1000
ASC_BOUNDS
1002
{
1070
    19
1005
F0E9
1002
}
  0
LINE
  5
F0B9
330
F0A6
100
AcDbEntity
  8
0
100
AcDbLine
 10
11.70599999998831
 20
0.0
 30
0.0
 11
13.26299999998673
 21
0.0
 31
0.0
1001
ACAD
1000
ASC_BOUNDS
1002
{
1070
    19
1005
F0E9
1002
}
  0
LINE
  5
F0BA
330
F0A6
100
AcDbEntity
  8
0
100
AcDbLine
 10
22.15599999997789
 20
2.368399999997621
 30
0.0
 11
24.97599999997499
 21
2.368399999997621
 31
0.0
1001
ACAD
1000
ASC_BOUNDS
1002
{
1070
    19
1005
F0EB
1002
}
  0
LINE
  5
F0BB
330
F0A6
100
AcDbEntity
  8
0
100
AcDbLine
 10
19.53899999998043
 20
0.0
 30
0.0
 11
21.09599999997886
 21
0.0
 31
0.0
1001
ACAD
1000
ASC_BOUNDS
1002
{
1070
    19
1005
F0EB
1002
}
  0
LINE
  5
F0BC
330
F0A6
100
AcDbEntity
  8
0
100
AcDbLine
 10
21.09599999997886
 20
-0.0001000000000317
 30
0.0
 11
22.15599999997789
 21
2.368399999997621
 31
0.0
1001
ACAD
1000
ASC_BOUNDS
1002
{
1070
    19
1005
F0EB
1002
}
  0
LINE
  5
F0BD
330
F0A6
100
AcDbEntity
  8
0
100
AcDbLine
 10
26.02015566812236
 20
0.0330999999912365
 30
0.0
 11
24.97599999997499
 21
2.368399999997621
 31
0.0
1001
ACAD
1000
ASC_BOUNDS
1002
{
1070
    19
1005
F0EB
1002
}
  0
LINE
  5
F0BE
330
F0A6
100
AcDbEntity
  8
0
100
AcDbLine
 10
14.32399999998563
 20
3.315799999996671
 30
0.0
 11
16.46099999998353
 21
8.999899999990987
 31
0.0
1001
ACAD
1000
ASC_BOUNDS
1002
{
1070
    19
1005
F0EA
1002
}
  0
LINE
  5
F0BF
330
F0A6
100
AcDbEntity
  8
0
100
AcDbLine
 10
6.432999999993513
 20
8.763099999991255
 30
0.0
 11
3.181999999996833
 21
4.668599999995308
 31
0.0
1001
ACAD
1000
ASC_BOUNDS
1002
{
1070
    19
1005
F0E9
1002
}
  0
LINE
  5
F0C0
330
F0A6
100
AcDbEntity
  8
0
100
AcDbLine
 10
4.617999999995391
 20
8.763099999991255
 30
0.0
 11
1.420999999998571
 21
4.736799999995242
 31
0.0
1001
ACAD
1000
ASC_BOUNDS
1002
{
1070
    19
1005
F0E9
1002
}
  0
LINE
  5
F0C1
330
F0A6
100
AcDbEntity
  8
0
100
AcDbLine
 10
0.0
 20
8.763099999991255
 30
0.0
 11
1.420999999998571
 21
8.763099999991255
 31
0.0
1001
ACAD
1000
ASC_BOUNDS
1002
{
1070
    19
1005
F0EE
1002
}
  0
LINE
  5
F0C2
330
F0A6
100
AcDbEntity
  8
0
100
AcDbLine
 10
4.617999999995391
 20
8.763099999991255
 30
0.0
 11
6.432999999993513
 21
8.763099999991255
 31
0.0
1001
ACAD
1000
ASC_BOUNDS
1002
{
1070
    19
1005
F0E9
1002
}
  0
LINE
  5
F0C3
330
F0A6
100
AcDbEntity
  8
0
100
AcDbLine
 10
14.32399999998563
 20
3.315799999996671
 30
0.0
 11
12.02999999998792
 21
8.763099999991255
 31
0.0
1001
ACAD
1000
ASC_BOUNDS
1002
{
1070
    19
1005
F0EA
1002
}
  0
LINE
  5
F0C4
330
F0A6
100
AcDbEntity
  8
0
100
AcDbLine
 10
10.06399999998996
 20
3.670999999996297
 30
0.0
 11
9.236999999990758
 21
5.5200999999945
 31
0.0
1001
ACAD
1000
ASC_BOUNDS
1002
{
1070
    19
1005
F0E9
1002
}
  0
LINE
  5
F0C5
330
F0A6
100
AcDbEntity
  8
0
100
AcDbLine
 10
8.409999999991555
 20
3.670999999996297
 30
0.0
 11
9.236999999990758
 21
5.5200999999945
 31
0.0
1001
ACAD
1000
ASC_BOUNDS
1002
{
1070
    19
1005
F0E9
1002
}
  0
LINE
  5
F0C6
330
F0A6
100
AcDbEntity
  8
0
100
AcDbLine
 10
8.409999999991555
 20
3.670999999996297
 30
0.0
 11
10.06399999998996
 21
3.670999999996297
 31
0.0
1001
ACAD
1000
ASC_BOUNDS
1002
{
1070
    19
1005
F0E9
1002
}
  0
LINE
  5
F0C7
330
F0A6
100
AcDbEntity
  8
0
100
AcDbLine
 10
10.53899999998941
 20
8.763099999991255
 30
0.0
 11
12.02999999998792
 21
8.763099999991255
 31
0.0
1001
ACAD
1000
ASC_BOUNDS
1002
{
1070
    19
1005
F0EA
1002
}
  0
LINE
  5
F0C8
330
F0A6
100
AcDbEntity
  8
0
100
AcDbLine
 10
22.7389999999773
 20
3.670999999996297
 30
0.0
 11
23.56599999997638
 21
5.5200999999945
 31
0.0
1001
ACAD
1000
ASC_BOUNDS
1002
{
1070
    19
1005
F0EB
1002
}
  0
LINE
  5
F0C9
330
F0A6
100
AcDbEntity
  8
0
100
AcDbLine
 10
22.7389999999773
 20
3.670999999996297
 30
0.0
 11
24.39299999997559
 21
3.670999999996297
 31
0.0
1001
ACAD
1000
ASC_BOUNDS
1002
{
1070
    19
1005
F0EB
1002
}
  0
LINE
  5
F0CA
330
F0A6
100
AcDbEntity
  8
0
100
AcDbLine
 10
18.59799999998143
 20
3.315799999996671
 30
0.0
 11
20.89099999997916
 21
8.763099999991255
 31
0.0
1001
ACAD
1000
ASC_BOUNDS
1002
{
1070
    19
1005
F0EA
1002
}
  0
LINE
  5
F0CB
330
F0A6
100
AcDbEntity
  8
0
100
AcDbLine
 10
18.59799999998143
 20
3.315799999996671
 30
0.0
 11
16.46099999998353
 21
8.999899999990987
 31
0.0
1001
ACAD
1000
ASC_BOUNDS
1002
{
1070
    19
1005
F0EA
1002
}
  0
LINE
  5
F0CC
330
F0A6
100
AcDbEntity
  8
0
100
AcDbLine
 10
20.89099999997916
 20
8.763099999991255
 30
0.0
 11
22.38199999997767
 21
8.763099999991255
 31
0.0
1001
ACAD
1000
ASC_BOUNDS
1002
{
1070
    19
1005
F0EA
1002
}
  0
LINE
  5
F0CD
330
F0A6
100
AcDbEntity
  8
0
100
AcDbLine
 10
24.39299999997559
 20
3.670999999996297
 30
0.0
 11
23.56599999997638
 21
5.5200999999945
 31
0.0
1001
ACAD
1000
ASC_BOUNDS
1002
{
1070
    19
1005
F0EB
1002
}
  0
LINE
  5
F0CE
330
F0A6
100
AcDbEntity
  8
0
100
AcDbLine
 10
44.99999999995498
 20
-0.2368999999997641
 30
0.0
 11
40.02599999995994
 21
5.341799999994635
 31
0.0
1001
ACAD
1000
ASC_BOUNDS
1002
{
1070
    19
1005
F0ED
1002
}
  0
LINE
  5
F0CF
330
F0A6
100
AcDbEntity
  8
0
100
AcDbLine
 10
40.02599999995994
 20
5.341799999994635
 30
0.0
 11
40.02599999995994
 21
0.0
 31
0.0
1001
ACAD
1000
ASC_BOUNDS
1002
{
1070
    19
1005
F0ED
1002
}
  0
LINE
  5
F0D0
330
F0A6
100
AcDbEntity
  8
0
100
AcDbLine
 10
38.60499999996136
 20
8.999999999991019
 30
0.0
 11
38.60499999996136
 21
0.0
 31
0.0
1001
ACAD
1000
ASC_BOUNDS
1002
{
1070
    19
1005
F0ED
1002
}
  0
LINE
  5
F0D1
330
F0A6
100
AcDbEntity
  8
0
100
AcDbLine
 10
44.99999999995498
 20
8.763099999991255
 30
0.0
 11
44.99999999995498
 21
-0.2368999999997641
 31
0.0
1001
ACAD
1000
ASC_BOUNDS
1002
{
1070
    19
1005
F0ED
1002
}
  0
LINE
  5
F0D2
330
F0A6
100
AcDbEntity
  8
0
100
AcDbLine
 10
38.60499999996136
 20
0.0
 30
0.0
 11
40.02599999995994
 21
0.0
 31
0.0
1001
ACAD
1000
ASC_BOUNDS
1002
{
1070
    19
1005
F0ED
1002
}
  0
LINE
  5
F0D3
330
F0A6
100
AcDbEntity
  8
0
100
AcDbLine
 10
43.57899999995641
 20
3.421199999996588
 30
0.0
 11
38.60499999996136
 21
8.999899999990987
 31
0.0
1001
ACAD
1000
ASC_BOUNDS
1002
{
1070
    19
1005
F0ED
1002
}
  0
LINE
  5
F0D4
330
F0A6
100
AcDbEntity
  8
0
100
AcDbLine
 10
43.57899999995641
 20
8.763099999991255
 30
0.0
 11
43.57899999995641
 21
3.421199999996588
 31
0.0
1001
ACAD
1000
ASC_BOUNDS
1002
{
1070
    19
1005
F0ED
1002
}
  0
LINE
  5
F0D5
330
F0A6
100
AcDbEntity
  8
0
100
AcDbLine
 10
43.57899999995641
 20
8.763099999991255
 30
0.0
 11
44.99999999995498
 21
8.763099999991255
 31
0.0
1001
ACAD
1000
ASC_BOUNDS
1002
{
1070
    19
1005
F0ED
1002
}
  0
LINE
  5
F0D6
330
F0A6
100
AcDbEntity
  8
0
100
AcDbLine
 10
37.67199999996831
 20
8.763099999991255
 30
0.0
 11
36.23199999996837
 21
8.763099999991255
 31
0.0
  0
LINE
  5
F0D7
330
F0A6
100
AcDbEntity
  8
0
100
AcDbLine
 10
31.64199999996833
 20
8.763099999991255
 30
0.0
 11
31.64199999996833
 21
2.481619422925121
 31
0.0
  0
LINE
  5
F0D8
330
F0A6
100
AcDbEntity
  8
0
100
AcDbLine
 10
37.67199999996831
 20
8.763099999991255
 30
0.0
 11
37.67199999996831
 21
2.481619422925121
 31
0.0
  0
LINE
  5
F0D9
330
F0A6
100
AcDbEntity
  8
0
100
AcDbLine
 10
36.23199999996837
 20
8.763099999991255
 30
0.0
 11
36.23199999996837
 21
2.481619422925064
 31
0.0
  0
LINE
  5
F0DA
330
F0A6
100
AcDbEntity
  8
0
100
AcDbLine
 10
33.08199999996839
 20
8.763099999991255
 30
0.0
 11
33.08199999996839
 21
2.481619422925121
 31
0.0
  0
ARC
  5
F0DB
330
F0A6
100
AcDbEntity
  8
0
100
AcDbCircle
 10
34.65699999996832
 20
3.183099999991214
 30
0.0
 40
3.420000000000007
100
AcDbArc
 50
240.0000000000255
 51
299.9999999999766
  0
ARC
  5
F0DC
330
F0A6
100
AcDbEntity
  8
0
100
AcDbCircle
 10
34.65699999996832
 20
3.183099999991214
 30
0.0
 40
1.97999999999999
100
AcDbArc
 50
240.000000000026
 51
299.9999999999703
  0
LINE
  5
F0DD
330
F0A6
100
AcDbEntity
  8
0
100
AcDbLine
 10
33.08199999996828
 20
8.763099999991255
 30
0.0
 11
31.64199999996833
 21
8.763099999991255
 31
0.0
  0
ARC
  5
F0DE
330
F0A6
100
AcDbEntity
  8
0
100
AcDbCircle
 10
35.06199999996829
 20
2.481619422925064
 30
0.0
 40
1.17
100
AcDbArc
 50
299.9999999999699
 51
0.0
  0
ARC
  5
F0DF
330
F0A6
100
AcDbEntity
  8
0
100
AcDbCircle
 10
34.25199999996835
 20
2.481619422925121
 30
0.0
 40
1.17
100
AcDbArc
 50
180.0
 51
240.0000000000238
  0
ARC
  5
F0E0
330
F0A6
100
AcDbEntity
  8
0
100
AcDbCircle
 10
35.06199999996841
 20
2.481619422925121
 30
0.0
 40
2.61
100
AcDbArc
 50
299.9999999999756
 51
0.0
  0
ARC
  5
F0E1
330
F0A6
100
AcDbEntity
  8
0
100
AcDbCircle
 10
34.25199999996835
 20
2.481619422925121
 30
0.0
 40
2.61
100
AcDbArc
 50
180.0
 51
240.0000000000244
  0
LINE
  5
F0E2
330
F0A6
100
AcDbEntity
  8
0
100
AcDbLine
 10
29.30199999996933
 20
8.763099999991255
 30
0.0
 11
30.74199999996927
 21
8.763099999991255
 31
0.0
1001
ACAD
1000
ASC_BOUNDS
1002
{
1070
    19
1005
F0EB
1002
}
  0
LINE
  5
F0E3
330
F0A6
100
AcDbEntity
  8
0
100
AcDbLine
 10
30.74199999996927
 20
8.763099999991255
 30
0.0
 11
30.74199999996927
 21
2.373099999991211
 31
0.0
1001
ACAD
1000
ASC_BOUNDS
1002
{
1070
    19
1005
F0EB
1002
}
  0
LINE
  5
F0E4
330
F0A6
100
AcDbEntity
  8
0
100
AcDbLine
 10
26.02015566812236
 20
0.0330999999912365
 30
0.0
 11
28.40199999996923
 21
0.0330999999912365
 31
0.0
1001
ACAD
1000
ASC_BOUNDS
1002
{
1070
    19
1005
F0EB
1002
}
  0
LINE
  5
F0E5
330
F0A6
100
AcDbEntity
  8
0
100
AcDbLine
 10
29.30199999996933
 20
8.763099999991255
 30
0.0
 11
29.30199999996933
 21
2.283099999991236
 31
0.0
1001
ACAD
1000
ASC_BOUNDS
1002
{
1070
    19
1005
F0EB
1002
}
  0
LINE
  5
F0E6
330
F0A6
100
AcDbEntity
  8
0
100
AcDbLine
 10
26.97358892824991
 20
1.383099999991202
 30
0.0
 11
28.40199999996923
 21
1.383099999991202
 31
0.0
1001
ACAD
1000
ASC_BOUNDS
1002
{
1070
    19
1005
F0EB
1002
}
  0
ARC
  5
F0E7
330
F0A6
100
AcDbEntity
  8
0
100
AcDbCircle
 10
28.40199999996923
 20
2.283099999991236
 30
0.0
 40
0.9
100
AcDbArc
 50
270.0
 51
0.0
1001
ACAD
1000
ASC_BOUNDS
1002
{
1070
    19
1005
F0EB
1002
}
  0
ARC
  5
F0E8
330
F0A6
100
AcDbEntity
  8
0
100
AcDbCircle
 10
28.40199999996923
 20
2.373099999991211
 30
0.0
 40
2.34
100
AcDbArc
 50
270.0
 51
0.0
1001
ACAD
1000
ASC_BOUNDS
1002
{
1070
    19
1005
F0EB
1002
}
  0
INSERT
  5
F0E9
330
F0A6
100
AcDbEntity
  8
0
100
AcDbBlockReference
  2
*X98
 10
0.0
 20
0.0
 30
0.0
1001
ACAD
1000
HATCH
1002
{
1070
    19
1000
ANSI37
1040
0.15
1040
0.0
1000
ASC_BOUNDS
1070
     2
1070
     2
1070
    12
1005
F0A8
1005
F0A9
1005
F0B0
1005
F0BF
1005
F0C2
1005
F0C0
1005
F0B1
1005
F0B6
1005
F0B4
1005
F0B8
1005
F0B7
1005
F0B9
1070
     2
1070
     3
1005
F0C4
1005
F0C6
1005
F0C5
1000
ASC_SEEDPOINT
1011
3.614004224891801
1021
2.996669441146025
1031
0.0
1000
R14_HATCH_DATA
1000
F0E9
1011
1.0
1021
0.0
1031
0.0
1011
0.0
1021
1.0
1031
0.0
1011
0.0
1021
0.0
1031
1.0
1040
0.0
1010
0.0
1020
0.0
1030
1.0
1000
ANSI37
1070
     0
1070
     1
1071
        2
1071
        7
1070
     0
1070
     1
1071
       17
1040
13.26299999998673
1040
-0.0001000000000317
1040
9.236999999990758
1040
8.999899999990987
1040
9.236999999990758
1040
8.999999999991019
1040
5.657999999994331
1040
0.9999999999989768
1040
3.181999999996833
1040
4.668599999995308
1040
6.432999999993513
1040
8.763099999991255
1040
4.617999999995391
1040
8.763099999991255
1040
1.420999999998571
1040
4.736799999995242
1040
4.617999999995391
1040
-0.0001000000000317
1040
4.617999999995391
1040
0.0
1040
6.766999999993232
1040
0.0
1040
6.766999999993232
1040
-0.0001000000000317
1040
7.826999999992154
1040
2.368399999997621
1040
10.64699999998936
1040
2.368399999997621
1040
11.70599999998831
1040
-0.0001000000000317
1040
11.70599999998831
1040
0.0
1040
13.26299999998673
1040
0.0
1071
       12
1005
F0A8
1005
F0A9
1005
F0B0
1005
F0BF
1005
F0C2
1005
F0C0
1005
F0B1
1005
F0B6
1005
F0B4
1005
F0B8
1005
F0B7
1005
F0B9
1071
       22
1070
     0
1070
     1
1071
        3
1040
9.236999999990758
1040
5.5200999999945
1040
10.06399999998996
1040
3.670999999996297
1040
8.409999999991555
1040
3.670999999996297
1071
        3
1005
F0C4
1005
F0C6
1005
F0C5
1070
     0
1070
     1
1040
0.0
1040
0.15
1070
     0
1070
     2
1040
0.7853981633974483
1040
49.29960901727088
1040
-10.17736998311392
1040
-0.3367596045400932
1040
0.3367596045400932
1070
     0
1040
2.356194490192345
1040
49.29960901727088
1040
-10.17736998311392
1040
-0.3367596045400932
1040
-0.3367596045400932
1070
     0
1040
0.0110235143455945
1071
        2
1040
3.614004224891801
1040
2.996669441146025
1040
0.0
1040
3.614004224891801
1040
2.996669441146025
1040
0.0
1002
}
  0
INSERT
  5
F0EA
330
F0A6
100
AcDbEntity
  8
0
100
AcDbBlockReference
  2
*X99
 10
0.0
 20
0.0
 30
0.0
1001
ACAD
1000
HATCH
1002
{
1070
    19
1000
ANSI37
1040
0.15
1040
0.0
1000
ASC_BOUNDS
1070
     1
1070
     2
1070
    10
1005
F0AA
1005
F0AB
1005
F0CC
1005
F0CA
1005
F0CB
1005
F0BE
1005
F0C3
1005
F0C7
1005
F0AD
1005
F0AC
1000
ASC_SEEDPOINT
1011
14.73245321214324
1021
2.798246178283421
1031
0.0
1000
R14_HATCH_DATA
1000
F0EA
1011
1.0
1021
0.0
1031
0.0
1011
0.0
1021
1.0
1031
0.0
1011
0.0
1021
0.0
1031
1.0
1040
0.0
1010
0.0
1020
0.0
1030
1.0
1000
ANSI37
1070
     0
1070
     1
1071
        1
1071
        7
1070
     0
1070
     1
1071
       10
1040
16.46099999998353
1040
5.432899999994561
1040
18.59199999998134
1040
-0.2368999999997641
1040
22.38199999997767
1040
8.763099999991255
1040
20.89099999997916
1040
8.763099999991255
1040
18.59799999998143
1040
3.315799999996671
1040
16.46099999998353
1040
8.999899999990987
1040
14.32399999998563
1040
3.315799999996671
1040
12.02999999998792
1040
8.763099999991255
1040
10.53899999998941
1040
8.763099999991255
1040
14.32899999998563
1040
-0.2368999999997641
1071
       10
1005
F0AA
1005
F0AB
1005
F0CC
1005
F0CA
1005
F0CB
1005
F0BE
1005
F0C3
1005
F0C7
1005
F0AD
1005
F0AC
1070
     0
1070
     1
1040
0.0
1040
0.15
1070
     0
1070
     2
1040
0.7853981633974483
1040
49.29960901727088
1040
-10.17736998311392
1040
-0.3367596045400932
1040
0.3367596045400932
1070
     0
1040
2.356194490192345
1040
49.29960901727088
1040
-10.17736998311392
1040
-0.3367596045400932
1040
-0.3367596045400932
1070
     0
1040
0.0110235143455945
1071
        1
1040
14.73245321214324
1040
2.798246178283421
1040
0.0
1002
}
  0
INSERT
  5
F0EB
330
F0A6
100
AcDbEntity
  8
0
100
AcDbBlockReference
  2
*X100
 10
0.0
 20
0.0
 30
0.0
1001
ACAD
1000
HATCH
1002
{
1070
    19
1000
ANSI37
1040
0.15
1040
0.0
1000
ASC_BOUNDS
1070
     2
1070
     2
1070
    13
1005
F0AE
1005
F0BB
1005
F0BC
1005
F0BA
1005
F0BD
1005
F0E4
1005
F0E8
1005
F0E3
1005
F0E2
1005
F0E5
1005
F0E7
1005
F0E6
1005
F0AF
1070
     2
1070
     3
1005
F0C8
1005
F0CD
1005
F0C9
1000
ASC_SEEDPOINT
1011
21.97929957367762
1021
3.294304244259308
1031
0.0
1000
R14_HATCH_DATA
1000
F0EB
1011
1.0
1021
0.0
1031
0.0
1011
0.0
1021
1.0
1031
0.0
1011
0.0
1021
0.0
1031
1.0
1040
0.0
1010
0.0
1020
0.0
1030
1.0
1000
ANSI37
1070
     0
1070
     1
1071
        2
1071
        7
1070
     1
1070
     1
1071
       15
1040
23.56599999997638
1040
8.999899999990987
1040
0.0
1040
19.53899999998043
1040
-0.0001000000000317
1040
0.0
1040
19.53899999998043
1040
0.0
1040
0.0
1040
21.09599999997886
1040
0.0
1040
0.0
1040
21.09599999997886
1040
-0.0001000000000317
1040
0.0
1040
22.15599999997789
1040
2.368399999997621
1040
0.0
1040
24.97599999997499
1040
2.368399999997621
1040
0.0
1040
26.02015566812236
1040
0.0330999999912365
1040
0.0
1040
28.40199999996923
1040
0.0330999999912365
1040
0.414213562373095
1040
30.74199999996923
1040
2.373099999991211
1040
0.0
1040
30.74199999996927
1040
8.763099999991255
1040
0.0
1040
29.30199999996933
1040
8.763099999991255
1040
0.0
1040
29.30199999996933
1040
2.283099999991236
1040
-0.414213562373095
1040
28.40199999996923
1040
1.383099999991237
1040
0.0
1040
26.97358892824991
1040
1.383099999991202
1040
0.0
1071
       13
1005
F0AE
1005
F0BB
1005
F0BC
1005
F0BA
1005
F0BD
1005
F0E4
1005
F0E8
1005
F0E3
1005
F0E2
1005
F0E5
1005
F0E7
1005
F0E6
1005
F0AF
1071
       22
1070
     0
1070
     1
1071
        3
1040
22.7389999999773
1040
3.670999999996297
1040
23.56599999997638
1040
5.5200999999945
1040
24.39299999997559
1040
3.670999999996297
1071
        3
1005
F0C8
1005
F0CD
1005
F0C9
1070
     0
1070
     1
1040
0.0
1040
0.15
1070
     0
1070
     2
1040
0.7853981633974483
1040
49.29960901727088
1040
-10.17736998311392
1040
-0.3367596045400932
1040
0.3367596045400932
1070
     0
1040
2.356194490192345
1040
49.29960901727088
1040
-10.17736998311392
1040
-0.3367596045400932
1040
-0.3367596045400932
1070
     0
1040
0.0110235143455945
1071
        2
1040
21.97929957367762
1040
3.294304244259308
1040
0.0
1040
21.97929957367762
1040
3.294304244259308
1040
0.0
1002
}
  0
INSERT
  5
F0EC
330
F0A6
100
AcDbEntity
  8
0
100
AcDbBlockReference
  2
*X101
 10
0.0
 20
0.0
 30
0.0
1001
ACAD
1000
HATCH
1002
{
1070
    19
1000
ANSI37
1040
0.15
1040
0.0
1000
R14_HATCH_DATA
1000
F0EC
1011
1.0
1021
0.0
1031
0.0
1011
0.0
1021
1.0
1031
0.0
1011
0.0
1021
0.0
1031
1.0
1040
0.0
1010
0.0
1020
0.0
1030
1.0
1000
ANSI37
1070
     0
1070
     1
1071
        1
1071
        7
1070
     1
1070
     1
1071
       12
1040
31.64199999996833
1040
2.481619422925121
1040
0.2679491924310942
1040
32.94699999997067
1040
0.2212931190493919
1040
0.2679491924301353
1040
36.36699999995983
1040
0.2212931190459813
1040
0.2679491924321411
1040
37.67199999996831
1040
2.481619422928361
1040
0.0
1040
37.67199999996831
1040
8.763099999991255
1040
0.0
1040
36.23199999996837
1040
8.763099999991255
1040
0.0
1040
36.23199999996837
1040
2.481619422925064
1040
-0.2679491924310291
1040
35.64699999996708
1040
1.468369700498386
1040
-0.267949192430519
1040
33.66699999997093
1040
1.468369700497703
1040
-0.267949192431809
1040
33.08199999996839
1040
2.481619422926997
1040
0.0
1040
33.08199999996839
1040
8.763099999991255
1040
0.0
1040
31.64199999996833
1040
8.763099999991255
1040
0.0
1071
        0
1070
     0
1070
     1
1040
0.0
1040
0.15
1070
     0
1070
     2
1040
0.7853981633974483
1040
49.29960901727088
1040
-10.17736998311392
1040
-0.3367596045400932
1040
0.3367596045400932
1070
     0
1040
2.356194490192345
1040
49.29960901727088
1040
-10.17736998311392
1040
-0.3367596045400932
1040
-0.3367596045400932
1070
     0
1040
0.0110235143455945
1071
        1
1040
32.30357378967278
1040
3.988785755459219
1040
0.0
1002
}
  0
INSERT
  5
F0ED
330
F0A6
100
AcDbEntity
  8
0
100
AcDbBlockReference
  2
*X102
 10
0.0
 20
0.0
 30
0.0
1001
ACAD
1000
HATCH
1002
{
1070
    19
1000
ANSI37
1040
0.15
1040
0.0
1000
ASC_BOUNDS
1070
     1
1070
     2
1070
     8
1005
F0CE
1005
F0D1
1005
F0D5
1005
F0D4
1005
F0D3
1005
F0D0
1005
F0D2
1005
F0CF
1000
ASC_SEEDPOINT
1011
39.74896370716704
1021
4.484843821435049
1031
0.0
1000
R14_HATCH_DATA
1000
F0ED
1011
1.0
1021
0.0
1031
0.0
1011
0.0
1021
1.0
1031
0.0
1011
0.0
1021
0.0
1031
1.0
1040
0.0
1010
0.0
1020
0.0
1030
1.0
1000
ANSI37
1070
     0
1070
     1
1071
        1
1071
        7
1070
     0
1070
     1
1071
        9
1040
40.02599999995994
1040
5.341799999994635
1040
44.99999999995498
1040
-0.2368999999997641
1040
44.99999999995498
1040
8.763099999991255
1040
43.57899999995641
1040
8.763099999991255
1040
43.57899999995641
1040
3.421199999996588
1040
38.60499999996136
1040
8.999899999990987
1040
38.60499999996136
1040
8.999999999991019
1040
38.60499999996136
1040
0.0
1040
40.02599999995994
1040
0.0
1071
        8
1005
F0CE
1005
F0D1
1005
F0D5
1005
F0D4
1005
F0D3
1005
F0D0
1005
F0D2
1005
F0CF
1070
     0
1070
     1
1040
0.0
1040
0.15
1070
     0
1070
     2
1040
0.7853981633974483
1040
49.29960901727088
1040
-10.17736998311392
1040
-0.3367596045400932
1040
0.3367596045400932
1070
     0
1040
2.356194490192345
1040
49.29960901727088
1040
-10.17736998311392
1040
-0.3367596045400932
1040
-0.3367596045400932
1070
     0
1040
0.0110235143455945
1071
        1
1040
39.74896370716704
1040
4.484843821435049
1040
0.0
1002
}
  0
INSERT
  5
F0EE
330
F0A6
100
AcDbEntity
  8
0
100
AcDbBlockReference
  2
*X103
 10
0.0
 20
0.0
 30
0.0
1001
ACAD
1000
HATCH
1002
{
1070
    19
1000
ANSI37
1040
0.15
1040
0.0
1000
ASC_BOUNDS
1070
     1
1070
     2
1070
     4
1005
F0B2
1005
F0C1
1005
F0B3
1005
F0B5
1000
ASC_SEEDPOINT
1011
1.079051535452663
1021
4.148538732891836
1031
0.0
1000
R14_HATCH_DATA
1000
F0EE
1011
1.0
1021
0.0
1031
0.0
1011
0.0
1021
1.0
1031
0.0
1011
0.0
1021
0.0
1031
1.0
1040
0.0
1010
0.0
1020
0.0
1030
1.0
1000
ANSI37
1070
     0
1070
     1
1071
        1
1071
        7
1070
     0
1070
     1
1071
        4
1040
1.420999999998571
1040
0.0
1040
1.420999999998571
1040
8.763099999991255
1040
0.0
1040
8.763099999991255
1040
0.0
1040
0.0
1071
        4
1005
F0B2
1005
F0C1
1005
F0B3
1005
F0B5
1070
     0
1070
     1
1040
0.0
1040
0.15
1070
     0
1070
     2
1040
0.7853981633974483
1040
49.29960901727088
1040
-10.17736998311392
1040
-0.3367596045400932
1040
0.3367596045400932
1070
     0
1040
2.356194490192345
1040
49.29960901727088
1040
-10.17736998311392
1040
-0.3367596045400932
1040
-0.3367596045400932
1070
     0
1040
0.0053004257112761
1071
        1
1040
1.079051535452663
1040
4.148538732891836
1040
0.0
1002
}
  0
ENDBLK
  5
F7A6
330
F0A6
100
AcDbEntity
  8
0
100
AcDbBlockEnd
  0
BLOCK
  5
10A77
330
108E9
100
AcDbEntity
  8
0
100
AcDbBlockBegin
  2
*X98
 70
     1
 10
0.0
 20
0.0
 30
0.0
  3
*X98
  1

  0
LINE
  5
108EA
330
108E9
100
AcDbEntity
  8
0
  6
CONTINUOUS
100
AcDbLine
 10
3.418023043697893
 20
7.251849696850613
 30
0.0
 11
4.929273346838536
 21
8.763099999991255
 31
0.0
  0
LINE
  5
108EB
330
108E9
100
AcDbEntity
  8
0
  6
CONTINUOUS
100
AcDbLine
 10
1.483656411257782
 20
4.643963855330318
 30
0.0
 11
5.60279255591872
 21
8.763099999991255
 31
0.0
  0
LINE
  5
108EC
330
108E9
100
AcDbEntity
  8
0
  6
CONTINUOUS
100
AcDbLine
 10
1.755053947328235
 20
4.241842182320584
 30
0.0
 11
6.276311764998907
 21
8.763099999991255
 31
0.0
  0
LINE
  5
108ED
330
108E9
100
AcDbEntity
  8
0
  6
CONTINUOUS
100
AcDbLine
 10
2.026451483398688
 20
3.839720509310849
 30
0.0
 11
4.441040904851878
 21
6.254309930764039
 31
0.0
  0
LINE
  5
108EE
330
108E9
100
AcDbEntity
  8
0
  6
CONTINUOUS
100
AcDbLine
 10
2.297849019469139
 20
3.437598836301114
 30
0.0
 11
3.321765168359338
 21
4.461514985191313
 31
0.0
  0
LINE
  5
108EF
330
108E9
100
AcDbEntity
  8
0
  6
CONTINUOUS
100
AcDbLine
 10
2.569246555539591
 20
3.03547716329138
 30
0.0
 11
3.593163397972743
 21
4.059394005724531
 31
0.0
  0
LINE
  5
108F0
330
108E9
100
AcDbEntity
  8
0
  6
CONTINUOUS
100
AcDbLine
 10
2.840644091610043
 20
2.633355490281646
 30
0.0
 11
3.864561627586149
 21
3.657273026257751
 31
0.0
  0
LINE
  5
108F1
330
108E9
100
AcDbEntity
  8
0
  6
CONTINUOUS
100
AcDbLine
 10
3.112041627680496
 20
2.231233817271911
 30
0.0
 11
4.135959857199554
 21
3.25515204679097
 31
0.0
  0
LINE
  5
108F2
330
108E9
100
AcDbEntity
  8
0
  6
CONTINUOUS
100
AcDbLine
 10
3.383439163750948
 20
1.829112144262177
 30
0.0
 11
4.40735808681296
 21
2.853031067324189
 31
0.0
  0
LINE
  5
108F3
330
108E9
100
AcDbEntity
  8
0
  6
CONTINUOUS
100
AcDbLine
 10
3.654836699821399
 20
1.426990471252442
 30
0.0
 11
4.678756316426365
 21
2.450910087857407
 31
0.0
  0
LINE
  5
108F4
330
108E9
100
AcDbEntity
  8
0
  6
CONTINUOUS
100
AcDbLine
 10
3.926234235891853
 20
1.024868798242709
 30
0.0
 11
4.95015454603977
 21
2.048789108390626
 31
0.0
  0
LINE
  5
108F5
330
108E9
100
AcDbEntity
  8
0
  6
CONTINUOUS
100
AcDbLine
 10
4.197631771962304
 20
0.6227471252329737
 30
0.0
 11
5.221552775653176
 21
1.646668128923846
 31
0.0
  0
LINE
  5
108F6
330
108E9
100
AcDbEntity
  8
0
  6
CONTINUOUS
100
AcDbLine
 10
8.715877546767851
 20
7.835069736359266
 30
0.0
 11
9.435953450375058
 21
8.555145639966472
 31
0.0
  0
LINE
  5
108F7
330
108E9
100
AcDbEntity
  8
0
  6
CONTINUOUS
100
AcDbLine
 10
8.170620868422267
 20
6.616293848933497
 30
0.0
 11
9.644120833743461
 21
8.08979381425469
 31
0.0
  0
LINE
  5
108F8
330
108E9
100
AcDbEntity
  8
0
  6
CONTINUOUS
100
AcDbLine
 10
7.625364190076684
 20
5.397517961507727
 30
0.0
 11
9.852288217111864
 21
7.624441988542907
 31
0.0
  0
LINE
  5
108F9
330
108E9
100
AcDbEntity
  8
0
  6
CONTINUOUS
100
AcDbLine
 10
7.080107511731101
 20
4.178742074081957
 30
0.0
 11
10.06045560048027
 21
7.159090162831124
 31
0.0
  0
LINE
  5
108FA
330
108E9
100
AcDbEntity
  8
0
  6
CONTINUOUS
100
AcDbLine
 10
6.534850833385518
 20
2.959966186656187
 30
0.0
 11
10.26862298384867
 21
6.693738337119342
 31
0.0
  0
LINE
  5
108FB
330
108E9
100
AcDbEntity
  8
0
  6
CONTINUOUS
100
AcDbLine
 10
4.469029308032756
 20
0.2206254522232385
 30
0.0
 11
5.492951005266582
 21
1.244547149457064
 31
0.0
  0
LINE
  5
108FC
330
108E9
100
AcDbEntity
  8
0
  6
CONTINUOUS
100
AcDbLine
 10
5.989594155039935
 20
1.741190299230417
 30
0.0
 11
8.806950407233131
 21
4.558546551423613
 31
0.0
  0
LINE
  5
108FD
330
108E9
100
AcDbEntity
  8
0
  6
CONTINUOUS
100
AcDbLine
 10
9.401251593263643
 20
5.152847737454126
 30
0.0
 11
10.47679036721708
 21
6.228386511407559
 31
0.0
  0
LINE
  5
108FE
330
108E9
100
AcDbEntity
  8
0
  6
CONTINUOUS
100
AcDbLine
 10
4.921837203428691
 20
-0.0000858614610131
 30
0.0
 11
8.592923064886001
 21
3.670999999996297
 31
0.0
  0
LINE
  5
108FF
330
108E9
100
AcDbEntity
  8
0
  6
CONTINUOUS
100
AcDbLine
 10
9.609390446785305
 20
4.6874673818956
 30
0.0
 11
10.68495775058548
 21
5.763034685695775
 31
0.0
  0
LINE
  5
10900
330
108E9
100
AcDbEntity
  8
0
  6
CONTINUOUS
100
AcDbLine
 10
5.595387755019432
 20
-0.0000545189504582
 30
0.0
 11
7.716137258923768
 21
2.120694984953879
 31
0.0
  0
LINE
  5
10901
330
108E9
100
AcDbEntity
  8
0
  6
CONTINUOUS
100
AcDbLine
 10
6.268938306610172
 20
-0.000023176439905
 30
0.0
 11
7.170485805526503
 21
0.9015243224764267
 31
0.0
  0
LINE
  5
10902
330
108E9
100
AcDbEntity
  8
0
  6
CONTINUOUS
100
AcDbLine
 10
7.963842273967511
 20
2.368399999997621
 30
0.0
 11
9.266442273966188
 21
3.670999999996297
 31
0.0
  0
LINE
  5
10903
330
108E9
100
AcDbEntity
  8
0
  6
CONTINUOUS
100
AcDbLine
 10
8.637361483047696
 20
2.368399999997621
 30
0.0
 11
9.939961483046375
 21
3.670999999996297
 31
0.0
  0
LINE
  5
10904
330
108E9
100
AcDbEntity
  8
0
  6
CONTINUOUS
100
AcDbLine
 10
9.817529300306965
 20
4.222087026337075
 30
0.0
 11
10.89312513395388
 21
5.297682859983993
 31
0.0
  0
LINE
  5
10905
330
108E9
100
AcDbEntity
  8
0
  6
CONTINUOUS
100
AcDbLine
 10
10.02566815382863
 20
3.756706670778549
 30
0.0
 11
11.10129251732229
 21
4.832331034272211
 31
0.0
  0
LINE
  5
10906
330
108E9
100
AcDbEntity
  8
0
  6
CONTINUOUS
100
AcDbLine
 10
9.310880692127883
 20
2.368399999997621
 30
0.0
 11
11.30945990069069
 21
4.366979208560428
 31
0.0
  0
LINE
  5
10907
330
108E9
100
AcDbEntity
  8
0
  6
CONTINUOUS
100
AcDbLine
 10
9.98439990120807
 20
2.36839999999762
 30
0.0
 11
11.5176272840591
 21
3.901627382848645
 31
0.0
  0
LINE
  5
10908
330
108E9
100
AcDbEntity
  8
0
  6
CONTINUOUS
100
AcDbLine
 10
10.65037369446246
 20
2.36085458417182
 30
0.0
 11
11.7257946674275
 21
3.436275557136862
 31
0.0
  0
LINE
  5
10909
330
108E9
100
AcDbEntity
  8
0
  6
CONTINUOUS
100
AcDbLine
 10
10.85847197087848
 20
1.895433651507656
 30
0.0
 11
11.9339620507959
 21
2.97092373142508
 31
0.0
  0
LINE
  5
1090A
330
108E9
100
AcDbEntity
  8
0
  6
CONTINUOUS
100
AcDbLine
 10
11.0665702472945
 20
1.430012718843491
 30
0.0
 11
12.14212943416431
 21
2.505571905713296
 31
0.0
  0
LINE
  5
1090B
330
108E9
100
AcDbEntity
  8
0
  6
CONTINUOUS
100
AcDbLine
 10
11.27466852371052
 20
0.9645917861793256
 30
0.0
 11
12.35029681753271
 21
2.040220080001513
 31
0.0
  0
LINE
  5
1090C
330
108E9
100
AcDbEntity
  8
0
  6
CONTINUOUS
100
AcDbLine
 10
11.48276680012654
 20
0.4991708535151611
 30
0.0
 11
12.55846420090111
 21
1.57486825428973
 31
0.0
  0
LINE
  5
1090D
330
108E9
100
AcDbEntity
  8
0
  6
CONTINUOUS
100
AcDbLine
 10
11.69086507654257
 20
0.0337499208509957
 30
0.0
 11
12.76663158426952
 21
1.109516428577947
 31
0.0
  0
LINE
  5
1090E
330
108E9
100
AcDbEntity
  8
0
  6
CONTINUOUS
100
AcDbLine
 10
12.33057447873954
 20
-0.0000598860322123
 30
0.0
 11
12.97479896763792
 21
0.6441646028661663
 31
0.0
  0
LINE
  5
1090F
330
108E9
100
AcDbEntity
  8
0
  6
CONTINUOUS
100
AcDbLine
 10
13.00413694809395
 20
-0.0000166257579952
 30
0.0
 11
13.18296635100632
 21
0.1788127771543824
 31
0.0
  0
LINE
  5
10910
330
108E9
100
AcDbEntity
  8
0
  6
CONTINUOUS
100
AcDbLine
 10
4.772852165289667
 20
-0.000092794222212
 30
0.0
 11
4.296495091028902
 21
0.4762642800385528
 31
0.0
  0
LINE
  5
10911
330
108E9
100
AcDbEntity
  8
0
  6
CONTINUOUS
100
AcDbLine
 10
5.446340034776103
 20
-0.0000614546284616
 30
0.0
 11
2.898195908335625
 21
2.548082671812017
 31
0.0
  0
LINE
  5
10912
330
108E9
100
AcDbEntity
  8
0
  6
CONTINUOUS
100
AcDbLine
 10
6.119827904262539
 20
-0.0000301150347113
 30
0.0
 11
1.499896725642348
 21
4.61990106358548
 31
0.0
  0
LINE
  5
10913
330
108E9
100
AcDbEntity
  8
0
  6
CONTINUOUS
100
AcDbLine
 10
6.775136745476159
 20
0.0181802528318542
 30
0.0
 11
5.699826040202669
 21
1.093490958105344
 31
0.0
  0
LINE
  5
10914
330
108E9
100
AcDbEntity
  8
0
  6
CONTINUOUS
100
AcDbLine
 10
6.983376846288489
 20
0.4834593610997118
 30
0.0
 11
5.908008617934405
 21
1.558827589453796
 31
0.0
  0
LINE
  5
10915
330
108E9
100
AcDbEntity
  8
0
  6
CONTINUOUS
100
AcDbLine
 10
5.377063484962296
 20
1.416253513345719
 30
0.0
 11
1.702276957014131
 21
5.091040041293883
 31
0.0
  0
LINE
  5
10916
330
108E9
100
AcDbEntity
  8
0
  6
CONTINUOUS
100
AcDbLine
 10
3.978745891735324
 20
3.488090315652877
 30
0.0
 11
2.000373521109399
 21
5.466462686278803
 31
0.0
  0
LINE
  5
10917
330
108E9
100
AcDbEntity
  8
0
  6
CONTINUOUS
100
AcDbLine
 10
7.191616947100819
 20
0.948738469367568
 30
0.0
 11
6.11619119566614
 21
2.024164220802247
 31
0.0
  0
LINE
  5
10918
330
108E9
100
AcDbEntity
  8
0
  6
CONTINUOUS
100
AcDbLine
 10
7.399857047913149
 20
1.414017577635424
 30
0.0
 11
6.324373773397875
 21
2.489500852150698
 31
0.0
  0
LINE
  5
10919
330
108E9
100
AcDbEntity
  8
0
  6
CONTINUOUS
100
AcDbLine
 10
7.608097148725479
 20
1.879296685903281
 30
0.0
 11
6.53255635112961
 21
2.95483748349915
 31
0.0
  0
LINE
  5
1091A
330
108E9
100
AcDbEntity
  8
0
  6
CONTINUOUS
100
AcDbLine
 10
7.816337249537808
 20
2.344575794171138
 30
0.0
 11
6.740738928861345
 21
3.420174114847601
 31
0.0
  0
LINE
  5
1091B
330
108E9
100
AcDbEntity
  8
0
  6
CONTINUOUS
100
AcDbLine
 10
3.310241080789734
 20
4.830114335678653
 30
0.0
 11
2.298470085204666
 21
5.84188533126372
 31
0.0
  0
LINE
  5
1091C
330
108E9
100
AcDbEntity
  8
0
  6
CONTINUOUS
100
AcDbLine
 10
3.60832983563551
 20
5.205544789913063
 30
0.0
 11
2.596566649299935
 21
6.217307976248638
 31
0.0
  0
LINE
  5
1091D
330
108E9
100
AcDbEntity
  8
0
  6
CONTINUOUS
100
AcDbLine
 10
3.906418590481286
 20
5.580975244147473
 30
0.0
 11
2.894663213395203
 21
6.592730621233557
 31
0.0
  0
LINE
  5
1091E
330
108E9
100
AcDbEntity
  8
0
  6
CONTINUOUS
100
AcDbLine
 10
4.204507345327062
 20
5.956405698381884
 30
0.0
 11
3.192759777490472
 21
6.968153266218474
 31
0.0
  0
LINE
  5
1091F
330
108E9
100
AcDbEntity
  8
0
  6
CONTINUOUS
100
AcDbLine
 10
8.466032252791512
 20
2.368399999997621
 30
0.0
 11
6.948921506593081
 21
3.885510746196053
 31
0.0
  0
LINE
  5
10920
330
108E9
100
AcDbEntity
  8
0
  6
CONTINUOUS
100
AcDbLine
 10
9.139551461871699
 20
2.36839999999762
 30
0.0
 11
7.157104084324816
 21
4.350847377544504
 31
0.0
  0
LINE
  5
10921
330
108E9
100
AcDbEntity
  8
0
  6
CONTINUOUS
100
AcDbLine
 10
4.502596100172839
 20
6.331836152616295
 30
0.0
 11
3.49085634158574
 21
7.343575911203393
 31
0.0
  0
LINE
  5
10922
330
108E9
100
AcDbEntity
  8
0
  6
CONTINUOUS
100
AcDbLine
 10
4.800684855018615
 20
6.707266606850705
 30
0.0
 11
3.788952905681008
 21
7.718998556188312
 31
0.0
  0
LINE
  5
10923
330
108E9
100
AcDbEntity
  8
0
  6
CONTINUOUS
100
AcDbLine
 10
12.18154012887317
 20
-0.0000694579236642
 30
0.0
 11
11.32140332908496
 21
0.8600673418645499
 31
0.0
  0
LINE
  5
10924
330
108E9
100
AcDbEntity
  8
0
  6
CONTINUOUS
100
AcDbLine
 10
12.85501608323566
 20
-0.0000262032059659
 30
0.0
 11
10.77672456435345
 21
2.078265315676246
 31
0.0
  0
LINE
  5
10925
330
108E9
100
AcDbEntity
  8
0
  6
CONTINUOUS
100
AcDbLine
 10
9.813070670951886
 20
2.36839999999762
 30
0.0
 11
8.51047067095321
 21
3.670999999996297
 31
0.0
  0
LINE
  5
10926
330
108E9
100
AcDbEntity
  8
0
  6
CONTINUOUS
100
AcDbLine
 10
10.48658988003207
 20
2.36839999999762
 30
0.0
 11
9.183989880033396
 21
3.670999999996297
 31
0.0
  0
LINE
  5
10927
330
108E9
100
AcDbEntity
  8
0
  6
CONTINUOUS
100
AcDbLine
 10
8.441048632286794
 20
3.740422038662712
 30
0.0
 11
7.365286662056551
 21
4.816184008892956
 31
0.0
  0
LINE
  5
10928
330
108E9
100
AcDbEntity
  8
0
  6
CONTINUOUS
100
AcDbLine
 10
8.649187485808454
 20
4.205802394221237
 30
0.0
 11
7.573469239788285
 21
5.281520640241407
 31
0.0
  0
LINE
  5
10929
330
108E9
100
AcDbEntity
  8
0
  6
CONTINUOUS
100
AcDbLine
 10
5.098773609864391
 20
7.082697061085115
 30
0.0
 11
4.087049469776277
 21
8.09442120117323
 31
0.0
  0
LINE
  5
1092A
330
108E9
100
AcDbEntity
  8
0
  6
CONTINUOUS
100
AcDbLine
 10
5.396862364710167
 20
7.458127515319526
 30
0.0
 11
4.385146033871544
 21
8.469843846158149
 31
0.0
  0
LINE
  5
1092B
330
108E9
100
AcDbEntity
  8
0
  6
CONTINUOUS
100
AcDbLine
 10
13.04801363231285
 20
0.4804954567970334
 30
0.0
 11
9.85750908911358
 21
3.670999999996297
 31
0.0
  0
LINE
  5
1092C
330
108E9
100
AcDbEntity
  8
0
  6
CONTINUOUS
100
AcDbLine
 10
8.857326339330116
 20
4.671182749779763
 30
0.0
 11
7.781651817520021
 21
5.746857271589858
 31
0.0
  0
LINE
  5
1092D
330
108E9
100
AcDbEntity
  8
0
  6
CONTINUOUS
100
AcDbLine
 10
5.694951119555943
 20
7.833557969553937
 30
0.0
 11
4.765409089118624
 21
8.763099999991255
 31
0.0
  0
LINE
  5
1092E
330
108E9
100
AcDbEntity
  8
0
  6
CONTINUOUS
100
AcDbLine
 10
12.50286117236978
 20
1.699167125820288
 30
0.0
 11
9.68611877250287
 21
4.515909525687196
 31
0.0
  0
LINE
  5
1092F
330
108E9
100
AcDbEntity
  8
0
  6
CONTINUOUS
100
AcDbLine
 10
9.065465192851777
 20
5.136563105338288
 30
0.0
 11
7.989834395251757
 21
6.21219390293831
 31
0.0
  0
LINE
  5
10930
330
108E9
100
AcDbEntity
  8
0
  6
CONTINUOUS
100
AcDbLine
 10
5.993039874401719
 20
8.208988423788346
 30
0.0
 11
5.43892829819881
 21
8.763099999991255
 31
0.0
  0
LINE
  5
10931
330
108E9
100
AcDbEntity
  8
0
  6
CONTINUOUS
100
AcDbLine
 10
11.95770871242671
 20
2.917838794843543
 30
0.0
 11
8.19801697298349
 21
6.677530534286761
 31
0.0
  0
LINE
  5
10932
330
108E9
100
AcDbEntity
  8
0
  6
CONTINUOUS
100
AcDbLine
 10
6.291128629247495
 20
8.584418878022756
 30
0.0
 11
6.112447507278997
 21
8.763099999991255
 31
0.0
  0
LINE
  5
10933
330
108E9
100
AcDbEntity
  8
0
  6
CONTINUOUS
100
AcDbLine
 10
11.41255625248364
 20
4.136510463866797
 30
0.0
 11
8.406199550715227
 21
7.142867165635211
 31
0.0
  0
LINE
  5
10934
330
108E9
100
AcDbEntity
  8
0
  6
CONTINUOUS
100
AcDbLine
 10
10.86740379254057
 20
5.355182132890051
 30
0.0
 11
8.614382128446962
 21
7.608203796983664
 31
0.0
  0
LINE
  5
10935
330
108E9
100
AcDbEntity
  8
0
  6
CONTINUOUS
100
AcDbLine
 10
10.3222513325975
 20
6.573853801913305
 30
0.0
 11
8.822564706178696
 21
8.073540428332114
 31
0.0
  0
LINE
  5
10936
330
108E9
100
AcDbEntity
  8
0
  6
CONTINUOUS
100
AcDbLine
 10
9.777098872654436
 20
7.792525470936562
 30
0.0
 11
9.030747283910433
 21
8.538877059680566
 31
0.0
  0
ENDBLK
  5
10A78
330
108E9
100
AcDbEntity
  8
0
100
AcDbBlockEnd
  0
BLOCK
  5
10A79
330
10937
100
AcDbEntity
  8
0
100
AcDbBlockBegin
  2
*X99
 70
     1
 10
0.0
 20
0.0
 30
0.0
  3
*X99
  1

  0
LINE
  5
10938
330
10937
100
AcDbEntity
  8
0
  6
CONTINUOUS
100
AcDbLine
 10
10.67292308101235
 20
8.445076852443387
 30
0.0
 11
10.99094622856022
 21
8.763099999991255
 31
0.0
  0
LINE
  5
10939
330
10937
100
AcDbEntity
  8
0
  6
CONTINUOUS
100
AcDbLine
 10
10.87250383178748
 20
7.971138394138331
 30
0.0
 11
11.6644654376404
 21
8.763099999991255
 31
0.0
  0
LINE
  5
1093A
330
10937
100
AcDbEntity
  8
0
  6
CONTINUOUS
100
AcDbLine
 10
11.07208458256261
 20
7.497199935833273
 30
0.0
 11
12.12126590876355
 21
8.546381262034211
 31
0.0
  0
LINE
  5
1093B
330
10937
100
AcDbEntity
  8
0
  6
CONTINUOUS
100
AcDbLine
 10
11.27166533333774
 20
7.023261477528216
 30
0.0
 11
12.32085164573666
 21
8.072447789927136
 31
0.0
  0
LINE
  5
1093C
330
10937
100
AcDbEntity
  8
0
  6
CONTINUOUS
100
AcDbLine
 10
11.47124608411287
 20
6.549323019223158
 30
0.0
 11
12.52043738270977
 21
7.59851431782006
 31
0.0
  0
LINE
  5
1093D
330
10937
100
AcDbEntity
  8
0
  6
CONTINUOUS
100
AcDbLine
 10
11.670826834888
 20
6.075384560918101
 30
0.0
 11
12.72002311968288
 21
7.124580845712984
 31
0.0
  0
LINE
  5
1093E
330
10937
100
AcDbEntity
  8
0
  6
CONTINUOUS
100
AcDbLine
 10
11.87040758566313
 20
5.601446102613043
 30
0.0
 11
12.91960885665599
 21
6.650647373605907
 31
0.0
  0
LINE
  5
1093F
330
10937
100
AcDbEntity
  8
0
  6
CONTINUOUS
100
AcDbLine
 10
12.06998833643825
 20
5.127507644307986
 30
0.0
 11
13.1191945936291
 21
6.176713901498832
 31
0.0
  0
LINE
  5
10940
330
10937
100
AcDbEntity
  8
0
  6
CONTINUOUS
100
AcDbLine
 10
12.26956908721338
 20
4.65356918600293
 30
0.0
 11
13.31878033060221
 21
5.702780429391757
 31
0.0
  0
LINE
  5
10941
330
10937
100
AcDbEntity
  8
0
  6
CONTINUOUS
100
AcDbLine
 10
12.46914983798851
 20
4.179630727697873
 30
0.0
 11
13.51836606757532
 21
5.228846957284683
 31
0.0
  0
LINE
  5
10942
330
10937
100
AcDbEntity
  8
0
  6
CONTINUOUS
100
AcDbLine
 10
12.66873058876364
 20
3.705692269392816
 30
0.0
 11
13.71795180454843
 21
4.754913485177607
 31
0.0
  0
LINE
  5
10943
330
10937
100
AcDbEntity
  8
0
  6
CONTINUOUS
100
AcDbLine
 10
12.86831133953877
 20
3.231753811087759
 30
0.0
 11
13.91753754152154
 21
4.280980013070531
 31
0.0
  0
LINE
  5
10944
330
10937
100
AcDbEntity
  8
0
  6
CONTINUOUS
100
AcDbLine
 10
13.0678920903139
 20
2.757815352782702
 30
0.0
 11
14.11712327849465
 21
3.807046540963456
 31
0.0
  0
LINE
  5
10945
330
10937
100
AcDbEntity
  8
0
  6
CONTINUOUS
100
AcDbLine
 10
13.26747284108903
 20
2.283876894477644
 30
0.0
 11
14.31670901546777
 21
3.333113068856379
 31
0.0
  0
LINE
  5
10946
330
10937
100
AcDbEntity
  8
0
  6
CONTINUOUS
100
AcDbLine
 10
16.36767838827179
 20
8.751678487061342
 30
0.0
 11
16.50332410898388
 21
8.887324207773432
 31
0.0
  0
LINE
  5
10947
330
10937
100
AcDbEntity
  8
0
  6
CONTINUOUS
100
AcDbLine
 10
15.96190732182191
 20
7.67238821153127
 30
0.0
 11
16.68735328004734
 21
8.397834169756699
 31
0.0
  0
LINE
  5
10948
330
10937
100
AcDbEntity
  8
0
  6
CONTINUOUS
100
AcDbLine
 10
15.55613625537202
 20
6.593097936001196
 30
0.0
 11
16.87138245111079
 21
7.908344131739965
 31
0.0
  0
LINE
  5
10949
330
10937
100
AcDbEntity
  8
0
  6
CONTINUOUS
100
AcDbLine
 10
15.15036518892213
 20
5.513807660471122
 30
0.0
 11
17.05541162217424
 21
7.418854093723231
 31
0.0
  0
LINE
  5
1094A
330
10937
100
AcDbEntity
  8
0
  6
CONTINUOUS
100
AcDbLine
 10
14.74459412247225
 20
4.434517384941048
 30
0.0
 11
17.2394407932377
 21
6.929364055706499
 31
0.0
  0
LINE
  5
1094B
330
10937
100
AcDbEntity
  8
0
  6
CONTINUOUS
100
AcDbLine
 10
14.33882305602236
 20
3.355227109410975
 30
0.0
 11
17.42346996430115
 21
6.439874017689766
 31
0.0
  0
LINE
  5
1094C
330
10937
100
AcDbEntity
  8
0
  6
CONTINUOUS
100
AcDbLine
 10
13.46705359186416
 20
1.809938436172586
 30
0.0
 11
16.0819338255367
 21
4.424818669845129
 31
0.0
  0
LINE
  5
1094D
330
10937
100
AcDbEntity
  8
0
  6
CONTINUOUS
100
AcDbLine
 10
16.63283254238972
 20
4.975717386698149
 30
0.0
 11
17.60749913536461
 21
5.950383979673033
 31
0.0
  0
LINE
  5
1094E
330
10937
100
AcDbEntity
  8
0
  6
CONTINUOUS
100
AcDbLine
 10
13.66663434263929
 20
1.335999977867529
 30
0.0
 11
15.67604797733754
 21
3.345413612565779
 31
0.0
  0
LINE
  5
1094F
330
10937
100
AcDbEntity
  8
0
  6
CONTINUOUS
100
AcDbLine
 10
13.86621509341442
 20
0.8620615195624723
 30
0.0
 11
15.27016212913838
 21
2.26600855528643
 31
0.0
  0
LINE
  5
10950
330
10937
100
AcDbEntity
  8
0
  6
CONTINUOUS
100
AcDbLine
 10
16.81682257348267
 20
4.486188208710908
 30
0.0
 11
17.79152830642806
 21
5.460893941656299
 31
0.0
  0
LINE
  5
10951
330
10937
100
AcDbEntity
  8
0
  6
CONTINUOUS
100
AcDbLine
 10
17.00081260457561
 20
3.996659030723667
 30
0.0
 11
17.97555747749151
 21
4.971403903639565
 31
0.0
  0
LINE
  5
10952
330
10937
100
AcDbEntity
  8
0
  6
CONTINUOUS
100
AcDbLine
 10
20.74362343514722
 20
8.412989070375462
 30
0.0
 11
21.09373436476302
 21
8.763099999991256
 31
0.0
  0
LINE
  5
10953
330
10937
100
AcDbEntity
  8
0
  6
CONTINUOUS
100
AcDbLine
 10
20.25401257174777
 20
7.249858997895826
 30
0.0
 11
21.7672535738432
 21
8.763099999991255
 31
0.0
  0
LINE
  5
10954
330
10937
100
AcDbEntity
  8
0
  6
CONTINUOUS
100
AcDbLine
 10
14.06579584418955
 20
0.3881230612574149
 30
0.0
 11
14.86427628093921
 21
1.186603498007082
 31
0.0
  0
LINE
  5
10955
330
10937
100
AcDbEntity
  8
0
  6
CONTINUOUS
100
AcDbLine
 10
14.26537659496467
 20
-0.0858153970476412
 30
0.0
 11
14.45839043274005
 21
0.1071984407277329
 31
0.0
  0
LINE
  5
10956
330
10937
100
AcDbEntity
  8
0
  6
CONTINUOUS
100
AcDbLine
 10
17.18480263566856
 20
3.507129852736426
 30
0.0
 11
18.15958664855496
 21
4.481913865622833
 31
0.0
  0
LINE
  5
10957
330
10937
100
AcDbEntity
  8
0
  6
CONTINUOUS
100
AcDbLine
 10
17.3687926667615
 20
3.017600674749186
 30
0.0
 11
18.34361581961842
 21
3.9924238276061
 31
0.0
  0
LINE
  5
10958
330
10937
100
AcDbEntity
  8
0
  6
CONTINUOUS
100
AcDbLine
 10
19.76440170834832
 20
6.086728925416191
 30
0.0
 11
22.33924590259489
 21
8.661573119662755
 31
0.0
  0
LINE
  5
10959
330
10937
100
AcDbEntity
  8
0
  6
CONTINUOUS
100
AcDbLine
 10
19.27479084494887
 20
4.923598852936555
 30
0.0
 11
21.84929622842713
 21
7.498104236414807
 31
0.0
  0
LINE
  5
1095A
330
10937
100
AcDbEntity
  8
0
  6
CONTINUOUS
100
AcDbLine
 10
17.55278269785445
 20
2.528071496761945
 30
0.0
 11
18.52764499068187
 21
3.502933789589366
 31
0.0
  0
LINE
  5
1095B
330
10937
100
AcDbEntity
  8
0
  6
CONTINUOUS
100
AcDbLine
 10
18.78517998154942
 20
3.760468780456919
 30
0.0
 11
21.35934655425936
 21
6.33463535316686
 31
0.0
  0
LINE
  5
1095C
330
10937
100
AcDbEntity
  8
0
  6
CONTINUOUS
100
AcDbLine
 10
17.73677272894739
 20
2.038542318774704
 30
0.0
 11
20.8693968800916
 21
5.171166469918914
 31
0.0
  0
LINE
  5
1095D
330
10937
100
AcDbEntity
  8
0
  6
CONTINUOUS
100
AcDbLine
 10
17.92076276004034
 20
1.549013140787464
 30
0.0
 11
20.37944720592384
 21
4.007697586670968
 31
0.0
  0
LINE
  5
1095E
330
10937
100
AcDbEntity
  8
0
  6
CONTINUOUS
100
AcDbLine
 10
18.10475279113329
 20
1.059483962800223
 30
0.0
 11
19.88949753175608
 21
2.84422870342302
 31
0.0
  0
LINE
  5
1095F
330
10937
100
AcDbEntity
  8
0
  6
CONTINUOUS
100
AcDbLine
 10
18.28874282222623
 20
0.5699547848129822
 30
0.0
 11
19.39954785758832
 21
1.680759820175074
 31
0.0
  0
LINE
  5
10960
330
10937
100
AcDbEntity
  8
0
  6
CONTINUOUS
100
AcDbLine
 10
18.47273285331918
 20
0.0804256068257416
 30
0.0
 11
18.90959818342056
 21
0.517290936927127
 31
0.0
  0
LINE
  5
10961
330
10937
100
AcDbEntity
  8
0
  6
CONTINUOUS
100
AcDbLine
 10
14.3590401358224
 20
-0.1570118376323384
 30
0.0
 11
14.24903296539946
 21
-0.0470046672093929
 31
0.0
  0
LINE
  5
10962
330
10937
100
AcDbEntity
  8
0
  6
CONTINUOUS
100
AcDbLine
 10
14.54309291258661
 20
0.332454594683643
 30
0.0
 11
13.75908329123172
 21
1.116464216038529
 31
0.0
  0
LINE
  5
10963
330
10937
100
AcDbEntity
  8
0
  6
CONTINUOUS
100
AcDbLine
 10
14.72714568935081
 20
0.8219210269996244
 30
0.0
 11
13.26913361706399
 21
2.27993309928645
 31
0.0
  0
LINE
  5
10964
330
10937
100
AcDbEntity
  8
0
  6
CONTINUOUS
100
AcDbLine
 10
14.91119846611502
 20
1.311387459315606
 30
0.0
 11
12.77918394289625
 21
3.443401982534371
 31
0.0
  0
LINE
  5
10965
330
10937
100
AcDbEntity
  8
0
  6
CONTINUOUS
100
AcDbLine
 10
15.09525124287922
 20
1.800853891631587
 30
0.0
 11
12.28923426872852
 21
4.606870865782293
 31
0.0
  0
LINE
  5
10966
330
10937
100
AcDbEntity
  8
0
  6
CONTINUOUS
100
AcDbLine
 10
15.27930401964343
 20
2.290320323947569
 30
0.0
 11
11.79928459456078
 21
5.770339749030213
 31
0.0
  0
LINE
  5
10967
330
10937
100
AcDbEntity
  8
0
  6
CONTINUOUS
100
AcDbLine
 10
15.46335679640763
 20
2.77978675626355
 30
0.0
 11
14.48885470994921
 21
3.754288842721972
 31
0.0
  0
LINE
  5
10968
330
10937
100
AcDbEntity
  8
0
  6
CONTINUOUS
100
AcDbLine
 10
13.88507249233704
 20
4.358071060334137
 30
0.0
 11
11.30933492039305
 21
6.933808632278135
 31
0.0
  0
LINE
  5
10969
330
10937
100
AcDbEntity
  8
0
  6
CONTINUOUS
100
AcDbLine
 10
18.75840522805855
 20
0.1582575336928151
 30
0.0
 11
18.25383727664818
 21
0.6628254851031863
 31
0.0
  0
LINE
  5
1096A
330
10937
100
AcDbEntity
  8
0
  6
CONTINUOUS
100
AcDbLine
 10
15.64740957317184
 20
3.269253188579531
 30
0.0
 11
14.67288388101266
 21
4.243778880738705
 31
0.0
  0
LINE
  5
1096B
330
10937
100
AcDbEntity
  8
0
  6
CONTINUOUS
100
AcDbLine
 10
13.39509276772158
 20
5.521569994029786
 30
0.0
 11
10.81938524622531
 21
8.097277515526056
 31
0.0
  0
LINE
  5
1096C
330
10937
100
AcDbEntity
  8
0
  6
CONTINUOUS
100
AcDbLine
 10
18.95798597883369
 20
0.6321959919978686
 30
0.0
 11
17.84825644852853
 21
1.741925522303024
 31
0.0
  0
LINE
  5
1096D
330
10937
100
AcDbEntity
  8
0
  6
CONTINUOUS
100
AcDbLine
 10
19.15756672960882
 20
1.106134450302922
 30
0.0
 11
17.44267562040888
 21
2.821025559502861
 31
0.0
  0
LINE
  5
1096E
330
10937
100
AcDbEntity
  8
0
  6
CONTINUOUS
100
AcDbLine
 10
15.83146234993604
 20
3.758719620895513
 30
0.0
 11
14.85691305207612
 21
4.733268918755439
 31
0.0
  0
LINE
  5
1096F
330
10937
100
AcDbEntity
  8
0
  6
CONTINUOUS
100
AcDbLine
 10
16.01551512670025
 20
4.248186053211494
 30
0.0
 11
15.04094222313957
 21
5.222758956772172
 31
0.0
  0
LINE
  5
10970
330
10937
100
AcDbEntity
  8
0
  6
CONTINUOUS
100
AcDbLine
 10
12.90511304310612
 20
6.685068927725435
 30
0.0
 11
10.8270819708403
 21
8.763099999991255
 31
0.0
  0
LINE
  5
10971
330
10937
100
AcDbEntity
  8
0
  6
CONTINUOUS
100
AcDbLine
 10
12.41513331849066
 20
7.848567861421083
 30
0.0
 11
11.50060117992049
 21
8.763099999991255
 31
0.0
  0
LINE
  5
10972
330
10937
100
AcDbEntity
  8
0
  6
CONTINUOUS
100
AcDbLine
 10
19.35714748038395
 20
1.580072908607975
 30
0.0
 11
17.03709479228923
 21
3.900125596702697
 31
0.0
  0
LINE
  5
10973
330
10937
100
AcDbEntity
  8
0
  6
CONTINUOUS
100
AcDbLine
 10
19.55672823115909
 20
2.054011366913028
 30
0.0
 11
16.63151396416958
 21
4.979225633902534
 31
0.0
  0
LINE
  5
10974
330
10937
100
AcDbEntity
  8
0
  6
CONTINUOUS
100
AcDbLine
 10
16.19956790346445
 20
4.737652485527476
 30
0.0
 11
15.22497139420302
 21
5.712248994788904
 31
0.0
  0
LINE
  5
10975
330
10937
100
AcDbEntity
  8
0
  6
CONTINUOUS
100
AcDbLine
 10
16.38362068022866
 20
5.227118917843457
 30
0.0
 11
15.40900056526648
 21
6.201739032805637
 31
0.0
  0
LINE
  5
10976
330
10937
100
AcDbEntity
  8
0
  6
CONTINUOUS
100
AcDbLine
 10
19.75630898193422
 20
2.527949825218081
 30
0.0
 11
18.70774536448286
 21
3.576513442669441
 31
0.0
  0
LINE
  5
10977
330
10937
100
AcDbEntity
  8
0
  6
CONTINUOUS
100
AcDbLine
 10
19.95588973270936
 20
3.001888283523134
 30
0.0
 11
18.90726987211446
 21
4.050508144118028
 31
0.0
  0
LINE
  5
10978
330
10937
100
AcDbEntity
  8
0
  6
CONTINUOUS
100
AcDbLine
 10
20.15547048348449
 20
3.475826741828186
 30
0.0
 11
19.10679437974606
 21
4.524502845566614
 31
0.0
  0
LINE
  5
10979
330
10937
100
AcDbEntity
  8
0
  6
CONTINUOUS
100
AcDbLine
 10
20.35505123425962
 20
3.94976520013324
 30
0.0
 11
19.30631888737766
 21
4.998497547015201
 31
0.0
  0
LINE
  5
1097A
330
10937
100
AcDbEntity
  8
0
  6
CONTINUOUS
100
AcDbLine
 10
20.55463198503475
 20
4.423703658438292
 30
0.0
 11
19.50584339500926
 21
5.472492248463787
 31
0.0
  0
LINE
  5
1097B
330
10937
100
AcDbEntity
  8
0
  6
CONTINUOUS
100
AcDbLine
 10
18.37481191085755
 20
3.909446896294752
 30
0.0
 11
15.59302973632993
 21
6.691229070822371
 31
0.0
  0
LINE
  5
1097C
330
10937
100
AcDbEntity
  8
0
  6
CONTINUOUS
100
AcDbLine
 10
17.96904084440766
 20
4.988737171824825
 30
0.0
 11
15.77705890739338
 21
7.180719108839104
 31
0.0
  0
LINE
  5
1097D
330
10937
100
AcDbEntity
  8
0
  6
CONTINUOUS
100
AcDbLine
 10
17.56326977795777
 20
6.068027447354899
 30
0.0
 11
15.96108807845684
 21
7.670209146855838
 31
0.0
  0
LINE
  5
1097E
330
10937
100
AcDbEntity
  8
0
  6
CONTINUOUS
100
AcDbLine
 10
17.15749871150789
 20
7.147317722884972
 30
0.0
 11
16.14511724952029
 21
8.15969918487257
 31
0.0
  0
LINE
  5
1097F
330
10937
100
AcDbEntity
  8
0
  6
CONTINUOUS
100
AcDbLine
 10
16.751727645058
 20
8.226607998415046
 30
0.0
 11
16.32914642058374
 21
8.649189222889303
 31
0.0
  0
LINE
  5
10980
330
10937
100
AcDbEntity
  8
0
  6
CONTINUOUS
100
AcDbLine
 10
20.75421273580989
 20
4.897642116743345
 30
0.0
 11
19.70536790264086
 21
5.946486949912374
 31
0.0
  0
LINE
  5
10981
330
10937
100
AcDbEntity
  8
0
  6
CONTINUOUS
100
AcDbLine
 10
20.95379348658502
 20
5.371580575048398
 30
0.0
 11
19.90489241027246
 21
6.42048165136096
 31
0.0
  0
LINE
  5
10982
330
10937
100
AcDbEntity
  8
0
  6
CONTINUOUS
100
AcDbLine
 10
21.15337423736015
 20
5.845519033353452
 30
0.0
 11
20.10441691790406
 21
6.894476352809547
 31
0.0
  0
LINE
  5
10983
330
10937
100
AcDbEntity
  8
0
  6
CONTINUOUS
100
AcDbLine
 10
21.35295498813529
 20
6.319457491658505
 30
0.0
 11
20.30394142553566
 21
7.368471054258134
 31
0.0
  0
LINE
  5
10984
330
10937
100
AcDbEntity
  8
0
  6
CONTINUOUS
100
AcDbLine
 10
21.55253573891042
 20
6.793395949963558
 30
0.0
 11
20.50346593316726
 21
7.842465755706721
 31
0.0
  0
LINE
  5
10985
330
10937
100
AcDbEntity
  8
0
  6
CONTINUOUS
100
AcDbLine
 10
21.75211648968556
 20
7.267334408268612
 30
0.0
 11
20.70299044079886
 21
8.316460457155308
 31
0.0
  0
LINE
  5
10986
330
10937
100
AcDbEntity
  8
0
  6
CONTINUOUS
100
AcDbLine
 10
21.95169724046069
 20
7.741272866573663
 30
0.0
 11
20.9298701070431
 21
8.763099999991256
 31
0.0
  0
LINE
  5
10987
330
10937
100
AcDbEntity
  8
0
  6
CONTINUOUS
100
AcDbLine
 10
22.15127799123582
 20
8.215211324878716
 30
0.0
 11
21.60338931612328
 21
8.763099999991256
 31
0.0
  0
LINE
  5
10988
330
10937
100
AcDbEntity
  8
0
  6
CONTINUOUS
100
AcDbLine
 10
22.35085874201096
 20
8.689149783183769
 30
0.0
 11
22.27690852520347
 21
8.763099999991255
 31
0.0
  0
ENDBLK
  5
10A7A
330
10937
100
AcDbEntity
  8
0
100
AcDbBlockEnd
  0
BLOCK
  5
10A7B
330
10989
100
AcDbEntity
  8
0
100
AcDbBlockBegin
  2
*X100
 70
     1
 10
0.0
 20
0.0
 30
0.0
  3
*X100
  1

  0
LINE
  5
1098A
330
10989
100
AcDbEntity
  8
0
  6
CONTINUOUS
100
AcDbLine
 10
23.19462913593892
 20
8.169917934846424
 30
0.0
 11
23.70775465517246
 21
8.683043454079957
 31
0.0
  0
LINE
  5
1098B
330
10989
100
AcDbEntity
  8
0
  6
CONTINUOUS
100
AcDbLine
 10
22.64923161835078
 20
6.951001208178088
 30
0.0
 11
23.9159364069932
 21
8.217705996820516
 31
0.0
  0
LINE
  5
1098C
330
10989
100
AcDbEntity
  8
0
  6
CONTINUOUS
100
AcDbLine
 10
22.10383410076263
 20
5.732084481509751
 30
0.0
 11
24.12411815881395
 21
7.752368539561078
 31
0.0
  0
LINE
  5
1098D
330
10989
100
AcDbEntity
  8
0
  6
CONTINUOUS
100
AcDbLine
 10
21.55843658317447
 20
4.513167754841414
 30
0.0
 11
24.3322999106347
 21
7.287031082301639
 31
0.0
  0
LINE
  5
1098E
330
10989
100
AcDbEntity
  8
0
  6
CONTINUOUS
100
AcDbLine
 10
21.01303906558632
 20
3.294251028173077
 30
0.0
 11
24.54048166245544
 21
6.821693625042199
 31
0.0
  0
LINE
  5
1098F
330
10989
100
AcDbEntity
  8
0
  6
CONTINUOUS
100
AcDbLine
 10
20.46764154799817
 20
2.075334301504738
 30
0.0
 11
23.28571549467848
 21
4.89340824818505
 31
0.0
  0
LINE
  5
10990
330
10989
100
AcDbEntity
  8
0
  6
CONTINUOUS
100
AcDbLine
 10
19.92224403041002
 20
0.8564175748364002
 30
0.0
 11
22.74075865492779
 21
3.674932199354171
 31
0.0
  0
LINE
  5
10991
330
10989
100
AcDbEntity
  8
0
  6
CONTINUOUS
100
AcDbLine
 10
23.67305085490148
 20
5.280743608408048
 30
0.0
 11
24.74866341427619
 21
6.356356167782759
 31
0.0
  0
LINE
  5
10992
330
10989
100
AcDbEntity
  8
0
  6
CONTINUOUS
100
AcDbLine
 10
23.88118970842314
 20
4.815363252849522
 30
0.0
 11
24.95684516609694
 21
5.89101871052332
 31
0.0
  0
LINE
  5
10993
330
10989
100
AcDbEntity
  8
0
  6
CONTINUOUS
100
AcDbLine
 10
19.73925852647308
 20
-0.0000871381807288
 30
0.0
 11
23.4103456646501
 21
3.670999999996297
 31
0.0
  0
LINE
  5
10994
330
10989
100
AcDbEntity
  8
0
  6
CONTINUOUS
100
AcDbLine
 10
24.0893285619448
 20
4.349982897290997
 30
0.0
 11
25.16502691791769
 21
5.42568125326388
 31
0.0
  0
LINE
  5
10995
330
10989
100
AcDbEntity
  8
0
  6
CONTINUOUS
100
AcDbLine
 10
20.41282099582748
 20
-0.0000438779065108
 30
0.0
 11
21.64944178675636
 21
1.236576913022366
 31
0.0
  0
LINE
  5
10996
330
10989
100
AcDbEntity
  8
0
  6
CONTINUOUS
100
AcDbLine
 10
22.78126487373161
 20
2.36839999999762
 30
0.0
 11
24.08386487373029
 21
3.670999999996297
 31
0.0
  0
LINE
  5
10997
330
10989
100
AcDbEntity
  8
0
  6
CONTINUOUS
100
AcDbLine
 10
24.29746741546646
 20
3.884602541732471
 30
0.0
 11
25.37320866973843
 21
4.960343796004441
 31
0.0
  0
LINE
  5
10998
330
10989
100
AcDbEntity
  8
0
  6
CONTINUOUS
100
AcDbLine
 10
21.08638346518189
 20
-0.0000006176322938
 30
0.0
 11
21.10379033335899
 21
0.0174062505448083
 31
0.0
  0
LINE
  5
10999
330
10989
100
AcDbEntity
  8
0
  6
CONTINUOUS
100
AcDbLine
 10
23.4547840828118
 20
2.36839999999762
 30
0.0
 11
25.58139042155918
 21
4.495006338745002
 31
0.0
  0
LINE
  5
1099A
330
10989
100
AcDbEntity
  8
0
  6
CONTINUOUS
100
AcDbLine
 10
29.30199999996933
 20
8.215615917155148
 30
0.0
 11
29.84948408280543
 21
8.763099999991255
 31
0.0
  0
LINE
  5
1099B
330
10989
100
AcDbEntity
  8
0
  6
CONTINUOUS
100
AcDbLine
 10
24.12830329189199
 20
2.36839999999762
 30
0.0
 11
25.78957217337993
 21
4.029668881485562
 31
0.0
  0
LINE
  5
1099C
330
10989
100
AcDbEntity
  8
0
  6
CONTINUOUS
100
AcDbLine
 10
29.30199999996933
 20
7.54209670807496
 30
0.0
 11
30.52300329188562
 21
8.763099999991255
 31
0.0
  0
LINE
  5
1099D
330
10989
100
AcDbEntity
  8
0
  6
CONTINUOUS
100
AcDbLine
 10
24.80182250097217
 20
2.36839999999762
 30
0.0
 11
25.99775392520067
 21
3.564331424226122
 31
0.0
  0
LINE
  5
1099E
330
10989
100
AcDbEntity
  8
0
  6
CONTINUOUS
100
AcDbLine
 10
29.30199999996933
 20
6.868577498994774
 30
0.0
 11
30.74199999996926
 21
8.308577498994712
 31
0.0
  0
LINE
  5
1099F
330
10989
100
AcDbEntity
  8
0
  6
CONTINUOUS
100
AcDbLine
 10
25.13028238392013
 20
2.023340673865392
 30
0.0
 11
26.20593567702142
 21
3.098993966966683
 31
0.0
  0
LINE
  5
109A0
330
10989
100
AcDbEntity
  8
0
  6
CONTINUOUS
100
AcDbLine
 10
25.33838066033617
 20
1.557919741201244
 30
0.0
 11
26.41411742884217
 21
2.633656509707244
 31
0.0
  0
LINE
  5
109A1
330
10989
100
AcDbEntity
  8
0
  6
CONTINUOUS
100
AcDbLine
 10
25.54647893675221
 20
1.092498808537098
 30
0.0
 11
26.62229918066291
 21
2.168319052447804
 31
0.0
  0
LINE
  5
109A2
330
10989
100
AcDbEntity
  8
0
  6
CONTINUOUS
100
AcDbLine
 10
25.75457721316825
 20
0.62707787587295
 30
0.0
 11
26.83048093248366
 21
1.702981595188365
 31
0.0
  0
LINE
  5
109A3
330
10989
100
AcDbEntity
  8
0
  6
CONTINUOUS
100
AcDbLine
 10
29.30199999996933
 20
6.195058289914587
 30
0.0
 11
30.74199999996926
 21
7.635058289914522
 31
0.0
  0
LINE
  5
109A4
330
10989
100
AcDbEntity
  8
0
  6
CONTINUOUS
100
AcDbLine
 10
29.30199999996933
 20
5.521539080834401
 30
0.0
 11
30.74199999996926
 21
6.961539080834331
 31
0.0
  0
LINE
  5
109A5
330
10989
100
AcDbEntity
  8
0
  6
CONTINUOUS
100
AcDbLine
 10
29.30199999996933
 20
4.848019871754214
 30
0.0
 11
30.74199999996925
 21
6.288019871754143
 31
0.0
  0
LINE
  5
109A6
330
10989
100
AcDbEntity
  8
0
  6
CONTINUOUS
100
AcDbLine
 10
29.30199999996933
 20
4.174500662674028
 30
0.0
 11
30.74199999996925
 21
5.614500662673953
 31
0.0
  0
LINE
  5
109A7
330
10989
100
AcDbEntity
  8
0
  6
CONTINUOUS
100
AcDbLine
 10
25.96267548958429
 20
0.1616569432088024
 30
0.0
 11
27.18411854636669
 21
1.383099999991207
 31
0.0
  0
LINE
  5
109A8
330
10989
100
AcDbEntity
  8
0
  6
CONTINUOUS
100
AcDbLine
 10
29.30199999996933
 20
3.500981453593841
 30
0.0
 11
30.74199999996925
 21
4.940981453593762
 31
0.0
  0
LINE
  5
109A9
330
10989
100
AcDbEntity
  8
0
  6
CONTINUOUS
100
AcDbLine
 10
26.50763775544691
 20
0.0330999999912356
 30
0.0
 11
27.85763775544689
 21
1.383099999991223
 31
0.0
  0
LINE
  5
109AA
330
10989
100
AcDbEntity
  8
0
  6
CONTINUOUS
100
AcDbLine
 10
29.30199999996933
 20
2.827462244513656
 30
0.0
 11
30.74199999996925
 21
4.267462244513574
 31
0.0
  0
LINE
  5
109AB
330
10989
100
AcDbEntity
  8
0
  6
CONTINUOUS
100
AcDbLine
 10
27.18115696452709
 20
0.0330999999912356
 30
0.0
 11
28.55073879889363
 21
1.402681834357775
 31
0.0
  0
LINE
  5
109AC
330
10989
100
AcDbEntity
  8
0
  6
CONTINUOUS
100
AcDbLine
 10
29.28241816560272
 20
2.134361201066866
 30
0.0
 11
30.74199999996924
 21
3.593943035433383
 31
0.0
  0
LINE
  5
109AD
330
10989
100
AcDbEntity
  8
0
  6
CONTINUOUS
100
AcDbLine
 10
27.85467617360728
 20
0.0330999999912356
 30
0.0
 11
30.74199999996924
 21
2.920423826353195
 31
0.0
  0
LINE
  5
109AE
330
10989
100
AcDbEntity
  8
0
  6
CONTINUOUS
100
AcDbLine
 10
28.53897559587887
 20
0.0438802131826428
 30
0.0
 11
30.73121978677781
 21
2.236124404081585
 31
0.0
  0
LINE
  5
109AF
330
10989
100
AcDbEntity
  8
0
  6
CONTINUOUS
100
AcDbLine
 10
29.45140055588722
 20
0.2827859641107988
 30
0.0
 11
30.49231403584965
 21
1.323699444073236
 31
0.0
  0
LINE
  5
109B0
330
10989
100
AcDbEntity
  8
0
  6
CONTINUOUS
100
AcDbLine
 10
19.59027867740337
 20
-0.0000967065718083
 30
0.0
 11
19.55485265190471
 21
0.035329318926844
 31
0.0
  0
LINE
  5
109B1
330
10989
100
AcDbEntity
  8
0
  6
CONTINUOUS
100
AcDbLine
 10
20.26375463176586
 20
-0.0000534518541091
 30
0.0
 11
19.76305575737534
 21
0.5006454225364014
 31
0.0
  0
LINE
  5
109B2
330
10989
100
AcDbEntity
  8
0
  6
CONTINUOUS
100
AcDbLine
 10
20.93723058612834
 20
-0.0000101971364099
 30
0.0
 11
19.97125886284597
 21
0.965961526145958
 31
0.0
  0
LINE
  5
109B3
330
10989
100
AcDbEntity
  8
0
  6
CONTINUOUS
100
AcDbLine
 10
21.25514828313686
 20
0.355591314935257
 30
0.0
 11
20.1794619683166
 21
1.431277629755512
 31
0.0
  0
LINE
  5
109B4
330
10989
100
AcDbEntity
  8
0
  6
CONTINUOUS
100
AcDbLine
 10
21.46338838394921
 20
0.8208704232030986
 30
0.0
 11
20.38766507378723
 21
1.896593733365069
 31
0.0
  0
LINE
  5
109B5
330
10989
100
AcDbEntity
  8
0
  6
CONTINUOUS
100
AcDbLine
 10
21.67162848476155
 20
1.28614953147094
 30
0.0
 11
20.59586817925786
 21
2.361909836974626
 31
0.0
  0
LINE
  5
109B6
330
10989
100
AcDbEntity
  8
0
  6
CONTINUOUS
100
AcDbLine
 10
21.8798685855739
 20
1.751428639738782
 30
0.0
 11
20.80407128472849
 21
2.827225940584183
 31
0.0
  0
LINE
  5
109B7
330
10989
100
AcDbEntity
  8
0
  6
CONTINUOUS
100
AcDbLine
 10
22.08810868638624
 20
2.216707748006623
 30
0.0
 11
21.01227439019912
 21
3.292542044193739
 31
0.0
  0
LINE
  5
109B8
330
10989
100
AcDbEntity
  8
0
  6
CONTINUOUS
100
AcDbLine
 10
22.60993564347543
 20
2.36839999999762
 30
0.0
 11
21.22047749566975
 21
3.757858147803296
 31
0.0
  0
LINE
  5
109B9
330
10989
100
AcDbEntity
  8
0
  6
CONTINUOUS
100
AcDbLine
 10
23.28345485255561
 20
2.36839999999762
 30
0.0
 11
21.42868060114038
 21
4.223174251412853
 31
0.0
  0
LINE
  5
109BA
330
10989
100
AcDbEntity
  8
0
  6
CONTINUOUS
100
AcDbLine
 10
26.29227406164219
 20
0.0330999999912356
 30
0.0
 11
25.80009199592872
 21
0.5252820657046957
 31
0.0
  0
LINE
  5
109BB
330
10989
100
AcDbEntity
  8
0
  6
CONTINUOUS
100
AcDbLine
 10
23.9569740616358
 20
2.36839999999762
 30
0.0
 11
21.63688370661101
 21
4.688490355022409
 31
0.0
  0
LINE
  5
109BC
330
10989
100
AcDbEntity
  8
0
  6
CONTINUOUS
100
AcDbLine
 10
26.96579327072237
 20
0.0330999999912356
 30
0.0
 11
25.2554132311971
 21
1.743480039516508
 31
0.0
  0
LINE
  5
109BD
330
10989
100
AcDbEntity
  8
0
  6
CONTINUOUS
100
AcDbLine
 10
24.63049327071599
 20
2.36839999999762
 30
0.0
 11
23.32789327071731
 21
3.670999999996297
 31
0.0
  0
LINE
  5
109BE
330
10989
100
AcDbEntity
  8
0
  6
CONTINUOUS
100
AcDbLine
 10
22.92098674744635
 20
4.077906523267254
 30
0.0
 11
21.84508681208164
 21
5.153806458631966
 31
0.0
  0
LINE
  5
109BF
330
10989
100
AcDbEntity
  8
0
  6
CONTINUOUS
100
AcDbLine
 10
27.63931247980256
 20
0.0330999999912356
 30
0.0
 11
24.0014124797975
 21
3.670999999996297
 31
0.0
  0
LINE
  5
109C0
330
10989
100
AcDbEntity
  8
0
  6
CONTINUOUS
100
AcDbLine
 10
23.129125600968
 20
4.5432868788258
 30
0.0
 11
22.05328991755227
 21
5.619122562241522
 31
0.0
  0
LINE
  5
109C1
330
10989
100
AcDbEntity
  8
0
  6
CONTINUOUS
100
AcDbLine
 10
28.31283168888275
 20
0.0330999999912356
 30
0.0
 11
24.16488385994816
 21
4.181047828925828
 31
0.0
  0
LINE
  5
109C2
330
10989
100
AcDbEntity
  8
0
  6
CONTINUOUS
100
AcDbLine
 10
23.33726445448964
 20
5.008667234384345
 30
0.0
 11
22.2614930230229
 21
6.084438665851079
 31
0.0
  0
LINE
  5
109C3
330
10989
100
AcDbEntity
  8
0
  6
CONTINUOUS
100
AcDbLine
 10
28.92085740005492
 20
0.0985934978992438
 30
0.0
 11
27.63635089796295
 21
1.383099999991217
 31
0.0
  0
LINE
  5
109C4
330
10989
100
AcDbEntity
  8
0
  6
CONTINUOUS
100
AcDbLine
 10
26.43704649509776
 20
2.582404402856405
 30
0.0
 11
23.61992702019732
 21
5.399523877756844
 31
0.0
  0
LINE
  5
109C5
330
10989
100
AcDbEntity
  8
0
  6
CONTINUOUS
100
AcDbLine
 10
23.54540330801128
 20
5.47404758994289
 30
0.0
 11
22.46969612849353
 21
6.549754769460635
 31
0.0
  0
LINE
  5
109C6
330
10989
100
AcDbEntity
  8
0
  6
CONTINUOUS
100
AcDbLine
 10
29.42225615078443
 20
0.2707139562499279
 30
0.0
 11
28.30987010704312
 21
1.383099999991234
 31
0.0
  0
LINE
  5
109C7
330
10989
100
AcDbEntity
  8
0
  6
CONTINUOUS
100
AcDbLine
 10
25.89179548232307
 20
3.801174624711282
 30
0.0
 11
22.67789923396416
 21
7.015070873070191
 31
0.0
  0
LINE
  5
109C8
330
10989
100
AcDbEntity
  8
0
  6
CONTINUOUS
100
AcDbLine
 10
29.83624534690007
 20
0.5302439692144705
 30
0.0
 11
28.85811781497101
 21
1.508371501143527
 31
0.0
  0
LINE
  5
109C9
330
10989
100
AcDbEntity
  8
0
  6
CONTINUOUS
100
AcDbLine
 10
25.34654446954838
 20
5.01994484656616
 30
0.0
 11
22.88610233943479
 21
7.480386976679748
 31
0.0
  0
LINE
  5
109CA
330
10989
100
AcDbEntity
  8
0
  6
CONTINUOUS
100
AcDbLine
 10
30.17865975401872
 20
0.8613487711760022
 30
0.0
 11
29.18888744090175
 21
1.851121084292977
 31
0.0
  0
LINE
  5
109CB
330
10989
100
AcDbEntity
  8
0
  6
CONTINUOUS
100
AcDbLine
 10
24.80129345677369
 20
6.238715068421037
 30
0.0
 11
23.09430544490542
 21
7.945703080289305
 31
0.0
  0
LINE
  5
109CC
330
10989
100
AcDbEntity
  8
0
  6
CONTINUOUS
100
AcDbLine
 10
30.45496647202376
 20
1.258561262251155
 30
0.0
 11
29.30199999996933
 21
2.411527734305588
 31
0.0
  0
LINE
  5
109CD
330
10989
100
AcDbEntity
  8
0
  6
CONTINUOUS
100
AcDbLine
 10
24.256042443999
 20
7.457485290275915
 30
0.0
 11
23.30250855037605
 21
8.411019183898862
 31
0.0
  0
LINE
  5
109CE
330
10989
100
AcDbEntity
  8
0
  6
CONTINUOUS
100
AcDbLine
 10
30.64868582078271
 20
1.738361122572387
 30
0.0
 11
29.30199999996933
 21
3.085046943385775
 31
0.0
  0
LINE
  5
109CF
330
10989
100
AcDbEntity
  8
0
  6
CONTINUOUS
100
AcDbLine
 10
23.71079143122431
 20
8.676255512130794
 30
0.0
 11
23.51071165584668
 21
8.876335287508416
 31
0.0
  0
LINE
  5
109D0
330
10989
100
AcDbEntity
  8
0
  6
CONTINUOUS
100
AcDbLine
 10
30.73802122914428
 20
2.322544923291007
 30
0.0
 11
29.30199999996933
 21
3.758566152465961
 31
0.0
  0
LINE
  5
109D1
330
10989
100
AcDbEntity
  8
0
  6
CONTINUOUS
100
AcDbLine
 10
30.74199999996924
 20
2.992085361546236
 30
0.0
 11
29.30199999996933
 21
4.432085361546148
 31
0.0
  0
LINE
  5
109D2
330
10989
100
AcDbEntity
  8
0
  6
CONTINUOUS
100
AcDbLine
 10
30.74199999996924
 20
3.665604570626419
 30
0.0
 11
29.30199999996933
 21
5.105604570626333
 31
0.0
  0
LINE
  5
109D3
330
10989
100
AcDbEntity
  8
0
  6
CONTINUOUS
100
AcDbLine
 10
30.74199999996925
 20
4.339123779706602
 30
0.0
 11
29.30199999996933
 21
5.77912377970652
 31
0.0
  0
LINE
  5
109D4
330
10989
100
AcDbEntity
  8
0
  6
CONTINUOUS
100
AcDbLine
 10
30.74199999996925
 20
5.012642988786785
 30
0.0
 11
29.30199999996933
 21
6.452642988786707
 31
0.0
  0
LINE
  5
109D5
330
10989
100
AcDbEntity
  8
0
  6
CONTINUOUS
100
AcDbLine
 10
30.74199999996925
 20
5.68616219786697
 30
0.0
 11
29.30199999996933
 21
7.126162197866894
 31
0.0
  0
LINE
  5
109D6
330
10989
100
AcDbEntity
  8
0
  6
CONTINUOUS
100
AcDbLine
 10
30.74199999996925
 20
6.359681406947153
 30
0.0
 11
29.30199999996933
 21
7.799681406947081
 31
0.0
  0
LINE
  5
109D7
330
10989
100
AcDbEntity
  8
0
  6
CONTINUOUS
100
AcDbLine
 10
30.74199999996926
 20
7.033200616027337
 30
0.0
 11
29.30199999996933
 21
8.473200616027269
 31
0.0
  0
LINE
  5
109D8
330
10989
100
AcDbEntity
  8
0
  6
CONTINUOUS
100
AcDbLine
 10
30.74199999996926
 20
7.706719825107518
 30
0.0
 11
29.68561982508552
 21
8.763099999991255
 31
0.0
  0
LINE
  5
109D9
330
10989
100
AcDbEntity
  8
0
  6
CONTINUOUS
100
AcDbLine
 10
30.74199999996926
 20
8.380239034187703
 30
0.0
 11
30.35913903416571
 21
8.763099999991255
 31
0.0
  0
ENDBLK
  5
10A7C
330
10989
100
AcDbEntity
  8
0
100
AcDbBlockEnd
  0
BLOCK
  5
10A7D
330
109DA
100
AcDbEntity
  8
0
100
AcDbBlockBegin
  2
*X101
 70
     1
 10
0.0
 20
0.0
 30
0.0
  3
*X101
  1

  0
LINE
  5
109DB
330
109DA
100
AcDbEntity
  8
0
  6
CONTINUOUS
100
AcDbLine
 10
31.64199999996833
 20
8.535058289913598
 30
0.0
 11
31.87004171004599
 21
8.763099999991255
 31
0.0
  0
LINE
  5
109DC
330
109DA
100
AcDbEntity
  8
0
  6
CONTINUOUS
100
AcDbLine
 10
31.64199999996833
 20
7.861539080833412
 30
0.0
 11
32.54356091912618
 21
8.763099999991255
 31
0.0
  0
LINE
  5
109DD
330
109DA
100
AcDbEntity
  8
0
  6
CONTINUOUS
100
AcDbLine
 10
31.64199999996833
 20
7.188019871753226
 30
0.0
 11
33.08199999996839
 21
8.628019871753281
 31
0.0
  0
LINE
  5
109DE
330
109DA
100
AcDbEntity
  8
0
  6
CONTINUOUS
100
AcDbLine
 10
31.64199999996833
 20
6.51450066267304
 30
0.0
 11
33.08199999996839
 21
7.954500662673095
 31
0.0
  0
LINE
  5
109DF
330
109DA
100
AcDbEntity
  8
0
  6
CONTINUOUS
100
AcDbLine
 10
31.64199999996833
 20
5.840981453592853
 30
0.0
 11
33.08199999996839
 21
7.280981453592908
 31
0.0
  0
LINE
  5
109E0
330
109DA
100
AcDbEntity
  8
0
  6
CONTINUOUS
100
AcDbLine
 10
31.64199999996833
 20
5.167462244512667
 30
0.0
 11
33.08199999996839
 21
6.607462244512721
 31
0.0
  0
LINE
  5
109E1
330
109DA
100
AcDbEntity
  8
0
  6
CONTINUOUS
100
AcDbLine
 10
31.64199999996833
 20
4.493943035432481
 30
0.0
 11
33.08199999996839
 21
5.933943035432535
 31
0.0
  0
LINE
  5
109E2
330
109DA
100
AcDbEntity
  8
0
  6
CONTINUOUS
100
AcDbLine
 10
31.64199999996833
 20
3.820423826352293
 30
0.0
 11
33.08199999996839
 21
5.260423826352348
 31
0.0
  0
LINE
  5
109E3
330
109DA
100
AcDbEntity
  8
0
  6
CONTINUOUS
100
AcDbLine
 10
31.64199999996833
 20
3.146904617272106
 30
0.0
 11
33.08199999996839
 21
4.586904617272161
 31
0.0
  0
LINE
  5
109E4
330
109DA
100
AcDbEntity
  8
0
  6
CONTINUOUS
100
AcDbLine
 10
36.23199999996837
 20
8.410423826352325
 30
0.0
 11
36.5846761736073
 21
8.763099999991255
 31
0.0
  0
LINE
  5
109E5
330
109DA
100
AcDbEntity
  8
0
  6
CONTINUOUS
100
AcDbLine
 10
36.23199999996837
 20
7.73690461727214
 30
0.0
 11
37.25819538268748
 21
8.763099999991255
 31
0.0
  0
LINE
  5
109E6
330
109DA
100
AcDbEntity
  8
0
  6
CONTINUOUS
100
AcDbLine
 10
31.64257403601376
 20
2.473959444237348
 30
0.0
 11
33.08199999996839
 21
3.913385408191974
 31
0.0
  0
LINE
  5
109E7
330
109DA
100
AcDbEntity
  8
0
  6
CONTINUOUS
100
AcDbLine
 10
36.23199999996837
 20
7.063385408191953
 30
0.0
 11
37.67199999996831
 21
8.503385408191894
 31
0.0
  0
LINE
  5
109E8
330
109DA
100
AcDbEntity
  8
0
  6
CONTINUOUS
100
AcDbLine
 10
31.72013636841932
 20
1.87800256756272
 30
0.0
 11
33.08199999996839
 21
3.239866199111788
 31
0.0
  0
LINE
  5
109E9
330
109DA
100
AcDbEntity
  8
0
  6
CONTINUOUS
100
AcDbLine
 10
36.23199999996837
 20
6.389866199111767
 30
0.0
 11
37.67199999996831
 21
7.829866199111708
 31
0.0
  0
LINE
  5
109EA
330
109DA
100
AcDbEntity
  8
0
  6
CONTINUOUS
100
AcDbLine
 10
31.89042734314753
 20
1.374774333210744
 30
0.0
 11
33.08199999996839
 21
2.566346990031601
 31
0.0
  0
LINE
  5
109EB
330
109DA
100
AcDbEntity
  8
0
  6
CONTINUOUS
100
AcDbLine
 10
36.23199999996837
 20
5.71634699003158
 30
0.0
 11
37.67199999996831
 21
7.156346990031521
 31
0.0
  0
LINE
  5
109EC
330
109DA
100
AcDbEntity
  8
0
  6
CONTINUOUS
100
AcDbLine
 10
32.14210568064475
 20
0.952933461627778
 30
0.0
 11
33.18745552475986
 21
1.998283305742888
 31
0.0
  0
LINE
  5
109ED
330
109DA
100
AcDbEntity
  8
0
  6
CONTINUOUS
100
AcDbLine
 10
36.23199999996837
 20
5.042827780951393
 30
0.0
 11
37.67199999996831
 21
6.482827780951334
 31
0.0
  0
LINE
  5
109EE
330
109DA
100
AcDbEntity
  8
0
  6
CONTINUOUS
100
AcDbLine
 10
32.45820639400955
 20
0.5955149659123915
 30
0.0
 11
33.47242681921943
 21
1.60973539112227
 31
0.0
  0
LINE
  5
109EF
330
109DA
100
AcDbEntity
  8
0
  6
CONTINUOUS
100
AcDbLine
 10
36.23199999996837
 20
4.369308571871207
 30
0.0
 11
37.67199999996831
 21
5.809308571871147
 31
0.0
  0
LINE
  5
109F0
330
109DA
100
AcDbEntity
  8
0
  6
CONTINUOUS
100
AcDbLine
 10
32.83432456621412
 20
0.2981139290367771
 30
0.0
 11
33.89722476612215
 21
1.361014128944803
 31
0.0
  0
LINE
  5
109F1
330
109DA
100
AcDbEntity
  8
0
  6
CONTINUOUS
100
AcDbLine
 10
36.23199999996837
 20
3.69578936279102
 30
0.0
 11
37.67199999996831
 21
5.135789362790962
 31
0.0
  0
LINE
  5
109F2
330
109DA
100
AcDbEntity
  8
0
  6
CONTINUOUS
100
AcDbLine
 10
33.2711633111245
 20
0.0614334648669672
 30
0.0
 11
34.43247338014423
 21
1.222743533886696
 31
0.0
  0
LINE
  5
109F3
330
109DA
100
AcDbEntity
  8
0
  6
CONTINUOUS
100
AcDbLine
 10
36.23199999996837
 20
3.022270153710834
 30
0.0
 11
37.67199999996831
 21
4.462270153710775
 31
0.0
  0
LINE
  5
109F4
330
109DA
100
AcDbEntity
  8
0
  6
CONTINUOUS
100
AcDbLine
 10
33.76515245874577
 20
-0.1180965965919523
 30
0.0
 11
35.1587445516215
 21
1.27549549628378
 31
0.0
  0
LINE
  5
109F5
330
109DA
100
AcDbEntity
  8
0
  6
CONTINUOUS
100
AcDbLine
 10
36.21639478609585
 20
2.333145730758136
 30
0.0
 11
37.67199999996831
 21
3.788750944630588
 31
0.0
  0
LINE
  5
109F6
330
109DA
100
AcDbEntity
  8
0
  6
CONTINUOUS
100
AcDbLine
 10
34.34060583368432
 20
-0.2161624307335863
 30
0.0
 11
37.67199999996831
 21
3.115231735550401
 31
0.0
  0
LINE
  5
109F7
330
109DA
100
AcDbEntity
  8
0
  6
CONTINUOUS
100
AcDbLine
 10
35.01698193613905
 20
-0.2133055373590427
 30
0.0
 11
37.66876712070525
 21
2.438479647207154
 31
0.0
  0
LINE
  5
109F8
330
109DA
100
AcDbEntity
  8
0
  6
CONTINUOUS
100
AcDbLine
 10
35.90743367693304
 20
0.0036269943547609
 30
0.0
 11
37.51723902192366
 21
1.613432339345381
 31
0.0
  0
LINE
  5
109F9
330
109DA
100
AcDbEntity
  8
0
  6
CONTINUOUS
100
AcDbLine
 10
32.55309425579761
 20
0.5074718966376706
 30
0.0
 11
32.27784730925847
 21
0.7827188431768102
 31
0.0
  0
LINE
  5
109FA
330
109DA
100
AcDbEntity
  8
0
  6
CONTINUOUS
100
AcDbLine
 10
33.87496468909684
 20
-0.1408793275813673
 30
0.0
 11
31.67993083278052
 21
2.054154528734943
 31
0.0
  0
LINE
  5
109FB
330
109DA
100
AcDbEntity
  8
0
  6
CONTINUOUS
100
AcDbLine
 10
34.64362813207632
 20
-0.2360235614806649
 30
0.0
 11
31.64199999996833
 21
2.765604570627322
 31
0.0
  0
LINE
  5
109FC
330
109DA
100
AcDbEntity
  8
0
  6
CONTINUOUS
100
AcDbLine
 10
35.25801106796118
 20
-0.1768872882853429
 30
0.0
 11
31.64199999996833
 21
3.439123779707508
 31
0.0
  0
LINE
  5
109FD
330
109DA
100
AcDbEntity
  8
0
  6
CONTINUOUS
100
AcDbLine
 10
35.79065650332146
 20
-0.0360135145654361
 30
0.0
 11
34.54143210838231
 21
1.213210880373721
 31
0.0
  0
LINE
  5
109FE
330
109DA
100
AcDbEntity
  8
0
  6
CONTINUOUS
100
AcDbLine
 10
33.08199999996839
 20
2.67264298878764
 30
0.0
 11
31.64199999996833
 21
4.112642988787695
 31
0.0
  0
LINE
  5
109FF
330
109DA
100
AcDbEntity
  8
0
  6
CONTINUOUS
100
AcDbLine
 10
36.25975597779143
 20
0.1684062200447833
 30
0.0
 11
35.15395110240023
 21
1.274211095435983
 31
0.0
  0
LINE
  5
10A00
330
109DA
100
AcDbEntity
  8
0
  6
CONTINUOUS
100
AcDbLine
 10
33.08199999996839
 20
3.346162197867826
 30
0.0
 11
31.64199999996833
 21
4.786162197867881
 31
0.0
  0
LINE
  5
10A01
330
109DA
100
AcDbEntity
  8
0
  6
CONTINUOUS
100
AcDbLine
 10
36.67226329638774
 20
0.4294181105286579
 30
0.0
 11
35.63766478748767
 21
1.464016619428737
 31
0.0
  0
LINE
  5
10A02
330
109DA
100
AcDbEntity
  8
0
  6
CONTINUOUS
100
AcDbLine
 10
33.08199999996839
 20
4.019681406948012
 30
0.0
 11
31.64199999996833
 21
5.459681406948068
 31
0.0
  0
LINE
  5
10A03
330
109DA
100
AcDbEntity
  8
0
  6
CONTINUOUS
100
AcDbLine
 10
37.01677749710036
 20
0.7584231188962329
 30
0.0
 11
35.99563422741351
 21
1.779566388583076
 31
0.0
  0
LINE
  5
10A04
330
109DA
100
AcDbEntity
  8
0
  6
CONTINUOUS
100
AcDbLine
 10
33.08199999996839
 20
4.693200616028199
 30
0.0
 11
31.64199999996833
 21
6.133200616028255
 31
0.0
  0
LINE
  5
10A05
330
109DA
100
AcDbEntity
  8
0
  6
CONTINUOUS
100
AcDbLine
 10
37.29859977568887
 20
1.1501200493879
 30
0.0
 11
36.20680593341555
 21
2.241913891661226
 31
0.0
  0
LINE
  5
10A06
330
109DA
100
AcDbEntity
  8
0
  6
CONTINUOUS
100
AcDbLine
 10
33.08199999996839
 20
5.366719825108386
 30
0.0
 11
31.64199999996833
 21
6.80671982510844
 31
0.0
  0
LINE
  5
10A07
330
109DA
100
AcDbEntity
  8
0
  6
CONTINUOUS
100
AcDbLine
 10
37.5148623517228
 20
1.607376682434161
 30
0.0
 11
36.23199999996837
 21
2.890239034188594
 31
0.0
  0
LINE
  5
10A08
330
109DA
100
AcDbEntity
  8
0
  6
CONTINUOUS
100
AcDbLine
 10
33.08199999996839
 20
6.040239034188573
 30
0.0
 11
31.64199999996833
 21
7.480239034188627
 31
0.0
  0
LINE
  5
10A09
330
109DA
100
AcDbEntity
  8
0
  6
CONTINUOUS
100
AcDbLine
 10
37.64705163358367
 20
2.148706609653477
 30
0.0
 11
36.23199999996837
 21
3.56375824326878
 31
0.0
  0
LINE
  5
10A0A
330
109DA
100
AcDbEntity
  8
0
  6
CONTINUOUS
100
AcDbLine
 10
33.08199999996839
 20
6.713758243268758
 30
0.0
 11
31.64199999996833
 21
8.153758243268815
 31
0.0
  0
LINE
  5
10A0B
330
109DA
100
AcDbEntity
  8
0
  6
CONTINUOUS
100
AcDbLine
 10
37.67199999996831
 20
2.797277452349026
 30
0.0
 11
36.23199999996837
 21
4.237277452348967
 31
0.0
  0
LINE
  5
10A0C
330
109DA
100
AcDbEntity
  8
0
  6
CONTINUOUS
100
AcDbLine
 10
37.67199999996831
 20
3.470796661429213
 30
0.0
 11
36.23199999996837
 21
4.910796661429154
 31
0.0
  0
LINE
  5
10A0D
330
109DA
100
AcDbEntity
  8
0
  6
CONTINUOUS
100
AcDbLine
 10
37.67199999996831
 20
4.144315870509399
 30
0.0
 11
36.23199999996837
 21
5.58431587050934
 31
0.0
  0
LINE
  5
10A0E
330
109DA
100
AcDbEntity
  8
0
  6
CONTINUOUS
100
AcDbLine
 10
33.08199999996839
 20
7.387277452348945
 30
0.0
 11
31.70617745232608
 21
8.763099999991255
 31
0.0
  0
LINE
  5
10A0F
330
109DA
100
AcDbEntity
  8
0
  6
CONTINUOUS
100
AcDbLine
 10
33.08199999996839
 20
8.060796661429132
 30
0.0
 11
32.37969666140626
 21
8.763099999991255
 31
0.0
  0
LINE
  5
10A10
330
109DA
100
AcDbEntity
  8
0
  6
CONTINUOUS
100
AcDbLine
 10
33.08199999996839
 20
8.734315870509318
 30
0.0
 11
33.05321587048645
 21
8.763099999991255
 31
0.0
  0
LINE
  5
10A11
330
109DA
100
AcDbEntity
  8
0
  6
CONTINUOUS
100
AcDbLine
 10
37.67199999996831
 20
4.817835079589585
 30
0.0
 11
36.23199999996837
 21
6.257835079589526
 31
0.0
  0
LINE
  5
10A12
330
109DA
100
AcDbEntity
  8
0
  6
CONTINUOUS
100
AcDbLine
 10
37.67199999996831
 20
5.491354288669771
 30
0.0
 11
36.23199999996837
 21
6.931354288669713
 31
0.0
  0
LINE
  5
10A13
330
109DA
100
AcDbEntity
  8
0
  6
CONTINUOUS
100
AcDbLine
 10
37.67199999996831
 20
6.164873497749958
 30
0.0
 11
36.23199999996837
 21
7.6048734977499
 31
0.0
  0
LINE
  5
10A14
330
109DA
100
AcDbEntity
  8
0
  6
CONTINUOUS
100
AcDbLine
 10
37.67199999996831
 20
6.838392706830144
 30
0.0
 11
36.23199999996837
 21
8.278392706830086
 31
0.0
  0
LINE
  5
10A15
330
109DA
100
AcDbEntity
  8
0
  6
CONTINUOUS
100
AcDbLine
 10
37.67199999996831
 20
7.511911915910332
 30
0.0
 11
36.42081191588738
 21
8.763099999991255
 31
0.0
  0
LINE
  5
10A16
330
109DA
100
AcDbEntity
  8
0
  6
CONTINUOUS
100
AcDbLine
 10
37.67199999996831
 20
8.185431124990519
 30
0.0
 11
37.09433112496757
 21
8.763099999991255
 31
0.0
  0
ENDBLK
  5
10A7E
330
109DA
100
AcDbEntity
  8
0
100
AcDbBlockEnd
  0
BLOCK
  5
10A7F
330
10A17
100
AcDbEntity
  8
0
100
AcDbBlockBegin
  2
*X102
 70
     1
 10
0.0
 20
0.0
 30
0.0
  3
*X102
  1

  0
LINE
  5
10A18
330
10A17
100
AcDbEntity
  8
0
  6
CONTINUOUS
100
AcDbLine
 10
38.60499999996136
 20
8.762866199104765
 30
0.0
 11
38.71672554182345
 21
8.874591740966855
 31
0.0
  0
LINE
  5
10A19
330
10A17
100
AcDbEntity
  8
0
  6
CONTINUOUS
100
AcDbLine
 10
38.60499999996136
 20
8.089346990024577
 30
0.0
 11
39.03418785440363
 21
8.518534844466847
 31
0.0
  0
LINE
  5
10A1A
330
10A17
100
AcDbEntity
  8
0
  6
CONTINUOUS
100
AcDbLine
 10
38.60499999996136
 20
7.41582778094439
 30
0.0
 11
39.35165016698382
 21
8.16247794796684
 31
0.0
  0
LINE
  5
10A1B
330
10A17
100
AcDbEntity
  8
0
  6
CONTINUOUS
100
AcDbLine
 10
38.60499999996136
 20
6.742308571864204
 30
0.0
 11
39.66911247956399
 21
7.806421051466834
 31
0.0
  0
LINE
  5
10A1C
330
10A17
100
AcDbEntity
  8
0
  6
CONTINUOUS
100
AcDbLine
 10
38.60499999996136
 20
6.068789362784018
 30
0.0
 11
39.98657479214418
 21
7.450364154966827
 31
0.0
  0
LINE
  5
10A1D
330
10A17
100
AcDbEntity
  8
0
  6
CONTINUOUS
100
AcDbLine
 10
38.60499999996136
 20
5.395270153703832
 30
0.0
 11
40.30403710472435
 21
7.09430725846682
 31
0.0
  0
LINE
  5
10A1E
330
10A17
100
AcDbEntity
  8
0
  6
CONTINUOUS
100
AcDbLine
 10
38.60499999996136
 20
4.721750944623645
 30
0.0
 11
40.62149941730453
 21
6.738250361966813
 31
0.0
  0
LINE
  5
10A1F
330
10A17
100
AcDbEntity
  8
0
  6
CONTINUOUS
100
AcDbLine
 10
38.60499999996136
 20
4.048231735543458
 30
0.0
 11
40.93896172988471
 21
6.382193465466806
 31
0.0
  0
LINE
  5
10A20
330
10A17
100
AcDbEntity
  8
0
  6
CONTINUOUS
100
AcDbLine
 10
38.60499999996136
 20
3.374712526463272
 30
0.0
 11
40.02599999995994
 21
4.795712526461843
 31
0.0
  0
LINE
  5
10A21
330
10A17
100
AcDbEntity
  8
0
  6
CONTINUOUS
100
AcDbLine
 10
38.60499999996136
 20
2.701193317383085
 30
0.0
 11
40.02599999995994
 21
4.122193317381657
 31
0.0
  0
LINE
  5
10A22
330
10A17
100
AcDbEntity
  8
0
  6
CONTINUOUS
100
AcDbLine
 10
40.28339754687704
 20
5.053110073378947
 30
0.0
 11
41.25642404246489
 21
6.026136568966799
 31
0.0
  0
LINE
  5
10A23
330
10A17
100
AcDbEntity
  8
0
  6
CONTINUOUS
100
AcDbLine
 10
40.60085985945722
 20
4.697053176878939
 30
0.0
 11
41.57388635504507
 21
5.670079672466793
 31
0.0
  0
LINE
  5
10A24
330
10A17
100
AcDbEntity
  8
0
  6
CONTINUOUS
100
AcDbLine
 10
43.57899999995641
 20
8.348712526458318
 30
0.0
 11
43.99338747348935
 21
8.763099999991255
 31
0.0
  0
LINE
  5
10A25
330
10A17
100
AcDbEntity
  8
0
  6
CONTINUOUS
100
AcDbLine
 10
43.57899999995641
 20
7.675193317378131
 30
0.0
 11
44.66690668256953
 21
8.763099999991255
 31
0.0
  0
LINE
  5
10A26
330
10A17
100
AcDbEntity
  8
0
  6
CONTINUOUS
100
AcDbLine
 10
38.60499999996136
 20
2.027674108302898
 30
0.0
 11
40.02599999995994
 21
3.44867410830147
 31
0.0
  0
LINE
  5
10A27
330
10A17
100
AcDbEntity
  8
0
  6
CONTINUOUS
100
AcDbLine
 10
38.60499999996136
 20
1.354154899222712
 30
0.0
 11
40.02599999995994
 21
2.775154899221284
 31
0.0
  0
LINE
  5
10A28
330
10A17
100
AcDbEntity
  8
0
  6
CONTINUOUS
100
AcDbLine
 10
38.60499999996136
 20
0.6806356901425255
 30
0.0
 11
40.02599999995994
 21
2.101635690141098
 31
0.0
  0
LINE
  5
10A29
330
10A17
100
AcDbEntity
  8
0
  6
CONTINUOUS
100
AcDbLine
 10
38.60499999996136
 20
0.0071164810623383
 30
0.0
 11
40.02599999995994
 21
1.428116481060911
 31
0.0
  0
LINE
  5
10A2A
330
10A17
100
AcDbEntity
  8
0
  6
CONTINUOUS
100
AcDbLine
 10
40.9183221720374
 20
4.340996280378933
 30
0.0
 11
41.89134866762525
 21
5.314022775966786
 31
0.0
  0
LINE
  5
10A2B
330
10A17
100
AcDbEntity
  8
0
  6
CONTINUOUS
100
AcDbLine
 10
41.23578448461758
 20
3.984939383878926
 30
0.0
 11
42.20881098020543
 21
4.957965879466778
 31
0.0
  0
LINE
  5
10A2C
330
10A17
100
AcDbEntity
  8
0
  6
CONTINUOUS
100
AcDbLine
 10
41.55324679719776
 20
3.628882487378919
 30
0.0
 11
42.52627329278561
 21
4.601908982966772
 31
0.0
  0
LINE
  5
10A2D
330
10A17
100
AcDbEntity
  8
0
  6
CONTINUOUS
100
AcDbLine
 10
41.87070910977793
 20
3.272825590878912
 30
0.0
 11
42.84373560536579
 21
4.245852086466765
 31
0.0
  0
LINE
  5
10A2E
330
10A17
100
AcDbEntity
  8
0
  6
CONTINUOUS
100
AcDbLine
 10
43.57899999995641
 20
7.001674108297943
 30
0.0
 11
44.99999999995498
 21
8.422674108296516
 31
0.0
  0
LINE
  5
10A2F
330
10A17
100
AcDbEntity
  8
0
  6
CONTINUOUS
100
AcDbLine
 10
43.57899999995641
 20
6.328154899217758
 30
0.0
 11
44.99999999995498
 21
7.749154899216329
 31
0.0
  0
LINE
  5
10A30
330
10A17
100
AcDbEntity
  8
0
  6
CONTINUOUS
100
AcDbLine
 10
43.57899999995641
 20
5.654635690137571
 30
0.0
 11
44.99999999995498
 21
7.075635690136142
 31
0.0
  0
LINE
  5
10A31
330
10A17
100
AcDbEntity
  8
0
  6
CONTINUOUS
100
AcDbLine
 10
43.57899999995641
 20
4.981116481057384
 30
0.0
 11
44.99999999995498
 21
6.402116481055955
 31
0.0
  0
LINE
  5
10A32
330
10A17
100
AcDbEntity
  8
0
  6
CONTINUOUS
100
AcDbLine
 10
39.27140272797921
 20
-0.0000000000000009
 30
0.0
 11
40.02599999995994
 21
0.7545972719807246
 31
0.0
  0
LINE
  5
10A33
330
10A17
100
AcDbEntity
  8
0
  6
CONTINUOUS
100
AcDbLine
 10
39.9449219370594
 20
-0.0000000000000009
 30
0.0
 11
40.02599999995994
 21
0.0810780629005379
 31
0.0
  0
LINE
  5
10A34
330
10A17
100
AcDbEntity
  8
0
  6
CONTINUOUS
100
AcDbLine
 10
42.18817142235812
 20
2.916768694378905
 30
0.0
 11
43.16119791794597
 21
3.889795189966758
 31
0.0
  0
LINE
  5
10A35
330
10A17
100
AcDbEntity
  8
0
  6
CONTINUOUS
100
AcDbLine
 10
42.50563373493829
 20
2.560711797878898
 30
0.0
 11
43.47866023052615
 21
3.533738293466751
 31
0.0
  0
LINE
  5
10A36
330
10A17
100
AcDbEntity
  8
0
  6
CONTINUOUS
100
AcDbLine
 10
43.57899999995641
 20
4.307597271977198
 30
0.0
 11
44.99999999995498
 21
5.728597271975769
 31
0.0
  0
LINE
  5
10A37
330
10A17
100
AcDbEntity
  8
0
  6
CONTINUOUS
100
AcDbLine
 10
43.57899999995641
 20
3.634078062897011
 30
0.0
 11
44.99999999995498
 21
5.055078062895582
 31
0.0
  0
LINE
  5
10A38
330
10A17
100
AcDbEntity
  8
0
  6
CONTINUOUS
100
AcDbLine
 10
42.82309604751848
 20
2.204654901378891
 30
0.0
 11
44.99999999995498
 21
4.381558853815395
 31
0.0
  0
LINE
  5
10A39
330
10A17
100
AcDbEntity
  8
0
  6
CONTINUOUS
100
AcDbLine
 10
43.14055836009865
 20
1.848598004878885
 30
0.0
 11
44.99999999995498
 21
3.70803964473521
 31
0.0
  0
LINE
  5
10A3A
330
10A17
100
AcDbEntity
  8
0
  6
CONTINUOUS
100
AcDbLine
 10
43.45802067267883
 20
1.492541108378878
 30
0.0
 11
44.99999999995498
 21
3.034520435655023
 31
0.0
  0
LINE
  5
10A3B
330
10A17
100
AcDbEntity
  8
0
  6
CONTINUOUS
100
AcDbLine
 10
43.77548298525902
 20
1.136484211878871
 30
0.0
 11
44.99999999995498
 21
2.361001226574837
 31
0.0
  0
LINE
  5
10A3C
330
10A17
100
AcDbEntity
  8
0
  6
CONTINUOUS
100
AcDbLine
 10
44.09294529783919
 20
0.7804273153788639
 30
0.0
 11
44.99999999995498
 21
1.687482017494649
 31
0.0
  0
LINE
  5
10A3D
330
10A17
100
AcDbEntity
  8
0
  6
CONTINUOUS
100
AcDbLine
 10
44.41040761041938
 20
0.4243704188788566
 30
0.0
 11
44.99999999995498
 21
1.013962808414463
 31
0.0
  0
LINE
  5
10A3E
330
10A17
100
AcDbEntity
  8
0
  6
CONTINUOUS
100
AcDbLine
 10
44.72786992299955
 20
0.0683135223788494
 30
0.0
 11
44.99999999995498
 21
0.340443599334276
 31
0.0
  0
LINE
  5
10A3F
330
10A17
100
AcDbEntity
  8
0
  6
CONTINUOUS
100
AcDbLine
 10
39.12223903415696
 20
-0.0000000000000009
 30
0.0
 11
38.60499999996136
 21
0.5172390341955961
 31
0.0
  0
LINE
  5
10A40
330
10A17
100
AcDbEntity
  8
0
  6
CONTINUOUS
100
AcDbLine
 10
39.79575824323715
 20
-0.0000000000000009
 30
0.0
 11
38.60499999996136
 21
1.190758243275783
 31
0.0
  0
LINE
  5
10A41
330
10A17
100
AcDbEntity
  8
0
  6
CONTINUOUS
100
AcDbLine
 10
40.02599999995994
 20
0.443277452357397
 30
0.0
 11
38.60499999996136
 21
1.864277452355969
 31
0.0
  0
LINE
  5
10A42
330
10A17
100
AcDbEntity
  8
0
  6
CONTINUOUS
100
AcDbLine
 10
40.02599999995994
 20
1.116796661437583
 30
0.0
 11
38.60499999996136
 21
2.537796661436155
 31
0.0
  0
LINE
  5
10A43
330
10A17
100
AcDbEntity
  8
0
  6
CONTINUOUS
100
AcDbLine
 10
40.02599999995994
 20
1.79031587051777
 30
0.0
 11
38.60499999996136
 21
3.211315870516341
 31
0.0
  0
LINE
  5
10A44
330
10A17
100
AcDbEntity
  8
0
  6
CONTINUOUS
100
AcDbLine
 10
40.02599999995994
 20
2.463835079597956
 30
0.0
 11
38.60499999996136
 21
3.884835079596527
 31
0.0
  0
LINE
  5
10A45
330
10A17
100
AcDbEntity
  8
0
  6
CONTINUOUS
100
AcDbLine
 10
40.02599999995994
 20
3.137354288678143
 30
0.0
 11
38.60499999996136
 21
4.558354288676714
 31
0.0
  0
LINE
  5
10A46
330
10A17
100
AcDbEntity
  8
0
  6
CONTINUOUS
100
AcDbLine
 10
40.02599999995994
 20
3.810873497758329
 30
0.0
 11
38.60499999996136
 21
5.2318734977569
 31
0.0
  0
LINE
  5
10A47
330
10A17
100
AcDbEntity
  8
0
  6
CONTINUOUS
100
AcDbLine
 10
40.02599999995994
 20
4.484392706838515
 30
0.0
 11
38.60499999996136
 21
5.905392706837086
 31
0.0
  0
LINE
  5
10A48
330
10A17
100
AcDbEntity
  8
0
  6
CONTINUOUS
100
AcDbLine
 10
44.99999999995498
 20
0.183911915923658
 30
0.0
 11
41.53858364506288
 21
3.64532827081576
 31
0.0
  0
LINE
  5
10A49
330
10A17
100
AcDbEntity
  8
0
  6
CONTINUOUS
100
AcDbLine
 10
40.02599999995994
 20
5.157911915918703
 30
0.0
 11
38.60499999996136
 21
6.578911915917274
 31
0.0
  0
LINE
  5
10A4A
330
10A17
100
AcDbEntity
  8
0
  6
CONTINUOUS
100
AcDbLine
 10
44.99999999995498
 20
0.8574311250038447
 30
0.0
 11
38.60499999996136
 21
7.25243112499746
 31
0.0
  0
LINE
  5
10A4B
330
10A17
100
AcDbEntity
  8
0
  6
CONTINUOUS
100
AcDbLine
 10
44.99999999995498
 20
1.530950334084031
 30
0.0
 11
38.60499999996136
 21
7.925950334077647
 31
0.0
  0
LINE
  5
10A4C
330
10A17
100
AcDbEntity
  8
0
  6
CONTINUOUS
100
AcDbLine
 10
44.99999999995498
 20
2.204469543164218
 30
0.0
 11
43.57899999995641
 21
3.625469543162789
 31
0.0
  0
LINE
  5
10A4D
330
10A17
100
AcDbEntity
  8
0
  6
CONTINUOUS
100
AcDbLine
 10
41.89876730984767
 20
5.305702233271528
 30
0.0
 11
38.60499999996136
 21
8.599469543157834
 31
0.0
  0
LINE
  5
10A4E
330
10A17
100
AcDbEntity
  8
0
  6
CONTINUOUS
100
AcDbLine
 10
44.99999999995498
 20
2.877988752244405
 30
0.0
 11
43.57899999995641
 21
4.298988752242975
 31
0.0
  0
LINE
  5
10A4F
330
10A17
100
AcDbEntity
  8
0
  6
CONTINUOUS
100
AcDbLine
 10
44.99999999995498
 20
3.551507961324591
 30
0.0
 11
43.57899999995641
 21
4.972507961323163
 31
0.0
  0
LINE
  5
10A50
330
10A17
100
AcDbEntity
  8
0
  6
CONTINUOUS
100
AcDbLine
 10
44.99999999995498
 20
4.225027170404777
 30
0.0
 11
43.57899999995641
 21
5.646027170403348
 31
0.0
  0
LINE
  5
10A51
330
10A17
100
AcDbEntity
  8
0
  6
CONTINUOUS
100
AcDbLine
 10
44.99999999995498
 20
4.898546379484964
 30
0.0
 11
43.57899999995641
 21
6.319546379483535
 31
0.0
  0
LINE
  5
10A52
330
10A17
100
AcDbEntity
  8
0
  6
CONTINUOUS
100
AcDbLine
 10
44.99999999995498
 20
5.572065588565151
 30
0.0
 11
43.57899999995641
 21
6.993065588563722
 31
0.0
  0
LINE
  5
10A53
330
10A17
100
AcDbEntity
  8
0
  6
CONTINUOUS
100
AcDbLine
 10
44.99999999995498
 20
6.245584797645336
 30
0.0
 11
43.57899999995641
 21
7.666584797643908
 31
0.0
  0
LINE
  5
10A54
330
10A17
100
AcDbEntity
  8
0
  6
CONTINUOUS
100
AcDbLine
 10
44.99999999995498
 20
6.919104006725522
 30
0.0
 11
43.57899999995641
 21
8.340104006724093
 31
0.0
  0
LINE
  5
10A55
330
10A17
100
AcDbEntity
  8
0
  6
CONTINUOUS
100
AcDbLine
 10
44.99999999995498
 20
7.592623215805709
 30
0.0
 11
43.82952321576943
 21
8.763099999991255
 31
0.0
  0
LINE
  5
10A56
330
10A17
100
AcDbEntity
  8
0
  6
CONTINUOUS
100
AcDbLine
 10
44.99999999995498
 20
8.266142424885896
 30
0.0
 11
44.50304242484962
 21
8.763099999991255
 31
0.0
  0
ENDBLK
  5
10A80
330
10A17
100
AcDbEntity
  8
0
100
AcDbBlockEnd
  0
BLOCK
  5
10A81
330
10A57
100
AcDbEntity
  8
0
100
AcDbBlockBegin
  2
*X103
 70
     1
 10
0.0
 20
0.0
 30
0.0
  3
*X103
  1

  0
LINE
  5
10A58
330
10A57
100
AcDbEntity
  8
0
  6
CONTINUOUS
100
AcDbLine
 10
0.0
 20
8.548461116714023
 30
0.0
 11
0.2146388832772324
 21
8.763099999991255
 31
0.0
  0
LINE
  5
10A59
330
10A57
100
AcDbEntity
  8
0
  6
CONTINUOUS
100
AcDbLine
 10
-0.0000000000000002
 20
7.874941907633837
 30
0.0
 11
0.8881580923574184
 21
8.763099999991255
 31
0.0
  0
LINE
  5
10A5A
330
10A57
100
AcDbEntity
  8
0
  6
CONTINUOUS
100
AcDbLine
 10
0.0
 20
7.20142269855365
 30
0.0
 11
1.420999999998572
 21
8.622422698552223
 31
0.0
  0
LINE
  5
10A5B
330
10A57
100
AcDbEntity
  8
0
  6
CONTINUOUS
100
AcDbLine
 10
-0.0000000000000001
 20
6.527903489473465
 30
0.0
 11
1.420999999998571
 21
7.948903489472036
 31
0.0
  0
LINE
  5
10A5C
330
10A57
100
AcDbEntity
  8
0
  6
CONTINUOUS
100
AcDbLine
 10
-0.0000000000000002
 20
5.854384280393278
 30
0.0
 11
1.420999999998571
 21
7.275384280391849
 31
0.0
  0
LINE
  5
10A5D
330
10A57
100
AcDbEntity
  8
0
  6
CONTINUOUS
100
AcDbLine
 10
-0.0000000000000002
 20
5.180865071313091
 30
0.0
 11
1.420999999998571
 21
6.601865071311663
 31
0.0
  0
LINE
  5
10A5E
330
10A57
100
AcDbEntity
  8
0
  6
CONTINUOUS
100
AcDbLine
 10
0.0
 20
4.507345862232905
 30
0.0
 11
1.420999999998571
 21
5.928345862231477
 31
0.0
  0
LINE
  5
10A5F
330
10A57
100
AcDbEntity
  8
0
  6
CONTINUOUS
100
AcDbLine
 10
-0.0000000000000003
 20
3.833826653152718
 30
0.0
 11
1.420999999998571
 21
5.25482665315129
 31
0.0
  0
LINE
  5
10A60
330
10A57
100
AcDbEntity
  8
0
  6
CONTINUOUS
100
AcDbLine
 10
-0.0000000000000002
 20
3.160307444072532
 30
0.0
 11
1.420999999998571
 21
4.581307444071103
 31
0.0
  0
LINE
  5
10A61
330
10A57
100
AcDbEntity
  8
0
  6
CONTINUOUS
100
AcDbLine
 10
-0.0000000000000001
 20
2.486788234992345
 30
0.0
 11
1.420999999998571
 21
3.907788234990917
 31
0.0
  0
LINE
  5
10A62
330
10A57
100
AcDbEntity
  8
0
  6
CONTINUOUS
100
AcDbLine
 10
-0.0000000000000006
 20
1.813269025912159
 30
0.0
 11
1.420999999998571
 21
3.234269025910731
 31
0.0
  0
LINE
  5
10A63
330
10A57
100
AcDbEntity
  8
0
  6
CONTINUOUS
100
AcDbLine
 10
0.0
 20
1.139749816831973
 30
0.0
 11
1.420999999998571
 21
2.560749816830544
 31
0.0
  0
LINE
  5
10A64
330
10A57
100
AcDbEntity
  8
0
  6
CONTINUOUS
100
AcDbLine
 10
0.0000000000000002
 20
0.466230607751787
 30
0.0
 11
1.420999999998571
 21
1.887230607750358
 31
0.0
  0
LINE
  5
10A65
330
10A57
100
AcDbEntity
  8
0
  6
CONTINUOUS
100
AcDbLine
 10
0.2072886013284003
 20
-0.0000000000000009
 30
0.0
 11
1.420999999998571
 21
1.213711398670171
 31
0.0
  0
LINE
  5
10A66
330
10A57
100
AcDbEntity
  8
0
  6
CONTINUOUS
100
AcDbLine
 10
0.8808078104085864
 20
-0.0000000000000009
 30
0.0
 11
1.420999999998571
 21
0.5401921895899839
 31
0.0
  0
LINE
  5
10A67
330
10A57
100
AcDbEntity
  8
0
  6
CONTINUOUS
100
AcDbLine
 10
0.0581249075061505
 20
-0.0000000000000009
 30
0.0
 11
-0.0000000000000002
 21
0.0581249075061496
 31
0.0
  0
LINE
  5
10A68
330
10A57
100
AcDbEntity
  8
0
  6
CONTINUOUS
100
AcDbLine
 10
0.7316441165863372
 20
-0.0000000000000009
 30
0.0
 11
-0.0000000000000002
 21
0.7316441165863363
 31
0.0
  0
LINE
  5
10A69
330
10A57
100
AcDbEntity
  8
0
  6
CONTINUOUS
100
AcDbLine
 10
1.405163325666523
 20
-0.0000000000000009
 30
0.0
 11
-0.0000000000000002
 21
1.405163325666523
 31
0.0
  0
LINE
  5
10A6A
330
10A57
100
AcDbEntity
  8
0
  6
CONTINUOUS
100
AcDbLine
 10
1.420999999998572
 20
0.6576825347481381
 30
0.0
 11
-0.0000000000000001
 21
2.07868253474671
 31
0.0
  0
LINE
  5
10A6B
330
10A57
100
AcDbEntity
  8
0
  6
CONTINUOUS
100
AcDbLine
 10
1.420999999998571
 20
1.331201743828324
 30
0.0
 11
-0.0000000000000001
 21
2.752201743826896
 31
0.0
  0
LINE
  5
10A6C
330
10A57
100
AcDbEntity
  8
0
  6
CONTINUOUS
100
AcDbLine
 10
1.420999999998571
 20
2.004720952908511
 30
0.0
 11
-0.0000000000000002
 21
3.425720952907082
 31
0.0
  0
LINE
  5
10A6D
330
10A57
100
AcDbEntity
  8
0
  6
CONTINUOUS
100
AcDbLine
 10
1.420999999998571
 20
2.678240161988697
 30
0.0
 11
-0.0000000000000001
 21
4.099240161987269
 31
0.0
  0
LINE
  5
10A6E
330
10A57
100
AcDbEntity
  8
0
  6
CONTINUOUS
100
AcDbLine
 10
1.420999999998572
 20
3.351759371068884
 30
0.0
 11
0.0
 21
4.772759371067455
 31
0.0
  0
LINE
  5
10A6F
330
10A57
100
AcDbEntity
  8
0
  6
CONTINUOUS
100
AcDbLine
 10
1.420999999998571
 20
4.02527858014907
 30
0.0
 11
-0.0000000000000003
 21
5.446278580147642
 31
0.0
  0
LINE
  5
10A70
330
10A57
100
AcDbEntity
  8
0
  6
CONTINUOUS
100
AcDbLine
 10
1.420999999998571
 20
4.698797789229257
 30
0.0
 11
0.0
 21
6.119797789227828
 31
0.0
  0
LINE
  5
10A71
330
10A57
100
AcDbEntity
  8
0
  6
CONTINUOUS
100
AcDbLine
 10
1.420999999998571
 20
5.372316998309444
 30
0.0
 11
-0.0000000000000001
 21
6.793316998308015
 31
0.0
  0
LINE
  5
10A72
330
10A57
100
AcDbEntity
  8
0
  6
CONTINUOUS
100
AcDbLine
 10
1.420999999998572
 20
6.045836207389629
 30
0.0
 11
-0.0000000000000004
 21
7.466836207388202
 31
0.0
  0
LINE
  5
10A73
330
10A57
100
AcDbEntity
  8
0
  6
CONTINUOUS
100
AcDbLine
 10
1.420999999998571
 20
6.719355416469816
 30
0.0
 11
0.0
 21
8.140355416468388
 31
0.0
  0
LINE
  5
10A74
330
10A57
100
AcDbEntity
  8
0
  6
CONTINUOUS
100
AcDbLine
 10
1.420999999998571
 20
7.392874625550003
 30
0.0
 11
0.0507746255573185
 21
8.763099999991255
 31
0.0
  0
LINE
  5
10A75
330
10A57
100
AcDbEntity
  8
0
  6
CONTINUOUS
100
AcDbLine
 10
1.420999999998571
 20
8.06639383463019
 30
0.0
 11
0.7242938346375052
 21
8.763099999991255
 31
0.0
  0
LINE
  5
10A76
330
10A57
100
AcDbEntity
  8
0
  6
CONTINUOUS
100
AcDbLine
 10
1.420999999998571
 20
8.739913043710375
 30
0.0
 11
1.397813043717691
 21
8.763099999991255
 31
0.0
  0
ENDBLK
  5
10A82
330
10A57
100
AcDbEntity
  8
0
100
AcDbBlockEnd
  0
ENDSEC
  0
SECTION
  2
ENTITIES
  0
TEXT
  5
10217
330
18
100
AcDbEntity
  8
1TEXT
100
AcDbText
 10
-133.8021192568852
 20
145.3874953868207
 30
0.0
 40
8.0
  1
PC-452-X
100
AcDbText
  0
TEXT
  5
10218
330
18
100
AcDbEntity
  8
1TEXT
100
AcDbText
 10
-124.4385415919583
 20
129.6718967735949
 30
0.0
 40
4.0
  1
表面処理
 72
     1
 11
-115.1718749252916
 21
129.6718967735949
 31
0.0
100
AcDbText
  0
TEXT
  5
10219
330
18
100
AcDbEntity
  8
1TEXT
100
AcDbText
 10
-124.6385415919583
 20
122.8366081140705
 30
0.0
 40
4.0
  1
クローム
 72
     1
 11
-115.1718749252916
 21
122.8366081140705
 31
0.0
100
AcDbText
  0
LINE
  5
1021A
330
18
100
AcDbEntity
  8
1DIM
100
AcDbLine
 10
-132.5718749252912
 20
135.1718967735949
 30
0.0
 11
-62.57187492529124
 21
135.1718967735949
 31
0.0
  0
LINE
  5
1021B
330
18
100
AcDbEntity
  8
1DIM
100
AcDbLine
 10
-132.5718749252912
 20
121.1718967735949
 30
0.0
 11
-62.57187492529124
 21
121.1718967735949
 31
0.0
  0
LINE
  5
1021C
330
18
100
AcDbEntity
  8
1DIM
100
AcDbLine
 10
-132.5718749252912
 20
128.1718967735949
 30
0.0
 11
-62.57187492529124
 21
128.1718967735949
 31
0.0
  0
LINE
  5
1021D
330
18
100
AcDbEntity
  8
1DIM
100
AcDbLine
 10
-132.5718749252912
 20
114.1718967735949
 30
0.0
 11
-62.57187492529124
 21
114.1718967735949
 31
0.0
  0
LINE
  5
1021E
330
18
100
AcDbEntity
  8
1DIM
100
AcDbLine
 10
-132.5718749252912
 20
114.1718967735949
 30
0.0
 11
-62.57187492529124
 21
114.1718967735949
 31
0.0
  0
LINE
  5
1021F
330
18
100
AcDbEntity
  8
1DIM
100
AcDbLine
 10
-97.57187492529124
 20
135.1718967735949
 30
0.0
 11
-97.57187492529124
 21
114.1718967735949
 31
0.0
  0
TEXT
  5
10220
330
18
100
AcDbEntity
  8
1TEXT
100
AcDbText
 10
-94.04965270306847
 20
122.4575397899455
 30
0.0
 40
4.0
  1
PC-452-XC
 41
0.8
 72
     1
 11
-80.1718749252907
 21
122.4575397899455
 31
0.0
100
AcDbText
  0
TEXT
  5
10221
330
18
100
AcDbEntity
  8
1TEXT
100
AcDbText
 10
-87.03854159195826
 20
129.6718967735949
 30
0.0
 40
4.0
  1
コード
 72
     1
 11
-80.1718749252916
 21
129.6718967735949
 31
0.0
100
AcDbText
  0
LINE
  5
10222
330
18
100
AcDbEntity
  8
1DIM
100
AcDbLine
 10
-132.5718749252912
 20
114.1718967735949
 30
0.0
 11
-132.5718749252912
 21
135.1718967735949
 31
0.0
  0
LINE
  5
10223
330
18
100
AcDbEntity
  8
1DIM
100
AcDbLine
 10
-62.57187492529124
 20
114.1718967735949
 30
0.0
 11
-62.57187492529124
 21
135.1718967735949
 31
0.0
  0
TEXT
  5
10224
330
18
100
AcDbEntity
  8
1TEXT
100
AcDbText
 10
-131.7052082586249
 20
115.8366081140705
 30
0.0
 40
4.0
  1
サテンニッケル
 72
     1
 11
-115.1718749252916
 21
115.8366081140705
 31
0.0
100
AcDbText
  0
TEXT
  5
10225
330
18
100
AcDbEntity
  8
1TEXT
100
AcDbText
 10
-94.04965270306847
 20
115.4575397899455
 30
0.0
 40
4.0
  1
PC-452-XN
 41
0.8
 72
     1
 11
-80.1718749252907
 21
115.4575397899455
 31
0.0
100
AcDbText
  0
LINE
  5
10226
330
18
100
AcDbEntity
  8
01
  6
CONTINUOUS
100
AcDbLine
 10
54.02855017195668
 20
87.56423299827152
 30
0.0
 11
54.02855017195668
 21
93.57288783111149
 31
0.0
  0
LINE
  5
10227
330
18
100
AcDbEntity
  8
01
  6
CONTINUOUS
100
AcDbLine
 10
54.52855019570541
 20
-45.92711920223659
 30
0.0
 11
55.02855021945413
 21
-45.92711920223659
 31
0.0
  0
ARC
  5
10228
330
18
100
AcDbEntity
  8
01
  6
CONTINUOUS
100
AcDbCircle
 10
54.52855017195668
 20
-45.42711920223659
 30
0.0
 40
0.5
100
AcDbArc
 50
180.0
 51
270.0
  0
LINE
  5
10229
330
18
100
AcDbEntity
  8
01
  6
CONTINUOUS
100
AcDbLine
 10
54.52855019570541
 20
94.07288139380985
 30
0.0
 11
55.02855021945413
 21
94.07288139380985
 31
0.0
  0
ARC
  5
1022A
330
18
100
AcDbEntity
  8
01
  6
CONTINUOUS
100
AcDbCircle
 10
54.52855017195668
 20
93.5728807977634
 30
0.0
 40
0.5
100
AcDbArc
 50
90.0
 51
180.0
  0
LINE
  5
1022B
330
18
100
AcDbEntity
  8
01
  6
CONTINUOUS
100
AcDbLine
 10
55.02855021945413
 20
94.07288139380985
 30
0.0
 11
87.52855100642171
 21
94.07288139380985
 31
0.0
  0
ARC
  5
1022C
330
18
100
AcDbEntity
  8
01
  6
CONTINUOUS
100
AcDbCircle
 10
87.52855017195668
 20
93.5728807977634
 30
0.0
 40
0.5
100
AcDbArc
 50
0.0
 51
90.0
  0
LINE
  5
1022D
330
18
100
AcDbEntity
  8
01
  6
CONTINUOUS
100
AcDbLine
 10
54.02855017195668
 20
-39.41846801273054
 30
0.0
 11
54.02855017195668
 21
-45.42711917848786
 31
0.0
  0
ARC
  5
1022E
330
18
100
AcDbEntity
  8
01
  6
CONTINUOUS
100
AcDbCircle
 10
72.02855017195668
 20
-29.61155708113396
 30
0.0
 40
9.0
100
AcDbArc
 50
271.0000000000105
 51
0.0
  0
LINE
  5
1022F
330
18
100
AcDbEntity
  8
01
  6
CONTINUOUS
100
AcDbLine
 10
55.02855021945413
 20
-45.92711920223659
 30
0.0
 11
87.52855100642171
 21
-45.92711920223659
 31
0.0
  0
ARC
  5
10230
330
18
100
AcDbEntity
  8
01
  6
CONTINUOUS
100
AcDbCircle
 10
87.52855017195668
 20
-45.42711920223659
 30
0.0
 40
0.5
100
AcDbArc
 50
270.0
 51
0.0
  0
ARC
  5
10231
330
18
100
AcDbEntity
  8
01
  6
CONTINUOUS
100
AcDbCircle
 10
72.02855017195668
 20
77.75731867666032
 30
0.0
 40
9.000000000000004
100
AcDbArc
 50
0.0
 51
88.99999999998954
  0
LINE
  5
10232
330
18
100
AcDbEntity
  8
01
  6
CONTINUOUS
100
AcDbLine
 10
81.02855087231126
 20
-29.61155655167526
 30
0.0
 11
81.02855087231126
 21
77.75731688060337
 31
0.0
  0
LINE
  5
10233
330
18
100
AcDbEntity
  8
01
  6
CONTINUOUS
100
AcDbLine
 10
72.18562253724065
 20
-38.61018618873781
 30
0.0
 11
55.01982395976063
 21
-38.90981640971726
 31
0.0
  0
ARC
  5
10235
330
18
100
AcDbEntity
  8
01
  6
CONTINUOUS
100
AcDbCircle
 10
54.52855017195668
 20
-39.41846783379473
 30
0.0
 40
0.5
100
AcDbArc
 50
90.99999999987148
 51
180.0
  0
ARC
  5
10237
330
18
100
AcDbEntity
  8
01
  6
CONTINUOUS
100
AcDbCircle
 10
54.52855017195668
 20
87.56422942932109
 30
0.0
 40
0.5
100
AcDbArc
 50
180.0
 51
269.0000000001285
  0
LINE
  5
10238
330
18
100
AcDbEntity
  8
01
  6
CONTINUOUS
100
AcDbLine
 10
72.18562253724065
 20
86.75594931163364
 30
0.0
 11
55.01982395976063
 21
87.05558186091953
 31
0.0
  0
LINE
  5
10239
330
18
100
AcDbEntity
  8
01
  6
CONTINUOUS
100
AcDbLine
 10
88.02855201970067
 20
93.57288783111149
 30
0.0
 11
88.02855201970067
 21
-45.42711917848786
 31
0.0
  0
ARC
  5
1023A
330
18
100
AcDbEntity
  8
01
  6
CONTINUOUS
100
AcDbCircle
 10
6.845007477746151
 20
-39.27205730865266
 30
0.0
 40
0.4999600860216746
100
AcDbArc
 50
89.99552302014853
 51
179.9958852239193
  0
LINE
  5
1023B
330
18
100
AcDbEntity
  8
01
  6
CONTINUOUS
100
AcDbLine
 10
-24.40495345635321
 20
-45.2806725690812
 30
0.0
 11
-24.40495345635321
 21
-39.26329351381586
 31
0.0
  0
LINE
  5
1023C
330
18
100
AcDbEntity
  8
01
  6
CONTINUOUS
100
AcDbLine
 10
-23.40495340885576
 20
-45.78067259282992
 30
0.0
 11
-23.90495343260449
 21
-45.78067259282992
 31
0.0
  0
ARC
  5
1023D
330
18
100
AcDbEntity
  8
01
  6
CONTINUOUS
100
AcDbCircle
 10
-23.90495345635321
 20
-45.28067259282992
 30
0.0
 40
0.5
100
AcDbArc
 50
180.0
 51
270.0
  0
ELLIPSE
  5
1023E
330
18
100
AcDbEntity
  8
01
  6
CONTINUOUS
100
AcDbEllipse
 10
13.59504654364673
 20
-38.7633698443456
 30
0.0
 11
0.5000000000001137
 21
0.0
 31
0.0
210
0.0
220
0.0
230
1.0
 40
0.0174550649281815
 41
4.71238898038469
 42
6.283185307179586
  0
ARC
  5
1023F
330
18
100
AcDbEntity
  8
01
  6
CONTINUOUS
100
AcDbCircle
 10
14.09508296561353
 20
-39.26333418331891
 30
0.0
 40
0.4999643843501002
100
AcDbArc
 50
0.0046607137532253
 51
90.0041978546426
  0
LINE
  5
10240
330
18
100
AcDbEntity
  8
01
  6
CONTINUOUS
100
AcDbLine
 10
-16.1549535010567
 20
-39.27202140332387
 30
0.0
 11
-16.1549535010567
 21
-39.76312456072495
 31
0.0
  0
LINE
  5
10241
330
18
100
AcDbEntity
  8
01
  6
CONTINUOUS
100
AcDbLine
 10
13.59504532175151
 20
-38.77209722415731
 30
0.0
 11
6.845046543646788
 21
-38.77209722415731
 31
0.0
  0
LINE
  5
10242
330
18
100
AcDbEntity
  8
01
  6
CONTINUOUS
100
AcDbLine
 10
14.59504734830944
 20
-45.2806725690812
 30
0.0
 11
14.59504734830944
 21
-39.26329351381586
 31
0.0
  0
ARC
  5
10243
330
18
100
AcDbEntity
  8
01
  6
CONTINUOUS
100
AcDbCircle
 10
-16.65491596863507
 20
-39.27205969178844
 30
0.0
 40
0.4999624690459084
100
AcDbArc
 50
0.0043878642130848
 51
90.0043106137856
  0
ARC
  5
10244
330
18
100
AcDbEntity
  8
01
  6
CONTINUOUS
100
AcDbCircle
 10
14.09504654364673
 20
-45.28067259282992
 30
0.0
 40
0.5
100
AcDbArc
 50
270.0
 51
0.0
  0
LINE
  5
10245
330
18
100
AcDbEntity
  8
01
  6
CONTINUOUS
100
AcDbLine
 10
13.59504532175151
 20
-45.78067259282992
 30
0.0
 11
14.09504633503047
 21
-45.78067259282992
 31
0.0
  0
LINE
  5
10246
330
18
100
AcDbEntity
  8
01
  6
CONTINUOUS
100
AcDbLine
 10
6.345047393012976
 20
-39.27202140332387
 30
0.0
 11
6.345047393012976
 21
-39.76312456072495
 31
0.0
  0
ARC
  5
10247
330
18
100
AcDbEntity
  8
01
  6
CONTINUOUS
100
AcDbCircle
 10
-23.90499154612775
 20
-39.26333171054288
 30
0.0
 40
0.499961911684697
100
AcDbArc
 50
89.99563217921954
 51
179.9956226440447
  0
ELLIPSE
  5
10248
330
18
100
AcDbEntity
  8
01
  6
CONTINUOUS
100
AcDbEllipse
 10
-23.40495345635321
 20
-38.7633698443456
 30
0.0
 11
0.4999999999999432
 21
0.0
 31
0.0
210
0.0
220
0.0
230
1.0
 40
0.0174550649280738
 41
3.141592653589786
 42
4.71238898038469
  0
ELLIPSE
  5
10249
330
18
100
AcDbEntity
  8
01
  6
CONTINUOUS
100
AcDbEllipse
 10
-15.65495345635321
 20
-39.76312470791166
 30
0.0
 11
0.0
 21
0.5009141307892833
 31
0.0
210
0.0
220
0.0
230
1.0
 40
0.9981750748619471
 41
1.570796326794897
 42
3.141592653589793
  0
LINE
  5
1024A
330
18
100
AcDbEntity
  8
01
  6
CONTINUOUS
100
AcDbLine
 10
-23.40495340885576
 20
-45.78067259282992
 30
0.0
 11
13.59504532175151
 21
-45.78067259282992
 31
0.0
  0
ELLIPSE
  5
1024B
330
18
100
AcDbEntity
  8
01
  6
CONTINUOUS
100
AcDbEllipse
 10
5.845046543646788
 20
-39.76312470791166
 30
0.0
 11
0.0
 21
0.5009141307892833
 31
0.0
210
0.0
220
0.0
230
1.0
 40
0.9981750748617202
 41
3.141592653589793
 42
4.712388980384704
  0
LINE
  5
1024C
330
18
100
AcDbEntity
  8
01
  6
CONTINUOUS
100
AcDbLine
 10
5.845046379734015
 20
-40.26403873578833
 30
0.0
 11
-15.65495341910031
 21
-40.26403873578833
 31
0.0
  0
LINE
  5
1024D
330
18
100
AcDbEntity
  8
01
  6
CONTINUOUS
100
AcDbLine
 10
-23.40495340885576
 20
-38.77209722415731
 30
0.0
 11
-16.65495358301308
 21
-38.77209722415731
 31
0.0
  0
LINE
  5
1024E
330
18
100
AcDbEntity
  8
01
  6
CONTINUOUS
100
AcDbLine
 10
-24.40495345635321
 20
-39.26329351381586
 30
0.0
 11
-24.40495345635321
 21
-38.9636637584977
 31
0.0
  0
LINE
  5
1024F
330
18
100
AcDbEntity
  8
01
  6
CONTINUOUS
100
AcDbLine
 10
14.59504734830944
 20
-39.26329351381586
 30
0.0
 11
14.59504734830944
 21
-38.9636637584977
 31
0.0
  0
LINE
  5
10250
330
18
100
AcDbEntity
  8
1DIM
100
AcDbLine
 10
-23.90495343260449
 20
-29.46510994226859
 30
0.0
 11
-15.90495387252025
 21
-29.46510994226859
 31
0.0
  0
LINE
  5
10251
330
18
100
AcDbEntity
  8
1DIM
100
AcDbLine
 10
14.09504633503047
 20
-29.46510994226859
 30
0.0
 11
6.095046127479748
 21
-29.46510994226859
 31
0.0
  0
LINE
  5
10252
330
18
100
AcDbEntity
  8
1DIM
100
AcDbLine
 10
14.59504734830944
 20
-29.46510994226859
 30
0.0
 11
14.09504633503047
 21
-29.46510994226859
 31
0.0
  0
LINE
  5
10253
330
18
100
AcDbEntity
  8
01
  6
CONTINUOUS
100
AcDbLine
 10
14.59504734830944
 20
-38.9636637584977
 30
0.0
 11
14.59504734830944
 21
-29.46510994226859
 31
0.0
  0
LINE
  5
10254
330
18
100
AcDbEntity
  8
1DIM
100
AcDbLine
 10
-24.40495345635321
 20
-29.46510994226859
 30
0.0
 11
-23.90495343260449
 21
-29.46510994226859
 31
0.0
  0
LINE
  5
10255
330
18
100
AcDbEntity
  8
01
  6
CONTINUOUS
100
AcDbLine
 10
-24.40495345635321
 20
-38.9636637584977
 30
0.0
 11
-24.40495345635321
 21
-29.46510994226859
 31
0.0
  0
LINE
  5
10256
330
18
100
AcDbEntity
  8
01
  6
CONTINUOUS
100
AcDbLine
 10
14.59504734830944
 20
24.21932677387072
 30
0.0
 11
14.59504734830944
 21
-29.46510994226859
 31
0.0
  0
LINE
  5
10257
330
18
100
AcDbEntity
  8
01
  6
CONTINUOUS
100
AcDbLine
 10
-24.40495345635321
 20
24.21932677387072
 30
0.0
 11
-24.40495345635321
 21
-29.46510994226859
 31
0.0
  0
ARC
  5
10258
330
18
100
AcDbEntity
  8
01
  6
CONTINUOUS
100
AcDbCircle
 10
6.845007477746151
 20
87.7107108563941
 30
0.0
 40
0.4999600860216746
100
AcDbArc
 50
180.0041147760807
 51
270.0044769798515
  0
LINE
  5
10259
330
18
100
AcDbEntity
  8
01
  6
CONTINUOUS
100
AcDbLine
 10
-24.40495345635321
 20
93.71932611682264
 30
0.0
 11
-24.40495345635321
 21
87.7019470615573
 31
0.0
  0
LINE
  5
1025A
330
18
100
AcDbEntity
  8
01
  6
CONTINUOUS
100
AcDbLine
 10
-23.40495340885576
 20
94.21932614057137
 30
0.0
 11
-23.90495343260449
 21
94.21932614057137
 31
0.0
  0
ARC
  5
1025B
330
18
100
AcDbEntity
  8
01
  6
CONTINUOUS
100
AcDbCircle
 10
-23.90495345635321
 20
93.71932614057137
 30
0.0
 40
0.5
100
AcDbArc
 50
90.0
 51
180.0
  0
ELLIPSE
  5
1025C
330
18
100
AcDbEntity
  8
01
  6
CONTINUOUS
100
AcDbEllipse
 10
13.59504654364673
 20
87.20202339208704
 30
0.0
 11
0.5000000000001137
 21
0.0
 31
0.0
210
0.0
220
0.0
230
-1.0
 40
0.0174550649281815
 41
4.71238898038469
 42
6.283185307179586
  0
ARC
  5
1025D
330
18
100
AcDbEntity
  8
01
  6
CONTINUOUS
100
AcDbCircle
 10
14.09508296561353
 20
87.70198773106036
 30
0.0
 40
0.4999643843501002
100
AcDbArc
 50
269.9958021453574
 51
359.9953392862468
  0
LINE
  5
1025E
330
18
100
AcDbEntity
  8
01
  6
CONTINUOUS
100
AcDbLine
 10
-16.1549535010567
 20
87.71067495106531
 30
0.0
 11
-16.1549535010567
 21
88.2017781084664
 31
0.0
  0
LINE
  5
1025F
330
18
100
AcDbEntity
  8
01
  6
CONTINUOUS
100
AcDbLine
 10
13.59504532175151
 20
87.21075077189876
 30
0.0
 11
6.845046543646788
 21
87.21075077189876
 31
0.0
  0
LINE
  5
10260
330
18
100
AcDbEntity
  8
01
  6
CONTINUOUS
100
AcDbLine
 10
14.59504734830944
 20
93.71932611682264
 30
0.0
 11
14.59504734830944
 21
87.7019470615573
 31
0.0
  0
ARC
  5
10261
330
18
100
AcDbEntity
  8
01
  6
CONTINUOUS
100
AcDbCircle
 10
-16.65491596863507
 20
87.71071323952988
 30
0.0
 40
0.4999624690459084
100
AcDbArc
 50
269.9956893862145
 51
359.9956121357869
  0
ARC
  5
10262
330
18
100
AcDbEntity
  8
01
  6
CONTINUOUS
100
AcDbCircle
 10
14.09504654364673
 20
93.71932614057137
 30
0.0
 40
0.5
100
AcDbArc
 50
0.0
 51
90.0
  0
LINE
  5
10263
330
18
100
AcDbEntity
  8
01
  6
CONTINUOUS
100
AcDbLine
 10
13.59504532175151
 20
94.21932614057137
 30
0.0
 11
14.09504633503047
 21
94.21932614057137
 31
0.0
  0
LINE
  5
10264
330
18
100
AcDbEntity
  8
01
  6
CONTINUOUS
100
AcDbLine
 10
6.345047393012976
 20
87.71067495106531
 30
0.0
 11
6.345047393012976
 21
88.2017781084664
 31
0.0
  0
ARC
  5
10265
330
18
100
AcDbEntity
  8
01
  6
CONTINUOUS
100
AcDbCircle
 10
-23.90499154612775
 20
87.70198525828432
 30
0.0
 40
0.499961911684697
100
AcDbArc
 50
180.0043773559552
 51
270.0043678207805
  0
ELLIPSE
  5
10266
330
18
100
AcDbEntity
  8
01
  6
CONTINUOUS
100
AcDbEllipse
 10
-23.40495345635321
 20
87.20202339208704
 30
0.0
 11
0.4999999999999432
 21
0.0
 31
0.0
210
0.0
220
0.0
230
-1.0
 40
0.0174550649280738
 41
3.141592653589786
 42
4.71238898038469
  0
ELLIPSE
  5
10267
330
18
100
AcDbEntity
  8
01
  6
CONTINUOUS
100
AcDbEllipse
 10
-15.65495345635321
 20
88.20177825565311
 30
0.0
 11
0.0
 21
-0.5009141307892833
 31
0.0
210
0.0
220
0.0
230
-1.0
 40
0.9981750748619471
 41
1.570796326794897
 42
3.141592653589793
  0
LINE
  5
10268
330
18
100
AcDbEntity
  8
01
  6
CONTINUOUS
100
AcDbLine
 10
-23.40495340885576
 20
94.21932614057137
 30
0.0
 11
13.59504532175151
 21
94.21932614057137
 31
0.0
  0
ELLIPSE
  5
10269
330
18
100
AcDbEntity
  8
01
  6
CONTINUOUS
100
AcDbEllipse
 10
5.845046543646788
 20
88.20177825565311
 30
0.0
 11
0.0
 21
-0.5009141307892833
 31
0.0
210
0.0
220
0.0
230
-1.0
 40
0.9981750748617202
 41
3.141592653589793
 42
4.712388980384704
  0
LINE
  5
1026A
330
18
100
AcDbEntity
  8
01
  6
CONTINUOUS
100
AcDbLine
 10
5.845046379734015
 20
88.70269228352977
 30
0.0
 11
-15.65495341910031
 21
88.70269228352977
 31
0.0
  0
LINE
  5
1026B
330
18
100
AcDbEntity
  8
01
  6
CONTINUOUS
100
AcDbLine
 10
-23.40495340885576
 20
87.21075077189876
 30
0.0
 11
-16.65495358301308
 21
87.21075077189876
 31
0.0
  0
LINE
  5
1026C
330
18
100
AcDbEntity
  8
01
  6
CONTINUOUS
100
AcDbLine
 10
-24.40495345635321
 20
87.7019470615573
 30
0.0
 11
-24.40495345635321
 21
87.40231730623914
 31
0.0
  0
LINE
  5
1026D
330
18
100
AcDbEntity
  8
01
  6
CONTINUOUS
100
AcDbLine
 10
14.59504734830944
 20
87.7019470615573
 30
0.0
 11
14.59504734830944
 21
87.40231730623914
 31
0.0
  0
LINE
  5
1026E
330
18
100
AcDbEntity
  8
1DIM
100
AcDbLine
 10
-23.90495343260449
 20
77.90376349001004
 30
0.0
 11
-15.90495387252025
 21
77.90376349001004
 31
0.0
  0
LINE
  5
1026F
330
18
100
AcDbEntity
  8
1DIM
100
AcDbLine
 10
14.09504633503047
 20
77.90376349001004
 30
0.0
 11
6.095046127479748
 21
77.90376349001004
 31
0.0
  0
LINE
  5
10270
330
18
100
AcDbEntity
  8
1DIM
100
AcDbLine
 10
14.59504734830944
 20
77.90376349001004
 30
0.0
 11
14.09504633503047
 21
77.90376349001004
 31
0.0
  0
LINE
  5
10271
330
18
100
AcDbEntity
  8
01
  6
CONTINUOUS
100
AcDbLine
 10
14.59504734830944
 20
87.40231730623914
 30
0.0
 11
14.59504734830944
 21
77.90376349001004
 31
0.0
  0
LINE
  5
10272
330
18
100
AcDbEntity
  8
1DIM
100
AcDbLine
 10
-24.40495345635321
 20
77.90376349001004
 30
0.0
 11
-23.90495343260449
 21
77.90376349001004
 31
0.0
  0
LINE
  5
10273
330
18
100
AcDbEntity
  8
01
  6
CONTINUOUS
100
AcDbLine
 10
-24.40495345635321
 20
87.40231730623914
 30
0.0
 11
-24.40495345635321
 21
77.90376349001004
 31
0.0
  0
LINE
  5
10274
330
18
100
AcDbEntity
  8
01
  6
CONTINUOUS
100
AcDbLine
 10
14.59504734830944
 20
24.21932677387072
 30
0.0
 11
14.59504734830944
 21
77.90376349001004
 31
0.0
  0
LINE
  5
10275
330
18
100
AcDbEntity
  8
01
  6
CONTINUOUS
100
AcDbLine
 10
-24.40495345635321
 20
24.21932677387072
 30
0.0
 11
-24.40495345635321
 21
77.90376349001004
 31
0.0
  0
LINE
  5
10276
330
18
100
AcDbEntity
  8
01
  6
CONTINUOUS
100
AcDbLine
 10
5.595046127479748
 20
88.40156161697537
 30
0.0
 11
1.08806622813978
 21
88.40156161697537
 31
0.0
  0
ARC
  5
10277
330
18
100
AcDbEntity
  8
01
  6
CONTINUOUS
100
AcDbCircle
 10
5.595046127479748
 20
-39.46290806923393
 30
0.0
 40
0.5
100
AcDbArc
 50
270.0
 51
0.0
  0
ARC
  5
10278
330
18
100
AcDbEntity
  8
01
  6
CONTINUOUS
100
AcDbCircle
 10
5.595046127479748
 20
87.90156161697537
 30
0.0
 40
0.5
100
AcDbArc
 50
0.0
 51
90.0
  0
LINE
  5
10279
330
18
100
AcDbEntity
  8
01
  6
CONTINUOUS
100
AcDbLine
 10
1.095046127479748
 20
-39.96290806923393
 30
0.0
 11
5.595046127479748
 21
-39.96290806923393
 31
0.0
  0
SPLINE
  5
1027A
330
18
100
AcDbEntity
  8
01
  6
CONTINUOUS
100
AcDbSpline
210
0.0
220
0.0
230
1.0
 70
     8
 71
     3
 72
     9
 73
     5
 74
     0
 42
0.00000001
 43
0.00000001
 40
0.0
 40
0.0
 40
0.0
 40
0.0
 40
0.5496945041909773
 40
1.0
 40
1.0
 40
1.0
 40
1.0
 10
0.8718855343996097
 20
88.34068549917693
 30
0.0
 10
0.8202150887601078
 20
88.33888885559936
 30
0.0
 10
0.7262166127966907
 20
88.33562041546743
 30
0.0
 10
0.5979239005419572
 20
88.33406145323484
 30
0.0
 10
0.5401529871406296
 20
88.33335944397386
 30
0.0
  0
LINE
  5
1027B
330
18
100
AcDbEntity
  8
01
  6
CONTINUOUS
100
AcDbLine
 10
-2.404953519683204
 20
88.33172007799199
 30
0.0
 11
-4.904953872519343
 21
88.33172007799199
 31
0.0
  0
LINE
  5
1027C
330
18
100
AcDbEntity
  8
01
  6
CONTINUOUS
100
AcDbLine
 10
0.5950461274797476
 20
-39.46290806923393
 30
0.0
 11
0.5950461274797476
 21
87.90156161697537
 31
0.0
  0
LINE
  5
1027D
330
18
100
AcDbEntity
  8
01
  6
CONTINUOUS
100
AcDbLine
 10
6.095046127479748
 20
87.90156161697537
 30
0.0
 11
6.095046127479748
 21
-39.46290806923393
 31
0.0
  0
LINE
  5
1027E
330
18
100
AcDbEntity
  8
01
  6
CONTINUOUS
100
AcDbLine
 10
5.595046127479748
 20
88.40125703048484
 30
0.0
 11
5.595046127479748
 21
88.40156161697537
 31
0.0
  0
LINE
  5
1027F
330
18
100
AcDbEntity
  8
01
  6
CONTINUOUS
100
AcDbLine
 10
5.595046127479748
 20
-39.96260348274362
 30
0.0
 11
5.595046127479748
 21
-39.96290806923393
 31
0.0
  0
LINE
  5
10280
330
18
100
AcDbEntity
  8
01
  6
CONTINUOUS
100
AcDbLine
 10
0.5950461274797476
 20
-39.46290806923393
 30
0.0
 11
0.5950461274797476
 21
-39.46988796857458
 31
0.0
  0
LINE
  5
10281
330
18
100
AcDbEntity
  8
01
  6
CONTINUOUS
100
AcDbLine
 10
0.5950461274797476
 20
87.90156161697537
 30
0.0
 11
0.5950461274797476
 21
87.9085415163158
 31
0.0
  0
ELLIPSE
  5
10282
330
18
100
AcDbEntity
  8
01
  6
CONTINUOUS
100
AcDbEllipse
 10
1.095046127479748
 20
87.90156161697537
 30
0.0
 11
0.3623827962688893
 21
-0.3493466955239058
 31
0.0
210
0.0
220
0.0
230
1.0
 40
0.9861199999483985
 41
2.330898536441003
 42
3.901694863235825
  0
ELLIPSE
  5
10283
330
18
100
AcDbEntity
  8
01
  6
CONTINUOUS
100
AcDbEllipse
 10
0.2950461274804752
 20
88.35935210709495
 30
0.0
 11
0.8000000000000682
 21
0.0
 31
0.0
210
0.0
220
0.0
230
1.0
 40
0.0349207694917523
 41
4.71238898038469
 42
5.033217738847508
  0
ELLIPSE
  5
10284
330
18
100
AcDbEntity
  8
01
  6
CONTINUOUS
100
AcDbEllipse
 10
0.2950461274804752
 20
-39.9206985593535
 30
0.0
 11
0.8000000000000682
 21
0.0
 31
0.0
210
0.0
220
0.0
230
1.0
 40
0.0349207694917345
 41
0.7535506172871658
 42
1.570796326794897
  0
LINE
  5
10285
330
18
100
AcDbEntity
  8
01
  6
CONTINUOUS
100
AcDbLine
 10
-15.40495387252025
 20
88.40156161697537
 30
0.0
 11
-10.89797397318029
 21
88.40156161697537
 31
0.0
  0
ARC
  5
10286
330
18
100
AcDbEntity
  8
01
  6
CONTINUOUS
100
AcDbCircle
 10
-15.40495387252025
 20
-39.46290806923393
 30
0.0
 40
0.4999999999999998
100
AcDbArc
 50
180.0
 51
270.0
  0
ARC
  5
10287
330
18
100
AcDbEntity
  8
01
  6
CONTINUOUS
100
AcDbCircle
 10
-15.40495387252025
 20
87.90156161697537
 30
0.0
 40
0.4999999999999998
100
AcDbArc
 50
90.0
 51
180.0
  0
LINE
  5
10288
330
18
100
AcDbEntity
  8
01
  6
CONTINUOUS
100
AcDbLine
 10
-10.90495387252025
 20
-39.96290806923393
 30
0.0
 11
-15.40495387252025
 21
-39.96290806923393
 31
0.0
  0
SPLINE
  5
10289
330
18
100
AcDbEntity
  8
01
  6
CONTINUOUS
100
AcDbSpline
210
0.0
220
0.0
230
1.0
 70
     8
 71
     3
 72
     9
 73
     5
 74
     0
 42
0.00000001
 43
0.00000001
 40
0.0
 40
0.0
 40
0.0
 40
0.0
 40
0.5496945041909773
 40
1.0
 40
1.0
 40
1.0
 40
1.0
 10
-10.68179327944011
 20
88.34068549917693
 30
0.0
 10
-10.63012283380061
 20
88.33888885559936
 30
0.0
 10
-10.5361243578372
 20
88.33562041546743
 30
0.0
 10
-10.40783164558246
 20
88.33406145323484
 30
0.0
 10
-10.35006073218113
 20
88.33335944397386
 30
0.0
  0
LINE
  5
1028A
330
18
100
AcDbEntity
  8
01
  6
CONTINUOUS
100
AcDbLine
 10
-10.10495387252098
 20
88.33172007799199
 30
0.0
 11
-10.10495351968302
 21
88.33172007799199
 31
0.0
  0
LINE
  5
1028B
330
18
100
AcDbEntity
  8
01
  6
CONTINUOUS
100
AcDbLine
 10
-10.40495387252025
 20
-39.46290806923393
 30
0.0
 11
-10.40495387252025
 21
87.90156161697537
 31
0.0
  0
LINE
  5
1028C
330
18
100
AcDbEntity
  8
01
  6
CONTINUOUS
100
AcDbLine
 10
-15.90495387252025
 20
87.90156161697537
 30
0.0
 11
-15.90495387252025
 21
-39.46290806923393
 31
0.0
  0
LINE
  5
1028D
330
18
100
AcDbEntity
  8
01
  6
CONTINUOUS
100
AcDbLine
 10
-15.40495387252025
 20
88.40125703048484
 30
0.0
 11
-15.40495387252025
 21
88.40156161697537
 31
0.0
  0
LINE
  5
1028E
330
18
100
AcDbEntity
  8
01
  6
CONTINUOUS
100
AcDbLine
 10
-15.40495387252025
 20
-39.96260348274362
 30
0.0
 11
-15.40495387252025
 21
-39.96290806923393
 31
0.0
  0
LINE
  5
1028F
330
18
100
AcDbEntity
  8
01
  6
CONTINUOUS
100
AcDbLine
 10
-10.40495387252025
 20
-39.46290806923393
 30
0.0
 11
-10.40495387252025
 21
-39.46988796857458
 31
0.0
  0
LINE
  5
10290
330
18
100
AcDbEntity
  8
01
  6
CONTINUOUS
100
AcDbLine
 10
-10.40495387252025
 20
87.90156161697537
 30
0.0
 11
-10.40495387252025
 21
87.9085415163158
 31
0.0
  0
ELLIPSE
  5
10291
330
18
100
AcDbEntity
  8
01
  6
CONTINUOUS
100
AcDbEllipse
 10
-10.90495387252025
 20
87.90156161697537
 30
0.0
 11
-0.3623827962688893
 21
-0.3493466955239059
 31
0.0
210
0.0
220
0.0
230
-1.0
 40
0.9861199999483985
 41
2.330898536441003
 42
3.901694863235825
  0
ELLIPSE
  5
10292
330
18
100
AcDbEntity
  8
01
  6
CONTINUOUS
100
AcDbEllipse
 10
-10.10495387252098
 20
88.35935210709495
 30
0.0
 11
-0.8000000000000678
 21
0.0
 31
0.0
210
0.0
220
0.0
230
-1.0
 40
0.0349207694917523
 41
4.71238898038469
 42
5.033217738847508
  0
ELLIPSE
  5
10293
330
18
100
AcDbEntity
  8
01
  6
CONTINUOUS
100
AcDbEllipse
 10
-10.10495387252098
 20
-39.9206985593535
 30
0.0
 11
-0.8000000000000678
 21
0.0
 31
0.0
210
0.0
220
0.0
230
-1.0
 40
0.0349207694917345
 41
0.7535506172871658
 42
1.570796326794897
  0
ARC
  5
10294
330
18
100
AcDbEntity
  8
01
  6
CONTINUOUS
100
AcDbCircle
 10
-10.90495387252025
 20
-39.46290806923393
 30
0.0
 40
0.5
100
AcDbArc
 50
270.0
 51
0.0
  0
ARC
  5
10295
330
18
100
AcDbEntity
  8
01
  6
CONTINUOUS
100
AcDbCircle
 10
1.095046127479748
 20
-39.46290806923393
 30
0.0
 40
0.5
100
AcDbArc
 50
180.0
 51
270.0
  0
LINE
  5
10296
330
18
100
AcDbEntity
  8
01
  6
CONTINUOUS
100
AcDbLine
 10
54.77855017195668
 20
2.380870644553127
 30
0.0
 11
54.77855017195668
 21
87.05978906041737
 31
0.0
  0
LINE
  5
10297
330
18
100
AcDbEntity
  8
01
  6
CONTINUOUS
100
AcDbLine
 10
54.77855017195668
 20
-38.91402789266912
 30
0.0
 11
54.77855017195668
 21
87.05978906041737
 31
0.0
  0
LINE
  5
10298
330
18
100
AcDbEntity
  8
01
  6
CONTINUOUS
100
AcDbLine
 10
61.27855017195668
 20
86.94633450596662
 30
0.0
 11
61.27855017195668
 21
-38.80056990367533
 31
0.0
  0
ARC
  5
10299
330
18
100
AcDbEntity
  8
01
  6
CONTINUOUS
100
AcDbCircle
 10
55.82855017195777
 20
117.829921476784
 30
0.0
 40
0.3000000000000682
100
AcDbArc
 50
180.0
 51
270.0
  0
LINE
  5
1029A
330
18
100
AcDbEntity
  8
01
  6
CONTINUOUS
100
AcDbLine
 10
87.52855100642171
 20
117.5299214898228
 30
0.0
 11
87.72855066667523
 21
117.5299214898228
 31
0.0
  0
ARC
  5
1029B
330
18
100
AcDbEntity
  8
01
  6
CONTINUOUS
100
AcDbCircle
 10
87.72855017195741
 20
117.2299214767841
 30
0.0
 40
0.3000000000000114
100
AcDbArc
 50
0.0
 51
90.0
  0
LINE
  5
1029C
330
18
100
AcDbEntity
  8
01
  6
CONTINUOUS
100
AcDbLine
 10
55.82855014103677
 20
117.5299214898228
 30
0.0
 11
87.52855100642171
 21
117.5299214898228
 31
0.0
  0
ARC
  5
1029D
330
18
100
AcDbEntity
  8
01
  6
CONTINUOUS
100
AcDbCircle
 10
55.02855017195668
 20
117.0299214767843
 30
0.0
 40
1.0
100
AcDbArc
 50
180.0
 51
270.0
  0
LINE
  5
1029E
330
18
100
AcDbEntity
  8
01
  6
CONTINUOUS
100
AcDbLine
 10
87.52855100642171
 20
116.0299214767843
 30
0.0
 11
55.02855021945413
 21
116.0299214767843
 31
0.0
  0
ARC
  5
1029F
330
18
100
AcDbEntity
  8
01
  6
CONTINUOUS
100
AcDbCircle
 10
87.52855017195668
 20
116.5299214767843
 30
0.0
 40
0.5
100
AcDbArc
 50
270.0
 51
0.0
  0
LINE
  5
102A0
330
18
100
AcDbEntity
  8
01
  6
CONTINUOUS
100
AcDbLine
 10
88.02855201970067
 20
117.2299215337813
 30
0.0
 11
88.02855201970067
 21
116.529921500533
 31
0.0
  0
LINE
  5
102A1
330
18
100
AcDbEntity
  8
01
  6
CONTINUOUS
100
AcDbLine
 10
54.02855017195668
 20
154.0299202548891
 30
0.0
 11
54.02855017195668
 21
117.0299215242818
 31
0.0
  0
ARC
  5
102A2
330
18
100
AcDbEntity
  8
01
  6
CONTINUOUS
100
AcDbCircle
 10
55.82855017195777
 20
153.2299214767841
 30
0.0
 40
0.3000000000000682
100
AcDbArc
 50
90.0
 51
180.0
  0
LINE
  5
102A3
330
18
100
AcDbEntity
  8
01
  6
CONTINUOUS
100
AcDbLine
 10
55.82855014103677
 20
153.5299229669004
 30
0.0
 11
87.52855100642171
 21
153.5299229669004
 31
0.0
  0
LINE
  5
102A4
330
18
100
AcDbEntity
  8
01
  6
CONTINUOUS
100
AcDbLine
 10
87.52855100642171
 20
153.5299229669004
 30
0.0
 11
87.72855066667523
 21
153.5299229669004
 31
0.0
  0
ARC
  5
102A5
330
18
100
AcDbEntity
  8
01
  6
CONTINUOUS
100
AcDbCircle
 10
87.72855017195741
 20
153.829921476784
 30
0.0
 40
0.3000000000000114
100
AcDbArc
 50
270.0
 51
0.0
  0
LINE
  5
102A6
330
18
100
AcDbEntity
  8
01
  6
CONTINUOUS
100
AcDbLine
 10
88.02855201970067
 20
153.8299205946356
 30
0.0
 11
88.02855201970067
 21
154.529921268168
 31
0.0
  0
ARC
  5
102A7
330
18
100
AcDbEntity
  8
01
  6
CONTINUOUS
100
AcDbCircle
 10
55.02855017195668
 20
154.0299214767843
 30
0.0
 40
1.0
100
AcDbArc
 50
90.0
 51
180.0
  0
LINE
  5
102A8
330
18
100
AcDbEntity
  8
01
  6
CONTINUOUS
100
AcDbLine
 10
87.52855100642171
 20
155.029922281447
 30
0.0
 11
55.02855021945413
 21
155.029922281447
 31
0.0
  0
ARC
  5
102A9
330
18
100
AcDbEntity
  8
01
  6
CONTINUOUS
100
AcDbCircle
 10
87.52855017195668
 20
154.5299214767843
 30
0.0
 40
0.5000000000001137
100
AcDbArc
 50
0.0
 51
90.0
  0
LINE
  5
102AA
330
18
100
AcDbEntity
  8
1DIM
100
AcDbLine
 10
55.81808032906827
 20
117.8299214458644
 30
0.0
 11
76.80774667273488
 21
117.8299214458644
 31
0.0
  0
ARC
  5
102AB
330
18
100
AcDbEntity
  8
1DIM
100
AcDbCircle
 10
78.96459586399703
 20
117.7550123017368
 30
0.0
 40
2.158149627278067
100
AcDbArc
 50
178.0108700382816
 51
185.9867261135626
  0
ARC
  5
102AC
330
18
100
AcDbEntity
  8
1DIM
100
AcDbCircle
 10
57.97497356694964
 20
117.7550130060313
 30
0.0
 40
2.158193622910712
100
AcDbArc
 50
178.0109293126841
 51
185.9866224258671
  0
LINE
  5
102AD
330
18
100
AcDbEntity
  8
1DIM
100
AcDbLine
 10
55.81808032906827
 20
117.8299214458644
 30
0.0
 11
55.5285501849952
 21
117.8299214458644
 31
0.0
  0
LINE
  5
102AE
330
18
100
AcDbEntity
  8
1DIM
100
AcDbLine
 10
55.81808032906827
 20
153.229921613875
 30
0.0
 11
55.5285501849952
 21
153.229921613875
 31
0.0
  0
ARC
  5
102AF
330
18
100
AcDbEntity
  8
1DIM
100
AcDbCircle
 10
57.97498614958147
 20
153.3048306627466
 30
0.0
 40
2.158206219100399
100
AcDbArc
 50
174.0133916092975
 51
181.9890752520432
  0
ARC
  5
102B0
330
18
100
AcDbEntity
  8
1DIM
100
AcDbCircle
 10
78.9646084453774
 20
153.3048313670766
 30
0.0
 40
2.158162222218507
100
AcDbArc
 50
174.0132879199587
 51
181.9891345282811
  0
LINE
  5
102B1
330
18
100
AcDbEntity
  8
1DIM
100
AcDbLine
 10
55.81808032906827
 20
153.229921613875
 30
0.0
 11
76.80774667273488
 21
153.229921613875
 31
0.0
  0
LINE
  5
102B2
330
18
100
AcDbEntity
  8
1DIM
100
AcDbLine
 10
76.80774667273488
 20
153.229921613875
 30
0.0
 11
76.80774667273488
 21
117.8299214458644
 31
0.0
  0
LINE
  5
102B3
330
18
100
AcDbEntity
  8
1DIM
100
AcDbLine
 10
76.80774667273488
 20
117.8299214458644
 30
0.0
 11
84.52855051468339
 21
117.8299214458644
 31
0.0
  0
ARC
  5
102B4
330
18
100
AcDbEntity
  8
01
  6
CONTINUOUS
100
AcDbCircle
 10
84.82855017195777
 20
117.829921476784
 30
0.0
 40
0.3000000000000682
100
AcDbArc
 50
180.0
 51
270.0
  0
ARC
  5
102B5
330
18
100
AcDbEntity
  8
01
  6
CONTINUOUS
100
AcDbCircle
 10
84.82855017195777
 20
153.2299214767841
 30
0.0
 40
0.2999999999999545
100
AcDbArc
 50
90.0
 51
180.0
  0
LINE
  5
102B6
330
18
100
AcDbEntity
  8
1DIM
100
AcDbLine
 10
76.80774667273488
 20
153.229921613875
 30
0.0
 11
84.52855051468339
 21
153.229921613875
 31
0.0
  0
LINE
  5
102B7
330
18
100
AcDbEntity
  8
01
  6
CONTINUOUS
100
AcDbLine
 10
84.52855051468339
 20
117.8299214458644
 30
0.0
 11
84.52855051468339
 21
153.229921613875
 31
0.0
  0
LINE
  5
102B8
330
18
100
AcDbEntity
  8
1CENTER
100
AcDbLine
 10
51.44625924839545
 20
135.5299208895854
 30
0.0
 11
88.54842475126623
 21
135.5299208895854
 31
0.0
  0
LINE
  5
102C2
330
18
100
AcDbEntity
  8
01
  6
CONTINUOUS
100
AcDbLine
 10
55.52855018499508
 20
117.8299214458644
 30
0.0
 11
55.52855018499508
 21
153.229921613875
 31
0.0
  0
LINE
  5
102C3
330
18
100
AcDbEntity
  8
1DIM
100
AcDbLine
 10
55.81808032906815
 20
117.8299214458644
 30
0.0
 11
55.81808032906815
 21
130.0301036417212
 31
0.0
  0
LINE
  5
102C4
330
18
100
AcDbEntity
  8
01
  6
CONTINUOUS
100
AcDbLine
 10
58.02855018499508
 20
130.3299208895854
 30
0.0
 11
58.02855018499508
 21
140.7299208895855
 31
0.0
  0
LINE
  5
102C5
330
18
100
AcDbEntity
  8
01
  6
BYBLOCK
100
AcDbLine
 10
55.82855018499527
 20
141.0299208895854
 30
0.0
 11
57.7285501849949
 21
141.0299208895854
 31
0.0
  0
LINE
  5
102C6
330
18
100
AcDbEntity
  8
01
  6
BYBLOCK
100
AcDbLine
 10
55.82855018499527
 20
130.0299208895854
 30
0.0
 11
57.7285501849949
 21
130.0299208895854
 31
0.0
  0
ARC
  5
102C7
330
18
100
AcDbEntity
  8
01
100
AcDbCircle
 10
57.7285501849949
 20
140.7299208895855
 30
0.0
 40
0.3
100
AcDbArc
 50
0.0
 51
90.0
  0
ARC
  5
102C8
330
18
100
AcDbEntity
  8
01
100
AcDbCircle
 10
57.7285501849949
 20
130.3299208895854
 30
0.0
 40
0.3
100
AcDbArc
 50
270.0
 51
0.0
  0
ARC
  5
102C9
330
18
100
AcDbEntity
  8
01
100
AcDbCircle
 10
55.82855018499527
 20
140.7299208895855
 30
0.0
 40
0.3
100
AcDbArc
 50
90.0
 51
180.0
  0
ARC
  5
102CA
330
18
100
AcDbEntity
  8
01
100
AcDbCircle
 10
55.82855018499527
 20
130.3299208895854
 30
0.0
 40
0.3
100
AcDbArc
 50
180.0
 51
270.0
  0
LINE
  5
102CB
330
18
100
AcDbEntity
  8
1DIM
100
AcDbLine
 10
55.81808032906815
 20
141.0297381374497
 30
0.0
 11
55.81808032906815
 21
153.229921613875
 31
0.0
  0
LINE
  5
102CC
330
18
100
AcDbEntity
  8
01
100
AcDbLine
 10
-10.10495351968302
 20
-40.26403873578833
 30
0.0
 11
-10.10495351968302
 21
88.70269228352977
 31
0.0
  0
LINE
  5
102CD
330
18
100
AcDbEntity
  8
01
100
AcDbLine
 10
-7.404953519683204
 20
88.70269228352977
 30
0.0
 11
-7.404953519683204
 21
87.65269228352993
 31
0.0
  0
LINE
  5
102CE
330
18
100
AcDbEntity
  8
01
100
AcDbLine
 10
-7.104953519683022
 20
87.35269228352975
 30
0.0
 11
-2.704953519683386
 21
87.35269228352975
 31
0.0
  0
LINE
  5
102CF
330
18
100
AcDbEntity
  8
01
100
AcDbLine
 10
-2.404953519683204
 20
87.65269228352993
 30
0.0
 11
-2.404953519683204
 21
88.55269228353002
 31
0.0
  0
LINE
  5
102D0
330
18
100
AcDbEntity
  8
01
100
AcDbLine
 10
-2.404953519683204
 20
87.65269228352993
 30
0.0
 11
-2.404953519683204
 21
88.70269228352977
 31
0.0
  0
LINE
  5
102D1
330
18
100
AcDbEntity
  8
01
100
AcDbLine
 10
0.2950464803166142
 20
-40.26403873578833
 30
0.0
 11
0.2950464803166142
 21
88.70269228352977
 31
0.0
  0
ARC
  5
102D2
330
18
100
AcDbEntity
  8
01
100
AcDbCircle
 10
-7.104953519683022
 20
87.65269228352993
 30
0.0
 40
0.3
100
AcDbArc
 50
180.0
 51
270.0
  0
ARC
  5
102D3
330
18
100
AcDbEntity
  8
01
100
AcDbCircle
 10
-2.704953519683386
 20
87.65269228352993
 30
0.0
 40
0.3
100
AcDbArc
 50
270.0
 51
0.0
  0
LINE
  5
102D6
330
18
100
AcDbEntity
  8
1CENTER
100
AcDbLine
 10
-8.279937986169614
 20
78.21937281585333
 30
0.0
 11
-1.529937986169614
 21
78.21937281585333
 31
0.0
  0
LINE
  5
102D7
330
18
100
AcDbEntity
  8
1CENTER
100
AcDbLine
 10
-4.904937986169614
 20
74.84437281585333
 30
0.0
 11
-4.904937986169614
 21
81.59437281585333
 31
0.0
  0
LINE
  5
102D8
330
18
100
AcDbEntity
  8
01
  6
CONTINUOUS
100
AcDbLine
 10
54.02855017195668
 20
145.0212229852455
 30
0.0
 11
54.02855017195668
 21
151.0298743536878
 31
0.0
  0
LINE
  5
102DF
330
18
100
AcDbEntity
  8
1CENTER
100
AcDbLine
 10
-8.279934246472067
 20
-29.78070527220624
 30
0.0
 11
-1.529934246472067
 21
-29.78070527220624
 31
0.0
  0
LINE
  5
102E0
330
18
100
AcDbEntity
  8
1CENTER
100
AcDbLine
 10
-4.904934246472067
 20
-33.15570527220624
 30
0.0
 11
-4.904934246472067
 21
-26.40570527220624
 31
0.0
  0
LINE
  5
102E1
330
18
100
AcDbEntity
  8
01
  6
CONTINUOUS
100
AcDbLine
 10
-10.10495351968302
 20
-39.89306653025054
 30
0.0
 11
-10.10495387252098
 21
-39.89306653025054
 31
0.0
  0
LINE
  5
102E2
330
18
100
AcDbEntity
  8
01
  6
CONTINUOUS
100
AcDbLine
 10
-7.404953519683204
 20
88.33172007799199
 30
0.0
 11
-4.904953872521162
 21
88.33172007799199
 31
0.0
  0
LINE
  5
102E9
330
18
100
AcDbEntity
  8
1CENTER
100
AcDbLine
 10
-4.904954043552152
 20
97.51599370325444
 30
0.0
 11
-4.904954043552152
 21
-48.71244747487996
 31
0.0
  0
LINE
  5
102EA
330
18
100
AcDbEntity
  8
1DIM
100
AcDbLine
 10
-132.5718749252912
 20
114.1718967735949
 30
0.0
 11
-62.57187492529124
 21
114.1718967735949
 31
0.0
  0
LINE
  5
102EB
330
18
100
AcDbEntity
  8
1DIM
100
AcDbLine
 10
-132.5718749252912
 20
107.1718967735949
 30
0.0
 11
-62.57187492529124
 21
107.1718967735949
 31
0.0
  0
LINE
  5
102EC
330
18
100
AcDbEntity
  8
1DIM
100
AcDbLine
 10
-132.5718749252912
 20
107.1718967735949
 30
0.0
 11
-62.57187492529124
 21
107.1718967735949
 31
0.0
  0
LINE
  5
102ED
330
18
100
AcDbEntity
  8
1DIM
100
AcDbLine
 10
-97.57187492529124
 20
114.1718967735949
 30
0.0
 11
-97.57187492529124
 21
107.1718967735949
 31
0.0
  0
LINE
  5
102EE
330
18
100
AcDbEntity
  8
1DIM
100
AcDbLine
 10
-132.5718749252912
 20
107.1718967735949
 30
0.0
 11
-132.5718749252912
 21
114.1718967735949
 31
0.0
  0
LINE
  5
102EF
330
18
100
AcDbEntity
  8
1DIM
100
AcDbLine
 10
-62.57187492529124
 20
107.1718967735949
 30
0.0
 11
-62.57187492529124
 21
114.1718967735949
 31
0.0
  0
TEXT
  5
102F0
330
18
100
AcDbEntity
  8
1TEXT
100
AcDbText
 10
-131.3052082586249
 20
108.8366081140705
 30
0.0
 40
4.0
  1
パールブラック
 72
     1
 11
-115.1718749252916
 21
108.8366081140705
 31
0.0
100
AcDbText
  0
TEXT
  5
102F1
330
18
100
AcDbEntity
  8
1TEXT
100
AcDbText
 10
-94.06520825862403
 20
108.4575397899455
 30
0.0
 40
4.0
  1
PC-452-GQ
 41
0.8
 72
     1
 11
-80.1718749252907
 21
108.4575397899455
 31
0.0
100
AcDbText
  0
LINE
  5
102F2
330
18
100
AcDbEntity
  8
01
  6
CONTINUOUS
100
AcDbLine
 10
-109.0414613540441
 20
80.57288412218368
 30
0.0
 11
-110.5414613540441
 21
80.57288412218368
 31
0.0
  0
LINE
  5
102F3
330
18
100
AcDbEntity
  8
01
  6
CONTINUOUS
100
AcDbLine
 10
-110.5414613540441
 20
75.57288412218368
 30
0.0
 11
-109.0414613540441
 21
75.57288412218368
 31
0.0
  0
LINE
  5
102F4
330
18
100
AcDbEntity
  8
01
  6
CONTINUOUS
100
AcDbLine
 10
-110.5414613540441
 20
83.33467160846631
 30
0.0
 11
-110.5414613540441
 21
24.07288412218368
 31
0.0
  0
LINE
  5
102F5
330
18
100
AcDbEntity
  8
01
  6
CONTINUOUS
100
AcDbLine
 10
-110.5414613540441
 20
80.57288412218368
 30
0.0
 11
-110.5414613540441
 21
75.58571081370401
 31
0.0
  0
LINE
  5
102F6
330
18
100
AcDbEntity
  8
01
  6
CONTINUOUS
100
AcDbLine
 10
-114.0414613540441
 20
93.57288412218368
 30
0.0
 11
-114.0414613540441
 21
24.07288412218368
 31
0.0
  0
LINE
  5
102F7
330
18
100
AcDbEntity
  8
01
  6
CONTINUOUS
100
AcDbLine
 10
-110.5414613540441
 20
72.17288412218359
 30
0.0
 11
-110.5414613540441
 21
65.97288412218332
 31
0.0
  0
LINE
  5
102F8
330
18
100
AcDbEntity
  8
01
  6
CONTINUOUS
100
AcDbLine
 10
-80.04146135404412
 20
88.05533623726497
 30
0.0
 11
-80.04146135404412
 21
87.56423275374136
 31
0.0
  0
LINE
  5
102F9
330
18
100
AcDbEntity
  8
01
  6
CONTINUOUS
100
AcDbLine
 10
-80.04146135404412
 20
89.05594578156406
 30
0.0
 11
-80.04146135404412
 21
88.05533623726497
 31
0.0
  0
LINE
  5
102FA
330
18
100
AcDbEntity
  8
01
  6
CONTINUOUS
100
AcDbLine
 10
-80.04146135404412
 20
87.56423275374136
 30
0.0
 11
-80.04146135404412
 21
93.57288412218368
 31
0.0
  0
LINE
  5
102FB
330
18
100
AcDbEntity
  8
01
  6
CONTINUOUS
100
AcDbLine
 10
-80.04146135404412
 20
89.05594578156406
 30
0.0
 11
-80.04146135404412
 21
88.05533623726497
 31
0.0
  0
LINE
  5
102FC
330
18
100
AcDbEntity
  8
01
  6
CONTINUOUS
100
AcDbLine
 10
-81.24146135404484
 20
94.07288412218368
 30
0.0
 11
-81.84146135404339
 21
94.07288412218368
 31
0.0
  0
LINE
  5
102FD
330
18
100
AcDbEntity
  8
01
  6
CONTINUOUS
100
AcDbLine
 10
-113.5414613540441
 20
94.07288412218368
 30
0.0
 11
-81.84146135404339
 21
94.07288412218368
 31
0.0
  0
LINE
  5
102FE
330
18
100
AcDbEntity
  8
01
  6
CONTINUOUS
100
AcDbLine
 10
-81.04146135404412
 20
94.07288412218368
 30
0.0
 11
-113.5414613540441
 21
94.07288412218368
 31
0.0
  0
LINE
  5
102FF
330
18
100
AcDbEntity
  8
01
  6
CONTINUOUS
100
AcDbLine
 10
-81.24146135404484
 20
94.07288412218368
 30
0.0
 11
-81.84146135404339
 21
94.07288412218368
 31
0.0
  0
LINE
  5
10300
330
18
100
AcDbEntity
  8
01
  6
CONTINUOUS
100
AcDbLine
 10
-80.54146135404412
 20
94.07288412218368
 30
0.0
 11
-81.04146135404412
 21
94.07288412218368
 31
0.0
  0
LINE
  5
10301
330
18
100
AcDbEntity
  8
01
  6
CONTINUOUS
100
AcDbLine
 10
-80.54146135404412
 20
94.07288412218368
 30
0.0
 11
-81.04146135404412
 21
94.07288412218368
 31
0.0
  0
LINE
  5
10302
330
18
100
AcDbEntity
  8
01
  6
CONTINUOUS
100
AcDbLine
 10
-80.53273515082569
 20
87.06430890616203
 30
0.0
 11
-80.79146135404412
 21
87.05979282348626
 31
0.0
  0
LINE
  5
10303
330
18
100
AcDbEntity
  8
01
  6
CONTINUOUS
100
AcDbLine
 10
-86.3089111023954
 20
88.35423722619699
 30
0.0
 11
-80.52401160569283
 21
88.55625036805414
 31
0.0
  0
LINE
  5
10304
330
18
100
AcDbEntity
  8
01
  6
CONTINUOUS
100
AcDbLine
 10
-86.8089111023954
 20
88.33677684145114
 30
0.0
 11
-86.3089111023954
 21
88.35423722619699
 31
0.0
  0
LINE
  5
10305
330
18
100
AcDbEntity
  8
01
  6
CONTINUOUS
100
AcDbLine
 10
-105.1810593408544
 20
87.69520728774815
 30
0.0
 11
-89.8089111023954
 21
88.23201453297607
 31
0.0
  0
LINE
  5
10306
330
18
100
AcDbEntity
  8
01
  6
CONTINUOUS
100
AcDbLine
 10
-89.8089111023954
 20
88.23201453297607
 30
0.0
 11
-86.8089111023954
 21
88.33677684145114
 31
0.0
  0
LINE
  5
10307
330
18
100
AcDbEntity
  8
01
  6
CONTINUOUS
100
AcDbLine
 10
-89.8089111023954
 20
88.23201453297607
 30
0.0
 11
-86.8089111023954
 21
88.33677684145114
 31
0.0
  0
LINE
  5
10308
330
18
100
AcDbEntity
  8
01
  6
CONTINUOUS
100
AcDbLine
 10
-86.8089111023954
 20
88.33677684145114
 30
0.0
 11
-86.3089111023954
 21
88.35423722619699
 31
0.0
  0
LINE
  5
10309
330
18
100
AcDbEntity
  8
01
  6
CONTINUOUS
100
AcDbLine
 10
-109.0414613540441
 20
80.57288412218368
 30
0.0
 11
-109.0414613540441
 21
75.58571081370401
 31
0.0
  0
ARC
  5
1030A
330
18
100
AcDbEntity
  8
01
  6
CONTINUOUS
100
AcDbCircle
 10
-105.0414613540441
 20
83.69764397967147
 30
0.0
 40
4.000000000000009
100
AcDbArc
 50
92.00000000000365
 51
180.0
  0
ARC
  5
1030B
330
18
100
AcDbEntity
  8
01
  6
CONTINUOUS
100
AcDbCircle
 10
-113.5414613540441
 20
93.57288412218368
 30
0.0
 40
0.5
100
AcDbArc
 50
90.0
 51
180.0
  0
ARC
  5
1030C
330
18
100
AcDbEntity
  8
01
  6
CONTINUOUS
100
AcDbCircle
 10
-105.0414613540441
 20
83.69764397967147
 30
0.0
 40
4.000000000000009
100
AcDbArc
 50
92.00000000000365
 51
180.0
  0
ARC
  5
1030D
330
18
100
AcDbEntity
  8
01
  6
CONTINUOUS
100
AcDbCircle
 10
-113.5414613540441
 20
93.57288412218368
 30
0.0
 40
0.5
100
AcDbArc
 50
90.0
 51
180.0
  0
ARC
  5
1030E
330
18
100
AcDbEntity
  8
01
  6
CONTINUOUS
100
AcDbCircle
 10
-80.54146135404412
 20
93.57288412218368
 30
0.0
 40
0.5
100
AcDbArc
 50
0.0
 51
90.0
  0
ARC
  5
1030F
330
18
100
AcDbEntity
  8
01
  6
CONTINUOUS
100
AcDbCircle
 10
-80.54146135404412
 20
93.57288412218368
 30
0.0
 40
0.5
100
AcDbArc
 50
0.0
 51
90.0
  0
ARC
  5
10310
330
18
100
AcDbEntity
  8
01
  6
CONTINUOUS
100
AcDbCircle
 10
-80.54146135404412
 20
87.56423275374136
 30
0.0
 40
0.5
100
AcDbArc
 50
271.0000000000799
 51
0.0
  0
ARC
  5
10311
330
18
100
AcDbEntity
  8
01
  6
CONTINUOUS
100
AcDbCircle
 10
-80.54146135404412
 20
87.56423275374136
 30
0.0
 40
0.5
100
AcDbArc
 50
271.0000000000799
 51
0.0
  0
ARC
  5
10312
330
18
100
AcDbEntity
  8
01
  6
CONTINUOUS
100
AcDbCircle
 10
-80.54146135404412
 20
89.05594578156406
 30
0.0
 40
0.500000000000037
100
AcDbArc
 50
272.0000000000035
 51
0.0
  0
ARC
  5
10313
330
18
100
AcDbEntity
  8
01
  6
CONTINUOUS
100
AcDbCircle
 10
-80.54146135404412
 20
89.05594578156406
 30
0.0
 40
0.500000000000037
100
AcDbArc
 50
272.0000000000035
 51
0.0
  0
LINE
  5
10314
330
18
100
AcDbEntity
  8
01
  6
CONTINUOUS
100
AcDbLine
 10
-80.79146135404412
 20
87.0597928234874
 30
0.0
 11
-80.53273515082478
 21
87.06430890616339
 31
0.0
  0
ARC
  5
10315
330
18
100
AcDbEntity
  8
01
  6
CONTINUOUS
100
AcDbCircle
 10
-113.5414613540441
 20
93.57288412218368
 30
0.0
 40
0.5
100
AcDbArc
 50
90.0
 51
180.0
  0
ARC
  5
10316
330
18
100
AcDbEntity
  8
01
  6
CONTINUOUS
100
AcDbCircle
 10
-113.5414613540441
 20
93.57288412218368
 30
0.0
 40
0.5
100
AcDbArc
 50
90.0
 51
180.0
  0
ARC
  5
10317
330
18
100
AcDbEntity
  8
01
  6
CONTINUOUS
100
AcDbCircle
 10
-86.79146135404412
 20
87.83708142794167
 30
0.0
 40
0.5
100
AcDbArc
 50
92.00000000000367
 51
155.1099090842385
  0
ARC
  5
10318
330
18
100
AcDbEntity
  8
01
  6
CONTINUOUS
100
AcDbCircle
 10
-86.79146135404412
 20
87.83708142794167
 30
0.0
 40
0.500000000000037
100
AcDbArc
 50
92.00000000000351
 51
155.1099090842457
  0
ARC
  5
10319
330
18
100
AcDbEntity
  8
01
  6
CONTINUOUS
100
AcDbCircle
 10
-80.54146135404412
 20
87.56423275374136
 30
0.0
 40
0.5
100
AcDbArc
 50
271.0000000000799
 51
0.0
  0
ARC
  5
1031A
330
18
100
AcDbEntity
  8
01
  6
CONTINUOUS
100
AcDbCircle
 10
-80.54146135404412
 20
87.56423275374136
 30
0.0
 40
0.5
100
AcDbArc
 50
271.0000000000799
 51
0.0
  0
LINE
  5
1031B
330
18
100
AcDbEntity
  8
1CENTER
100
AcDbLine
 10
-116.530446142843
 20
24.07288412218368
 30
0.0
 11
-79.58834408096718
 21
24.07288412218368
 31
0.0
  0
LINE
  5
1031C
330
18
100
AcDbEntity
  8
01
  6
CONTINUOUS
100
AcDbLine
 10
-109.0414613540441
 20
24.07288412218368
 30
0.0
 11
-109.0414613540441
 21
83.69764397967147
 31
0.0
  0
LINE
  5
1031D
330
18
100
AcDbEntity
  8
01
  6
CONTINUOUS
100
AcDbLine
 10
-109.0414613540441
 20
-32.42711587781631
 30
0.0
 11
-110.5414613540441
 21
-32.42711587781631
 31
0.0
  0
LINE
  5
1031E
330
18
100
AcDbEntity
  8
01
  6
CONTINUOUS
100
AcDbLine
 10
-110.5414613540441
 20
-27.42711587781631
 30
0.0
 11
-109.0414613540441
 21
-27.42711587781631
 31
0.0
  0
LINE
  5
1031F
330
18
100
AcDbEntity
  8
01
  6
CONTINUOUS
100
AcDbLine
 10
-110.5414613540441
 20
-35.18890336409894
 30
0.0
 11
-110.5414613540441
 21
24.07288412218368
 31
0.0
  0
LINE
  5
10320
330
18
100
AcDbEntity
  8
01
  6
CONTINUOUS
100
AcDbLine
 10
-110.5414613540441
 20
-32.42711587781631
 30
0.0
 11
-110.5414613540441
 21
-27.43994256933664
 31
0.0
  0
LINE
  5
10321
330
18
100
AcDbEntity
  8
01
  6
CONTINUOUS
100
AcDbLine
 10
-114.0414613540441
 20
-45.42711587781631
 30
0.0
 11
-114.0414613540441
 21
24.07288412218368
 31
0.0
  0
LINE
  5
10322
330
18
100
AcDbEntity
  8
01
  6
CONTINUOUS
100
AcDbLine
 10
-110.5414613540441
 20
-24.02711587781622
 30
0.0
 11
-110.5414613540441
 21
-17.82711587781595
 31
0.0
  0
LINE
  5
10323
330
18
100
AcDbEntity
  8
01
  6
CONTINUOUS
100
AcDbLine
 10
-80.04146135404412
 20
-39.9095679928976
 30
0.0
 11
-80.04146135404412
 21
-39.418464509374
 31
0.0
  0
LINE
  5
10324
330
18
100
AcDbEntity
  8
01
  6
CONTINUOUS
100
AcDbLine
 10
-80.04146135404412
 20
-40.9101775371967
 30
0.0
 11
-80.04146135404412
 21
-39.9095679928976
 31
0.0
  0
LINE
  5
10325
330
18
100
AcDbEntity
  8
01
  6
CONTINUOUS
100
AcDbLine
 10
-80.04146135404412
 20
-39.418464509374
 30
0.0
 11
-80.04146135404412
 21
-45.42711587781631
 31
0.0
  0
LINE
  5
10326
330
18
100
AcDbEntity
  8
01
  6
CONTINUOUS
100
AcDbLine
 10
-80.04146135404412
 20
-40.9101775371967
 30
0.0
 11
-80.04146135404412
 21
-39.9095679928976
 31
0.0
  0
LINE
  5
10327
330
18
100
AcDbEntity
  8
01
  6
CONTINUOUS
100
AcDbLine
 10
-81.24146135404484
 20
-45.92711587781631
 30
0.0
 11
-81.84146135404339
 21
-45.92711587781631
 31
0.0
  0
LINE
  5
10328
330
18
100
AcDbEntity
  8
01
  6
CONTINUOUS
100
AcDbLine
 10
-113.5414613540441
 20
-45.92711587781631
 30
0.0
 11
-81.84146135404339
 21
-45.92711587781631
 31
0.0
  0
LINE
  5
10329
330
18
100
AcDbEntity
  8
01
  6
CONTINUOUS
100
AcDbLine
 10
-81.04146135404412
 20
-45.92711587781631
 30
0.0
 11
-113.5414613540441
 21
-45.92711587781631
 31
0.0
  0
LINE
  5
1032A
330
18
100
AcDbEntity
  8
01
  6
CONTINUOUS
100
AcDbLine
 10
-81.24146135404484
 20
-45.92711587781631
 30
0.0
 11
-81.84146135404339
 21
-45.92711587781631
 31
0.0
  0
LINE
  5
1032B
330
18
100
AcDbEntity
  8
01
  6
CONTINUOUS
100
AcDbLine
 10
-80.54146135404412
 20
-45.92711587781631
 30
0.0
 11
-81.04146135404412
 21
-45.92711587781631
 31
0.0
  0
LINE
  5
1032C
330
18
100
AcDbEntity
  8
01
  6
CONTINUOUS
100
AcDbLine
 10
-80.54146135404412
 20
-45.92711587781631
 30
0.0
 11
-81.04146135404412
 21
-45.92711587781631
 31
0.0
  0
LINE
  5
1032D
330
18
100
AcDbEntity
  8
01
  6
CONTINUOUS
100
AcDbLine
 10
-86.3089111023954
 20
-40.20846898182962
 30
0.0
 11
-80.52401160569283
 21
-40.41048212368677
 31
0.0
  0
LINE
  5
1032E
330
18
100
AcDbEntity
  8
01
  6
CONTINUOUS
100
AcDbLine
 10
-86.8089111023954
 20
-40.19100859708377
 30
0.0
 11
-86.3089111023954
 21
-40.20846898182962
 31
0.0
  0
LINE
  5
1032F
330
18
100
AcDbEntity
  8
01
  6
CONTINUOUS
100
AcDbLine
 10
-105.1810593408544
 20
-39.54943904338078
 30
0.0
 11
-89.8089111023954
 21
-40.0862462886087
 31
0.0
  0
LINE
  5
10330
330
18
100
AcDbEntity
  8
01
  6
CONTINUOUS
100
AcDbLine
 10
-89.8089111023954
 20
-40.0862462886087
 30
0.0
 11
-86.8089111023954
 21
-40.19100859708377
 31
0.0
  0
LINE
  5
10331
330
18
100
AcDbEntity
  8
01
  6
CONTINUOUS
100
AcDbLine
 10
-89.8089111023954
 20
-40.0862462886087
 30
0.0
 11
-86.8089111023954
 21
-40.19100859708377
 31
0.0
  0
LINE
  5
10332
330
18
100
AcDbEntity
  8
01
  6
CONTINUOUS
100
AcDbLine
 10
-86.8089111023954
 20
-40.19100859708377
 30
0.0
 11
-86.3089111023954
 21
-40.20846898182962
 31
0.0
  0
LINE
  5
10333
330
18
100
AcDbEntity
  8
01
  6
CONTINUOUS
100
AcDbLine
 10
-109.0414613540441
 20
-32.42711587781631
 30
0.0
 11
-109.0414613540441
 21
-27.43994256933664
 31
0.0
  0
ARC
  5
10334
330
18
100
AcDbEntity
  8
01
  6
CONTINUOUS
100
AcDbCircle
 10
-105.0414613540441
 20
-35.5518757353041
 30
0.0
 40
4.000000000000009
100
AcDbArc
 50
180.0
 51
267.9999999999964
  0
ARC
  5
10335
330
18
100
AcDbEntity
  8
01
  6
CONTINUOUS
100
AcDbCircle
 10
-113.5414613540441
 20
-45.42711587781631
 30
0.0
 40
0.5
100
AcDbArc
 50
180.0
 51
270.0
  0
ARC
  5
10336
330
18
100
AcDbEntity
  8
01
  6
CONTINUOUS
100
AcDbCircle
 10
-105.0414613540441
 20
-35.5518757353041
 30
0.0
 40
4.000000000000009
100
AcDbArc
 50
180.0
 51
267.9999999999964
  0
ARC
  5
10337
330
18
100
AcDbEntity
  8
01
  6
CONTINUOUS
100
AcDbCircle
 10
-113.5414613540441
 20
-45.42711587781631
 30
0.0
 40
0.5
100
AcDbArc
 50
180.0
 51
270.0
  0
ARC
  5
10338
330
18
100
AcDbEntity
  8
01
  6
CONTINUOUS
100
AcDbCircle
 10
-80.54146135404412
 20
-45.42711587781631
 30
0.0
 40
0.5
100
AcDbArc
 50
270.0
 51
0.0
  0
ARC
  5
10339
330
18
100
AcDbEntity
  8
01
  6
CONTINUOUS
100
AcDbCircle
 10
-80.54146135404412
 20
-45.42711587781631
 30
0.0
 40
0.5
100
AcDbArc
 50
270.0
 51
0.0
  0
ARC
  5
1033A
330
18
100
AcDbEntity
  8
01
  6
CONTINUOUS
100
AcDbCircle
 10
-86.79146135404412
 20
-39.6913131835743
 30
0.0
 40
0.5
100
AcDbArc
 50
204.8900909158219
 51
267.9999999999964
  0
ARC
  5
1033B
330
18
100
AcDbEntity
  8
01
  6
CONTINUOUS
100
AcDbCircle
 10
-80.54146135404412
 20
-39.418464509374
 30
0.0
 40
0.5
100
AcDbArc
 50
0.0
 51
88.99999999992004
  0
ARC
  5
1033C
330
18
100
AcDbEntity
  8
01
  6
CONTINUOUS
100
AcDbCircle
 10
-80.54146135404412
 20
-39.418464509374
 30
0.0
 40
0.5
100
AcDbArc
 50
0.0
 51
88.99999999992004
  0
ARC
  5
1033D
330
18
100
AcDbEntity
  8
01
  6
CONTINUOUS
100
AcDbCircle
 10
-80.54146135404412
 20
-40.9101775371967
 30
0.0
 40
0.500000000000037
100
AcDbArc
 50
0.0
 51
87.9999999999965
  0
ARC
  5
1033E
330
18
100
AcDbEntity
  8
01
  6
CONTINUOUS
100
AcDbCircle
 10
-80.54146135404412
 20
-40.9101775371967
 30
0.0
 40
0.500000000000037
100
AcDbArc
 50
0.0
 51
87.9999999999965
  0
LINE
  5
1033F
330
18
100
AcDbEntity
  8
01
  6
CONTINUOUS
100
AcDbLine
 10
-80.79146135404412
 20
-38.91402457912003
 30
0.0
 11
-80.53273515082478
 21
-38.91854066179602
 31
0.0
  0
ARC
  5
10340
330
18
100
AcDbEntity
  8
01
  6
CONTINUOUS
100
AcDbCircle
 10
-113.5414613540441
 20
-45.42711587781631
 30
0.0
 40
0.5
100
AcDbArc
 50
180.0
 51
270.0
  0
ARC
  5
10341
330
18
100
AcDbEntity
  8
01
  6
CONTINUOUS
100
AcDbCircle
 10
-113.5414613540441
 20
-45.42711587781631
 30
0.0
 40
0.5
100
AcDbArc
 50
180.0
 51
270.0
  0
ARC
  5
10342
330
18
100
AcDbEntity
  8
01
  6
CONTINUOUS
100
AcDbCircle
 10
-80.54146135404412
 20
-39.418464509374
 30
0.0
 40
0.5
100
AcDbArc
 50
0.0
 51
88.99999999992004
  0
ARC
  5
10343
330
18
100
AcDbEntity
  8
01
  6
CONTINUOUS
100
AcDbCircle
 10
-80.54146135404412
 20
-39.418464509374
 30
0.0
 40
0.5
100
AcDbArc
 50
0.0
 51
88.99999999992004
  0
LINE
  5
10344
330
18
100
AcDbEntity
  8
01
  6
CONTINUOUS
100
AcDbLine
 10
-109.0414613540441
 20
24.07288412218368
 30
0.0
 11
-109.0414613540441
 21
-35.5518757353041
 31
0.0
  0
LINE
  5
10345
330
18
100
AcDbEntity
  8
01
  6
CONTINUOUS
100
AcDbLine
 10
-80.79146135404412
 20
24.07288412218345
 30
0.0
 11
-80.79146135404412
 21
87.7551189652881
 31
0.0
  0
LINE
  5
10346
330
18
100
AcDbEntity
  8
01
  6
CONTINUOUS
100
AcDbLine
 10
-109.0414613540441
 20
75.8257719810485
 30
0.0
 11
-109.0414613540441
 21
80.3199962633184
 31
0.0
  0
LINE
  5
10347
330
18
100
AcDbEntity
  8
01
  6
CONTINUOUS
100
AcDbLine
 10
-109.0414613540441
 20
82.4579285100062
 30
0.0
 11
-109.0414613540441
 21
24.07288412218345
 31
0.0
  0
LINE
  5
10348
330
18
100
AcDbEntity
  8
01
  6
CONTINUOUS
100
AcDbLine
 10
-109.0414613540441
 20
67.4349144799216
 30
0.0
 11
-109.0414613540441
 21
70.7108537644453
 31
0.0
  0
ARC
  5
10349
330
18
100
AcDbEntity
  8
01
  6
CONTINUOUS
100
AcDbCircle
 10
-104.0414613540441
 20
82.4579285100062
 30
0.0
 40
5.000000000000028
100
AcDbArc
 50
92.00000000000365
 51
180.0
  0
ARC
  5
1034A
330
18
100
AcDbEntity
  8
01
  6
CONTINUOUS
100
AcDbCircle
 10
-104.0414613540441
 20
82.4579285100062
 30
0.0
 40
5.000000000000028
100
AcDbArc
 50
92.00000000000365
 51
180.0
  0
ARC
  5
1034B
330
18
100
AcDbEntity
  8
01
  6
CONTINUOUS
100
AcDbCircle
 10
-81.29146135404412
 20
87.7551189652881
 30
0.0
 40
0.5
100
AcDbArc
 50
0.0
 51
2.000000000003669
  0
ARC
  5
1034C
330
18
100
AcDbEntity
  8
01
  6
CONTINUOUS
100
AcDbCircle
 10
-81.29146135404412
 20
87.7551189652881
 30
0.0
 40
0.5000000000000081
100
AcDbArc
 50
2.000000000003613
 51
92.00000000000361
  0
ARC
  5
1034D
330
18
100
AcDbEntity
  8
01
  6
CONTINUOUS
100
AcDbCircle
 10
-81.29146135404412
 20
87.7551189652881
 30
0.0
 40
0.5000000000000081
100
AcDbArc
 50
0.0
 51
92.00000000000361
  0
ARC
  5
1034E
330
18
100
AcDbEntity
  8
01
  6
CONTINUOUS
100
AcDbCircle
 10
-81.29146135404412
 20
87.7551189652881
 30
0.0
 40
0.5
100
AcDbArc
 50
0.0
 51
2.000000000003669
  0
ARC
  5
1034F
330
18
100
AcDbEntity
  8
01
  6
CONTINUOUS
100
AcDbCircle
 10
-81.29146135404412
 20
87.7551189652881
 30
0.0
 40
0.5000000000000081
100
AcDbArc
 50
0.0
 51
92.00000000000361
  0
LINE
  5
10350
330
18
100
AcDbEntity
  8
01
  6
BYBLOCK
100
AcDbLine
 10
-81.3089111023954
 20
88.25481437879758
 30
0.0
 11
-104.2159588375569
 21
87.45488264510159
 31
0.0
  0
LINE
  5
10351
330
18
100
AcDbEntity
  8
01
  6
CONTINUOUS
100
AcDbLine
 10
-80.79146135404412
 20
24.07288412218345
 30
0.0
 11
-80.79146135404412
 21
-39.60935072092119
 31
0.0
  0
LINE
  5
10352
330
18
100
AcDbEntity
  8
01
  6
CONTINUOUS
100
AcDbLine
 10
-109.0414613540441
 20
-27.68000373668159
 30
0.0
 11
-109.0414613540441
 21
-32.17422801895149
 31
0.0
  0
LINE
  5
10353
330
18
100
AcDbEntity
  8
01
  6
CONTINUOUS
100
AcDbLine
 10
-109.0414613540441
 20
-34.31216026563929
 30
0.0
 11
-109.0414613540441
 21
24.07288412218345
 31
0.0
  0
LINE
  5
10354
330
18
100
AcDbEntity
  8
01
  6
CONTINUOUS
100
AcDbLine
 10
-109.0414613540441
 20
-19.28914623555469
 30
0.0
 11
-109.0414613540441
 21
-22.56508552007839
 31
0.0
  0
ARC
  5
10355
330
18
100
AcDbEntity
  8
01
  6
CONTINUOUS
100
AcDbCircle
 10
-104.0414613540441
 20
-34.31216026563929
 30
0.0
 40
5.000000000000028
100
AcDbArc
 50
180.0
 51
267.9999999999964
  0
ARC
  5
10356
330
18
100
AcDbEntity
  8
01
  6
CONTINUOUS
100
AcDbCircle
 10
-104.0414613540441
 20
-34.31216026563929
 30
0.0
 40
5.000000000000028
100
AcDbArc
 50
180.0
 51
267.9999999999964
  0
ARC
  5
10357
330
18
100
AcDbEntity
  8
01
  6
CONTINUOUS
100
AcDbCircle
 10
-81.29146135404412
 20
-39.60935072092119
 30
0.0
 40
0.5
100
AcDbArc
 50
357.9999999999963
 51
0.0
  0
ARC
  5
10358
330
18
100
AcDbEntity
  8
01
  6
CONTINUOUS
100
AcDbCircle
 10
-81.29146135404412
 20
-39.60935072092119
 30
0.0
 40
0.5000000000000081
100
AcDbArc
 50
267.9999999999964
 51
357.9999999999964
  0
ARC
  5
10359
330
18
100
AcDbEntity
  8
01
  6
CONTINUOUS
100
AcDbCircle
 10
-81.29146135404412
 20
-39.60935072092119
 30
0.0
 40
0.5000000000000081
100
AcDbArc
 50
267.9999999999964
 51
0.0
  0
ARC
  5
1035A
330
18
100
AcDbEntity
  8
01
  6
CONTINUOUS
100
AcDbCircle
 10
-81.29146135404412
 20
-39.60935072092119
 30
0.0
 40
0.5
100
AcDbArc
 50
357.9999999999963
 51
0.0
  0
ARC
  5
1035B
330
18
100
AcDbEntity
  8
01
  6
CONTINUOUS
100
AcDbCircle
 10
-81.29146135404412
 20
-39.60935072092119
 30
0.0
 40
0.5000000000000081
100
AcDbArc
 50
267.9999999999964
 51
0.0
  0
LINE
  5
1035C
330
18
100
AcDbEntity
  8
01
  6
BYBLOCK
100
AcDbLine
 10
-81.3089111023954
 20
-40.10904613443066
 30
0.0
 11
-104.2159588375569
 21
-39.30911440073468
 31
0.0
  0
LINE
  5
1035D
330
18
100
AcDbEntity
  8
01
  6
CONTINUOUS
100
AcDbLine
 10
-81.54146135404412
 20
93.7728841221835
 30
0.0
 11
-81.54146135404412
 21
92.36259075462586
 31
0.0
  0
LINE
  5
1035E
330
18
100
AcDbEntity
  8
01
  6
CONTINUOUS
100
AcDbLine
 10
-81.83099150503298
 20
92.0627735065204
 30
0.0
 11
-102.8206573276646
 21
91.32979822461921
 31
0.0
  0
ARC
  5
1035F
330
18
100
AcDbEntity
  8
01
  6
CONTINUOUS
100
AcDbCircle
 10
-102.5414613540441
 20
83.33467160846631
 30
0.0
 40
8.00000000000002
100
AcDbArc
 50
92.00000000000365
 51
180.0
  0
ARC
  5
10360
330
18
100
AcDbEntity
  8
01
  6
CONTINUOUS
100
AcDbCircle
 10
-81.24146135404484
 20
93.7728841221835
 30
0.0
 40
0.2999999999999829
100
AcDbArc
 50
90.0
 51
180.0
  0
ARC
  5
10361
330
18
100
AcDbEntity
  8
01
  6
CONTINUOUS
100
AcDbCircle
 10
-81.24146135404484
 20
93.7728841221835
 30
0.0
 40
0.2999999999999829
100
AcDbArc
 50
90.0
 51
180.0
  0
ARC
  5
10362
330
18
100
AcDbEntity
  8
01
  6
CONTINUOUS
100
AcDbCircle
 10
-81.84146135404339
 20
92.36259075462586
 30
0.0
 40
0.3000000000000114
100
AcDbArc
 50
271.999999999934
 51
0.0
  0
ARC
  5
10363
330
18
100
AcDbEntity
  8
01
  6
CONTINUOUS
100
AcDbCircle
 10
-81.84146135404339
 20
92.36259075462586
 30
0.0
 40
0.3000000000000114
100
AcDbArc
 50
271.999999999934
 51
0.0
  0
LINE
  5
10364
330
18
100
AcDbEntity
  8
01
  6
CONTINUOUS
100
AcDbLine
 10
-81.54146135404412
 20
-45.62711587781613
 30
0.0
 11
-81.54146135404412
 21
-44.21682251025849
 31
0.0
  0
LINE
  5
10365
330
18
100
AcDbEntity
  8
01
  6
CONTINUOUS
100
AcDbLine
 10
-81.83099150503298
 20
-43.91700526215281
 30
0.0
 11
-102.8206573276646
 21
-43.18402998025184
 31
0.0
  0
ARC
  5
10366
330
18
100
AcDbEntity
  8
01
  6
CONTINUOUS
100
AcDbCircle
 10
-102.5414613540441
 20
-35.18890336409894
 30
0.0
 40
8.00000000000002
100
AcDbArc
 50
180.0
 51
267.9999999999964
  0
ARC
  5
10367
330
18
100
AcDbEntity
  8
01
  6
CONTINUOUS
100
AcDbCircle
 10
-81.24146135404484
 20
-45.62711587781613
 30
0.0
 40
0.2999999999999829
100
AcDbArc
 50
180.0
 51
270.0
  0
ARC
  5
10368
330
18
100
AcDbEntity
  8
01
  6
CONTINUOUS
100
AcDbCircle
 10
-81.24146135404484
 20
-45.62711587781613
 30
0.0
 40
0.2999999999999829
100
AcDbArc
 50
180.0
 51
270.0
  0
ARC
  5
10369
330
18
100
AcDbEntity
  8
01
  6
CONTINUOUS
100
AcDbCircle
 10
-81.84146135404339
 20
-44.21682251025849
 30
0.0
 40
0.3000000000000114
100
AcDbArc
 50
0.0
 51
88.00000000006597
  0
ARC
  5
1036A
330
18
100
AcDbEntity
  8
01
  6
CONTINUOUS
100
AcDbCircle
 10
-81.84146135404339
 20
-44.21682251025849
 30
0.0
 40
0.3000000000000114
100
AcDbArc
 50
0.0
 51
88.00000000006597
  0
ARC
  5
1036B
330
18
100
AcDbEntity
  8
01
  6
CONTINUOUS
100
AcDbCircle
 10
-80.54146135404412
 20
-40.9101775371967
 30
0.0
 40
0.500000000000037
100
AcDbArc
 50
0.0
 51
87.9999999999965
  0
ARC
  5
1036C
330
18
100
AcDbEntity
  8
01
  6
CONTINUOUS
100
AcDbCircle
 10
-80.54146135404412
 20
-40.9101775371967
 30
0.0
 40
0.500000000000037
100
AcDbArc
 50
0.0
 51
87.9999999999965
  0
LINE
  5
1036D
330
18
100
AcDbEntity
  8
01
  6
CONTINUOUS
100
AcDbLine
 10
-109.0414613540441
 20
75.82288412218345
 30
0.0
 11
-88.0914613540443
 21
75.82288412218345
 31
0.0
  0
LINE
  5
1036E
330
18
100
AcDbEntity
  8
01
  6
CONTINUOUS
100
AcDbLine
 10
-88.0914613540443
 20
80.32288412218345
 30
0.0
 11
-109.0414613540441
 21
80.32288412218345
 31
0.0
  0
LINE
  5
1036F
330
18
100
AcDbEntity
  8
01
  6
CONTINUOUS
100
AcDbLine
 10
-88.0914613540443
 20
75.82288412218345
 30
0.0
 11
-86.0914613540443
 21
73.82288412218345
 31
0.0
  0
LINE
  5
10370
330
18
100
AcDbEntity
  8
01
  6
CONTINUOUS
100
AcDbLine
 10
-86.0914613540443
 20
82.32288412218345
 30
0.0
 11
-88.0914613540443
 21
80.32288412218345
 31
0.0
  0
LINE
  5
10371
330
18
100
AcDbEntity
  8
01
  6
CONTINUOUS
100
AcDbLine
 10
-86.0914613540443
 20
74.13067215412998
 30
0.0
 11
-86.0914613540443
 21
82.0150960902367
 31
0.0
  0
LINE
  5
10372
330
18
100
AcDbEntity
  8
01
  6
CONTINUOUS
100
AcDbLine
 10
-80.79146135404412
 20
24.07288412218345
 30
0.0
 11
-80.79146135404412
 21
87.7551189652881
 31
0.0
  0
LINE
  5
10373
330
18
100
AcDbEntity
  8
01
  6
CONTINUOUS
100
AcDbLine
 10
-88.0914613540443
 20
80.3199962633184
 30
0.0
 11
-88.0914613540443
 21
75.8257719810485
 31
0.0
  0
LINE
  5
10374
330
18
100
AcDbEntity
  8
01
  6
CONTINUOUS
100
AcDbLine
 10
-86.0914613540443
 20
82.0150960902367
 30
0.0
 11
-86.0914613540443
 21
82.32288412218345
 31
0.0
  0
LINE
  5
10375
330
18
100
AcDbEntity
  8
01
  6
CONTINUOUS
100
AcDbLine
 10
-86.0914613540443
 20
74.13067215412998
 30
0.0
 11
-86.0914613540443
 21
82.0150960902367
 31
0.0
  0
LINE
  5
10376
330
18
100
AcDbEntity
  8
01
  6
CONTINUOUS
100
AcDbLine
 10
-86.0914613540443
 20
74.13067215412998
 30
0.0
 11
-86.0914613540443
 21
73.82288412218345
 31
0.0
  0
ARC
  5
10377
330
18
100
AcDbEntity
  8
01
  6
CONTINUOUS
100
AcDbCircle
 10
-104.0414613540441
 20
82.4579285100062
 30
0.0
 40
5.000000000000028
100
AcDbArc
 50
92.00000000000365
 51
180.0
  0
ARC
  5
10378
330
18
100
AcDbEntity
  8
01
  6
CONTINUOUS
100
AcDbCircle
 10
-104.0414613540441
 20
82.4579285100062
 30
0.0
 40
5.000000000000028
100
AcDbArc
 50
92.00000000000365
 51
180.0
  0
ARC
  5
10379
330
18
100
AcDbEntity
  8
01
  6
CONTINUOUS
100
AcDbCircle
 10
-81.29146135404412
 20
87.7551189652881
 30
0.0
 40
0.5
100
AcDbArc
 50
0.0
 51
2.000000000003669
  0
ARC
  5
1037A
330
18
100
AcDbEntity
  8
01
  6
CONTINUOUS
100
AcDbCircle
 10
-81.29146135404412
 20
87.7551189652881
 30
0.0
 40
0.5000000000000081
100
AcDbArc
 50
2.000000000003613
 51
92.00000000000361
  0
ARC
  5
1037B
330
18
100
AcDbEntity
  8
01
  6
CONTINUOUS
100
AcDbCircle
 10
-81.29146135404412
 20
87.7551189652881
 30
0.0
 40
0.5000000000000081
100
AcDbArc
 50
0.0
 51
92.00000000000361
  0
ARC
  5
1037C
330
18
100
AcDbEntity
  8
01
  6
CONTINUOUS
100
AcDbCircle
 10
-81.29146135404412
 20
87.7551189652881
 30
0.0
 40
0.5
100
AcDbArc
 50
0.0
 51
2.000000000003669
  0
ARC
  5
1037D
330
18
100
AcDbEntity
  8
01
  6
CONTINUOUS
100
AcDbCircle
 10
-81.29146135404412
 20
87.7551189652881
 30
0.0
 40
0.5000000000000081
100
AcDbArc
 50
0.0
 51
92.00000000000361
  0
LINE
  5
1037E
330
18
100
AcDbEntity
  8
01
  6
BYBLOCK
100
AcDbLine
 10
-81.3089111023954
 20
88.25481437879758
 30
0.0
 11
-104.2159588375569
 21
87.45488264510159
 31
0.0
  0
LINE
  5
1037F
330
18
100
AcDbEntity
  8
1CENTER
100
AcDbLine
 10
-110.7099376355307
 20
78.07288412218345
 30
0.0
 11
-84.74359246943627
 21
78.07288412218345
 31
0.0
  0
LINE
  5
10380
330
18
100
AcDbEntity
  8
01
  6
BYBLOCK
100
AcDbLine
 10
-86.0914613540443
 20
82.32288412218345
 30
0.0
 11
-84.09145767603681
 21
82.32288412218345
 31
0.0
  0
LINE
  5
10381
330
18
100
AcDbEntity
  8
01
  6
BYBLOCK
100
AcDbLine
 10
-86.0914613540443
 20
73.82288412218345
 30
0.0
 11
-84.09145767603681
 21
73.82288412218345
 31
0.0
  0
ARC
  5
10382
330
18
100
AcDbEntity
  8
01
100
AcDbCircle
 10
-84.09145767603681
 20
82.62288412218341
 30
0.0
 40
0.3
100
AcDbArc
 50
270.0
 51
0.0
  0
ARC
  5
10383
330
18
100
AcDbEntity
  8
01
100
AcDbCircle
 10
-84.09145767603681
 20
73.5228841221835
 30
0.0
 40
0.3
100
AcDbArc
 50
0.0
 51
90.0
  0
LINE
  5
10384
330
18
100
AcDbEntity
  8
01
  6
CONTINUOUS
100
AcDbLine
 10
-109.0414613540441
 20
-27.67711587781654
 30
0.0
 11
-88.0914613540443
 21
-27.67711587781654
 31
0.0
  0
LINE
  5
10385
330
18
100
AcDbEntity
  8
01
  6
CONTINUOUS
100
AcDbLine
 10
-88.0914613540443
 20
-32.17711587781654
 30
0.0
 11
-109.0414613540441
 21
-32.17711587781654
 31
0.0
  0
LINE
  5
10386
330
18
100
AcDbEntity
  8
01
  6
CONTINUOUS
100
AcDbLine
 10
-88.0914613540443
 20
-27.67711587781654
 30
0.0
 11
-86.0914613540443
 21
-25.67711587781654
 31
0.0
  0
LINE
  5
10387
330
18
100
AcDbEntity
  8
01
  6
CONTINUOUS
100
AcDbLine
 10
-86.0914613540443
 20
-34.17711587781654
 30
0.0
 11
-88.0914613540443
 21
-32.17711587781654
 31
0.0
  0
LINE
  5
10388
330
18
100
AcDbEntity
  8
01
  6
CONTINUOUS
100
AcDbLine
 10
-86.0914613540443
 20
-25.98490390976307
 30
0.0
 11
-86.0914613540443
 21
-33.86932784586978
 31
0.0
  0
LINE
  5
10389
330
18
100
AcDbEntity
  8
01
  6
CONTINUOUS
100
AcDbLine
 10
-80.79146135404412
 20
24.07288412218345
 30
0.0
 11
-80.79146135404412
 21
-39.60935072092119
 31
0.0
  0
LINE
  5
1038A
330
18
100
AcDbEntity
  8
01
  6
CONTINUOUS
100
AcDbLine
 10
-88.0914613540443
 20
-32.17422801895149
 30
0.0
 11
-88.0914613540443
 21
-27.68000373668159
 31
0.0
  0
LINE
  5
1038B
330
18
100
AcDbEntity
  8
01
  6
CONTINUOUS
100
AcDbLine
 10
-86.0914613540443
 20
-33.86932784586978
 30
0.0
 11
-86.0914613540443
 21
-34.17711587781654
 31
0.0
  0
LINE
  5
1038C
330
18
100
AcDbEntity
  8
01
  6
CONTINUOUS
100
AcDbLine
 10
-86.0914613540443
 20
-25.98490390976307
 30
0.0
 11
-86.0914613540443
 21
-33.86932784586978
 31
0.0
  0
LINE
  5
1038D
330
18
100
AcDbEntity
  8
01
  6
CONTINUOUS
100
AcDbLine
 10
-86.0914613540443
 20
-25.98490390976307
 30
0.0
 11
-86.0914613540443
 21
-25.67711587781654
 31
0.0
  0
ARC
  5
1038E
330
18
100
AcDbEntity
  8
01
  6
CONTINUOUS
100
AcDbCircle
 10
-104.0414613540441
 20
-34.31216026563929
 30
0.0
 40
5.000000000000028
100
AcDbArc
 50
180.0
 51
267.9999999999964
  0
ARC
  5
1038F
330
18
100
AcDbEntity
  8
01
  6
CONTINUOUS
100
AcDbCircle
 10
-104.0414613540441
 20
-34.31216026563929
 30
0.0
 40
5.000000000000028
100
AcDbArc
 50
180.0
 51
267.9999999999964
  0
ARC
  5
10390
330
18
100
AcDbEntity
  8
01
  6
CONTINUOUS
100
AcDbCircle
 10
-81.29146135404412
 20
-39.60935072092119
 30
0.0
 40
0.5
100
AcDbArc
 50
357.9999999999963
 51
0.0
  0
ARC
  5
10391
330
18
100
AcDbEntity
  8
01
  6
CONTINUOUS
100
AcDbCircle
 10
-81.29146135404412
 20
-39.60935072092119
 30
0.0
 40
0.5000000000000081
100
AcDbArc
 50
267.9999999999964
 51
357.9999999999964
  0
ARC
  5
10392
330
18
100
AcDbEntity
  8
01
  6
CONTINUOUS
100
AcDbCircle
 10
-81.29146135404412
 20
-39.60935072092119
 30
0.0
 40
0.5000000000000081
100
AcDbArc
 50
267.9999999999964
 51
0.0
  0
ARC
  5
10393
330
18
100
AcDbEntity
  8
01
  6
CONTINUOUS
100
AcDbCircle
 10
-81.29146135404412
 20
-39.60935072092119
 30
0.0
 40
0.5
100
AcDbArc
 50
357.9999999999963
 51
0.0
  0
ARC
  5
10394
330
18
100
AcDbEntity
  8
01
  6
CONTINUOUS
100
AcDbCircle
 10
-81.29146135404412
 20
-39.60935072092119
 30
0.0
 40
0.5000000000000081
100
AcDbArc
 50
267.9999999999964
 51
0.0
  0
LINE
  5
10395
330
18
100
AcDbEntity
  8
01
  6
BYBLOCK
100
AcDbLine
 10
-81.3089111023954
 20
-40.10904613443066
 30
0.0
 11
-104.2159588375569
 21
-39.30911440073468
 31
0.0
  0
LINE
  5
10396
330
18
100
AcDbEntity
  8
1CENTER
100
AcDbLine
 10
-110.7099376355307
 20
-29.92711587781654
 30
0.0
 11
-84.74359246943627
 21
-29.92711587781654
 31
0.0
  0
LINE
  5
10397
330
18
100
AcDbEntity
  8
01
  6
BYBLOCK
100
AcDbLine
 10
-86.0914613540443
 20
-34.17711587781654
 30
0.0
 11
-84.09145767603681
 21
-34.17711587781654
 31
0.0
  0
LINE
  5
10398
330
18
100
AcDbEntity
  8
01
  6
BYBLOCK
100
AcDbLine
 10
-86.0914613540443
 20
-25.67711587781654
 30
0.0
 11
-84.09145767603681
 21
-25.67711587781654
 31
0.0
  0
ARC
  5
10399
330
18
100
AcDbEntity
  8
01
100
AcDbCircle
 10
-84.09145767603681
 20
-34.47711587781649
 30
0.0
 40
0.3
100
AcDbArc
 50
0.0
 51
90.0
  0
ARC
  5
1039A
330
18
100
AcDbEntity
  8
01
100
AcDbCircle
 10
-84.09145767603681
 20
-25.37711587781659
 30
0.0
 40
0.3
100
AcDbArc
 50
270.0
 51
0.0
  0
LINE
  5
1039B
330
18
100
AcDbEntity
  8
01
  6
CONTINUOUS
100
AcDbLine
 10
-83.79146135404412
 20
24.07288412218345
 30
0.0
 11
-83.79146135404412
 21
87.6503566568128
 31
0.0
  0
LINE
  5
1039C
330
18
100
AcDbEntity
  8
01
  6
CONTINUOUS
100
AcDbLine
 10
-83.79146135404412
 20
24.07288412218345
 30
0.0
 11
-83.79146135404412
 21
-39.50458841244589
 31
0.0
  0
ARC
  5
1039D
330
18
100
AcDbEntity
  8
01
100
AcDbCircle
 10
-84.29146135404412
 20
87.6503566568128
 30
0.0
 40
0.5
100
AcDbArc
 50
0.0
 51
92.00000000000367
  0
ARC
  5
1039E
330
18
100
AcDbEntity
  8
01
100
AcDbCircle
 10
-84.29146135404412
 20
-39.50458841244589
 30
0.0
 40
0.5
100
AcDbArc
 50
267.9999999999964
 51
0.0
  0
LINE
  5
10481
330
18
100
AcDbEntity
  8
01
  6
CONTINUOUS
100
AcDbLine
 10
-31.40495345635321
 20
-45.78067259282993
 30
0.0
 11
-31.40495345635321
 21
94.21932614057137
 31
0.0
  0
LINE
  5
10482
330
18
100
AcDbEntity
  8
01
  6
CONTINUOUS
100
AcDbLine
 10
21.59504734830944
 20
-45.78067259282993
 30
0.0
 11
21.59504734830944
 21
94.21932614057137
 31
0.0
  0
LINE
  5
1062C
330
18
100
AcDbEntity
  8
01
  6
CONTINUOUS
100
AcDbLine
 10
55.01982395976063
 20
-38.90981640971726
 30
0.0
 11
54.92227880490225
 21
-38.91151933304494
 31
0.0
  0
LINE
  5
1062D
330
18
100
AcDbEntity
  8
01
  6
CONTINUOUS
100
AcDbLine
 10
54.92227880490225
 20
-38.91151933304494
 30
0.0
 11
54.82848228161436
 21
-38.91315613246983
 31
0.0
  0
LINE
  5
1062E
330
18
100
AcDbEntity
  8
01
  6
CONTINUOUS
100
AcDbLine
 10
54.82848228161436
 20
-38.91315613246983
 30
0.0
 11
54.74203884109136
 21
-38.91466534070199
 31
0.0
  0
LINE
  5
1062F
330
18
100
AcDbEntity
  8
01
  6
CONTINUOUS
100
AcDbLine
 10
54.74203884109136
 20
-38.91466534070199
 30
0.0
 11
54.66627056916457
 21
-38.91598781875795
 31
0.0
  0
LINE
  5
10630
330
18
100
AcDbEntity
  8
01
  6
CONTINUOUS
100
AcDbLine
 10
54.66627056916457
 20
-38.91598781875795
 30
0.0
 11
54.60408918765586
 21
-38.91707327521866
 31
0.0
  0
LINE
  5
10631
330
18
100
AcDbEntity
  8
01
  6
CONTINUOUS
100
AcDbLine
 10
54.60408918765586
 20
-38.91707327521866
 30
0.0
 11
54.55788417925339
 21
-38.91787980056828
 31
0.0
  0
LINE
  5
10632
330
18
100
AcDbEntity
  8
01
  6
CONTINUOUS
100
AcDbLine
 10
54.55788417925339
 20
-38.91787980056828
 30
0.0
 11
54.52943134327631
 21
-38.91837619550055
 31
0.0
  0
LINE
  5
10633
330
18
100
AcDbEntity
  8
01
  6
CONTINUOUS
100
AcDbLine
 10
54.52943134327631
 20
-38.91837619550055
 30
0.0
 11
54.51982399421956
 21
-38.91854383356398
 31
0.0
  0
LINE
  5
10634
330
18
100
AcDbEntity
  8
01
  6
CONTINUOUS
100
AcDbLine
 10
55.01982395976063
 20
87.05558186091953
 30
0.0
 11
54.92227880490225
 21
87.05728059329563
 31
0.0
  0
LINE
  5
10635
330
18
100
AcDbEntity
  8
01
  6
CONTINUOUS
100
AcDbLine
 10
54.92227880490225
 20
87.05728059329563
 30
0.0
 11
54.82848228161436
 21
87.05891972102695
 31
0.0
  0
LINE
  5
10636
330
18
100
AcDbEntity
  8
01
  6
CONTINUOUS
100
AcDbLine
 10
54.82848228161436
 20
87.05891972102695
 30
0.0
 11
54.74203884109136
 21
87.06042473830753
 31
0.0
  0
LINE
  5
10637
330
18
100
AcDbEntity
  8
01
  6
CONTINUOUS
100
AcDbLine
 10
54.74203884109136
 20
87.06042473830753
 30
0.0
 11
54.66627056916457
 21
87.06175094165378
 31
0.0
  0
LINE
  5
10638
330
18
100
AcDbEntity
  8
01
  6
CONTINUOUS
100
AcDbLine
 10
54.66627056916457
 20
87.06175094165378
 30
0.0
 11
54.60408918765586
 21
87.06283872642094
 31
0.0
  0
LINE
  5
10639
330
18
100
AcDbEntity
  8
01
  6
CONTINUOUS
100
AcDbLine
 10
54.60408918765586
 20
87.06283872642094
 30
0.0
 11
54.55788417925339
 21
87.0636433891254
 31
0.0
  0
LINE
  5
1063A
330
18
100
AcDbEntity
  8
01
  6
CONTINUOUS
100
AcDbLine
 10
54.55788417925339
 20
87.0636433891254
 30
0.0
 11
54.52943134327631
 21
87.0641351274448
 31
0.0
  0
LINE
  5
1063B
330
18
100
AcDbEntity
  8
01
  6
CONTINUOUS
100
AcDbLine
 10
54.52943134327631
 20
87.0641351274448
 30
0.0
 11
54.51982399421956
 21
87.06429904021793
 31
0.0
  0
LINE
  5
1069F
330
18
100
AcDbEntity
  8
1CENTER
100
AcDbLine
 10
-142.4959017016038
 20
78.07293065808126
 30
0.0
 11
-84.66276865422901
 21
78.07293065808126
 31
0.0
  0
LINE
  5
106A1
330
18
100
AcDbEntity
  8
01
100
AcDbLine
 10
-125.9414101643399
 20
80.07288412218334
 30
0.0
 11
-126.7414008571625
 21
76.07288412218334
 31
0.0
  0
LINE
  5
106A2
330
18
100
AcDbEntity
  8
01
100
AcDbLine
 10
-138.1414024375708
 20
76.7521052787941
 30
0.0
 11
-138.3241665801988
 21
77.30385474259738
 31
0.0
  0
LINE
  5
106A3
330
18
100
AcDbEntity
  8
01
100
AcDbLine
 10
-137.3414091107297
 20
79.6200679801246
 30
0.0
 11
-138.1414024375708
 21
76.7521052787941
 31
0.0
  0
LINE
  5
106A4
330
18
100
AcDbEntity
  8
01
100
AcDbLine
 10
-127.54141016434
 20
80.07288412218334
 30
0.0
 11
-128.3414008571625
 21
76.07288412218334
 31
0.0
  0
LINE
  5
106A5
330
18
100
AcDbEntity
  8
01
100
AcDbLine
 10
-129.14141016434
 20
80.07288412218334
 30
0.0
 11
-129.9414008571626
 21
76.07288412218334
 31
0.0
  0
LINE
  5
106A6
330
18
100
AcDbEntity
  8
01
100
AcDbLine
 10
-135.7414101643399
 20
80.07288412218334
 30
0.0
 11
-136.5414013839652
 21
76.2992911743873
 31
0.0
  0
LINE
  5
106A7
330
18
100
AcDbEntity
  8
01
100
AcDbLine
 10
-122.7414101643399
 20
80.07288412218334
 30
0.0
 11
-123.5414008571625
 21
76.07288412218334
 31
0.0
  0
LINE
  5
106A8
330
18
100
AcDbEntity
  8
01
100
AcDbLine
 10
-124.34141016434
 20
80.07288412218334
 30
0.0
 11
-125.1414008571626
 21
76.07288412218334
 31
0.0
  0
LINE
  5
106A9
330
18
100
AcDbEntity
  8
01
100
AcDbLine
 10
-130.74141016434
 20
80.07288412218334
 30
0.0
 11
-131.5414008571626
 21
76.07288412218334
 31
0.0
  0
LINE
  5
106AA
330
18
100
AcDbEntity
  8
01
100
AcDbLine
 10
-132.34141016434
 20
80.07288412218334
 30
0.0
 11
-133.1414008571626
 21
76.07288412218334
 31
0.0
  0
LINE
  5
106AB
330
18
100
AcDbEntity
  8
01
100
AcDbLine
 10
-133.9414101643401
 20
80.07288412218334
 30
0.0
 11
-134.7414008571626
 21
76.07288412218334
 31
0.0
  0
LINE
  5
106AC
330
18
100
AcDbEntity
  8
01
100
AcDbLine
 10
-137.2286395983797
 20
79.15196952497463
 30
0.0
 11
-137.3414091107297
 21
79.6200679801246
 31
0.0
  0
LINE
  5
106AD
330
18
100
AcDbEntity
  8
01
100
AcDbLine
 10
-139.7414034911765
 20
77.2049193832009
 30
0.0
 11
-140.0531733474286
 21
77.79319595824332
 31
0.0
  0
LINE
  5
106AE
330
18
100
AcDbEntity
  8
01
100
AcDbLine
 10
-138.7899722606851
 20
78.71008263144525
 30
0.0
 11
-138.9414080571255
 21
79.16725447207632
 31
0.0
  0
LINE
  5
106AF
330
18
100
AcDbEntity
  8
01
100
AcDbLine
 10
-138.9414080571255
 20
79.16725447207632
 30
0.0
 11
-139.7414034911765
 21
77.2049193832009
 31
0.0
  0
LINE
  5
106B0
330
18
100
AcDbEntity
  8
01
100
AcDbLine
 10
-129.0414090009429
 20
79.57288412218334
 30
0.0
 11
-129.14141016434
 21
80.07288412218334
 31
0.0
  0
LINE
  5
106B1
330
18
100
AcDbEntity
  8
01
100
AcDbLine
 10
-135.6414090009428
 20
79.57288412218334
 30
0.0
 11
-135.7414101643399
 21
80.07288412218334
 31
0.0
  0
LINE
  5
106B2
330
18
100
AcDbEntity
  8
01
100
AcDbLine
 10
-127.4414090009427
 20
79.57288412218334
 30
0.0
 11
-127.54141016434
 21
80.07288412218334
 31
0.0
  0
LINE
  5
106B3
330
18
100
AcDbEntity
  8
01
100
AcDbLine
 10
-125.8414090009428
 20
79.57288412218334
 30
0.0
 11
-125.9414101643399
 21
80.07288412218334
 31
0.0
  0
LINE
  5
106B4
330
18
100
AcDbEntity
  8
01
100
AcDbLine
 10
-124.2414090009429
 20
79.57288412218334
 30
0.0
 11
-124.34141016434
 21
80.07288412218334
 31
0.0
  0
LINE
  5
106B5
330
18
100
AcDbEntity
  8
01
100
AcDbLine
 10
-122.6414090009428
 20
79.57288412218334
 30
0.0
 11
-122.7414101643399
 21
80.07288412218334
 31
0.0
  0
LINE
  5
106B6
330
18
100
AcDbEntity
  8
01
100
AcDbLine
 10
-130.6414090009429
 20
79.57288412218334
 30
0.0
 11
-130.74141016434
 21
80.07288412218334
 31
0.0
  0
LINE
  5
106B7
330
18
100
AcDbEntity
  8
01
100
AcDbLine
 10
-132.2414090009429
 20
79.57288412218334
 30
0.0
 11
-132.34141016434
 21
80.07288412218334
 31
0.0
  0
LINE
  5
106B8
330
18
100
AcDbEntity
  8
01
100
AcDbLine
 10
-133.8414090009429
 20
79.57288412218334
 30
0.0
 11
-133.9414101643401
 21
80.07288412218334
 31
0.0
  0
LINE
  5
106B9
330
18
100
AcDbEntity
  8
01
100
AcDbLine
 10
-126.7414008571625
 20
76.07288412218334
 30
0.0
 11
-126.8414020205597
 21
76.57288412218334
 31
0.0
  0
LINE
  5
106BA
330
18
100
AcDbEntity
  8
01
100
AcDbLine
 10
-129.9414008571626
 20
76.07288412218334
 30
0.0
 11
-130.0414020205597
 21
76.57288412218334
 31
0.0
  0
LINE
  5
106BB
330
18
100
AcDbEntity
  8
01
100
AcDbLine
 10
-128.3414008571625
 20
76.07288412218334
 30
0.0
 11
-128.4414020205595
 21
76.57288412218334
 31
0.0
  0
LINE
  5
106BC
330
18
100
AcDbEntity
  8
01
100
AcDbLine
 10
-136.5414013839652
 20
76.2992911743873
 30
0.0
 11
-136.6706720815951
 21
76.83588490965845
 31
0.0
  0
LINE
  5
106BD
330
18
100
AcDbEntity
  8
01
100
AcDbLine
 10
-125.1414008571626
 20
76.07288412218334
 30
0.0
 11
-125.2414020205597
 21
76.57288412218334
 31
0.0
  0
LINE
  5
106BE
330
18
100
AcDbEntity
  8
01
100
AcDbLine
 10
-123.5414008571625
 20
76.07288412218334
 30
0.0
 11
-123.6414020205597
 21
76.57288412218334
 31
0.0
  0
LINE
  5
106BF
330
18
100
AcDbEntity
  8
01
100
AcDbLine
 10
-131.5414008571626
 20
76.07288412218334
 30
0.0
 11
-131.6414020205597
 21
76.57288412218334
 31
0.0
  0
LINE
  5
106C0
330
18
100
AcDbEntity
  8
01
100
AcDbLine
 10
-133.1414008571626
 20
76.07288412218334
 30
0.0
 11
-133.2414020205597
 21
76.57288412218334
 31
0.0
  0
LINE
  5
106C1
330
18
100
AcDbEntity
  8
01
100
AcDbLine
 10
-134.7414008571626
 20
76.07288412218334
 30
0.0
 11
-134.8414020205597
 21
76.57288412218334
 31
0.0
  0
LINE
  5
106C2
330
18
100
AcDbEntity
  8
01
100
AcDbLine
 10
-89.14141016431805
 20
80.07288412218334
 30
0.0
 11
-89.9414008571363
 21
76.07288412218334
 31
0.0
  0
LINE
  5
106C3
330
18
100
AcDbEntity
  8
01
100
AcDbLine
 10
-90.74141016432239
 20
80.07288412218334
 30
0.0
 11
-91.54140085714064
 21
76.07288412218334
 31
0.0
  0
LINE
  5
106C4
330
18
100
AcDbEntity
  8
01
100
AcDbLine
 10
-93.94141016432243
 20
80.07288412218334
 30
0.0
 11
-94.74140085714069
 21
76.07288412218334
 31
0.0
  0
LINE
  5
106C5
330
18
100
AcDbEntity
  8
01
100
AcDbLine
 10
-92.3414101643223
 20
80.07288412218334
 30
0.0
 11
-93.14140085714055
 21
76.07288412218334
 31
0.0
  0
LINE
  5
106C6
330
18
100
AcDbEntity
  8
01
100
AcDbLine
 10
-98.74141016433103
 20
80.07288412218334
 30
0.0
 11
-99.54140085714928
 21
76.07288412218334
 31
0.0
  0
LINE
  5
106C7
330
18
100
AcDbEntity
  8
01
100
AcDbLine
 10
-100.3414101643312
 20
80.07288412218334
 30
0.0
 11
-101.1414008571494
 21
76.07288412218334
 31
0.0
  0
LINE
  5
106C8
330
18
100
AcDbEntity
  8
01
100
AcDbLine
 10
-97.14141016433112
 20
80.07288412218334
 30
0.0
 11
-97.94140085714938
 21
76.07288412218334
 31
0.0
  0
LINE
  5
106C9
330
18
100
AcDbEntity
  8
01
100
AcDbLine
 10
-95.54141016432678
 20
80.07288412218334
 30
0.0
 11
-96.34140085714503
 21
76.07288412218334
 31
0.0
  0
LINE
  5
106CA
330
18
100
AcDbEntity
  8
01
100
AcDbLine
 10
-113.1414101643312
 20
80.07288412218334
 30
0.0
 11
-113.9414008571538
 21
76.07288412218334
 31
0.0
  0
LINE
  5
106CB
330
18
100
AcDbEntity
  8
01
100
AcDbLine
 10
-111.5414101643312
 20
80.07288412218334
 30
0.0
 11
-112.3414008571538
 21
76.07288412218334
 31
0.0
  0
LINE
  5
106CC
330
18
100
AcDbEntity
  8
01
100
AcDbLine
 10
-105.1414101643312
 20
80.07288412218334
 30
0.0
 11
-105.9414008571538
 21
76.07288412218334
 31
0.0
  0
LINE
  5
106CD
330
18
100
AcDbEntity
  8
01
100
AcDbLine
 10
-103.5414101643311
 20
80.07288412218334
 30
0.0
 11
-104.3414008571537
 21
76.07288412218334
 31
0.0
  0
LINE
  5
106CE
330
18
100
AcDbEntity
  8
01
100
AcDbLine
 10
-109.9414101643312
 20
80.07288412218334
 30
0.0
 11
-110.7414008571538
 21
76.07288412218334
 31
0.0
  0
LINE
  5
106CF
330
18
100
AcDbEntity
  8
01
100
AcDbLine
 10
-108.3414101643312
 20
80.07288412218334
 30
0.0
 11
-109.1414008571537
 21
76.07288412218334
 31
0.0
  0
LINE
  5
106D0
330
18
100
AcDbEntity
  8
01
100
AcDbLine
 10
-106.7414101643311
 20
80.07288412218334
 30
0.0
 11
-107.5414008571537
 21
76.07288412218334
 31
0.0
  0
LINE
  5
106D1
330
18
100
AcDbEntity
  8
01
100
AcDbLine
 10
-114.7414101643356
 20
80.07288412218334
 30
0.0
 11
-115.5414008571538
 21
76.07288412218334
 31
0.0
  0
LINE
  5
106D2
330
18
100
AcDbEntity
  8
01
100
AcDbLine
 10
-116.3414101643399
 20
80.07288412218334
 30
0.0
 11
-117.1414008571582
 21
76.07288412218334
 31
0.0
  0
LINE
  5
106D3
330
18
100
AcDbEntity
  8
01
100
AcDbLine
 10
-119.54141016434
 20
80.07288412218334
 30
0.0
 11
-120.3414008571582
 21
76.07288412218334
 31
0.0
  0
LINE
  5
106D4
330
18
100
AcDbEntity
  8
01
100
AcDbLine
 10
-121.14141016434
 20
80.07288412218334
 30
0.0
 11
-121.9414008571626
 21
76.07288412218334
 31
0.0
  0
LINE
  5
106D5
330
18
100
AcDbEntity
  8
01
100
AcDbLine
 10
-117.9414101643398
 20
80.07288412218334
 30
0.0
 11
-118.7414008571581
 21
76.07288412218334
 31
0.0
  0
LINE
  5
106D6
330
18
100
AcDbEntity
  8
01
100
AcDbLine
 10
-101.9414101643312
 20
80.07288412218334
 30
0.0
 11
-102.7414008571538
 21
76.07288412218334
 31
0.0
  0
LINE
  5
106D7
330
18
100
AcDbEntity
  8
01
100
AcDbLine
 10
-86.34141481814632
 20
82.07293065808126
 30
0.0
 11
-86.34139620378724
 21
74.07293065808126
 31
0.0
  0
LINE
  5
106D8
330
18
100
AcDbEntity
  8
01
100
AcDbLine
 10
-113.0414090009341
 20
79.57288412218334
 30
0.0
 11
-113.1414101643312
 21
80.07288412218334
 31
0.0
  0
LINE
  5
106D9
330
18
100
AcDbEntity
  8
01
100
AcDbLine
 10
-111.4414090009341
 20
79.57288412218334
 30
0.0
 11
-111.5414101643312
 21
80.07288412218334
 31
0.0
  0
LINE
  5
106DA
330
18
100
AcDbEntity
  8
01
100
AcDbLine
 10
-103.441409000934
 20
79.57288412218334
 30
0.0
 11
-103.5414101643311
 21
80.07288412218334
 31
0.0
  0
LINE
  5
106DB
330
18
100
AcDbEntity
  8
01
100
AcDbLine
 10
-105.0414090009341
 20
79.57288412218334
 30
0.0
 11
-105.1414101643312
 21
80.07288412218334
 31
0.0
  0
LINE
  5
106DC
330
18
100
AcDbEntity
  8
01
100
AcDbLine
 10
-106.641409000934
 20
79.57288412218334
 30
0.0
 11
-106.7414101643311
 21
80.07288412218334
 31
0.0
  0
LINE
  5
106DD
330
18
100
AcDbEntity
  8
01
100
AcDbLine
 10
-108.2414090009339
 20
79.57288412218334
 30
0.0
 11
-108.3414101643312
 21
80.07288412218334
 31
0.0
  0
LINE
  5
106DE
330
18
100
AcDbEntity
  8
01
100
AcDbLine
 10
-109.8414090009341
 20
79.57288412218334
 30
0.0
 11
-109.9414101643312
 21
80.07288412218334
 31
0.0
  0
LINE
  5
106DF
330
18
100
AcDbEntity
  8
01
100
AcDbLine
 10
-121.0414090009422
 20
79.57288412218334
 30
0.0
 11
-121.14141016434
 21
80.07288412218334
 31
0.0
  0
LINE
  5
106E0
330
18
100
AcDbEntity
  8
01
100
AcDbLine
 10
-117.8414090009421
 20
79.57288412218334
 30
0.0
 11
-117.9414101643398
 21
80.07288412218334
 31
0.0
  0
LINE
  5
106E1
330
18
100
AcDbEntity
  8
01
100
AcDbLine
 10
-119.4414090009423
 20
79.57288412218334
 30
0.0
 11
-119.54141016434
 21
80.07288412218334
 31
0.0
  0
LINE
  5
106E2
330
18
100
AcDbEntity
  8
01
100
AcDbLine
 10
-116.2414090009422
 20
79.57288412218334
 30
0.0
 11
-116.3414101643399
 21
80.07288412218334
 31
0.0
  0
LINE
  5
106E3
330
18
100
AcDbEntity
  8
01
100
AcDbLine
 10
-114.6414090009379
 20
79.57288412218334
 30
0.0
 11
-114.7414101643356
 21
80.07288412218334
 31
0.0
  0
LINE
  5
106E4
330
18
100
AcDbEntity
  8
01
100
AcDbLine
 10
-92.24140900092462
 20
79.57288412218334
 30
0.0
 11
-92.3414101643223
 21
80.07288412218334
 31
0.0
  0
LINE
  5
106E5
330
18
100
AcDbEntity
  8
01
100
AcDbLine
 10
-93.84140900092476
 20
79.57288412218334
 30
0.0
 11
-93.94141016432243
 21
80.07288412218334
 31
0.0
  0
LINE
  5
106E6
330
18
100
AcDbEntity
  8
01
100
AcDbLine
 10
-90.64140900092471
 20
79.57288412218334
 30
0.0
 11
-90.74141016432239
 21
80.07288412218334
 31
0.0
  0
LINE
  5
106E7
330
18
100
AcDbEntity
  8
01
100
AcDbLine
 10
-89.04140900092037
 20
79.57288412218334
 30
0.0
 11
-89.14141016431805
 21
80.07288412218334
 31
0.0
  0
LINE
  5
106E8
330
18
100
AcDbEntity
  8
01
100
AcDbLine
 10
-95.4414090009291
 20
79.57288412218334
 30
0.0
 11
-95.54141016432678
 21
80.07288412218334
 31
0.0
  0
LINE
  5
106E9
330
18
100
AcDbEntity
  8
01
100
AcDbLine
 10
-97.04140900093344
 20
79.57288412218334
 30
0.0
 11
-97.14141016433112
 21
80.07288412218334
 31
0.0
  0
LINE
  5
106EA
330
18
100
AcDbEntity
  8
01
100
AcDbLine
 10
-100.2414090009335
 20
79.57288412218334
 30
0.0
 11
-100.3414101643312
 21
80.07288412218334
 31
0.0
  0
LINE
  5
106EB
330
18
100
AcDbEntity
  8
01
100
AcDbLine
 10
-98.64140900093335
 20
79.57288412218334
 30
0.0
 11
-98.74141016433103
 21
80.07288412218334
 31
0.0
  0
LINE
  5
106EC
330
18
100
AcDbEntity
  8
01
100
AcDbLine
 10
-101.8414090009334
 20
79.57288412218334
 30
0.0
 11
-101.9414101643312
 21
80.07288412218334
 31
0.0
  0
LINE
  5
106ED
330
18
100
AcDbEntity
  8
01
100
AcDbLine
 10
-102.7414008571538
 20
76.07288412218334
 30
0.0
 11
-102.8414020205509
 21
76.57288412218334
 31
0.0
  0
LINE
  5
106EE
330
18
100
AcDbEntity
  8
01
100
AcDbLine
 10
-113.9414008571538
 20
76.07288412218334
 30
0.0
 11
-114.0414020205509
 21
76.57288412218334
 31
0.0
  0
LINE
  5
106EF
330
18
100
AcDbEntity
  8
01
100
AcDbLine
 10
-112.3414008571538
 20
76.07288412218334
 30
0.0
 11
-112.4414020205509
 21
76.57288412218334
 31
0.0
  0
LINE
  5
106F0
330
18
100
AcDbEntity
  8
01
100
AcDbLine
 10
-104.3414008571537
 20
76.07288412218334
 30
0.0
 11
-104.4414020205509
 21
76.57288412218334
 31
0.0
  0
LINE
  5
106F1
330
18
100
AcDbEntity
  8
01
100
AcDbLine
 10
-105.9414008571538
 20
76.07288412218334
 30
0.0
 11
-106.0414020205509
 21
76.57288412218334
 31
0.0
  0
LINE
  5
106F2
330
18
100
AcDbEntity
  8
01
100
AcDbLine
 10
-109.1414008571537
 20
76.07288412218334
 30
0.0
 11
-109.2414020205507
 21
76.57288412218334
 31
0.0
  0
LINE
  5
106F3
330
18
100
AcDbEntity
  8
01
100
AcDbLine
 10
-110.7414008571538
 20
76.07288412218334
 30
0.0
 11
-110.8414020205509
 21
76.57288412218334
 31
0.0
  0
LINE
  5
106F4
330
18
100
AcDbEntity
  8
01
100
AcDbLine
 10
-107.5414008571537
 20
76.07288412218334
 30
0.0
 11
-107.6414020205509
 21
76.57288412218334
 31
0.0
  0
LINE
  5
106F5
330
18
100
AcDbEntity
  8
01
100
AcDbLine
 10
-120.3414008571582
 20
76.07288412218334
 30
0.0
 11
-120.4414020205559
 21
76.57288412218334
 31
0.0
  0
LINE
  5
106F6
330
18
100
AcDbEntity
  8
01
100
AcDbLine
 10
-121.9414008571626
 20
76.07288412218334
 30
0.0
 11
-122.0414020205597
 21
76.57288412218334
 31
0.0
  0
LINE
  5
106F7
330
18
100
AcDbEntity
  8
01
100
AcDbLine
 10
-117.1414008571582
 20
76.07288412218334
 30
0.0
 11
-117.2414020205559
 21
76.57288412218334
 31
0.0
  0
LINE
  5
106F8
330
18
100
AcDbEntity
  8
01
100
AcDbLine
 10
-118.7414008571581
 20
76.07288412218334
 30
0.0
 11
-118.8414020205558
 21
76.57288412218334
 31
0.0
  0
LINE
  5
106F9
330
18
100
AcDbEntity
  8
01
100
AcDbLine
 10
-115.5414008571538
 20
76.07288412218334
 30
0.0
 11
-115.6414020205515
 21
76.57288412218334
 31
0.0
  0
LINE
  5
106FA
330
18
100
AcDbEntity
  8
01
100
AcDbLine
 10
-94.74140085714069
 20
76.07288412218334
 30
0.0
 11
-94.84140202053837
 21
76.57288412218334
 31
0.0
  0
LINE
  5
106FB
330
18
100
AcDbEntity
  8
01
100
AcDbLine
 10
-91.54140085714064
 20
76.07288412218334
 30
0.0
 11
-91.64140202053832
 21
76.57288412218334
 31
0.0
  0
LINE
  5
106FC
330
18
100
AcDbEntity
  8
01
100
AcDbLine
 10
-93.14140085714055
 20
76.07288412218334
 30
0.0
 11
-93.24140202053823
 21
76.57288412218334
 31
0.0
  0
LINE
  5
106FD
330
18
100
AcDbEntity
  8
01
100
AcDbLine
 10
-89.9414008571363
 20
76.07288412218334
 30
0.0
 11
-90.04140202053398
 21
76.57288412218334
 31
0.0
  0
LINE
  5
106FE
330
18
100
AcDbEntity
  8
01
100
AcDbLine
 10
-96.34140085714503
 20
76.07288412218334
 30
0.0
 11
-96.44140202054271
 21
76.57288412218334
 31
0.0
  0
LINE
  5
106FF
330
18
100
AcDbEntity
  8
01
100
AcDbLine
 10
-99.54140085714928
 20
76.07288412218334
 30
0.0
 11
-99.64140202054696
 21
76.57288412218334
 31
0.0
  0
LINE
  5
10700
330
18
100
AcDbEntity
  8
01
100
AcDbLine
 10
-97.94140085714938
 20
76.07288412218334
 30
0.0
 11
-98.04140202054705
 21
76.57288412218334
 31
0.0
  0
LINE
  5
10701
330
18
100
AcDbEntity
  8
01
100
AcDbLine
 10
-101.1414008571494
 20
76.07288412218334
 30
0.0
 11
-101.2414020205471
 21
76.57288412218334
 31
0.0
  0
LINE
  5
10765
330
18
100
AcDbEntity
  8
1CENTER
100
AcDbLine
 10
-142.4959482375016
 20
-29.92711587781653
 30
0.0
 11
-84.66281519012682
 21
-29.92711587781654
 31
0.0
  0
LINE
  5
10767
330
18
100
AcDbEntity
  8
01
100
AcDbLine
 10
-125.9414567002378
 20
-27.92716241371446
 30
0.0
 11
-126.7414473930603
 21
-31.92716241371446
 31
0.0
  0
LINE
  5
10768
330
18
100
AcDbEntity
  8
01
100
AcDbLine
 10
-138.1414489734686
 20
-31.24794125710369
 30
0.0
 11
-138.3242131160966
 21
-30.69619179330041
 31
0.0
  0
LINE
  5
10769
330
18
100
AcDbEntity
  8
01
100
AcDbLine
 10
-137.3414556466275
 20
-28.37997855577319
 30
0.0
 11
-138.1414489734686
 21
-31.24794125710369
 31
0.0
  0
LINE
  5
1076A
330
18
100
AcDbEntity
  8
01
100
AcDbLine
 10
-127.5414567002378
 20
-27.92716241371446
 30
0.0
 11
-128.3414473930603
 21
-31.92716241371446
 31
0.0
  0
LINE
  5
1076B
330
18
100
AcDbEntity
  8
01
100
AcDbLine
 10
-129.1414567002378
 20
-27.92716241371446
 30
0.0
 11
-129.9414473930604
 21
-31.92716241371446
 31
0.0
  0
LINE
  5
1076C
330
18
100
AcDbEntity
  8
01
100
AcDbLine
 10
-135.7414567002377
 20
-27.92716241371446
 30
0.0
 11
-136.541447919863
 21
-31.70075536151049
 31
0.0
  0
LINE
  5
1076D
330
18
100
AcDbEntity
  8
01
100
AcDbLine
 10
-122.7414567002377
 20
-27.92716241371446
 30
0.0
 11
-123.5414473930603
 21
-31.92716241371446
 31
0.0
  0
LINE
  5
1076E
330
18
100
AcDbEntity
  8
01
100
AcDbLine
 10
-124.3414567002378
 20
-27.92716241371446
 30
0.0
 11
-125.1414473930604
 21
-31.92716241371446
 31
0.0
  0
LINE
  5
1076F
330
18
100
AcDbEntity
  8
01
100
AcDbLine
 10
-130.7414567002378
 20
-27.92716241371446
 30
0.0
 11
-131.5414473930604
 21
-31.92716241371446
 31
0.0
  0
LINE
  5
10770
330
18
100
AcDbEntity
  8
01
100
AcDbLine
 10
-132.3414567002378
 20
-27.92716241371446
 30
0.0
 11
-133.1414473930604
 21
-31.92716241371446
 31
0.0
  0
LINE
  5
10771
330
18
100
AcDbEntity
  8
01
100
AcDbLine
 10
-133.9414567002379
 20
-27.92716241371446
 30
0.0
 11
-134.7414473930604
 21
-31.92716241371446
 31
0.0
  0
LINE
  5
10772
330
18
100
AcDbEntity
  8
01
100
AcDbLine
 10
-137.2286861342775
 20
-28.84807701092316
 30
0.0
 11
-137.3414556466275
 21
-28.37997855577319
 31
0.0
  0
LINE
  5
10773
330
18
100
AcDbEntity
  8
01
100
AcDbLine
 10
-139.7414500270743
 20
-30.79512715269689
 30
0.0
 11
-140.0532198833264
 21
-30.20685057765448
 31
0.0
  0
LINE
  5
10774
330
18
100
AcDbEntity
  8
01
100
AcDbLine
 10
-138.7900187965829
 20
-29.28996390445255
 30
0.0
 11
-138.9414545930233
 21
-28.83279206382147
 31
0.0
  0
LINE
  5
10775
330
18
100
AcDbEntity
  8
01
100
AcDbLine
 10
-138.9414545930233
 20
-28.83279206382147
 30
0.0
 11
-139.7414500270743
 21
-30.79512715269689
 31
0.0
  0
LINE
  5
10776
330
18
100
AcDbEntity
  8
01
100
AcDbLine
 10
-129.0414555368407
 20
-28.42716241371446
 30
0.0
 11
-129.1414567002378
 21
-27.92716241371446
 31
0.0
  0
LINE
  5
10777
330
18
100
AcDbEntity
  8
01
100
AcDbLine
 10
-135.6414555368406
 20
-28.42716241371446
 30
0.0
 11
-135.7414567002377
 21
-27.92716241371446
 31
0.0
  0
LINE
  5
10778
330
18
100
AcDbEntity
  8
01
100
AcDbLine
 10
-127.4414555368406
 20
-28.42716241371446
 30
0.0
 11
-127.5414567002378
 21
-27.92716241371446
 31
0.0
  0
LINE
  5
10779
330
18
100
AcDbEntity
  8
01
100
AcDbLine
 10
-125.8414555368406
 20
-28.42716241371446
 30
0.0
 11
-125.9414567002378
 21
-27.92716241371446
 31
0.0
  0
LINE
  5
1077A
330
18
100
AcDbEntity
  8
01
100
AcDbLine
 10
-124.2414555368407
 20
-28.42716241371446
 30
0.0
 11
-124.3414567002378
 21
-27.92716241371446
 31
0.0
  0
LINE
  5
1077B
330
18
100
AcDbEntity
  8
01
100
AcDbLine
 10
-122.6414555368406
 20
-28.42716241371446
 30
0.0
 11
-122.7414567002377
 21
-27.92716241371446
 31
0.0
  0
LINE
  5
1077C
330
18
100
AcDbEntity
  8
01
100
AcDbLine
 10
-130.6414555368407
 20
-28.42716241371446
 30
0.0
 11
-130.7414567002378
 21
-27.92716241371446
 31
0.0
  0
LINE
  5
1077D
330
18
100
AcDbEntity
  8
01
100
AcDbLine
 10
-132.2414555368407
 20
-28.42716241371446
 30
0.0
 11
-132.3414567002378
 21
-27.92716241371446
 31
0.0
  0
LINE
  5
1077E
330
18
100
AcDbEntity
  8
01
100
AcDbLine
 10
-133.8414555368408
 20
-28.42716241371446
 30
0.0
 11
-133.9414567002379
 21
-27.92716241371446
 31
0.0
  0
LINE
  5
1077F
330
18
100
AcDbEntity
  8
01
100
AcDbLine
 10
-126.7414473930603
 20
-31.92716241371446
 30
0.0
 11
-126.8414485564576
 21
-31.42716241371446
 31
0.0
  0
LINE
  5
10780
330
18
100
AcDbEntity
  8
01
100
AcDbLine
 10
-129.9414473930604
 20
-31.92716241371446
 30
0.0
 11
-130.0414485564575
 21
-31.42716241371446
 31
0.0
  0
LINE
  5
10781
330
18
100
AcDbEntity
  8
01
100
AcDbLine
 10
-128.3414473930603
 20
-31.92716241371446
 30
0.0
 11
-128.4414485564573
 21
-31.42716241371446
 31
0.0
  0
LINE
  5
10782
330
18
100
AcDbEntity
  8
01
100
AcDbLine
 10
-136.541447919863
 20
-31.70075536151049
 30
0.0
 11
-136.6707186174929
 21
-31.16416162623935
 31
0.0
  0
LINE
  5
10783
330
18
100
AcDbEntity
  8
01
100
AcDbLine
 10
-125.1414473930604
 20
-31.92716241371446
 30
0.0
 11
-125.2414485564575
 21
-31.42716241371446
 31
0.0
  0
LINE
  5
10784
330
18
100
AcDbEntity
  8
01
100
AcDbLine
 10
-123.5414473930603
 20
-31.92716241371446
 30
0.0
 11
-123.6414485564575
 21
-31.42716241371446
 31
0.0
  0
LINE
  5
10785
330
18
100
AcDbEntity
  8
01
100
AcDbLine
 10
-131.5414473930604
 20
-31.92716241371446
 30
0.0
 11
-131.6414485564575
 21
-31.42716241371446
 31
0.0
  0
LINE
  5
10786
330
18
100
AcDbEntity
  8
01
100
AcDbLine
 10
-133.1414473930604
 20
-31.92716241371446
 30
0.0
 11
-133.2414485564575
 21
-31.42716241371446
 31
0.0
  0
LINE
  5
10787
330
18
100
AcDbEntity
  8
01
100
AcDbLine
 10
-134.7414473930604
 20
-31.92716241371446
 30
0.0
 11
-134.8414485564576
 21
-31.42716241371446
 31
0.0
  0
LINE
  5
10788
330
18
100
AcDbEntity
  8
01
100
AcDbLine
 10
-89.14145670021585
 20
-27.92716241371446
 30
0.0
 11
-89.94144739303411
 21
-31.92716241371446
 31
0.0
  0
LINE
  5
10789
330
18
100
AcDbEntity
  8
01
100
AcDbLine
 10
-90.7414567002202
 20
-27.92716241371446
 30
0.0
 11
-91.54144739303845
 21
-31.92716241371446
 31
0.0
  0
LINE
  5
1078A
330
18
100
AcDbEntity
  8
01
100
AcDbLine
 10
-93.94145670022024
 20
-27.92716241371446
 30
0.0
 11
-94.7414473930385
 21
-31.92716241371446
 31
0.0
  0
LINE
  5
1078B
330
18
100
AcDbEntity
  8
01
100
AcDbLine
 10
-92.3414567002201
 20
-27.92716241371446
 30
0.0
 11
-93.14144739303836
 21
-31.92716241371446
 31
0.0
  0
LINE
  5
1078C
330
18
100
AcDbEntity
  8
01
100
AcDbLine
 10
-98.74145670022884
 20
-27.92716241371446
 30
0.0
 11
-99.5414473930471
 21
-31.92716241371446
 31
0.0
  0
LINE
  5
1078D
330
18
100
AcDbEntity
  8
01
100
AcDbLine
 10
-100.341456700229
 20
-27.92716241371446
 30
0.0
 11
-101.1414473930472
 21
-31.92716241371446
 31
0.0
  0
LINE
  5
1078E
330
18
100
AcDbEntity
  8
01
100
AcDbLine
 10
-97.14145670022893
 20
-27.92716241371446
 30
0.0
 11
-97.94144739304718
 21
-31.92716241371446
 31
0.0
  0
LINE
  5
1078F
330
18
100
AcDbEntity
  8
01
100
AcDbLine
 10
-95.54145670022459
 20
-27.92716241371446
 30
0.0
 11
-96.34144739304284
 21
-31.92716241371446
 31
0.0
  0
LINE
  5
10790
330
18
100
AcDbEntity
  8
01
100
AcDbLine
 10
-113.141456700229
 20
-27.92716241371446
 30
0.0
 11
-113.9414473930516
 21
-31.92716241371446
 31
0.0
  0
LINE
  5
10791
330
18
100
AcDbEntity
  8
01
100
AcDbLine
 10
-111.541456700229
 20
-27.92716241371446
 30
0.0
 11
-112.3414473930516
 21
-31.92716241371446
 31
0.0
  0
LINE
  5
10792
330
18
100
AcDbEntity
  8
01
100
AcDbLine
 10
-105.141456700229
 20
-27.92716241371446
 30
0.0
 11
-105.9414473930516
 21
-31.92716241371446
 31
0.0
  0
LINE
  5
10793
330
18
100
AcDbEntity
  8
01
100
AcDbLine
 10
-103.5414567002289
 20
-27.92716241371446
 30
0.0
 11
-104.3414473930515
 21
-31.92716241371446
 31
0.0
  0
LINE
  5
10794
330
18
100
AcDbEntity
  8
01
100
AcDbLine
 10
-109.941456700229
 20
-27.92716241371446
 30
0.0
 11
-110.7414473930516
 21
-31.92716241371446
 31
0.0
  0
LINE
  5
10795
330
18
100
AcDbEntity
  8
01
100
AcDbLine
 10
-108.341456700229
 20
-27.92716241371446
 30
0.0
 11
-109.1414473930515
 21
-31.92716241371446
 31
0.0
  0
LINE
  5
10796
330
18
100
AcDbEntity
  8
01
100
AcDbLine
 10
-106.741456700229
 20
-27.92716241371446
 30
0.0
 11
-107.5414473930515
 21
-31.92716241371446
 31
0.0
  0
LINE
  5
10797
330
18
100
AcDbEntity
  8
01
100
AcDbLine
 10
-114.7414567002334
 20
-27.92716241371446
 30
0.0
 11
-115.5414473930516
 21
-31.92716241371446
 31
0.0
  0
LINE
  5
10798
330
18
100
AcDbEntity
  8
01
100
AcDbLine
 10
-116.3414567002377
 20
-27.92716241371446
 30
0.0
 11
-117.141447393056
 21
-31.92716241371446
 31
0.0
  0
LINE
  5
10799
330
18
100
AcDbEntity
  8
01
100
AcDbLine
 10
-119.5414567002378
 20
-27.92716241371446
 30
0.0
 11
-120.341447393056
 21
-31.92716241371446
 31
0.0
  0
LINE
  5
1079A
330
18
100
AcDbEntity
  8
01
100
AcDbLine
 10
-121.1414567002378
 20
-27.92716241371446
 30
0.0
 11
-121.9414473930604
 21
-31.92716241371446
 31
0.0
  0
LINE
  5
1079B
330
18
100
AcDbEntity
  8
01
100
AcDbLine
 10
-117.9414567002376
 20
-27.92716241371446
 30
0.0
 11
-118.7414473930559
 21
-31.92716241371446
 31
0.0
  0
LINE
  5
1079C
330
18
100
AcDbEntity
  8
01
100
AcDbLine
 10
-101.941456700229
 20
-27.92716241371446
 30
0.0
 11
-102.7414473930516
 21
-31.92716241371446
 31
0.0
  0
LINE
  5
1079D
330
18
100
AcDbEntity
  8
01
100
AcDbLine
 10
-86.34146135404413
 20
-25.92711587781654
 30
0.0
 11
-86.34144273968505
 21
-33.92711587781654
 31
0.0
  0
LINE
  5
1079E
330
18
100
AcDbEntity
  8
01
100
AcDbLine
 10
-113.0414555368319
 20
-28.42716241371446
 30
0.0
 11
-113.141456700229
 21
-27.92716241371446
 31
0.0
  0
LINE
  5
1079F
330
18
100
AcDbEntity
  8
01
100
AcDbLine
 10
-111.4414555368319
 20
-28.42716241371446
 30
0.0
 11
-111.541456700229
 21
-27.92716241371446
 31
0.0
  0
LINE
  5
107A0
330
18
100
AcDbEntity
  8
01
100
AcDbLine
 10
-103.4414555368318
 20
-28.42716241371446
 30
0.0
 11
-103.5414567002289
 21
-27.92716241371446
 31
0.0
  0
LINE
  5
107A1
330
18
100
AcDbEntity
  8
01
100
AcDbLine
 10
-105.0414555368319
 20
-28.42716241371446
 30
0.0
 11
-105.141456700229
 21
-27.92716241371446
 31
0.0
  0
LINE
  5
107A2
330
18
100
AcDbEntity
  8
01
100
AcDbLine
 10
-106.6414555368318
 20
-28.42716241371446
 30
0.0
 11
-106.741456700229
 21
-27.92716241371446
 31
0.0
  0
LINE
  5
107A3
330
18
100
AcDbEntity
  8
01
100
AcDbLine
 10
-108.2414555368318
 20
-28.42716241371446
 30
0.0
 11
-108.341456700229
 21
-27.92716241371446
 31
0.0
  0
LINE
  5
107A4
330
18
100
AcDbEntity
  8
01
100
AcDbLine
 10
-109.8414555368319
 20
-28.42716241371446
 30
0.0
 11
-109.941456700229
 21
-27.92716241371446
 31
0.0
  0
LINE
  5
107A5
330
18
100
AcDbEntity
  8
01
100
AcDbLine
 10
-121.04145553684
 20
-28.42716241371446
 30
0.0
 11
-121.1414567002378
 21
-27.92716241371446
 31
0.0
  0
LINE
  5
107A6
330
18
100
AcDbEntity
  8
01
100
AcDbLine
 10
-117.84145553684
 20
-28.42716241371446
 30
0.0
 11
-117.9414567002376
 21
-27.92716241371446
 31
0.0
  0
LINE
  5
107A7
330
18
100
AcDbEntity
  8
01
100
AcDbLine
 10
-119.4414555368401
 20
-28.42716241371446
 30
0.0
 11
-119.5414567002378
 21
-27.92716241371446
 31
0.0
  0
LINE
  5
107A8
330
18
100
AcDbEntity
  8
01
100
AcDbLine
 10
-116.24145553684
 20
-28.42716241371446
 30
0.0
 11
-116.3414567002377
 21
-27.92716241371446
 31
0.0
  0
LINE
  5
107A9
330
18
100
AcDbEntity
  8
01
100
AcDbLine
 10
-114.6414555368357
 20
-28.42716241371446
 30
0.0
 11
-114.7414567002334
 21
-27.92716241371446
 31
0.0
  0
LINE
  5
107AA
330
18
100
AcDbEntity
  8
01
100
AcDbLine
 10
-92.24145553682243
 20
-28.42716241371446
 30
0.0
 11
-92.3414567002201
 21
-27.92716241371446
 31
0.0
  0
LINE
  5
107AB
330
18
100
AcDbEntity
  8
01
100
AcDbLine
 10
-93.84145553682256
 20
-28.42716241371446
 30
0.0
 11
-93.94145670022024
 21
-27.92716241371446
 31
0.0
  0
LINE
  5
107AC
330
18
100
AcDbEntity
  8
01
100
AcDbLine
 10
-90.64145553682252
 20
-28.42716241371446
 30
0.0
 11
-90.7414567002202
 21
-27.92716241371446
 31
0.0
  0
LINE
  5
107AD
330
18
100
AcDbEntity
  8
01
100
AcDbLine
 10
-89.04145553681818
 20
-28.42716241371446
 30
0.0
 11
-89.14145670021585
 21
-27.92716241371446
 31
0.0
  0
LINE
  5
107AE
330
18
100
AcDbEntity
  8
01
100
AcDbLine
 10
-95.44145553682691
 20
-28.42716241371446
 30
0.0
 11
-95.54145670022459
 21
-27.92716241371446
 31
0.0
  0
LINE
  5
107AF
330
18
100
AcDbEntity
  8
01
100
AcDbLine
 10
-97.04145553683125
 20
-28.42716241371446
 30
0.0
 11
-97.14145670022893
 21
-27.92716241371446
 31
0.0
  0
LINE
  5
107B0
330
18
100
AcDbEntity
  8
01
100
AcDbLine
 10
-100.2414555368313
 20
-28.42716241371446
 30
0.0
 11
-100.341456700229
 21
-27.92716241371446
 31
0.0
  0
LINE
  5
107B1
330
18
100
AcDbEntity
  8
01
100
AcDbLine
 10
-98.64145553683116
 20
-28.42716241371446
 30
0.0
 11
-98.74145670022884
 21
-27.92716241371446
 31
0.0
  0
LINE
  5
107B2
330
18
100
AcDbEntity
  8
01
100
AcDbLine
 10
-101.8414555368312
 20
-28.42716241371446
 30
0.0
 11
-101.941456700229
 21
-27.92716241371446
 31
0.0
  0
LINE
  5
107B3
330
18
100
AcDbEntity
  8
01
100
AcDbLine
 10
-102.7414473930516
 20
-31.92716241371446
 30
0.0
 11
-102.8414485564487
 21
-31.42716241371446
 31
0.0
  0
LINE
  5
107B4
330
18
100
AcDbEntity
  8
01
100
AcDbLine
 10
-113.9414473930516
 20
-31.92716241371446
 30
0.0
 11
-114.0414485564487
 21
-31.42716241371446
 31
0.0
  0
LINE
  5
107B5
330
18
100
AcDbEntity
  8
01
100
AcDbLine
 10
-112.3414473930516
 20
-31.92716241371446
 30
0.0
 11
-112.4414485564487
 21
-31.42716241371446
 31
0.0
  0
LINE
  5
107B6
330
18
100
AcDbEntity
  8
01
100
AcDbLine
 10
-104.3414473930515
 20
-31.92716241371446
 30
0.0
 11
-104.4414485564487
 21
-31.42716241371446
 31
0.0
  0
LINE
  5
107B7
330
18
100
AcDbEntity
  8
01
100
AcDbLine
 10
-105.9414473930516
 20
-31.92716241371446
 30
0.0
 11
-106.0414485564487
 21
-31.42716241371446
 31
0.0
  0
LINE
  5
107B8
330
18
100
AcDbEntity
  8
01
100
AcDbLine
 10
-109.1414473930515
 20
-31.92716241371446
 30
0.0
 11
-109.2414485564485
 21
-31.42716241371446
 31
0.0
  0
LINE
  5
107B9
330
18
100
AcDbEntity
  8
01
100
AcDbLine
 10
-110.7414473930516
 20
-31.92716241371446
 30
0.0
 11
-110.8414485564487
 21
-31.42716241371446
 31
0.0
  0
LINE
  5
107BA
330
18
100
AcDbEntity
  8
01
100
AcDbLine
 10
-107.5414473930515
 20
-31.92716241371446
 30
0.0
 11
-107.6414485564488
 21
-31.42716241371446
 31
0.0
  0
LINE
  5
107BB
330
18
100
AcDbEntity
  8
01
100
AcDbLine
 10
-120.341447393056
 20
-31.92716241371446
 30
0.0
 11
-120.4414485564537
 21
-31.42716241371446
 31
0.0
  0
LINE
  5
107BC
330
18
100
AcDbEntity
  8
01
100
AcDbLine
 10
-121.9414473930604
 20
-31.92716241371446
 30
0.0
 11
-122.0414485564575
 21
-31.42716241371446
 31
0.0
  0
LINE
  5
107BD
330
18
100
AcDbEntity
  8
01
100
AcDbLine
 10
-117.141447393056
 20
-31.92716241371446
 30
0.0
 11
-117.2414485564537
 21
-31.42716241371446
 31
0.0
  0
LINE
  5
107BE
330
18
100
AcDbEntity
  8
01
100
AcDbLine
 10
-118.7414473930559
 20
-31.92716241371446
 30
0.0
 11
-118.8414485564536
 21
-31.42716241371446
 31
0.0
  0
LINE
  5
107BF
330
18
100
AcDbEntity
  8
01
100
AcDbLine
 10
-115.5414473930516
 20
-31.92716241371446
 30
0.0
 11
-115.6414485564493
 21
-31.42716241371446
 31
0.0
  0
LINE
  5
107C0
330
18
100
AcDbEntity
  8
01
100
AcDbLine
 10
-94.7414473930385
 20
-31.92716241371446
 30
0.0
 11
-94.84144855643618
 21
-31.42716241371446
 31
0.0
  0
LINE
  5
107C1
330
18
100
AcDbEntity
  8
01
100
AcDbLine
 10
-91.54144739303845
 20
-31.92716241371446
 30
0.0
 11
-91.64144855643613
 21
-31.42716241371446
 31
0.0
  0
LINE
  5
107C2
330
18
100
AcDbEntity
  8
01
100
AcDbLine
 10
-93.14144739303836
 20
-31.92716241371446
 30
0.0
 11
-93.24144855643604
 21
-31.42716241371446
 31
0.0
  0
LINE
  5
107C3
330
18
100
AcDbEntity
  8
01
100
AcDbLine
 10
-89.94144739303411
 20
-31.92716241371446
 30
0.0
 11
-90.04144855643179
 21
-31.42716241371446
 31
0.0
  0
LINE
  5
107C4
330
18
100
AcDbEntity
  8
01
100
AcDbLine
 10
-96.34144739304284
 20
-31.92716241371446
 30
0.0
 11
-96.44144855644052
 21
-31.42716241371446
 31
0.0
  0
LINE
  5
107C5
330
18
100
AcDbEntity
  8
01
100
AcDbLine
 10
-99.5414473930471
 20
-31.92716241371446
 30
0.0
 11
-99.64144855644477
 21
-31.42716241371446
 31
0.0
  0
LINE
  5
107C6
330
18
100
AcDbEntity
  8
01
100
AcDbLine
 10
-97.94144739304718
 20
-31.92716241371446
 30
0.0
 11
-98.04144855644486
 21
-31.42716241371446
 31
0.0
  0
LINE
  5
107C7
330
18
100
AcDbEntity
  8
01
100
AcDbLine
 10
-101.1414473930472
 20
-31.92716241371446
 30
0.0
 11
-101.2414485564449
 21
-31.42716241371446
 31
0.0
  0
TEXT
  5
107C8
330
18
100
AcDbEntity
  8
01
  6
CONTINUOUS
100
AcDbText
 10
94.3551694708856
 20
57.43216960514085
 30
0.0
 40
3.5
  1
材質：亜鉛ダイキャスト
100
AcDbText
  0
TEXT
  5
107C9
330
18
100
AcDbEntity
  8
01
  6
CONTINUOUS
100
AcDbText
 10
94.47183613755227
 20
51.59883627180751
 30
0.0
 40
3.5
  1
仕上げ：各種メッキ
100
AcDbText
  0
TEXT
  5
107CA
330
18
100
AcDbEntity
  8
01
  6
CONTINUOUS
100
AcDbText
 10
8.917071163734265
 20
106.0786401806627
 30
0.0
 40
3.5
  1
材質：PVC
100
AcDbText
1001
ACADANNOTATIVE
1000
AnnotativeData
1002
{
1070
     1
1070
     0
1002
}
  0
TEXT
  5
107CB
330
18
100
AcDbEntity
  8
01
  6
CONTINUOUS
100
AcDbText
 10
9.03373783040093
 20
100.2453068473294
 30
0.0
 40
3.5
  1
仕上げ：艶消し黒
100
AcDbText
1001
ACADANNOTATIVE
1000
AnnotativeData
1002
{
1070
     1
1070
     0
1002
}
  0
TEXT
  5
107CC
330
18
100
AcDbEntity
  8
01
  6
CONTINUOUS
100
AcDbText
 10
71.24176327332897
 20
105.7802445322605
 30
0.0
 40
3.5
  1
材質：亜鉛ダイキャスト
100
AcDbText
  0
TEXT
  5
107CD
330
18
100
AcDbEntity
  8
01
  6
CONTINUOUS
100
AcDbText
 10
71.35842993999564
 20
99.94691119892721
 30
0.0
 40
3.5
  1
仕上げ：各種メッキ
100
AcDbText
  0
LINE
  5
107CE
330
18
100
AcDbEntity
  8
01
100
AcDbLine
 10
-86.04139620378615
 20
74.07293065808126
 30
0.0
 11
-86.04141481814534
 21
82.07293065808126
 31
0.0
  0
LINE
  5
107CF
330
18
100
AcDbEntity
  8
01
100
AcDbLine
 10
-86.04141481814534
 20
82.07293065808126
 30
0.0
 11
-86.34141481814632
 21
82.07293065808126
 31
0.0
  0
LINE
  5
107D0
330
18
100
AcDbEntity
  8
01
100
AcDbLine
 10
-86.34141481814632
 20
82.07293065808126
 30
0.0
 11
-88.84144390281844
 21
79.57288412218334
 31
0.0
  0
LINE
  5
107D1
330
18
100
AcDbEntity
  8
01
100
AcDbLine
 10
-88.84144390281844
 20
79.57288412218334
 30
0.0
 11
-135.7414090009423
 21
79.57288412218334
 31
0.0
  0
LINE
  5
107D2
330
18
100
AcDbEntity
  8
01
100
AcDbLine
 10
-135.7414090009423
 20
79.57288412218334
 30
0.0
 11
-141.0414055108033
 21
78.07288412218334
 31
0.0
  0
LINE
  5
107D3
330
18
100
AcDbEntity
  8
01
100
AcDbLine
 10
-141.0414055108033
 20
78.07288412218334
 30
0.0
 11
-135.741402020558
 21
76.57288412218334
 31
0.0
  0
LINE
  5
107D4
330
18
100
AcDbEntity
  8
01
100
AcDbLine
 10
-135.741402020558
 20
76.57288412218334
 30
0.0
 11
-88.84137875245324
 21
76.57288412218334
 31
0.0
  0
LINE
  5
107D5
330
18
100
AcDbEntity
  8
01
100
AcDbLine
 10
-88.84137875245324
 20
76.57288412218334
 30
0.0
 11
-86.34139620378724
 21
74.07293065808126
 31
0.0
  0
LINE
  5
107D6
330
18
100
AcDbEntity
  8
01
100
AcDbLine
 10
-86.34139620378724
 20
74.07293065808126
 30
0.0
 11
-86.04139620378615
 21
74.07293065808126
 31
0.0
  0
LINE
  5
107D7
330
18
100
AcDbEntity
  8
01
100
AcDbLine
 10
-86.04144273968396
 20
-33.92711587781654
 30
0.0
 11
-86.04146135404315
 21
-25.92711587781654
 31
0.0
  0
LINE
  5
107D8
330
18
100
AcDbEntity
  8
01
100
AcDbLine
 10
-86.04146135404315
 20
-25.92711587781654
 30
0.0
 11
-86.34146135404413
 21
-25.92711587781654
 31
0.0
  0
LINE
  5
107D9
330
18
100
AcDbEntity
  8
01
100
AcDbLine
 10
-86.34146135404413
 20
-25.92711587781654
 30
0.0
 11
-88.84149043871625
 21
-28.42716241371446
 31
0.0
  0
LINE
  5
107DA
330
18
100
AcDbEntity
  8
01
100
AcDbLine
 10
-88.84149043871625
 20
-28.42716241371446
 30
0.0
 11
-135.7414555368401
 21
-28.42716241371446
 31
0.0
  0
LINE
  5
107DB
330
18
100
AcDbEntity
  8
01
100
AcDbLine
 10
-135.7414555368401
 20
-28.42716241371446
 30
0.0
 11
-141.0414520467011
 21
-29.92716241371446
 31
0.0
  0
LINE
  5
107DC
330
18
100
AcDbEntity
  8
01
100
AcDbLine
 10
-141.0414520467011
 20
-29.92716241371446
 30
0.0
 11
-135.7414485564558
 21
-31.42716241371446
 31
0.0
  0
LINE
  5
107DD
330
18
100
AcDbEntity
  8
01
100
AcDbLine
 10
-135.7414485564558
 20
-31.42716241371446
 30
0.0
 11
-88.84142528835105
 21
-31.42716241371446
 31
0.0
  0
LINE
  5
107DE
330
18
100
AcDbEntity
  8
01
100
AcDbLine
 10
-88.84142528835105
 20
-31.42716241371446
 30
0.0
 11
-86.34144273968505
 21
-33.92711587781654
 31
0.0
  0
LINE
  5
107DF
330
18
100
AcDbEntity
  8
01
100
AcDbLine
 10
-86.34144273968505
 20
-33.92711587781654
 30
0.0
 11
-86.04144273968396
 21
-33.92711587781654
 31
0.0
  0
LINE
  5
107E0
330
18
100
AcDbEntity
  8
1DIM
100
AcDbLine
 10
87.52855100642171
 20
155.029922281447
 30
0.0
 11
109.7846481554702
 21
155.029922281447
 31
0.0
  0
LINE
  5
107E1
330
18
100
AcDbEntity
  8
1DIM
100
AcDbLine
 10
87.52855017195668
 20
116.0299214767843
 30
0.0
 11
109.7846481554702
 21
116.0299214767843
 31
0.0
  0
LINE
  5
107E2
330
18
100
AcDbEntity
  8
1DIM
100
AcDbLine
 10
108.7846481554702
 20
153.029922281447
 30
0.0
 11
108.7846481554702
 21
118.0299214767843
 31
0.0
  0
LINE
  5
107E6
330
18
100
AcDbEntity
  8
1DIM
100
AcDbLine
 10
87.52855100642171
 20
153.5299229669004
 30
0.0
 11
101.9547879123743
 21
153.5299229669004
 31
0.0
  0
LINE
  5
107E7
330
18
100
AcDbEntity
  8
1DIM
100
AcDbLine
 10
87.52855100642171
 20
117.5299214898228
 30
0.0
 11
101.9547879123743
 21
117.5299214898228
 31
0.0
  0
LINE
  5
107E8
330
18
100
AcDbEntity
  8
1DIM
100
AcDbLine
 10
100.9547879123743
 20
151.5299229669004
 30
0.0
 11
100.9547879123743
 21
119.5299214898228
 31
0.0
  0
LINE
  5
107EC
330
18
100
AcDbEntity
  8
1DIM
100
AcDbLine
 10
87.52855017195668
 20
-45.92711920223659
 30
0.0
 11
34.79130610769038
 21
-45.92711920223659
 31
0.0
  0
LINE
  5
107ED
330
18
100
AcDbEntity
  8
1DIM
100
AcDbLine
 10
87.52855100642171
 20
94.07288139380985
 30
0.0
 11
34.79130610769038
 21
94.07288139380985
 31
0.0
  0
LINE
  5
107EE
330
18
100
AcDbEntity
  8
1DIM
100
AcDbLine
 10
35.79130610769038
 20
-43.92711920223659
 30
0.0
 11
35.79130610769038
 21
92.07288139380985
 31
0.0
  0
LINE
  5
107F2
330
18
100
AcDbEntity
  8
1DIM
100
AcDbLine
 10
54.02855017195668
 20
-45.42711920223659
 30
0.0
 11
54.02855017195668
 21
-68.87770083287528
 31
0.0
  0
LINE
  5
107F3
330
18
100
AcDbEntity
  8
1DIM
100
AcDbLine
 10
88.02855201970067
 20
-44.92711920223659
 30
0.0
 11
88.02855201970067
 21
-68.87770083287528
 31
0.0
  0
LINE
  5
107F4
330
18
100
AcDbEntity
  8
1DIM
100
AcDbLine
 10
56.02855017195668
 20
-67.87770083287528
 30
0.0
 11
86.02855201970067
 21
-67.87770083287528
 31
0.0
  0
LINE
  5
107F8
330
18
100
AcDbEntity
  8
1DIM
100
AcDbLine
 10
54.02855017195668
 20
87.07288198985607
 30
0.0
 11
42.43066536876757
 21
87.07288198985607
 31
0.0
  0
LINE
  5
107F9
330
18
100
AcDbEntity
  8
1DIM
100
AcDbLine
 10
54.02855017195668
 20
-38.92711920223636
 30
0.0
 11
42.43066536876756
 21
-38.92711920223636
 31
0.0
  0
LINE
  5
107FA
330
18
100
AcDbEntity
  8
1DIM
100
AcDbLine
 10
43.43066536876757
 20
85.07288198985607
 30
0.0
 11
43.43066536876756
 21
-36.92711920223636
 31
0.0
  0
LINE
  5
107FE
330
18
100
AcDbEntity
  8
1DIM
100
AcDbLine
 10
61.27855017195668
 20
-38.80056990367534
 30
0.0
 11
61.27855017195668
 21
-57.42913579314819
 31
0.0
1001
ACAD
1000
DSTYLE
1002
{
1070
    45
1040
0.5
1002
}
  0
LINE
  5
107FF
330
18
100
AcDbEntity
  8
1DIM
100
AcDbLine
 10
81.02855087231126
 20
-29.61155655167526
 30
0.0
 11
81.02855087231126
 21
-57.42913579314819
 31
0.0
1001
ACAD
1000
DSTYLE
1002
{
1070
    45
1040
0.5
1002
}
  0
LINE
  5
10800
330
18
100
AcDbEntity
  8
1DIM
100
AcDbLine
 10
63.27855017195668
 20
-56.42913579314819
 30
0.0
 11
79.02855087231126
 21
-56.42913579314819
 31
0.0
1001
ACAD
1000
DSTYLE
1002
{
1070
    45
1040
0.5
1002
}
  0
LINE
  5
10804
330
18
100
AcDbEntity
  8
1DIM
100
AcDbLine
 10
54.02855017195668
 20
-42.4227935956092
 30
0.0
 11
54.02855017195668
 21
-63.18335583216416
 31
0.0
  0
LINE
  5
10805
330
18
100
AcDbEntity
  8
1DIM
100
AcDbLine
 10
81.02855017195668
 20
-29.61155708113396
 30
0.0
 11
81.02855017195668
 21
-63.18335583216417
 31
0.0
  0
LINE
  5
10806
330
18
100
AcDbEntity
  8
1DIM
100
AcDbLine
 10
56.02855017195668
 20
-62.18335583216416
 30
0.0
 11
79.02855017195668
 21
-62.18335583216417
 31
0.0
  0
LINE
  5
1080A
330
18
100
AcDbEntity
  8
1DIM
100
AcDbLine
 10
-15.90495387252025
 20
-39.46290806923393
 30
0.0
 11
-15.90495387252025
 21
-59.10776645600436
 31
0.0
  0
LINE
  5
1080B
330
18
100
AcDbEntity
  8
1DIM
100
AcDbLine
 10
6.095046127479748
 20
-39.46290806923393
 30
0.0
 11
6.095046127479748
 21
-59.10776645600436
 31
0.0
  0
LINE
  5
1080C
330
18
100
AcDbEntity
  8
1DIM
100
AcDbLine
 10
-13.90495387252025
 20
-58.10776645600436
 30
0.0
 11
4.095046127479748
 21
-58.10776645600436
 31
0.0
  0
LINE
  5
10810
330
18
100
AcDbEntity
  8
1DIM
100
AcDbLine
 10
6.095046127479748
 20
-39.46290806923393
 30
0.0
 11
6.095046127479748
 21
-59.10776645600436
 31
0.0
  0
LINE
  5
10811
330
18
100
AcDbEntity
  8
1DIM
100
AcDbLine
 10
14.59504734830944
 20
-45.2806725690812
 30
0.0
 11
14.59504734830944
 21
-59.10776645600436
 31
0.0
  0
LINE
  5
10812
330
18
100
AcDbEntity
  8
1DIM
100
AcDbLine
 10
8.095046127479748
 20
-58.10776645600436
 30
0.0
 11
12.59504734830944
 21
-58.10776645600436
 31
0.0
  0
SOLID
  5
10816
330
18
100
AcDbEntity
  8
1DIM
100
AcDbTrace
 10
85.31011427271781
 20
40.35304746736654
 30
0.0
 11
83.75703481307835
 21
39.04956931137117
 31
0.0
 12
84.80341435944152
 22
40.78629063503364
 32
0.0
 13
84.80341435944152
 23
40.78629063503364
 33
0.0
1001
ACAD
1000
DSTYLE
1002
{
1070
    45
1040
0.5
1002
}
  0
LINE
  5
10817
330
18
100
AcDbEntity
  8
1DIM
100
AcDbLine
 10
85.05676431607966
 20
40.56966905120009
 30
0.0
 11
93.88850280421893
 21
50.89883627180751
 31
0.0
1001
ACAD
1000
DSTYLE
1002
{
1070
    45
1040
0.5
1002
}
  0
SOLID
  5
10818
330
18
100
AcDbEntity
  8
1DIM
100
AcDbTrace
 10
-1.963341338946517
 20
85.95179556177881
 30
0.0
 11
-3.470908630748227
 21
84.5959371724915
 31
0.0
 12
-2.484569318812763
 22
86.36744666240168
 32
0.0
 13
-2.484569318812763
 23
86.36744666240168
 33
0.0
1001
ACAD
1000
DSTYLE
1002
{
1070
    45
1040
0.5
1002
}
  0
LINE
  5
10819
330
18
100
AcDbEntity
  8
1DIM
100
AcDbLine
 10
-2.223955328879641
 20
86.15962111209024
 30
0.0
 11
8.450404497067598
 21
99.54530684732939
 31
0.0
1001
ACAD
1000
DSTYLE
1002
{
1070
    45
1040
0.5
1002
}
  0
SOLID
  5
1081A
330
18
100
AcDbEntity
  8
1DIM
100
AcDbTrace
 10
59.55726959654639
 20
85.99483846292397
 30
0.0
 11
57.98577458128977
 21
84.71362242800451
 31
0.0
 12
59.0567943952073
 22
86.43525760111964
 32
0.0
 13
59.0567943952073
 23
86.43525760111964
 33
0.0
1001
ACAD
1000
DSTYLE
1002
{
1070
    45
1040
0.5
1002
}
  0
LINE
  5
1081B
330
18
100
AcDbEntity
  8
1DIM
100
AcDbLine
 10
59.30703199587685
 20
86.2150480320218
 30
0.0
 11
70.7750966066623
 21
99.2469111989272
 31
0.0
1001
ACAD
1000
DSTYLE
1002
{
1070
    45
1040
0.5
1002
}
  0
LINE
  5
1081C
330
18
100
AcDbEntity
  8
1DIM
100
AcDbLine
 10
-81.54146135404412
 20
92.07288412218337
 30
0.0
 11
-60.62807548046848
 21
92.07288412218337
 31
0.0
  0
LINE
  5
1081D
330
18
100
AcDbEntity
  8
1DIM
100
AcDbLine
 10
-81.54146135404412
 20
-43.927115877816
 30
0.0
 11
-60.62807548046848
 21
-43.927115877816
 31
0.0
  0
LINE
  5
1081E
330
18
100
AcDbEntity
  8
1DIM
100
AcDbLine
 10
-61.62807548046848
 20
90.07288412218337
 30
0.0
 11
-61.62807548046848
 21
-41.927115877816
 31
0.0
  0
LINE
  5
10822
330
18
100
AcDbEntity
  8
1DIM
100
AcDbLine
 10
-84.66276865422898
 20
78.07293065808126
 30
0.0
 11
-68.21416855677953
 21
78.07293065808126
 31
0.0
1001
ACAD
1000
DSTYLE
1002
{
1070
    45
1040
0.5
1002
}
  0
LINE
  5
10823
330
18
100
AcDbEntity
  8
1DIM
100
AcDbLine
 10
-84.66281519012679
 20
-29.92711587781654
 30
0.0
 11
-68.21416855677953
 21
-29.92711587781654
 31
0.0
1001
ACAD
1000
DSTYLE
1002
{
1070
    45
1040
0.5
1002
}
  0
LINE
  5
10824
330
18
100
AcDbEntity
  8
1DIM
100
AcDbLine
 10
-69.21416855677953
 20
76.07293065808126
 30
0.0
 11
-69.21416855677953
 21
-27.92711587781654
 31
0.0
1001
ACAD
1000
DSTYLE
1002
{
1070
    45
1040
0.5
1002
}
  0
LINE
  5
10828
330
18
100
AcDbEntity
  8
1DIM
100
AcDbLine
 10
-81.54146135404412
 20
92.07288412218337
 30
0.0
 11
-60.62807548046848
 21
92.07288412218337
 31
0.0
  0
LINE
  5
10829
330
18
100
AcDbEntity
  8
1DIM
100
AcDbLine
 10
-81.54146135404412
 20
94.07288412218368
 30
0.0
 11
-60.62807548046848
 21
94.07288412218368
 31
0.0
  0
LINE
  5
1082A
330
18
100
AcDbEntity
  8
1DIM
100
AcDbLine
 10
-61.62807548046848
 20
96.07288412218368
 30
0.0
 11
-61.62807548046848
 21
101.806217455517
 31
0.0
  0
LINE
  5
1082B
330
18
100
AcDbEntity
  8
1DIM
100
AcDbLine
 10
-61.62807548046848
 20
92.07288412218337
 30
0.0
 11
-61.62807548046848
 21
94.07288412218368
 31
0.0
  0
LINE
  5
1082C
330
18
100
AcDbEntity
  8
1DIM
100
AcDbLine
 10
-61.62807548046848
 20
90.07288412218337
 30
0.0
 11
-61.62807548046848
 21
88.07288412218337
 31
0.0
  0
LINE
  5
10830
330
18
100
AcDbEntity
  8
1DIM
100
AcDbLine
 10
-110.5414613540441
 20
-35.96026641192748
 30
0.0
 11
-110.5414613540441
 21
-62.54919945430334
 31
0.0
  0
LINE
  5
10831
330
18
100
AcDbEntity
  8
1DIM
100
AcDbLine
 10
-80.04146135404412
 20
-45.42711587781631
 30
0.0
 11
-80.04146135404412
 21
-62.54919945430334
 31
0.0
  0
LINE
  5
10832
330
18
100
AcDbEntity
  8
1DIM
100
AcDbLine
 10
-108.5414613540441
 20
-61.54919945430334
 30
0.0
 11
-82.04146135404412
 21
-61.54919945430334
 31
0.0
  0
LINE
  5
10836
330
18
100
AcDbEntity
  8
1DIM
100
AcDbLine
 10
-110.5414613540441
 20
-35.96026641192748
 30
0.0
 11
-110.5414613540441
 21
-62.54919945430334
 31
0.0
  0
LINE
  5
10837
330
18
100
AcDbEntity
  8
1DIM
100
AcDbLine
 10
-114.0414613540441
 20
-35.96026641192748
 30
0.0
 11
-114.0414613540441
 21
-62.54919945430334
 31
0.0
  0
LINE
  5
10838
330
18
100
AcDbEntity
  8
1DIM
100
AcDbLine
 10
-116.0414613540441
 20
-61.54919945430334
 30
0.0
 11
-126.7747946873775
 21
-61.54919945430334
 31
0.0
  0
LINE
  5
10839
330
18
100
AcDbEntity
  8
1DIM
100
AcDbLine
 10
-110.5414613540441
 20
-61.54919945430334
 30
0.0
 11
-114.0414613540441
 21
-61.54919945430334
 31
0.0
  0
LINE
  5
1083A
330
18
100
AcDbEntity
  8
1DIM
100
AcDbLine
 10
-108.5414613540441
 20
-61.54919945430334
 30
0.0
 11
-106.5414613540441
 21
-61.54919945430334
 31
0.0
  0
LINE
  5
1083E
330
18
100
AcDbEntity
  8
1DIM
100
AcDbLine
 10
-110.4516990681261
 20
89.4525257507874
 30
0.0
 11
-123.8326788259086
 21
99.80150455501854
 31
0.0
1001
ACAD_DSTYLE_DIMRADIAL_EXTE
1070
   387
1070
     1
1070
   388
1040
1.605702911834847
1070
   390
1040
3.141592653589793
1001
ACAD
1000
DSTYLE
1002
{
1070
   289
1070
     3
1070
   172
1070
     0
1002
}
  0
LINE
  5
10841
330
18
100
AcDbEntity
  8
1DIM
100
AcDbLine
 10
-80.54146135404412
 20
-45.92711587781631
 30
0.0
 11
-68.21416855677953
 21
-45.92711587781631
 31
0.0
  0
LINE
  5
10842
330
18
100
AcDbEntity
  8
1DIM
100
AcDbLine
 10
-81.54146135404412
 20
-43.927115877816
 30
0.0
 11
-68.21416855677953
 21
-43.927115877816
 31
0.0
  0
LINE
  5
10843
330
18
100
AcDbEntity
  8
1DIM
100
AcDbLine
 10
-69.21416855677953
 20
-45.92711587781631
 30
0.0
 11
-69.21416855677953
 21
-53.66044921114966
 31
0.0
  0
LINE
  5
10844
330
18
100
AcDbEntity
  8
1DIM
100
AcDbLine
 10
-69.21416855677953
 20
-45.92711587781631
 30
0.0
 11
-69.21416855677953
 21
-43.927115877816
 31
0.0
  0
LINE
  5
10845
330
18
100
AcDbEntity
  8
1DIM
100
AcDbLine
 10
-69.21416855677953
 20
-47.92711587781631
 30
0.0
 11
-69.21416855677953
 21
-49.92711587781631
 31
0.0
  0
LINE
  5
10846
330
18
100
AcDbEntity
  8
1DIM
100
AcDbLine
 10
-69.21416855677953
 20
-41.927115877816
 30
0.0
 11
-69.21416855677953
 21
-39.927115877816
 31
0.0
  0
LINE
  5
1084A
330
18
100
AcDbEntity
  8
1DIM
100
AcDbLine
 10
-15.90495387252025
 20
-39.46290806923393
 30
0.0
 11
-15.90495387252025
 21
-59.10776645600436
 31
0.0
  0
LINE
  5
1084B
330
18
100
AcDbEntity
  8
1DIM
100
AcDbLine
 10
-24.40495345635321
 20
-45.2806725690812
 30
0.0
 11
-24.40495345635321
 21
-59.10776645600436
 31
0.0
  0
LINE
  5
1084C
330
18
100
AcDbEntity
  8
1DIM
100
AcDbLine
 10
-24.40495345635321
 20
-58.10776645600436
 30
0.0
 11
-35.13828678968655
 21
-58.10776645600436
 31
0.0
  0
LINE
  5
1084D
330
18
100
AcDbEntity
  8
1DIM
100
AcDbLine
 10
-17.90495387252025
 20
-58.10776645600436
 30
0.0
 11
-22.40495345635321
 21
-58.10776645600436
 31
0.0
  0
LINE
  5
10851
330
18
100
AcDbEntity
  8
1DIM
100
AcDbLine
 10
-24.40495463075104
 20
-45.28067259282992
 30
0.0
 11
-24.40495463075104
 21
-87.39831052683239
 31
0.0
  0
LINE
  5
10852
330
18
100
AcDbEntity
  8
1DIM
100
AcDbLine
 10
-31.40495543541374
 20
-45.78067259282993
 30
0.0
 11
-31.40495543541374
 21
-87.39831052683239
 31
0.0
  0
LINE
  5
10853
330
18
100
AcDbEntity
  8
1DIM
100
AcDbLine
 10
-31.40495543541374
 20
-86.39831052683239
 30
0.0
 11
-71.55495543541375
 21
-86.39831052683239
 31
0.0
  0
LINE
  5
10854
330
18
100
AcDbEntity
  8
1DIM
100
AcDbLine
 10
-26.40495463075104
 20
-86.39831052683239
 30
0.0
 11
-29.40495543541374
 21
-86.39831052683239
 31
0.0
  0
LINE
  5
10858
330
18
100
AcDbEntity
  8
1DIM
100
AcDbLine
 10
14.59504654364673
 20
-45.28067259282992
 30
0.0
 11
14.59504654364674
 21
-87.39831052683239
 31
0.0
  0
LINE
  5
10859
330
18
100
AcDbEntity
  8
1DIM
100
AcDbLine
 10
21.59504734830944
 20
-45.78067259282993
 30
0.0
 11
21.59504734830944
 21
-87.39831052683239
 31
0.0
  0
LINE
  5
1085A
330
18
100
AcDbEntity
  8
1DIM
100
AcDbLine
 10
21.59504734830944
 20
-86.39831052683239
 30
0.0
 11
61.74504734830943
 21
-86.39831052683239
 31
0.0
  0
LINE
  5
1085B
330
18
100
AcDbEntity
  8
1DIM
100
AcDbLine
 10
16.59504654364673
 20
-86.39831052683239
 30
0.0
 11
19.59504734830944
 21
-86.39831052683239
 31
0.0
  0
LINE
  5
1085F
330
18
100
AcDbEntity
  8
0
  6
BYBLOCK
100
AcDbLine
 10
108.2487497754702
 20
153.029922281447
 30
0.0
 11
108.7846481554702
 21
155.029922281447
 31
0.0
  0
LINE
  5
10860
330
18
100
AcDbEntity
  8
0
  6
BYBLOCK
100
AcDbLine
 10
108.7846481554702
 20
155.029922281447
 30
0.0
 11
109.3205465354702
 21
153.029922281447
 31
0.0
  0
LINE
  5
10861
330
18
100
AcDbEntity
  8
0
  6
BYBLOCK
100
AcDbLine
 10
108.7846481554702
 20
155.029922281447
 30
0.0
 11
108.7846481554702
 21
153.029922281447
 31
0.0
  0
LINE
  5
10862
330
18
100
AcDbEntity
  8
0
  6
BYBLOCK
100
AcDbLine
 10
109.3205465354702
 20
118.0299214767843
 30
0.0
 11
108.7846481554702
 21
116.0299214767843
 31
0.0
  0
LINE
  5
10863
330
18
100
AcDbEntity
  8
0
  6
BYBLOCK
100
AcDbLine
 10
108.7846481554702
 20
116.0299214767843
 30
0.0
 11
108.2487497754702
 21
118.0299214767843
 31
0.0
  0
LINE
  5
10864
330
18
100
AcDbEntity
  8
0
  6
BYBLOCK
100
AcDbLine
 10
108.7846481554702
 20
116.0299214767843
 30
0.0
 11
108.7846481554702
 21
118.0299214767843
 31
0.0
  0
TEXT
  5
10865
330
18
100
AcDbEntity
  8
1DIM
  6
CONTINUOUS
100
AcDbText
 10
108.0846481554702
 20
132.6124450272638
 30
0.0
 40
3.5
  1
39
 50
90.0
100
AcDbText
  0
LINE
  5
10866
330
18
100
AcDbEntity
  8
0
  6
BYBLOCK
100
AcDbLine
 10
100.4188895323743
 20
151.5299229669004
 30
0.0
 11
100.9547879123743
 21
153.5299229669004
 31
0.0
  0
LINE
  5
10867
330
18
100
AcDbEntity
  8
0
  6
BYBLOCK
100
AcDbLine
 10
100.9547879123743
 20
153.5299229669004
 30
0.0
 11
101.4906862923743
 21
151.5299229669004
 31
0.0
  0
LINE
  5
10868
330
18
100
AcDbEntity
  8
0
  6
BYBLOCK
100
AcDbLine
 10
100.9547879123743
 20
153.5299229669004
 30
0.0
 11
100.9547879123743
 21
151.5299229669004
 31
0.0
  0
LINE
  5
10869
330
18
100
AcDbEntity
  8
0
  6
BYBLOCK
100
AcDbLine
 10
101.4906862923743
 20
119.5299214898228
 30
0.0
 11
100.9547879123743
 21
117.5299214898228
 31
0.0
  0
LINE
  5
1086A
330
18
100
AcDbEntity
  8
0
  6
BYBLOCK
100
AcDbLine
 10
100.9547879123743
 20
117.5299214898228
 30
0.0
 11
100.4188895323743
 21
119.5299214898228
 31
0.0
  0
LINE
  5
1086B
330
18
100
AcDbEntity
  8
0
  6
BYBLOCK
100
AcDbLine
 10
100.9547879123743
 20
117.5299214898228
 30
0.0
 11
100.9547879123743
 21
119.5299214898228
 31
0.0
  0
TEXT
  5
1086C
330
18
100
AcDbEntity
  8
1DIM
  6
CONTINUOUS
100
AcDbText
 10
100.2547879123743
 20
132.8394890840221
 30
0.0
 40
3.5
  1
36
 50
90.0
100
AcDbText
  0
LINE
  5
1086D
330
18
100
AcDbEntity
  8
0
  6
BYBLOCK
100
AcDbLine
 10
36.32720448769038
 20
-43.92711920223659
 30
0.0
 11
35.79130610769038
 21
-45.92711920223659
 31
0.0
  0
LINE
  5
1086E
330
18
100
AcDbEntity
  8
0
  6
BYBLOCK
100
AcDbLine
 10
35.79130610769038
 20
-45.92711920223659
 30
0.0
 11
35.25540772769038
 21
-43.92711920223659
 31
0.0
  0
LINE
  5
1086F
330
18
100
AcDbEntity
  8
0
  6
BYBLOCK
100
AcDbLine
 10
35.79130610769038
 20
-45.92711920223659
 30
0.0
 11
35.79130610769038
 21
-43.92711920223659
 31
0.0
  0
LINE
  5
10870
330
18
100
AcDbEntity
  8
0
  6
BYBLOCK
100
AcDbLine
 10
35.25540772769038
 20
92.07288139380985
 30
0.0
 11
35.79130610769038
 21
94.07288139380985
 31
0.0
  0
LINE
  5
10871
330
18
100
AcDbEntity
  8
0
  6
BYBLOCK
100
AcDbLine
 10
35.79130610769038
 20
94.07288139380985
 30
0.0
 11
36.32720448769038
 21
92.07288139380985
 31
0.0
  0
LINE
  5
10872
330
18
100
AcDbEntity
  8
0
  6
BYBLOCK
100
AcDbLine
 10
35.79130610769038
 20
94.07288139380985
 30
0.0
 11
35.79130610769038
 21
92.07288139380985
 31
0.0
  0
TEXT
  5
10873
330
18
100
AcDbEntity
  8
1DIM
  6
CONTINUOUS
100
AcDbText
 10
35.09130610769039
 20
20.20829776245329
 30
0.0
 40
3.5
  1
140
 50
90.0
100
AcDbText
  0
LINE
  5
10874
330
18
100
AcDbEntity
  8
0
  6
BYBLOCK
100
AcDbLine
 10
56.02855017195668
 20
-68.41359921287528
 30
0.0
 11
54.02855017195668
 21
-67.87770083287528
 31
0.0
  0
LINE
  5
10875
330
18
100
AcDbEntity
  8
0
  6
BYBLOCK
100
AcDbLine
 10
54.02855017195668
 20
-67.87770083287528
 30
0.0
 11
56.02855017195668
 21
-67.34180245287527
 31
0.0
  0
LINE
  5
10876
330
18
100
AcDbEntity
  8
0
  6
BYBLOCK
100
AcDbLine
 10
54.02855017195668
 20
-67.87770083287528
 30
0.0
 11
56.02855017195668
 21
-67.87770083287528
 31
0.0
  0
LINE
  5
10877
330
18
100
AcDbEntity
  8
0
  6
BYBLOCK
100
AcDbLine
 10
86.02855201970067
 20
-67.34180245287527
 30
0.0
 11
88.02855201970067
 21
-67.87770083287528
 31
0.0
  0
LINE
  5
10878
330
18
100
AcDbEntity
  8
0
  6
BYBLOCK
100
AcDbLine
 10
88.02855201970067
 20
-67.87770083287528
 30
0.0
 11
86.02855201970067
 21
-68.41359921287528
 31
0.0
  0
LINE
  5
10879
330
18
100
AcDbEntity
  8
0
  6
BYBLOCK
100
AcDbLine
 10
88.02855201970067
 20
-67.87770083287528
 30
0.0
 11
86.02855201970067
 21
-67.87770083287528
 31
0.0
  0
TEXT
  5
1087A
330
18
100
AcDbEntity
  8
1DIM
  6
CONTINUOUS
100
AcDbText
 10
68.111884429162
 20
-67.17770083287527
 30
0.0
 40
3.5
  1
34
100
AcDbText
  0
LINE
  5
1087B
330
18
100
AcDbEntity
  8
0
  6
BYBLOCK
100
AcDbLine
 10
42.89476698876757
 20
85.07288198985607
 30
0.0
 11
43.43066536876757
 21
87.07288198985607
 31
0.0
  0
LINE
  5
1087C
330
18
100
AcDbEntity
  8
0
  6
BYBLOCK
100
AcDbLine
 10
43.43066536876757
 20
87.07288198985607
 30
0.0
 11
43.96656374876757
 21
85.07288198985607
 31
0.0
  0
LINE
  5
1087D
330
18
100
AcDbEntity
  8
0
  6
BYBLOCK
100
AcDbLine
 10
43.43066536876757
 20
87.07288198985607
 30
0.0
 11
43.43066536876757
 21
85.07288198985607
 31
0.0
  0
LINE
  5
1087E
330
18
100
AcDbEntity
  8
0
  6
BYBLOCK
100
AcDbLine
 10
43.96656374876756
 20
-36.92711920223636
 30
0.0
 11
43.43066536876756
 21
-38.92711920223636
 31
0.0
  0
LINE
  5
1087F
330
18
100
AcDbEntity
  8
0
  6
BYBLOCK
100
AcDbLine
 10
43.43066536876756
 20
-38.92711920223636
 30
0.0
 11
42.89476698876756
 21
-36.92711920223636
 31
0.0
  0
LINE
  5
10880
330
18
100
AcDbEntity
  8
0
  6
BYBLOCK
100
AcDbLine
 10
43.43066536876756
 20
-38.92711920223636
 30
0.0
 11
43.43066536876756
 21
-36.92711920223636
 31
0.0
  0
TEXT
  5
10881
330
18
100
AcDbEntity
  8
1DIM
  6
CONTINUOUS
100
AcDbText
 10
42.73066536876756
 20
19.98954806047652
 30
0.0
 40
3.5
  1
126
 50
90.0
100
AcDbText
  0
LINE
  5
10882
330
18
100
AcDbEntity
  8
0
  6
BYBLOCK
100
AcDbLine
 10
63.27855017195668
 20
-56.96503417314819
 30
0.0
 11
61.27855017195668
 21
-56.42913579314819
 31
0.0
  0
LINE
  5
10883
330
18
100
AcDbEntity
  8
0
  6
BYBLOCK
100
AcDbLine
 10
61.27855017195668
 20
-56.42913579314819
 30
0.0
 11
63.27855017195668
 21
-55.89323741314819
 31
0.0
  0
LINE
  5
10884
330
18
100
AcDbEntity
  8
0
  6
BYBLOCK
100
AcDbLine
 10
61.27855017195668
 20
-56.42913579314819
 30
0.0
 11
63.27855017195668
 21
-56.42913579314819
 31
0.0
  0
LINE
  5
10885
330
18
100
AcDbEntity
  8
0
  6
BYBLOCK
100
AcDbLine
 10
79.02855087231126
 20
-55.89323741314819
 30
0.0
 11
81.02855087231126
 21
-56.42913579314819
 31
0.0
  0
LINE
  5
10886
330
18
100
AcDbEntity
  8
0
  6
BYBLOCK
100
AcDbLine
 10
81.02855087231126
 20
-56.42913579314819
 30
0.0
 11
79.02855087231126
 21
-56.96503417314819
 31
0.0
  0
LINE
  5
10887
330
18
100
AcDbEntity
  8
0
  6
BYBLOCK
100
AcDbLine
 10
81.02855087231126
 20
-56.42913579314819
 30
0.0
 11
79.02855087231126
 21
-56.42913579314819
 31
0.0
  0
TEXT
  5
10888
330
18
100
AcDbEntity
  8
1DIM
  6
CONTINUOUS
100
AcDbText
 10
68.4556338554673
 20
-55.72913579314819
 30
0.0
 40
3.5
  1
20
100
AcDbText
1001
ACAD
1000
DSTYLE
1002
{
1070
    45
1040
0.5
1002
}
  0
LINE
  5
10889
330
18
100
AcDbEntity
  8
0
  6
BYBLOCK
100
AcDbLine
 10
56.02855017195668
 20
-62.71925421216416
 30
0.0
 11
54.02855017195668
 21
-62.18335583216416
 31
0.0
  0
LINE
  5
1088A
330
18
100
AcDbEntity
  8
0
  6
BYBLOCK
100
AcDbLine
 10
54.02855017195668
 20
-62.18335583216416
 30
0.0
 11
56.02855017195668
 21
-61.64745745216416
 31
0.0
  0
LINE
  5
1088B
330
18
100
AcDbEntity
  8
0
  6
BYBLOCK
100
AcDbLine
 10
54.02855017195668
 20
-62.18335583216416
 30
0.0
 11
56.02855017195668
 21
-62.18335583216416
 31
0.0
  0
LINE
  5
1088C
330
18
100
AcDbEntity
  8
0
  6
BYBLOCK
100
AcDbLine
 10
79.02855017195668
 20
-61.64745745216417
 30
0.0
 11
81.02855017195668
 21
-62.18335583216417
 31
0.0
  0
LINE
  5
1088D
330
18
100
AcDbEntity
  8
0
  6
BYBLOCK
100
AcDbLine
 10
81.02855017195668
 20
-62.18335583216417
 30
0.0
 11
79.02855017195668
 21
-62.71925421216417
 31
0.0
  0
LINE
  5
1088E
330
18
100
AcDbEntity
  8
0
  6
BYBLOCK
100
AcDbLine
 10
81.02855017195668
 20
-62.18335583216417
 30
0.0
 11
79.02855017195668
 21
-62.18335583216417
 31
0.0
  0
TEXT
  5
1088F
330
18
100
AcDbEntity
  8
1DIM
  6
CONTINUOUS
100
AcDbText
 10
64.61188350529001
 20
-61.48335583216416
 30
0.0
 40
3.5
  1
27
100
AcDbText
  0
LINE
  5
10890
330
18
100
AcDbEntity
  8
0
  6
BYBLOCK
100
AcDbLine
 10
-13.90495387252025
 20
-58.64366483600435
 30
0.0
 11
-15.90495387252025
 21
-58.10776645600436
 31
0.0
  0
LINE
  5
10891
330
18
100
AcDbEntity
  8
0
  6
BYBLOCK
100
AcDbLine
 10
-15.90495387252025
 20
-58.10776645600436
 30
0.0
 11
-13.90495387252025
 21
-57.57186807600436
 31
0.0
  0
LINE
  5
10892
330
18
100
AcDbEntity
  8
0
  6
BYBLOCK
100
AcDbLine
 10
-15.90495387252025
 20
-58.10776645600436
 30
0.0
 11
-13.90495387252025
 21
-58.10776645600436
 31
0.0
  0
LINE
  5
10893
330
18
100
AcDbEntity
  8
0
  6
BYBLOCK
100
AcDbLine
 10
4.095046127479748
 20
-57.57186807600436
 30
0.0
 11
6.095046127479748
 21
-58.10776645600436
 31
0.0
  0
LINE
  5
10894
330
18
100
AcDbEntity
  8
0
  6
BYBLOCK
100
AcDbLine
 10
6.095046127479748
 20
-58.10776645600436
 30
0.0
 11
4.095046127479748
 21
-58.64366483600435
 31
0.0
  0
LINE
  5
10895
330
18
100
AcDbEntity
  8
0
  6
BYBLOCK
100
AcDbLine
 10
6.095046127479748
 20
-58.10776645600436
 30
0.0
 11
4.095046127479748
 21
-58.10776645600436
 31
0.0
  0
TEXT
  5
10896
330
18
100
AcDbEntity
  8
1DIM
  6
CONTINUOUS
100
AcDbText
 10
-7.821620539186919
 20
-57.40776645600435
 30
0.0
 40
3.5
  1
22
100
AcDbText
  0
LINE
  5
10897
330
18
100
AcDbEntity
  8
0
  6
BYBLOCK
100
AcDbLine
 10
8.095046127479748
 20
-58.64366483600435
 30
0.0
 11
6.095046127479748
 21
-58.10776645600436
 31
0.0
  0
LINE
  5
10898
330
18
100
AcDbEntity
  8
0
  6
BYBLOCK
100
AcDbLine
 10
6.095046127479748
 20
-58.10776645600436
 30
0.0
 11
8.095046127479748
 21
-57.57186807600436
 31
0.0
  0
LINE
  5
10899
330
18
100
AcDbEntity
  8
0
  6
BYBLOCK
100
AcDbLine
 10
6.095046127479748
 20
-58.10776645600436
 30
0.0
 11
8.095046127479748
 21
-58.10776645600436
 31
0.0
  0
LINE
  5
1089A
330
18
100
AcDbEntity
  8
0
  6
BYBLOCK
100
AcDbLine
 10
12.59504734830944
 20
-57.57186807600436
 30
0.0
 11
14.59504734830944
 21
-58.10776645600436
 31
0.0
  0
LINE
  5
1089B
330
18
100
AcDbEntity
  8
0
  6
BYBLOCK
100
AcDbLine
 10
14.59504734830944
 20
-58.10776645600436
 30
0.0
 11
12.59504734830944
 21
-58.64366483600435
 31
0.0
  0
LINE
  5
1089C
330
18
100
AcDbEntity
  8
0
  6
BYBLOCK
100
AcDbLine
 10
14.59504734830944
 20
-58.10776645600436
 30
0.0
 11
12.59504734830944
 21
-58.10776645600436
 31
0.0
  0
TEXT
  5
1089D
330
18
100
AcDbEntity
  8
1DIM
  6
CONTINUOUS
100
AcDbText
 10
6.845046737894592
 20
-57.4053359004488
 30
0.0
 40
3.5
  1
8.5
100
AcDbText
  0
LINE
  5
1089E
330
18
100
AcDbEntity
  8
0
  6
BYBLOCK
100
AcDbLine
 10
-62.16397386046848
 20
90.07288412218337
 30
0.0
 11
-61.62807548046848
 21
92.07288412218337
 31
0.0
  0
LINE
  5
1089F
330
18
100
AcDbEntity
  8
0
  6
BYBLOCK
100
AcDbLine
 10
-61.62807548046848
 20
92.07288412218337
 30
0.0
 11
-61.09217710046848
 21
90.07288412218337
 31
0.0
  0
LINE
  5
108A0
330
18
100
AcDbEntity
  8
0
  6
BYBLOCK
100
AcDbLine
 10
-61.62807548046848
 20
92.07288412218337
 30
0.0
 11
-61.62807548046848
 21
90.07288412218337
 31
0.0
  0
LINE
  5
108A1
330
18
100
AcDbEntity
  8
0
  6
BYBLOCK
100
AcDbLine
 10
-61.09217710046848
 20
-41.927115877816
 30
0.0
 11
-61.62807548046848
 21
-43.927115877816
 31
0.0
  0
LINE
  5
108A2
330
18
100
AcDbEntity
  8
0
  6
BYBLOCK
100
AcDbLine
 10
-61.62807548046848
 20
-43.927115877816
 30
0.0
 11
-62.16397386046848
 21
-41.927115877816
 31
0.0
  0
LINE
  5
108A3
330
18
100
AcDbEntity
  8
0
  6
BYBLOCK
100
AcDbLine
 10
-61.62807548046848
 20
-43.927115877816
 30
0.0
 11
-61.62807548046848
 21
-41.927115877816
 31
0.0
  0
TEXT
  5
108A4
330
18
100
AcDbEntity
  8
1DIM
  6
CONTINUOUS
100
AcDbText
 10
-62.32807548046848
 20
19.98955078885035
 30
0.0
 40
3.5
  1
136
 50
90.0
100
AcDbText
  0
LINE
  5
108A5
330
18
100
AcDbEntity
  8
0
  6
BYBLOCK
100
AcDbLine
 10
-69.75006693677953
 20
76.07293065808126
 30
0.0
 11
-69.21416855677953
 21
78.07293065808126
 31
0.0
  0
LINE
  5
108A6
330
18
100
AcDbEntity
  8
0
  6
BYBLOCK
100
AcDbLine
 10
-69.21416855677953
 20
78.07293065808126
 30
0.0
 11
-68.67827017677952
 21
76.07293065808126
 31
0.0
  0
LINE
  5
108A7
330
18
100
AcDbEntity
  8
0
  6
BYBLOCK
100
AcDbLine
 10
-69.21416855677953
 20
78.07293065808126
 30
0.0
 11
-69.21416855677953
 21
76.07293065808126
 31
0.0
  0
LINE
  5
108A8
330
18
100
AcDbEntity
  8
0
  6
BYBLOCK
100
AcDbLine
 10
-68.67827017677952
 20
-27.92711587781654
 30
0.0
 11
-69.21416855677953
 21
-29.92711587781654
 31
0.0
  0
LINE
  5
108A9
330
18
100
AcDbEntity
  8
0
  6
BYBLOCK
100
AcDbLine
 10
-69.21416855677953
 20
-29.92711587781654
 30
0.0
 11
-69.75006693677953
 21
-27.92711587781654
 31
0.0
  0
LINE
  5
108AA
330
18
100
AcDbEntity
  8
0
  6
BYBLOCK
100
AcDbLine
 10
-69.21416855677953
 20
-29.92711587781654
 30
0.0
 11
-69.21416855677953
 21
-27.92711587781654
 31
0.0
  0
TEXT
  5
108AB
330
18
100
AcDbEntity
  8
1DIM
  6
CONTINUOUS
100
AcDbText
 10
-69.91416855677953
 20
18.53124072346569
 30
0.0
 40
3.5
  1
P108
 50
90.0
100
AcDbText
1001
ACAD
1000
DSTYLE
1002
{
1070
    45
1040
0.5
1002
}
  0
LINE
  5
108AC
330
18
100
AcDbEntity
  8
0
  6
BYBLOCK
100
AcDbLine
 10
-62.16397386046848
 20
90.07288412218337
 30
0.0
 11
-61.62807548046848
 21
92.07288412218337
 31
0.0
  0
LINE
  5
108AD
330
18
100
AcDbEntity
  8
0
  6
BYBLOCK
100
AcDbLine
 10
-61.62807548046848
 20
92.07288412218337
 30
0.0
 11
-61.09217710046848
 21
90.07288412218337
 31
0.0
  0
LINE
  5
108AE
330
18
100
AcDbEntity
  8
0
  6
BYBLOCK
100
AcDbLine
 10
-61.62807548046848
 20
92.07288412218337
 30
0.0
 11
-61.62807548046848
 21
90.07288412218337
 31
0.0
  0
LINE
  5
108AF
330
18
100
AcDbEntity
  8
0
  6
BYBLOCK
100
AcDbLine
 10
-61.09217710046848
 20
96.07288412218368
 30
0.0
 11
-61.62807548046848
 21
94.07288412218368
 31
0.0
  0
LINE
  5
108B0
330
18
100
AcDbEntity
  8
0
  6
BYBLOCK
100
AcDbLine
 10
-61.62807548046848
 20
94.07288412218368
 30
0.0
 11
-62.16397386046848
 21
96.07288412218368
 31
0.0
  0
LINE
  5
108B1
330
18
100
AcDbEntity
  8
0
  6
BYBLOCK
100
AcDbLine
 10
-61.62807548046848
 20
94.07288412218368
 30
0.0
 11
-61.62807548046848
 21
96.07288412218368
 31
0.0
  0
TEXT
  5
108B2
330
18
100
AcDbEntity
  8
1DIM
  6
CONTINUOUS
100
AcDbText
 10
-62.32807548046848
 20
98.77288412218368
 30
0.0
 40
3.5
  1
2
 50
90.0
100
AcDbText
  0
LINE
  5
108B3
330
18
100
AcDbEntity
  8
0
  6
BYBLOCK
100
AcDbLine
 10
-108.5414613540441
 20
-62.08509783430334
 30
0.0
 11
-110.5414613540441
 21
-61.54919945430334
 31
0.0
  0
LINE
  5
108B4
330
18
100
AcDbEntity
  8
0
  6
BYBLOCK
100
AcDbLine
 10
-110.5414613540441
 20
-61.54919945430334
 30
0.0
 11
-108.5414613540441
 21
-61.01330107430334
 31
0.0
  0
LINE
  5
108B5
330
18
100
AcDbEntity
  8
0
  6
BYBLOCK
100
AcDbLine
 10
-110.5414613540441
 20
-61.54919945430334
 30
0.0
 11
-108.5414613540441
 21
-61.54919945430334
 31
0.0
  0
LINE
  5
108B6
330
18
100
AcDbEntity
  8
0
  6
BYBLOCK
100
AcDbLine
 10
-82.04146135404412
 20
-61.01330107430334
 30
0.0
 11
-80.04146135404412
 21
-61.54919945430334
 31
0.0
  0
LINE
  5
108B7
330
18
100
AcDbEntity
  8
0
  6
BYBLOCK
100
AcDbLine
 10
-80.04146135404412
 20
-61.54919945430334
 30
0.0
 11
-82.04146135404412
 21
-62.08509783430334
 31
0.0
  0
LINE
  5
108B8
330
18
100
AcDbEntity
  8
0
  6
BYBLOCK
100
AcDbLine
 10
-80.04146135404412
 20
-61.54919945430334
 30
0.0
 11
-82.04146135404412
 21
-61.54919945430334
 31
0.0
  0
TEXT
  5
108B9
330
18
100
AcDbEntity
  8
1DIM
  6
CONTINUOUS
100
AcDbText
 10
-100.2497946873774
 20
-60.84676889874778
 30
0.0
 40
3.5
  1
30.5
100
AcDbText
  0
LINE
  5
108BA
330
18
100
AcDbEntity
  8
0
  6
BYBLOCK
100
AcDbLine
 10
-108.5414613540441
 20
-62.08509783430334
 30
0.0
 11
-110.5414613540441
 21
-61.54919945430334
 31
0.0
  0
LINE
  5
108BB
330
18
100
AcDbEntity
  8
0
  6
BYBLOCK
100
AcDbLine
 10
-110.5414613540441
 20
-61.54919945430334
 30
0.0
 11
-108.5414613540441
 21
-61.01330107430334
 31
0.0
  0
LINE
  5
108BC
330
18
100
AcDbEntity
  8
0
  6
BYBLOCK
100
AcDbLine
 10
-110.5414613540441
 20
-61.54919945430334
 30
0.0
 11
-108.5414613540441
 21
-61.54919945430334
 31
0.0
  0
LINE
  5
108BD
330
18
100
AcDbEntity
  8
0
  6
BYBLOCK
100
AcDbLine
 10
-116.0414613540441
 20
-61.01330107430334
 30
0.0
 11
-114.0414613540441
 21
-61.54919945430334
 31
0.0
  0
LINE
  5
108BE
330
18
100
AcDbEntity
  8
0
  6
BYBLOCK
100
AcDbLine
 10
-114.0414613540441
 20
-61.54919945430334
 30
0.0
 11
-116.0414613540441
 21
-62.08509783430334
 31
0.0
  0
LINE
  5
108BF
330
18
100
AcDbEntity
  8
0
  6
BYBLOCK
100
AcDbLine
 10
-114.0414613540441
 20
-61.54919945430334
 30
0.0
 11
-116.0414613540441
 21
-61.54919945430334
 31
0.0
  0
TEXT
  5
108C0
330
18
100
AcDbEntity
  8
1DIM
  6
CONTINUOUS
100
AcDbText
 10
-125.9081280207108
 20
-60.84919945430334
 30
0.0
 40
3.5
  1
3.5
100
AcDbText
  0
TEXT
  5
108C1
330
18
100
AcDbEntity
  8
1DIM
  6
CONTINUOUS
100
AcDbText
 10
-122.8507123959604
 20
99.9269714050418
 30
0.0
 40
3.5
  1
R8
 50
322.2812877010884
100
AcDbText
1001
ACAD_DSTYLE_DIMRADIAL_EXTE
1070
   387
1070
     1
1070
   388
1040
1.605702911834847
1070
   390
1040
3.141592653589793
1001
ACAD
1000
DSTYLE
1002
{
1070
   289
1070
     3
1070
   172
1070
     0
1002
}
  0
LINE
  5
108C2
330
18
100
AcDbEntity
  8
0
  6
BYBLOCK
100
AcDbLine
 10
-110.1238442557315
 20
89.87643410842654
 30
0.0
 11
-108.8696515253097
 21
88.22895492232318
 31
0.0
  0
LINE
  5
108C3
330
18
100
AcDbEntity
  8
0
  6
BYBLOCK
100
AcDbLine
 10
-108.8696515253097
 20
88.22895492232318
 30
0.0
 11
-110.7795538805207
 21
89.02861739314825
 31
0.0
  0
LINE
  5
108C4
330
18
100
AcDbEntity
  8
0
  6
BYBLOCK
100
AcDbLine
 10
-108.8696515253097
 20
88.22895492232318
 30
0.0
 11
-110.4516990681261
 21
89.4525257507874
 31
0.0
  0
LINE
  5
108C5
330
18
100
AcDbEntity
  8
0
  6
BYBLOCK
100
AcDbLine
 10
-69.75006693677953
 20
-47.92711587781631
 30
0.0
 11
-69.21416855677953
 21
-45.92711587781631
 31
0.0
  0
LINE
  5
108C6
330
18
100
AcDbEntity
  8
0
  6
BYBLOCK
100
AcDbLine
 10
-69.21416855677953
 20
-45.92711587781631
 30
0.0
 11
-68.67827017677952
 21
-47.92711587781631
 31
0.0
  0
LINE
  5
108C7
330
18
100
AcDbEntity
  8
0
  6
BYBLOCK
100
AcDbLine
 10
-69.21416855677953
 20
-45.92711587781631
 30
0.0
 11
-69.21416855677953
 21
-47.92711587781631
 31
0.0
  0
LINE
  5
108C8
330
18
100
AcDbEntity
  8
0
  6
BYBLOCK
100
AcDbLine
 10
-68.67827017677952
 20
-41.927115877816
 30
0.0
 11
-69.21416855677953
 21
-43.927115877816
 31
0.0
  0
LINE
  5
108C9
330
18
100
AcDbEntity
  8
0
  6
BYBLOCK
100
AcDbLine
 10
-69.21416855677953
 20
-43.927115877816
 30
0.0
 11
-69.75006693677953
 21
-41.927115877816
 31
0.0
  0
LINE
  5
108CA
330
18
100
AcDbEntity
  8
0
  6
BYBLOCK
100
AcDbLine
 10
-69.21416855677953
 20
-43.927115877816
 30
0.0
 11
-69.21416855677953
 21
-41.927115877816
 31
0.0
  0
TEXT
  5
108CB
330
18
100
AcDbEntity
  8
1DIM
  6
CONTINUOUS
100
AcDbText
 10
-69.91416855677954
 20
-52.96044921114966
 30
0.0
 40
3.5
  1
2
 50
90.0
100
AcDbText
  0
LINE
  5
108CC
330
18
100
AcDbEntity
  8
0
  6
BYBLOCK
100
AcDbLine
 10
-17.90495387252025
 20
-57.57186807600436
 30
0.0
 11
-15.90495387252025
 21
-58.10776645600436
 31
0.0
  0
LINE
  5
108CD
330
18
100
AcDbEntity
  8
0
  6
BYBLOCK
100
AcDbLine
 10
-15.90495387252025
 20
-58.10776645600436
 30
0.0
 11
-17.90495387252025
 21
-58.64366483600435
 31
0.0
  0
LINE
  5
108CE
330
18
100
AcDbEntity
  8
0
  6
BYBLOCK
100
AcDbLine
 10
-15.90495387252025
 20
-58.10776645600436
 30
0.0
 11
-17.90495387252025
 21
-58.10776645600436
 31
0.0
  0
LINE
  5
108CF
330
18
100
AcDbEntity
  8
0
  6
BYBLOCK
100
AcDbLine
 10
-22.40495345635321
 20
-58.64366483600435
 30
0.0
 11
-24.40495345635321
 21
-58.10776645600436
 31
0.0
  0
LINE
  5
108D0
330
18
100
AcDbEntity
  8
0
  6
BYBLOCK
100
AcDbLine
 10
-24.40495345635321
 20
-58.10776645600436
 30
0.0
 11
-22.40495345635321
 21
-57.57186807600436
 31
0.0
  0
LINE
  5
108D1
330
18
100
AcDbEntity
  8
0
  6
BYBLOCK
100
AcDbLine
 10
-24.40495345635321
 20
-58.10776645600436
 30
0.0
 11
-22.40495345635321
 21
-58.10776645600436
 31
0.0
  0
TEXT
  5
108D2
330
18
100
AcDbEntity
  8
1DIM
  6
CONTINUOUS
100
AcDbText
 10
-34.27162012301988
 20
-57.40776645600435
 30
0.0
 40
3.5
  1
8.5
100
AcDbText
  0
LINE
  5
108D3
330
18
100
AcDbEntity
  8
0
  6
BYBLOCK
100
AcDbLine
 10
-26.40495463075104
 20
-85.86241214683238
 30
0.0
 11
-24.40495463075104
 21
-86.39831052683239
 31
0.0
  0
LINE
  5
108D4
330
18
100
AcDbEntity
  8
0
  6
BYBLOCK
100
AcDbLine
 10
-24.40495463075104
 20
-86.39831052683239
 30
0.0
 11
-26.40495463075104
 21
-86.9342089068324
 31
0.0
  0
LINE
  5
108D5
330
18
100
AcDbEntity
  8
0
  6
BYBLOCK
100
AcDbLine
 10
-24.40495463075104
 20
-86.39831052683239
 30
0.0
 11
-26.40495463075104
 21
-86.39831052683239
 31
0.0
  0
LINE
  5
108D6
330
18
100
AcDbEntity
  8
0
  6
BYBLOCK
100
AcDbLine
 10
-29.40495543541374
 20
-86.9342089068324
 30
0.0
 11
-31.40495543541374
 21
-86.39831052683239
 31
0.0
  0
LINE
  5
108D7
330
18
100
AcDbEntity
  8
0
  6
BYBLOCK
100
AcDbLine
 10
-31.40495543541374
 20
-86.39831052683239
 30
0.0
 11
-29.40495543541374
 21
-85.86241214683238
 31
0.0
  0
LINE
  5
108D8
330
18
100
AcDbEntity
  8
0
  6
BYBLOCK
100
AcDbLine
 10
-31.40495543541374
 20
-86.39831052683239
 30
0.0
 11
-29.40495543541374
 21
-86.39831052683239
 31
0.0
  0
TEXT
  5
108D9
330
18
100
AcDbEntity
  8
1DIM
  6
CONTINUOUS
100
AcDbText
 10
-71.08828876874708
 20
-73.8566438601657
 30
0.0
 40
3.5
  1
戸袋で使用する場合
100
AcDbText
  0
TEXT
  5
108DA
330
18
100
AcDbEntity
  8
1DIM
  6
CONTINUOUS
100
AcDbText
 10
-64.61328876874707
 20
-79.74831052683237
 30
0.0
 40
3.5
  1
7 mm以上の
100
AcDbText
  0
TEXT
  5
108DB
330
18
100
AcDbEntity
  8
1DIM
  6
CONTINUOUS
100
AcDbText
 10
-66.7716221020804
 20
-85.63997719349904
 30
0.0
 40
3.5
  1
チリが必要です
100
AcDbText
  0
LINE
  5
108DC
330
18
100
AcDbEntity
  8
0
  6
BYBLOCK
100
AcDbLine
 10
16.59504654364674
 20
-86.9342089068324
 30
0.0
 11
14.59504654364674
 21
-86.39831052683239
 31
0.0
  0
LINE
  5
108DD
330
18
100
AcDbEntity
  8
0
  6
BYBLOCK
100
AcDbLine
 10
14.59504654364674
 20
-86.39831052683239
 30
0.0
 11
16.59504654364674
 21
-85.86241214683238
 31
0.0
  0
LINE
  5
108DE
330
18
100
AcDbEntity
  8
0
  6
BYBLOCK
100
AcDbLine
 10
14.59504654364674
 20
-86.39831052683239
 30
0.0
 11
16.59504654364674
 21
-86.39831052683239
 31
0.0
  0
LINE
  5
108DF
330
18
100
AcDbEntity
  8
0
  6
BYBLOCK
100
AcDbLine
 10
19.59504734830944
 20
-85.86241214683238
 30
0.0
 11
21.59504734830944
 21
-86.39831052683239
 31
0.0
  0
LINE
  5
108E0
330
18
100
AcDbEntity
  8
0
  6
BYBLOCK
100
AcDbLine
 10
21.59504734830944
 20
-86.39831052683239
 30
0.0
 11
19.59504734830944
 21
-86.9342089068324
 31
0.0
  0
LINE
  5
108E1
330
18
100
AcDbEntity
  8
0
  6
BYBLOCK
100
AcDbLine
 10
21.59504734830944
 20
-86.39831052683239
 30
0.0
 11
19.59504734830944
 21
-86.39831052683239
 31
0.0
  0
TEXT
  5
108E2
330
18
100
AcDbEntity
  8
1DIM
  6
CONTINUOUS
100
AcDbText
 10
24.0617140149761
 20
-73.8566438601657
 30
0.0
 40
3.5
  1
戸袋で使用する場合
100
AcDbText
  0
TEXT
  5
108E3
330
18
100
AcDbEntity
  8
1DIM
  6
CONTINUOUS
100
AcDbText
 10
30.53671401497611
 20
-79.74831052683237
 30
0.0
 40
3.5
  1
7 mm以上の
100
AcDbText
  0
TEXT
  5
108E4
330
18
100
AcDbEntity
  8
1DIM
  6
CONTINUOUS
100
AcDbText
 10
28.37838068164277
 20
-85.63997719349904
 30
0.0
 40
3.5
  1
チリが必要です
100
AcDbText
  0
VIEWPORT
  5
57
330
15
100
AcDbEntity
 67
     1
  8
0
100
AcDbViewport
 68
     1
 10
0.0
 20
0.0
 30
0.0
 40
639.1804245283018
 41
297.0
 68
     1
 69
     1
1001
ACAD
1000
MVIEW
1002
{
1070
    16
1010
0.0
1020
0.0
1030
0.0
1010
0.0
1020
0.0
1030
1.0
1040
0.0
1040
297.0
1040
-4.171999999925333
1040
12.83903210976956
1040
50.0
1040
0.0
1040
0.0
1070
    16
1070
   100
1070
     0
1070
     1
1070
     0
1070
     0
1070
     0
1070
     0
1040
0.0
1040
0.0
1040
0.0
1040
10.0
1040
10.0
1040
10.0
1040
10.0
1070
     0
1002
{
1002
}
1002
}
  0
ENDSEC
  0
SECTION
  2
OBJECTS
  0
DICTIONARY
  5
C
330
0
100
AcDbDictionary
  3
ACAD_COLOR
350
18D
  3
ACAD_GROUP
350
D
  3
ACAD_LAYOUT
350
18E
  3
ACAD_MATERIAL
350
18C
  3
ACAD_MLEADERSTYLE
350
D09D
  3
ACAD_MLINESTYLE
350
1B
  3
ACAD_PLOTSETTINGS
350
18F
  3
ACAD_SCALELIST
350
D07B
  3
ACAD_VISUALSTYLE
350
D06A
  3
ACDBHEADERROUNDTRIPXREC
350
108E5
  3
ACDBVARIABLEDICTIONARY
350
37
  3
CONTENTDICTIONARY
350
D8
  3
DRAWINGVARIABLESDICT
350
20
  3
DWGPROPS
350
108E8
1001
ACAD
1000
TREAT_AS_HARD
1070
     0
  0
DICTIONARY
  5
D16C
330
2
100
AcDbDictionary
  3
ACAD_LAYERSTATES
360
D16D
1001
ACAD
1000
TREAT_AS_HARD
1070
     1
  0
DICTIONARY
  5
D0B5
330
E
100
AcDbDictionary
  3
ADSK_XREC_LAYER_RECONCILED
360
D0B6
1001
ACAD
1000
TREAT_AS_HARD
1070
     1
  0
DICTIONARY
  5
D0B7
330
29
100
AcDbDictionary
  3
ADSK_XREC_LAYER_RECONCILED
360
D0B8
1001
ACAD
1000
TREAT_AS_HARD
1070
     1
  0
DICTIONARY
  5
D0B9
330
31
100
AcDbDictionary
  3
ADSK_XREC_LAYER_RECONCILED
360
D0BA
1001
ACAD
1000
TREAT_AS_HARD
1070
     1
  0
DICTIONARY
  5
D0BF
330
243
100
AcDbDictionary
  3
ADSK_XREC_LAYER_RECONCILED
360
D0C0
1001
ACAD
1000
TREAT_AS_HARD
1070
     1
  0
DICTIONARY
  5
D0C5
330
24E
100
AcDbDictionary
  3
ADSK_XREC_LAYER_RECONCILED
360
D0C6
1001
ACAD
1000
TREAT_AS_HARD
1070
     1
  0
DICTIONARY
  5
88F
330
18
100
AcDbDictionary
  3
ACAD_SORTENTS
360
890
1001
ACAD
1000
TREAT_AS_HARD
1070
     1
  0
DICTIONARY
  5
18D
102
{ACAD_REACTORS
330
C
102
}
330
C
100
AcDbDictionary
1001
ACAD
1000
TREAT_AS_HARD
1070
     0
  0
DICTIONARY
  5
D
102
{ACAD_REACTORS
330
C
102
}
330
C
100
AcDbDictionary
1001
ACAD
1000
TREAT_AS_HARD
1070
     0
  0
DICTIONARY
  5
18E
102
{ACAD_REACTORS
330
C
102
}
330
C
100
AcDbDictionary
1001
ACAD
1000
TREAT_AS_HARD
1070
     0
  0
DICTIONARY
  5
18C
102
{ACAD_REACTORS
330
C
102
}
330
C
100
AcDbDictionary
  3
BYBLOCK
350
D05A
  3
BYLAYER
350
D052
  3
GLOBAL
350
D062
1001
ACAD
1000
TREAT_AS_HARD
1070
     0
  0
DICTIONARY
  5
D09D
102
{ACAD_REACTORS
330
C
102
}
330
C
100
AcDbDictionary
  3
STANDARD
350
D09E
1001
ACAD
1000
TREAT_AS_HARD
1070
     0
  0
DICTIONARY
  5
1B
102
{ACAD_REACTORS
330
C
102
}
330
C
100
AcDbDictionary
  3
STANDARD
350
1C
1001
ACAD
1000
TREAT_AS_HARD
1070
     0
  0
DICTIONARY
  5
18F
102
{ACAD_REACTORS
330
C
102
}
330
C
100
AcDbDictionary
1001
ACAD
1000
TREAT_AS_HARD
1070
     0
  0
DICTIONARY
  5
D07B
102
{ACAD_REACTORS
330
C
102
}
330
C
100
AcDbDictionary
  3
A0
350
D07C
  3
A1
350
D07D
  3
A2
350
D07E
  3
A3
350
D07F
  3
A4
350
D080
  3
A5
350
D081
  3
A6
350
D082
  3
A7
350
D083
  3
A8
350
D084
  3
A9
350
D085
  3
B0
350
D086
  3
B1
350
D087
  3
B2
350
D088
  3
B3
350
D089
  3
B4
350
D08A
  3
B5
350
D08B
  3
B6
350
D08C
  3
B7
350
D08D
  3
B8
350
D08E
  3
B9
350
D08F
  3
C0
350
D090
  3
C1
350
D091
  3
C2
350
D092
  3
C3
350
D093
  3
C4
350
D094
  3
C5
350
D095
  3
C6
350
D096
  3
C7
350
D097
  3
C8
350
D098
  3
C9
350
D099
  3
D0
350
D09A
  3
D1
350
D09B
  3
D2
350
D09C
1001
ACAD
1000
TREAT_AS_HARD
1070
     0
  0
DICTIONARY
  5
D06A
102
{ACAD_REACTORS
330
C
102
}
330
C
100
AcDbDictionary
  3
2DWIREFRAME
350
D070
  3
3D_HIDDEN
350
D072
  3
3DWIREFRAME
350
D071
  3
BASIC
350
D06F
  3
BRIGHTEN
350
D076
  3
COLORCHANGE
350
D07A
  3
CONCEPTUAL
350
D073
  3
DIM
350
D075
  3
EDGECOLOROFF
350
D29F
  3
FACEPATTERN
350
D079
  3
FLAT
350
D06B
  3
FLATWITHEDGES
350
D06C
  3
GOURAUD
350
D06D
  3
GOURAUDWITHEDGES
350
D06E
  3
HIDDEN
350
EFDA
  3
JITTEROFF
350
D29D
  3
LINEPATTERN
350
D078
  3
MODELING
350
EFE0
  3
OVERHANGOFF
350
D29E
  3
REALISTIC
350
D074
  3
SHADED
350
EFDF
  3
SHADED_WITH_EDGES
350
EFDE
  3
SHADES_OF_GRAY
350
EFDB
  3
SKETCHY
350
EFDC
  3
THICKEN
350
D077
  3
WIREFRAME
350
EFD9
  3
X-RAY
350
EFDD
1001
ACAD
1000
TREAT_AS_HARD
1070
     0
  0
DICTIONARY
  5
108E5
102
{ACAD_REACTORS
330
C
102
}
330
C
100
AcDbDictionary
  3
COLORDICT
350
108E6
  3
MATERIALDICT
350
108E7
1001
ACAD
1000
TREAT_AS_HARD
1070
     0
  0
DICTIONARY
  5
37
102
{ACAD_REACTORS
330
C
102
}
330
C
100
AcDbDictionary
  3
CANNOSCALE
350
F7D9
  3
CMLEADERSTYLE
350
D117
  3
CTABLESTYLE
350
29E
  3
DIMADEC
350
38
  3
DIMASSOC
350
1CE
  3
HIDETEXT
350
704E
  3
INDEXCTL
350
D11A
  3
INTERSECTIONCOLOR
350
7052
  3
INTERSECTIONDISPLAY
350
7051
  3
MSLTSCALE
350
F829
  3
OBSCOLOR
350
704F
  3
OBSLTYPE
350
7050
  3
PROJECTNAME
350
1CF
  3
SORTENTS
350
D119
  3
XCLIPFRAME
350
EFD8
1001
ACAD
1000
TREAT_AS_HARD
1070
     0
  0
DICTIONARY
  5
D8
102
{ACAD_REACTORS
330
C
102
}
330
C
100
AcDbDictionary
1001
ACAD
1000
TREAT_AS_HARD
1070
     0
  0
DICTIONARY
  5
20
102
{ACAD_REACTORS
330
C
102
}
330
C
100
AcDbDictionary
1001
DRAWINGVARIABLESXDATA
1000
POLARANG
1000
0.261799387799149410000000
1000
POLARMODE
1000
1
1000
POLARSTYLE
1000
1
1001
ACAD
1000
TREAT_AS_HARD
1070
     0
  0
XRECORD
  5
108E8
102
{ACAD_REACTORS
330
C
102
}
330
C
100
AcDbXrecord
  1
DWGPROPS COOKIE
  2

  3

  4

  6

  7

  8
3684
  9

300
=
301
=
302
=
303
=
304
=
305
=
306
=
307
=
308
=
309
=
 40
0.0
 41
2451318.246352917
 42
2458730.221047303
  1

 90
        0
  0
DICTIONARY
  5
D16D
102
{ACAD_REACTORS
330
D16C
102
}
330
D16C
100
AcDbDictionary
1001
ACAD
1000
TREAT_AS_HARD
1070
     0
  0
ACAD_PROXY_OBJECT
  5
D0B6
102
{ACAD_REACTORS
330
D0B5
102
}
330
D0B5
100
AcDbZombieObject
 90
      499
 91
      515
 93
       34
310
40C8804040
  0
ACAD_PROXY_OBJECT
  5
D0B8
102
{ACAD_REACTORS
330
D0B7
102
}
330
D0B7
100
AcDbZombieObject
 90
      499
 91
      515
 93
       34
310
40C8804040
  0
ACAD_PROXY_OBJECT
  5
D0BA
102
{ACAD_REACTORS
330
D0B9
102
}
330
D0B9
100
AcDbZombieObject
 90
      499
 91
      515
 93
       34
310
40C8804040
  0
ACAD_PROXY_OBJECT
  5
D0C0
102
{ACAD_REACTORS
330
D0BF
102
}
330
D0BF
100
AcDbZombieObject
 90
      499
 91
      515
 93
       34
310
40C8804040
  0
ACAD_PROXY_OBJECT
  5
D0C6
102
{ACAD_REACTORS
330
D0C5
102
}
330
D0C5
100
AcDbZombieObject
 90
      499
 91
      515
 93
       34
310
40C8804040
  0
SORTENTSTABLE
  5
890
102
{ACAD_REACTORS
330
88F
102
}
330
88F
100
AcDbSortentsTable
330
18
331
0
  5
C618
331
10235
  5
1023E
331
10237
  5
10247
331
10238
  5
10248
331
10239
  5
10249
331
1023A
  5
1024A
331
1023B
  5
1024B
331
1023C
  5
1024C
331
1023D
  5
1024D
331
1023E
  5
1024E
331
1023F
  5
1024F
331
10240
  5
10250
331
10241
  5
10251
331
10242
  5
10252
331
10243
  5
10253
331
10244
  5
10254
331
10245
  5
10255
331
10246
  5
10256
331
10247
  5
10257
331
10248
  5
10258
331
10249
  5
10259
331
1024A
  5
1025A
331
1024B
  5
1025B
331
1024C
  5
1025C
331
1024D
  5
1025D
331
1024E
  5
1025E
331
1024F
  5
1025F
331
10250
  5
10260
331
10251
  5
10261
331
10252
  5
10262
331
10253
  5
10263
331
10254
  5
10264
331
10255
  5
10265
331
10256
  5
10266
331
10257
  5
10267
331
10258
  5
10268
331
10259
  5
10269
331
1025A
  5
1026A
331
1025B
  5
1026B
331
1025C
  5
1026C
331
1025D
  5
1026D
331
1025E
  5
1026E
331
1025F
  5
1026F
331
10260
  5
10270
331
10261
  5
10271
331
10262
  5
10272
331
10263
  5
10273
331
10264
  5
10274
331
10265
  5
10275
331
10266
  5
10276
331
10267
  5
10277
331
10268
  5
10278
331
10269
  5
10279
331
1026A
  5
1027A
331
1026B
  5
1027B
331
1026C
  5
1027C
331
1026D
  5
1027D
331
1026E
  5
1027E
331
1026F
  5
1027F
331
10270
  5
10280
331
10271
  5
10281
331
10272
  5
10282
331
10273
  5
10283
331
10274
  5
10284
331
10275
  5
10285
331
10276
  5
10286
331
10277
  5
10287
331
10278
  5
10288
331
10279
  5
10289
331
1027A
  5
1028A
331
1027B
  5
1028B
331
1027C
  5
1028C
331
1027D
  5
1028D
331
1027E
  5
1028E
331
1027F
  5
1028F
331
10280
  5
10290
331
10281
  5
10291
331
10282
  5
10292
331
10283
  5
10293
331
10284
  5
10294
331
10285
  5
10295
331
10286
  5
10296
331
10287
  5
10297
331
10288
  5
10298
331
10289
  5
10299
331
1028A
  5
1029A
331
1028B
  5
1029B
331
1028C
  5
1029C
331
1028D
  5
1029D
331
1028E
  5
1029E
331
1028F
  5
1029F
331
10290
  5
102A0
331
10291
  5
102A1
331
10292
  5
102A2
331
10293
  5
102A3
331
10294
  5
102A4
331
10295
  5
102A5
331
10296
  5
102A6
331
10297
  5
102A7
331
10298
  5
102A8
331
10299
  5
102A9
331
1029A
  5
102AA
331
1029B
  5
102AB
331
1029C
  5
102AC
331
1029D
  5
102AD
331
1029E
  5
102AE
331
1029F
  5
102AF
331
102A0
  5
102B0
331
102A1
  5
102B1
331
102A2
  5
102B2
331
102A3
  5
102B3
331
102A4
  5
102B4
331
102A5
  5
102B5
331
102A6
  5
102B6
331
102A7
  5
102B7
331
102A8
  5
102B8
331
102A9
  5
102B9
331
102AA
  5
102BC
331
102AB
  5
102BF
331
102AC
  5
102C2
331
102AD
  5
102C3
331
102AE
  5
102C4
331
102AF
  5
102C5
331
102B0
  5
102C6
331
102B1
  5
102C7
331
102B2
  5
102C8
331
102B3
  5
102C9
331
102B4
  5
102CA
331
102B5
  5
102CB
331
102B6
  5
102CC
331
102B7
  5
102CD
331
102B8
  5
102CE
331
0
  5
102CF
331
0
  5
102D0
331
0
  5
102D1
331
102C2
  5
1030A
331
102C3
  5
1030B
331
102C4
  5
1030C
331
102C5
  5
10310
331
102C6
  5
10311
331
102C7
  5
10312
331
102C8
  5
10313
331
102C9
  5
10314
331
102CA
  5
10315
331
102CB
  5
10319
331
102CC
  5
1031A
331
102CD
  5
1031B
331
102CE
  5
1031F
331
102CF
  5
10320
331
102D0
  5
10321
331
102D1
  5
10322
331
102D2
  5
10323
331
102D3
  5
10324
331
0
  5
102EC
331
0
  5
102ED
331
102D6
  5
1033F
331
102D7
  5
10340
331
102D8
  5
10341
331
0
  5
102F1
331
0
  5
102F2
331
102DF
  5
10356
331
102E0
  5
10357
331
102E1
  5
10358
331
102E2
  5
10359
331
0
  5
102F7
331
0
  5
102F8
331
102E9
  5
1036E
331
102EA
  5
1036F
331
102EB
  5
10370
331
102EC
  5
10371
331
102ED
  5
10372
331
102EE
  5
10373
331
102EF
  5
10374
331
102F0
  5
10375
331
102F1
  5
10376
331
102F2
  5
10377
331
102F3
  5
10378
331
102F4
  5
10379
331
102F5
  5
1037A
331
102F6
  5
1037B
331
102F7
  5
1037C
331
102F8
  5
1037D
331
102F9
  5
1037E
331
102FA
  5
1037F
331
102FB
  5
10380
331
102FC
  5
10381
331
102FD
  5
10382
331
102FE
  5
10383
331
102FF
  5
10384
331
10300
  5
10385
331
10301
  5
10386
331
10302
  5
10387
331
10303
  5
10388
331
10304
  5
10389
331
10305
  5
1038A
331
10306
  5
1038B
331
10307
  5
1038C
331
10308
  5
1038D
331
10309
  5
1038E
331
1030A
  5
1038F
331
1030B
  5
10390
331
1030C
  5
10391
331
1030D
  5
10392
331
1030E
  5
10393
331
1030F
  5
10394
331
10310
  5
10395
331
10311
  5
10396
331
10312
  5
10397
331
10313
  5
10398
331
10314
  5
10399
331
10315
  5
1039A
331
10316
  5
1039B
331
10317
  5
1039C
331
10318
  5
1039D
331
10319
  5
1039E
331
1031A
  5
103A2
331
1031B
  5
103A7
331
1031C
  5
103A9
331
1031D
  5
103AA
331
1031E
  5
103AB
331
1031F
  5
103AE
331
10320
  5
103B1
331
10321
  5
103B4
331
10322
  5
103B7
331
10323
  5
103BA
331
10324
  5
10481
331
10325
  5
10482
331
10326
  5
10484
331
10327
  5
104A0
331
10328
  5
104AE
331
10329
  5
1062C
331
1032A
  5
1062D
331
1032B
  5
1062F
331
1032C
  5
10630
331
1032D
  5
10631
331
1032E
  5
10632
331
1032F
  5
10633
331
10330
  5
10634
331
10331
  5
10635
331
10332
  5
10636
331
10333
  5
10637
331
10334
  5
10638
331
10335
  5
10639
331
10336
  5
1063A
331
10337
  5
1063B
331
10338
  5
1069F
331
10339
  5
106A0
331
1033A
  5
106A1
331
1033B
  5
106A2
331
1033C
  5
106A3
331
1033D
  5
106A4
331
1033E
  5
106A5
331
1033F
  5
106A6
331
10340
  5
106A7
331
10341
  5
106A8
331
10342
  5
106A9
331
10343
  5
106AA
331
10344
  5
106AB
331
10345
  5
106AC
331
10346
  5
106AD
331
10347
  5
106AE
331
10348
  5
106AF
331
10349
  5
106B0
331
1034A
  5
106B1
331
1034B
  5
106B2
331
1034C
  5
106B3
331
1034D
  5
106B4
331
1034E
  5
106B5
331
1034F
  5
106B6
331
10350
  5
106B7
331
10351
  5
106B8
331
10352
  5
106B9
331
10353
  5
106BA
331
10354
  5
106BB
331
10355
  5
106BC
331
10356
  5
106BD
331
10357
  5
106BE
331
10358
  5
106BF
331
10359
  5
106C0
331
1035A
  5
106C1
331
1035B
  5
106C2
331
1035C
  5
106C3
331
1035D
  5
106C4
331
1035E
  5
106C5
331
1035F
  5
106C6
331
10360
  5
106C7
331
10361
  5
106C8
331
10362
  5
106C9
331
10363
  5
106CA
331
10364
  5
106CB
331
10365
  5
106CC
331
10366
  5
106CD
331
10367
  5
106CE
331
10368
  5
106CF
331
10369
  5
106D0
331
1036A
  5
106D1
331
1036B
  5
106D2
331
1036C
  5
106D3
331
1036D
  5
106D4
331
1036E
  5
106D5
331
1036F
  5
106D6
331
10370
  5
106D7
331
10371
  5
106D8
331
10372
  5
106D9
331
10373
  5
106DA
331
10374
  5
106DB
331
10375
  5
106DC
331
10376
  5
106DD
331
10377
  5
106DE
331
10378
  5
106DF
331
10379
  5
106E0
331
1037A
  5
106E1
331
1037B
  5
106E2
331
1037C
  5
106E3
331
1037D
  5
106E4
331
1037E
  5
106E5
331
1037F
  5
106E6
331
10380
  5
106E7
331
10381
  5
106E8
331
10382
  5
106E9
331
10383
  5
106EA
331
10384
  5
106EB
331
10385
  5
106EC
331
10386
  5
106ED
331
10387
  5
106EE
331
10388
  5
106EF
331
10389
  5
106F0
331
1038A
  5
106F1
331
1038B
  5
106F2
331
1038C
  5
106F3
331
1038D
  5
106F5
331
1038E
  5
106F6
331
1038F
  5
106F7
331
10390
  5
106F8
331
10391
  5
106F9
331
10392
  5
106FA
331
10393
  5
106FB
331
10394
  5
106FC
331
10395
  5
106FD
331
10396
  5
106FE
331
10397
  5
106FF
331
10398
  5
10700
331
10399
  5
10701
331
1039A
  5
10765
331
1039B
  5
10766
331
1039C
  5
10767
331
1039D
  5
10768
331
1039E
  5
10769
331
0
  5
107CD
331
0
  5
107D0
331
0
  5
107D3
331
0
  5
107D4
331
0
  5
107D5
331
0
  5
107D6
331
0
  5
107D7
331
0
  5
107D8
331
0
  5
107D9
331
0
  5
107DA
331
10481
  5
108BE
331
10482
  5
108BF
331
0
  5
107DD
331
0
  5
107DE
331
0
  5
107DF
331
1062C
  5
10235
331
1062D
  5
10237
331
1062E
  5
10238
331
1062F
  5
10239
331
10630
  5
1023A
331
10631
  5
1023B
331
10632
  5
1023C
331
10633
  5
1023D
331
10634
  5
1023F
331
10635
  5
10240
331
10636
  5
10241
331
10637
  5
10242
331
10638
  5
10243
331
10639
  5
10244
331
1063A
  5
10245
331
1063B
  5
10246
331
1069F
  5
1076A
331
0
  5
1062E
331
106A1
  5
10774
331
106A2
  5
10775
331
106A3
  5
10776
331
106A4
  5
10777
331
106A5
  5
10778
331
106A6
  5
10779
331
106A7
  5
1077A
331
106A8
  5
1077B
331
106A9
  5
1077C
331
106AA
  5
1077D
331
106AB
  5
1077E
331
106AC
  5
1077F
331
106AD
  5
10780
331
106AE
  5
10781
331
106AF
  5
10782
331
106B0
  5
10783
331
106B1
  5
10784
331
106B2
  5
10785
331
106B3
  5
10786
331
106B4
  5
10787
331
106B5
  5
10788
331
106B6
  5
10789
331
106B7
  5
1078A
331
106B8
  5
1078B
331
106B9
  5
1078C
331
106BA
  5
1078D
331
106BB
  5
1078E
331
106BC
  5
1078F
331
106BD
  5
10790
331
106BE
  5
10791
331
106BF
  5
10792
331
106C0
  5
10793
331
106C1
  5
10794
331
106C2
  5
10795
331
106C3
  5
10796
331
106C4
  5
10797
331
106C5
  5
10798
331
106C6
  5
10799
331
106C7
  5
1079A
331
106C8
  5
1079B
331
106C9
  5
1079C
331
106CA
  5
1079D
331
106CB
  5
1079E
331
106CC
  5
1079F
331
106CD
  5
107A0
331
106CE
  5
107A1
331
106CF
  5
107A2
331
106D0
  5
107A3
331
106D1
  5
107A4
331
106D2
  5
107A5
331
106D3
  5
107A6
331
106D4
  5
107A7
331
106D5
  5
107A8
331
106D6
  5
107A9
331
106D7
  5
107AA
331
106D8
  5
107AB
331
106D9
  5
107AC
331
106DA
  5
107AD
331
106DB
  5
107AE
331
106DC
  5
107AF
331
106DD
  5
107B0
331
106DE
  5
107B1
331
106DF
  5
107B2
331
106E0
  5
107B3
331
106E1
  5
107B4
331
106E2
  5
107B5
331
106E3
  5
107B6
331
106E4
  5
107B7
331
106E5
  5
107B8
331
106E6
  5
107B9
331
106E7
  5
107BA
331
106E8
  5
107BB
331
106E9
  5
107BC
331
106EA
  5
107BD
331
106EB
  5
107BE
331
106EC
  5
107BF
331
106ED
  5
107C0
331
106EE
  5
107C1
331
106EF
  5
107C2
331
106F0
  5
107C3
331
106F1
  5
107C4
331
106F2
  5
107C5
331
106F3
  5
107C6
331
106F4
  5
107C7
331
106F5
  5
107C8
331
106F6
  5
107C9
331
106F7
  5
107CA
331
106F8
  5
107CB
331
106F9
  5
107CC
331
106FA
  5
107CE
331
106FB
  5
107CF
331
106FC
  5
107D1
331
106FD
  5
107D2
331
106FE
  5
107DB
331
106FF
  5
107DC
331
10700
  5
107E0
331
10701
  5
107E1
331
10765
  5
107E2
331
0
  5
106F4
331
10767
  5
107EC
331
10768
  5
107ED
331
10769
  5
107EE
331
1076A
  5
107EF
331
1076B
  5
107F0
331
1076C
  5
107F1
331
1076D
  5
107F2
331
1076E
  5
107F3
331
1076F
  5
107F4
331
10770
  5
107F5
331
10771
  5
107F6
331
10772
  5
107F7
331
10773
  5
107F8
331
10774
  5
107F9
331
10775
  5
107FA
331
10776
  5
107FB
331
10777
  5
107FC
331
10778
  5
107FD
331
10779
  5
107FE
331
1077A
  5
107FF
331
1077B
  5
10800
331
1077C
  5
10801
331
1077D
  5
10802
331
1077E
  5
10803
331
1077F
  5
10804
331
10780
  5
10805
331
10781
  5
10806
331
10782
  5
10807
331
10783
  5
10808
331
10784
  5
10809
331
10785
  5
1080A
331
10786
  5
1080B
331
10787
  5
1080C
331
10788
  5
1080D
331
10789
  5
1080E
331
1078A
  5
1080F
331
1078B
  5
10810
331
1078C
  5
10811
331
1078D
  5
10812
331
1078E
  5
10813
331
1078F
  5
10814
331
10790
  5
10815
331
10791
  5
10816
331
10792
  5
10817
331
10793
  5
10818
331
10794
  5
10819
331
10795
  5
1081A
331
10796
  5
1081B
331
10797
  5
1081C
331
10798
  5
10820
331
10799
  5
10821
331
1079A
  5
10822
331
1079B
  5
10826
331
1079C
  5
10827
331
1079D
  5
10828
331
1079E
  5
10829
331
1079F
  5
1082A
331
107A0
  5
1082E
331
107A1
  5
1082F
331
107A2
  5
10830
331
107A3
  5
10834
331
107A4
  5
10835
331
107A5
  5
10836
331
107A6
  5
10837
331
107A7
  5
10838
331
107A8
  5
1083C
331
107A9
  5
1083F
331
107AA
  5
10840
331
107AB
  5
10841
331
107AC
  5
10842
331
107AD
  5
10843
331
107AE
  5
10844
331
107AF
  5
10848
331
107B0
  5
10849
331
107B1
  5
1084A
331
107B2
  5
1084B
331
107B3
  5
1084C
331
107B4
  5
1084D
331
107B5
  5
10851
331
107B6
  5
10852
331
107B7
  5
10853
331
107B8
  5
10854
331
107B9
  5
10858
331
107BA
  5
10859
331
107BB
  5
1085A
331
107BC
  5
1085B
331
107BD
  5
1085F
331
107BE
  5
10860
331
107BF
  5
10861
331
107C0
  5
10862
331
107C1
  5
10863
331
107C2
  5
10864
331
107C3
  5
10865
331
107C4
  5
10866
331
107C5
  5
10867
331
107C6
  5
10868
331
107C7
  5
10869
331
107C8
  5
1086A
331
107C9
  5
1086B
331
107CA
  5
1086E
331
107CB
  5
1086F
331
107CC
  5
10872
331
107CD
  5
10873
331
107CE
  5
1076B
331
107CF
  5
1076C
331
107D0
  5
1076D
331
107D1
  5
1076E
331
107D2
  5
1076F
331
107D3
  5
10770
331
107D4
  5
10771
331
107D5
  5
10772
331
107D6
  5
10773
331
107D7
  5
107E3
331
107D8
  5
107E4
331
107D9
  5
107E5
331
107DA
  5
107E6
331
107DB
  5
107E7
331
107DC
  5
107E8
331
107DD
  5
107E9
331
107DE
  5
107EA
331
107DF
  5
107EB
331
107E0
  5
102D2
331
107E1
  5
102D3
331
107E2
  5
102D4
331
0
  5
102D5
331
0
  5
102D6
331
0
  5
102D7
331
107E6
  5
102EF
331
107E7
  5
102F0
331
107E8
  5
102F3
331
0
  5
102DF
331
0
  5
102E0
331
0
  5
102E1
331
107EC
  5
102FD
331
107ED
  5
102FE
331
107EE
  5
102FF
331
0
  5
102E9
331
0
  5
102EA
331
0
  5
102EB
331
107F2
  5
10325
331
107F3
  5
10329
331
107F4
  5
1032A
331
0
  5
10307
331
0
  5
10308
331
0
  5
10309
331
107F8
  5
10335
331
107F9
  5
10336
331
107FA
  5
10337
331
0
  5
1030D
331
0
  5
1030E
331
0
  5
1030F
331
107FE
  5
10342
331
107FF
  5
10343
331
10800
  5
10344
331
0
  5
10316
331
0
  5
10317
331
0
  5
10318
331
10804
  5
1034C
331
10805
  5
1034D
331
10806
  5
1034E
331
0
  5
1031C
331
0
  5
1031D
331
0
  5
1031E
331
1080A
  5
1035A
331
1080B
  5
1035B
331
1080C
  5
1035C
331
0
  5
10326
331
0
  5
10327
331
0
  5
10328
331
10810
  5
10364
331
10811
  5
10365
331
10812
  5
10366
331
0
  5
1032C
331
0
  5
1032D
331
0
  5
1032E
331
10816
  5
1086C
331
10817
  5
1086D
331
10818
  5
10870
331
10819
  5
10871
331
1081A
  5
10874
331
1081B
  5
10875
331
1081C
  5
10876
331
1081D
  5
10877
331
1081E
  5
10878
331
0
  5
1081D
331
0
  5
1081E
331
0
  5
1081F
331
10822
  5
10880
331
10823
  5
10881
331
10824
  5
10882
331
0
  5
10823
331
0
  5
10824
331
0
  5
10825
331
10828
  5
1088A
331
10829
  5
1088B
331
1082A
  5
1088C
331
1082B
  5
1088D
331
1082C
  5
1088E
331
0
  5
1082B
331
0
  5
1082C
331
0
  5
1082D
331
10830
  5
10896
331
10831
  5
10897
331
10832
  5
10898
331
0
  5
10831
331
0
  5
10832
331
0
  5
10833
331
10836
  5
108A0
331
10837
  5
108A1
331
10838
  5
108A2
331
10839
  5
108A3
331
1083A
  5
108A4
331
0
  5
10839
331
0
  5
1083A
331
0
  5
1083B
331
1083E
  5
108AC
331
0
  5
1083D
331
0
  5
1083E
331
10841
  5
108B1
331
10842
  5
108B2
331
10843
  5
108B3
331
10844
  5
108B4
331
10845
  5
108B5
331
10846
  5
108B6
331
0
  5
10845
331
0
  5
10846
331
0
  5
10847
331
1084A
  5
108C0
331
1084B
  5
108C1
331
1084C
  5
108C2
331
1084D
  5
108C3
331
10851
  5
108CB
331
10852
  5
108CC
331
10853
  5
108CD
331
10854
  5
108CE
331
10858
  5
108D8
331
10859
  5
108D9
331
1085A
  5
108DA
331
1085B
  5
108DB
331
1085F
  5
102D8
331
10860
  5
102D9
331
10861
  5
102DC
331
10862
  5
102E2
331
10863
  5
102E3
331
10864
  5
102E6
331
10865
  5
102EE
331
10866
  5
102F4
331
10867
  5
102F5
331
10868
  5
102F6
331
10869
  5
102F9
331
1086A
  5
102FA
331
1086B
  5
102FB
331
1086C
  5
102FC
331
1086D
  5
10300
331
1086E
  5
10301
331
1086F
  5
10302
331
10870
  5
10303
331
10871
  5
10304
331
10872
  5
10305
331
10873
  5
10306
331
10874
  5
1032B
331
10875
  5
1032F
331
10876
  5
10330
331
10877
  5
10331
331
10878
  5
10332
331
10879
  5
10333
331
1087A
  5
10334
331
1087B
  5
10338
331
1087C
  5
10339
331
1087D
  5
1033A
331
1087E
  5
1033B
331
1087F
  5
1033C
331
10880
  5
1033D
331
10881
  5
1033E
331
10882
  5
10345
331
10883
  5
10346
331
10884
  5
10347
331
10885
  5
10348
331
10886
  5
10349
331
10887
  5
1034A
331
10888
  5
1034B
331
10889
  5
1034F
331
1088A
  5
10350
331
1088B
  5
10351
331
1088C
  5
10352
331
1088D
  5
10353
331
1088E
  5
10354
331
1088F
  5
10355
331
10890
  5
1035D
331
10891
  5
1035E
331
10892
  5
1035F
331
10893
  5
10360
331
10894
  5
10361
331
10895
  5
10362
331
10896
  5
10363
331
10897
  5
10367
331
10898
  5
10368
331
10899
  5
10369
331
1089A
  5
1036A
331
1089B
  5
1036B
331
1089C
  5
1036C
331
1089D
  5
1036D
331
1089E
  5
10879
331
1089F
  5
1087A
331
108A0
  5
1087B
331
108A1
  5
1087C
331
108A2
  5
1087D
331
108A3
  5
1087E
331
108A4
  5
1087F
331
108A5
  5
10883
331
108A6
  5
10884
331
108A7
  5
10885
331
108A8
  5
10886
331
108A9
  5
10887
331
108AA
  5
10888
331
108AB
  5
10889
331
108AC
  5
1088F
331
108AD
  5
10890
331
108AE
  5
10891
331
108AF
  5
10892
331
108B0
  5
10893
331
108B1
  5
10894
331
108B2
  5
10895
331
108B3
  5
10899
331
108B4
  5
1089A
331
108B5
  5
1089B
331
108B6
  5
1089C
331
108B7
  5
1089D
331
108B8
  5
1089E
331
108B9
  5
1089F
331
108BA
  5
108A5
331
108BB
  5
108A6
331
108BC
  5
108A7
331
108BD
  5
108A8
331
108BE
  5
108A9
331
108BF
  5
108AA
331
108C0
  5
108AB
331
108C1
  5
108AD
331
108C2
  5
108AE
331
108C3
  5
108AF
331
108C4
  5
108B0
331
108C5
  5
108B7
331
108C6
  5
108B8
331
108C7
  5
108B9
331
108C8
  5
108BA
331
108C9
  5
108BB
331
108CA
  5
108BC
331
108CB
  5
108BD
331
108CC
  5
108C4
331
108CD
  5
108C5
331
108CE
  5
108C6
331
108CF
  5
108C7
331
108D0
  5
108C8
331
108D1
  5
108C9
331
108D2
  5
108CA
331
108D3
  5
108CF
331
108D4
  5
108D0
331
108D5
  5
108D1
331
108D6
  5
108D2
331
108D7
  5
108D3
331
108D8
  5
108D4
331
108D9
  5
108D5
331
108DA
  5
108D6
331
108DB
  5
108D7
  0
MATERIAL
  5
D05A
102
{ACAD_REACTORS
330
18C
102
}
102
{ACAD_XDICTIONARY
360
10A83
102
}
330
18C
100
AcDbMaterial
  1
BYBLOCK
 72
     0
 73
     2
 43
0.0208333333333333
 43
0.0
 43
0.0
 43
0.0
 43
0.0
 43
0.0208333333333333
 43
0.0
 43
0.0
 43
0.0
 43
0.0
 43
1.0
 43
0.0
 43
0.0
 43
0.0
 43
0.0
 43
1.0
 77
     0
 78
     2
 47
0.0208333333333333
 47
0.0
 47
0.0
 47
0.0
 47
0.0
 47
0.0208333333333333
 47
0.0
 47
0.0
 47
0.0
 47
0.0
 47
1.0
 47
0.0
 47
0.0
 47
0.0
 47
0.0
 47
1.0
171
     0
172
     2
 49
0.0208333333333333
 49
0.0
 49
0.0
 49
0.0
 49
0.0
 49
0.0208333333333333
 49
0.0
 49
0.0
 49
0.0
 49
0.0
 49
1.0
 49
0.0
 49
0.0
 49
0.0
 49
0.0
 49
1.0
175
     0
176
     2
142
0.0208333333333333
142
0.0
142
0.0
142
0.0
142
0.0
142
0.0208333333333333
142
0.0
142
0.0
142
0.0
142
0.0
142
1.0
142
0.0
142
0.0
142
0.0
142
0.0
142
1.0
179
     0
270
     2
144
0.0208333333333333
144
0.0
144
0.0
144
0.0
144
0.0
144
0.0208333333333333
144
0.0
144
0.0
144
0.0
144
0.0
144
1.0
144
0.0
144
0.0
144
0.0
144
0.0
144
1.0
274
     2
147
0.0208333333333333
147
0.0
147
0.0
147
0.0
147
0.0
147
0.0208333333333333
147
0.0
147
0.0
147
0.0
147
0.0
147
1.0
147
0.0
147
0.0
147
0.0
147
0.0
147
1.0
  0
MATERIAL
  5
D052
102
{ACAD_REACTORS
330
18C
102
}
102
{ACAD_XDICTIONARY
360
10A85
102
}
330
18C
100
AcDbMaterial
  1
BYLAYER
 72
     0
 73
     2
 43
0.0208333333333333
 43
0.0
 43
0.0
 43
0.0
 43
0.0
 43
0.0208333333333333
 43
0.0
 43
0.0
 43
0.0
 43
0.0
 43
1.0
 43
0.0
 43
0.0
 43
0.0
 43
0.0
 43
1.0
 77
     0
 78
     2
 47
0.0208333333333333
 47
0.0
 47
0.0
 47
0.0
 47
0.0
 47
0.0208333333333333
 47
0.0
 47
0.0
 47
0.0
 47
0.0
 47
1.0
 47
0.0
 47
0.0
 47
0.0
 47
0.0
 47
1.0
171
     0
172
     2
 49
0.0208333333333333
 49
0.0
 49
0.0
 49
0.0
 49
0.0
 49
0.0208333333333333
 49
0.0
 49
0.0
 49
0.0
 49
0.0
 49
1.0
 49
0.0
 49
0.0
 49
0.0
 49
0.0
 49
1.0
175
     0
176
     2
142
0.0208333333333333
142
0.0
142
0.0
142
0.0
142
0.0
142
0.0208333333333333
142
0.0
142
0.0
142
0.0
142
0.0
142
1.0
142
0.0
142
0.0
142
0.0
142
0.0
142
1.0
179
     0
270
     2
144
0.0208333333333333
144
0.0
144
0.0
144
0.0
144
0.0
144
0.0208333333333333
144
0.0
144
0.0
144
0.0
144
0.0
144
1.0
144
0.0
144
0.0
144
0.0
144
0.0
144
1.0
274
     2
147
0.0208333333333333
147
0.0
147
0.0
147
0.0
147
0.0
147
0.0208333333333333
147
0.0
147
0.0
147
0.0
147
0.0
147
1.0
147
0.0
147
0.0
147
0.0
147
0.0
147
1.0
  0
MATERIAL
  5
D062
102
{ACAD_REACTORS
330
18C
102
}
102
{ACAD_XDICTIONARY
360
10A87
102
}
330
18C
100
AcDbMaterial
  1
GLOBAL
 72
     0
 73
     2
 43
0.0208333333333333
 43
0.0
 43
0.0
 43
0.0
 43
0.0
 43
0.0208333333333333
 43
0.0
 43
0.0
 43
0.0
 43
0.0
 43
1.0
 43
0.0
 43
0.0
 43
0.0
 43
0.0
 43
1.0
 77
     0
 78
     2
 47
0.0208333333333333
 47
0.0
 47
0.0
 47
0.0
 47
0.0
 47
0.0208333333333333
 47
0.0
 47
0.0
 47
0.0
 47
0.0
 47
1.0
 47
0.0
 47
0.0
 47
0.0
 47
0.0
 47
1.0
171
     0
172
     2
 49
0.0208333333333333
 49
0.0
 49
0.0
 49
0.0
 49
0.0
 49
0.0208333333333333
 49
0.0
 49
0.0
 49
0.0
 49
0.0
 49
1.0
 49
0.0
 49
0.0
 49
0.0
 49
0.0
 49
1.0
175
     0
176
     2
142
0.0208333333333333
142
0.0
142
0.0
142
0.0
142
0.0
142
0.0208333333333333
142
0.0
142
0.0
142
0.0
142
0.0
142
1.0
142
0.0
142
0.0
142
0.0
142
0.0
142
1.0
179
     0
270
     2
144
0.0208333333333333
144
0.0
144
0.0
144
0.0
144
0.0
144
0.0208333333333333
144
0.0
144
0.0
144
0.0
144
0.0
144
1.0
144
0.0
144
0.0
144
0.0
144
0.0
144
1.0
274
     2
147
0.0208333333333333
147
0.0
147
0.0
147
0.0
147
0.0
147
0.0208333333333333
147
0.0
147
0.0
147
0.0
147
0.0
147
1.0
147
0.0
147
0.0
147
0.0
147
0.0
147
1.0
  0
ACAD_PROXY_OBJECT
  5
D09E
102
{ACAD_REACTORS
330
D09D
102
}
330
D09D
100
AcDbZombieObject
 90
      499
 91
      511
 93
      610
310
40901902A4063FBFFFFFE000000000000002040AD7A3703D0AD73F4214DD185B99185C990000000000000104090141901A00000000000004100000000000000041025764000000000000300FC0
340
12
340
0
340
F
340
0
 94
        0
1001
ACAD_MLEADERVER
1070
     2
  0
MLINESTYLE
  5
1C
102
{ACAD_REACTORS
330
1B
102
}
330
1B
100
AcDbMlineStyle
  2
STANDARD
 70
     0
  3

 62
   256
 51
90.0
 52
90.0
 71
     2
 49
0.5
 62
   256
  6
BYLAYER
 49
-0.5
 62
   256
  6
BYLAYER
  0
ACAD_PROXY_OBJECT
  5
D07C
102
{ACAD_REACTORS
330
D07B
102
}
330
D07B
100
AcDbZombieObject
 90
      499
 91
      510
 93
       41
310
903313A31580
  0
ACAD_PROXY_OBJECT
  5
D07D
102
{ACAD_REACTORS
330
D07B
102
}
330
D07B
100
AcDbZombieObject
 90
      499
 91
      510
 93
      105
310
903313A324000000000000004000
  0
ACAD_PROXY_OBJECT
  5
D07E
102
{ACAD_REACTORS
330
D07B
102
}
330
D07B
100
AcDbZombieObject
 90
      499
 91
      510
 93
      105
310
903313A344000000000000104000
  0
ACAD_PROXY_OBJECT
  5
D07F
102
{ACAD_REACTORS
330
D07B
102
}
330
D07B
100
AcDbZombieObject
 90
      499
 91
      510
 93
      105
310
903313A354000000000000144000
  0
ACAD_PROXY_OBJECT
  5
D080
102
{ACAD_REACTORS
330
D07B
102
}
330
D07B
100
AcDbZombieObject
 90
      499
 91
      510
 93
      105
310
903313A384000000000000204000
  0
ACAD_PROXY_OBJECT
  5
D081
102
{ACAD_REACTORS
330
D07B
102
}
330
D07B
100
AcDbZombieObject
 90
      499
 91
      510
 93
      113
310
904313A31304000000000000244000
  0
ACAD_PROXY_OBJECT
  5
D082
102
{ACAD_REACTORS
330
D07B
102
}
330
D07B
100
AcDbZombieObject
 90
      499
 91
      510
 93
      113
310
904313A31364000000000000304000
  0
ACAD_PROXY_OBJECT
  5
D083
102
{ACAD_REACTORS
330
D07B
102
}
330
D07B
100
AcDbZombieObject
 90
      499
 91
      510
 93
      113
310
904313A32304000000000000344000
  0
ACAD_PROXY_OBJECT
  5
D084
102
{ACAD_REACTORS
330
D07B
102
}
330
D07B
100
AcDbZombieObject
 90
      499
 91
      510
 93
      113
310
904313A333040000000000003E4000
  0
ACAD_PROXY_OBJECT
  5
D085
102
{ACAD_REACTORS
330
D07B
102
}
330
D07B
100
AcDbZombieObject
 90
      499
 91
      510
 93
      113
310
904313A34304000000000000444000
  0
ACAD_PROXY_OBJECT
  5
D086
102
{ACAD_REACTORS
330
D07B
102
}
330
D07B
100
AcDbZombieObject
 90
      499
 91
      510
 93
      113
310
904313A35304000000000000494000
  0
ACAD_PROXY_OBJECT
  5
D087
102
{ACAD_REACTORS
330
D07B
102
}
330
D07B
100
AcDbZombieObject
 90
      499
 91
      510
 93
      121
310
905313A3130304000000000000594000
  0
ACAD_PROXY_OBJECT
  5
D088
102
{ACAD_REACTORS
330
D07B
102
}
330
D07B
100
AcDbZombieObject
 90
      499
 91
      510
 93
      105
310
903323A310000000000000010100
  0
ACAD_PROXY_OBJECT
  5
D089
102
{ACAD_REACTORS
330
D07B
102
}
330
D07B
100
AcDbZombieObject
 90
      499
 91
      510
 93
      105
310
903343A310000000000000410100
  0
ACAD_PROXY_OBJECT
  5
D08A
102
{ACAD_REACTORS
330
D07B
102
}
330
D07B
100
AcDbZombieObject
 90
      499
 91
      510
 93
      105
310
903383A310000000000000810100
  0
ACAD_PROXY_OBJECT
  5
D08B
102
{ACAD_REACTORS
330
D07B
102
}
330
D07B
100
AcDbZombieObject
 90
      499
 91
      510
 93
      113
310
90431303A310000000000000910100
  0
ACAD_PROXY_OBJECT
  5
D08C
102
{ACAD_REACTORS
330
D07B
102
}
330
D07B
100
AcDbZombieObject
 90
      499
 91
      510
 93
      121
310
9053130303A310000000000001650100
  0
ACAD_PROXY_OBJECT
  5
D08D
102
{ACAD_REACTORS
330
D07B
102
}
330
D07B
100
AcDbZombieObject
 90
      499
 91
      510
 93
      257
310
90E312F31323822203D2031272D3022000000000000200FC000000000000284000
  0
ACAD_PROXY_OBJECT
  5
D08E
102
{ACAD_REACTORS
330
D07B
102
}
330
D07B
100
AcDbZombieObject
 90
      499
 91
      510
 93
      249
310
90D312F363422203D2031272D3022000000000000240FC000000000000284000
  0
ACAD_PROXY_OBJECT
  5
D08F
102
{ACAD_REACTORS
330
D07B
102
}
330
D07B
100
AcDbZombieObject
 90
      499
 91
      510
 93
      249
310
90D312F333222203D2031272D3022000000000000280FC000000000000284000
  0
ACAD_PROXY_OBJECT
  5
D090
102
{ACAD_REACTORS
330
D07B
102
}
330
D07B
100
AcDbZombieObject
 90
      499
 91
      510
 93
      249
310
90D312F313622203D2031272D30220000000000002C0FC000000000000284000
  0
ACAD_PROXY_OBJECT
  5
D091
102
{ACAD_REACTORS
330
D07B
102
}
330
D07B
100
AcDbZombieObject
 90
      499
 91
      510
 93
      249
310
90D332F333222203D2031272D30220000000000002E0FC000000000000284000
  0
ACAD_PROXY_OBJECT
  5
D092
102
{ACAD_REACTORS
330
D07B
102
}
330
D07B
100
AcDbZombieObject
 90
      499
 91
      510
 93
      241
310
90C312F3822203D2031272D3022000000000000300FC000000000000284000
  0
ACAD_PROXY_OBJECT
  5
D093
102
{ACAD_REACTORS
330
D07B
102
}
330
D07B
100
AcDbZombieObject
 90
      499
 91
      510
 93
      249
310
90D332F313622203D2031272D3022000000000000320FC000000000000284000
  0
ACAD_PROXY_OBJECT
  5
D094
102
{ACAD_REACTORS
330
D07B
102
}
330
D07B
100
AcDbZombieObject
 90
      499
 91
      510
 93
      241
310
90C312F3422203D2031272D3022000000000000340FC000000000000284000
  0
ACAD_PROXY_OBJECT
  5
D095
102
{ACAD_REACTORS
330
D07B
102
}
330
D07B
100
AcDbZombieObject
 90
      499
 91
      510
 93
      241
310
90C332F3822203D2031272D3022000000000000360FC000000000000284000
  0
ACAD_PROXY_OBJECT
  5
D096
102
{ACAD_REACTORS
330
D07B
102
}
330
D07B
100
AcDbZombieObject
 90
      499
 91
      510
 93
      241
310
90C312F3222203D2031272D3022000000000000380FC000000000000284000
  0
ACAD_PROXY_OBJECT
  5
D097
102
{ACAD_REACTORS
330
D07B
102
}
330
D07B
100
AcDbZombieObject
 90
      499
 91
      510
 93
      241
310
90C332F3422203D2031272D30220000000000003A0FC000000000000284000
  0
ACAD_PROXY_OBJECT
  5
D098
102
{ACAD_REACTORS
330
D07B
102
}
330
D07B
100
AcDbZombieObject
 90
      499
 91
      510
 93
      161
310
90A3122203D2031272D30224000000000000284000
  0
ACAD_PROXY_OBJECT
  5
D099
102
{ACAD_REACTORS
330
D07B
102
}
330
D07B
100
AcDbZombieObject
 90
      499
 91
      510
 93
      257
310
90E312D312F3222203D2031272D30220000000000003E0FC000000000000284000
  0
ACAD_PROXY_OBJECT
  5
D09A
102
{ACAD_REACTORS
330
D07B
102
}
330
D07B
100
AcDbZombieObject
 90
      499
 91
      510
 93
      225
310
90A3322203D2031272D302200000000000002100000000000000284000
  0
ACAD_PROXY_OBJECT
  5
D09B
102
{ACAD_REACTORS
330
D07B
102
}
330
D07B
100
AcDbZombieObject
 90
      499
 91
      510
 93
      225
310
90A3622203D2031272D302200000000000006100000000000000284000
  0
ACAD_PROXY_OBJECT
  5
D09C
102
{ACAD_REACTORS
330
D07B
102
}
330
D07B
100
AcDbZombieObject
 90
      499
 91
      510
 93
      249
310
90D31272D3022203D2031272D30220000000000000A100000000000000284000
  0
ACAD_PROXY_OBJECT
  5
D070
102
{ACAD_REACTORS
330
D06A
102
}
330
D06A
100
AcDbZombieObject
 90
      499
 91
      509
 93
      436
310
42CC9915DA5C99599C985B595049028333333333333E3BF0000000000000FB0107901411070040501600405405064090741402480A0340
1001
ACAD
1000
AcDbSavedByObjectVersion
1070
     0
  0
ACAD_PROXY_OBJECT
  5
D072
102
{ACAD_REACTORS
330
D06A
102
}
330
D06A
100
AcDbZombieObject
 90
      499
 91
      509
 93
      500
310
424CD108121A5919195B90640502408333333333333E3BF0000000000000FB01079024090700405020000000000001110200405405064090740C02480A0340
1001
ACAD
1000
AcDbSavedByObjectVersion
1070
     0
  0
ACAD_PROXY_OBJECT
  5
D071
102
{ACAD_REACTORS
330
D06A
102
}
330
D06A
100
AcDbZombieObject
 90
      499
 91
      509
 93
      436
310
42CCD915DA5C99599C985B595059028333333333333E3BF0000000000000FB0107901411070040501600405405064090741402480A0340
1001
ACAD
1000
AcDbSavedByObjectVersion
1070
     0
  0
ACAD_PROXY_OBJECT
  5
D06F
102
{ACAD_REACTORS
330
D06A
102
}
330
D06A
100
AcDbZombieObject
 90
      499
 91
      509
 93
      388
310
4150985CDA58D07406404333333333333E3BF0000000000000FB0107A41107004050150841D405064090741402480A0350
1001
ACAD
1000
AcDbSavedByObjectVersion
1070
     0
  0
ACAD_PROXY_OBJECT
  5
D076
102
{ACAD_REACTORS
330
D06A
102
}
330
D06A
100
AcDbZombieObject
 90
      499
 91
      509
 93
      428
310
42109C9A59DA1D195B90C409028333333333333E3BF0000000000000FB010790141107004050150841D405064090741402480A029950
1001
ACAD
1000
AcDbSavedByObjectVersion
1070
     0
  0
ACAD_PROXY_OBJECT
  5
D07A
102
{ACAD_REACTORS
330
D06A
102
}
330
D06A
100
AcDbZombieObject
 90
      499
 91
      509
 93
      452
310
42D0DBDB1BDC90DA185B99D95104090240C333333333333E3BF0000000000000FB0108901411070040501508421405064090741402480A0350
1001
ACAD
1000
AcDbSavedByObjectVersion
1070
     0
  0
ACAD_PROXY_OBJECT
  5
D073
102
{ACAD_REACTORS
330
D06A
102
}
330
D06A
100
AcDbZombieObject
 90
      499
 91
      509
 93
      500
310
4290DBDB98D95C1D1D585B10940D028333333333333E3BF0000000000000FB0107902409070040501000000000000111010841D405064090740C02480A0340
1001
ACAD
1000
AcDbSavedByObjectVersion
1070
     0
  0
ACAD_PROXY_OBJECT
  5
D075
102
{ACAD_REACTORS
330
D06A
102
}
330
D06A
100
AcDbZombieObject
 90
      499
 91
      509
 93
      412
310
40D11A5B50B409028333333333333E3BF0000000000000FB010790141107004050150841D405064090741402480A02677FFFFFD0
1001
ACAD
1000
AcDbSavedByObjectVersion
1070
     0
  0
ACAD_PROXY_OBJECT
  5
D29F
102
{ACAD_REACTORS
330
D06A
102
}
330
D06A
100
AcDbZombieObject
 90
      499
 91
      509
 93
      452
310
43115919D950DBDB1BDC93D999916409028333333333333E3BF0000000000000FB010790141107004050150841D405064090741402480A0350
1001
ACAD
1000
AcDbSavedByObjectVersion
1070
     0
  0
ACAD_PROXY_OBJECT
  5
D079
102
{ACAD_REACTORS
330
D06A
102
}
330
D06A
100
AcDbZombieObject
 90
      499
 91
      509
 93
      444
310
42D19858D95C185D1D195C9B90F409028333333333333E3BF0000000000000FB010790141107004050150841D405064090741402480A0350
1001
ACAD
1000
AcDbSavedByObjectVersion
1070
     0
  0
ACAD_PROXY_OBJECT
  5
D06B
102
{ACAD_REACTORS
330
D06A
102
}
330
D06A
100
AcDbZombieObject
 90
      499
 91
      509
 93
      388
310
41119B185D240901404333333333333E3BF0000000000000F9010740A41107004050150841D405064090741402480A1B50
1001
ACAD
1000
AcDbSavedByObjectVersion
1070
     0
  0
ACAD_PROXY_OBJECT
  5
D06C
102
{ACAD_REACTORS
330
D06A
102
}
330
D06A
100
AcDbZombieObject
 90
      499
 91
      509
 93
      476
310
43519B185D15DA5D1A115919D95CD0140901404333333333333E3BF0000000000000F9010740901411070040501600405405064090741402480A1B50
1001
ACAD
1000
AcDbSavedByObjectVersion
1070
     0
  0
ACAD_PROXY_OBJECT
  5
D06D
102
{ACAD_REACTORS
330
D06A
102
}
330
D06A
100
AcDbZombieObject
 90
      499
 91
      509
 93
      412
310
41D1DBDD5C985D5910240902404333333333333E3BF0000000000000F9010740A411070040501641D405064090741402480A1B50
1001
ACAD
1000
AcDbSavedByObjectVersion
1070
     0
  0
ACAD_PROXY_OBJECT
  5
D06E
102
{ACAD_REACTORS
330
D06A
102
}
330
D06A
100
AcDbZombieObject
 90
      499
 91
      509
 93
      500
310
4411DBDD5C985D5915DA5D1A115919D95CD0340902404333333333333E3BF0000000000000F9010740901411070040501600405405064090741402480A1B50
1001
ACAD
1000
AcDbSavedByObjectVersion
1070
     0
  0
ACAD_PROXY_OBJECT
  5
EFDA
102
{ACAD_REACTORS
330
D06A
102
}
330
D06A
100
AcDbZombieObject
 90
      499
 91
      509
 93
      476
310
41921A5919195B90640502408333333333333E33F0000000000000F901079024090700405020000000000001110200405405064090740C02480A0340
1001
ACAD
1000
AcDbSavedByObjectVersion
1070
     0
  0
ACAD_PROXY_OBJECT
  5
D29D
102
{ACAD_REACTORS
330
D06A
102
}
330
D06A
100
AcDbZombieObject
 90
      499
 91
      509
 93
      428
310
42529A5D1D195C93D999914409028333333333333E3BF0000000000000FB010790141107004050150A41D405064090741402480A0350
1001
ACAD
1000
AcDbSavedByObjectVersion
1070
     0
  0
ACAD_PROXY_OBJECT
  5
D078
102
{ACAD_REACTORS
330
D06A
102
}
330
D06A
100
AcDbZombieObject
 90
      499
 91
      509
 93
      444
310
42D31A5B995C185D1D195C9B90E409028333333333333E3BF0000000000000FB010790141107004050750841D405064090741402483A0350
1001
ACAD
1000
AcDbSavedByObjectVersion
1070
     0
  0
ACAD_PROXY_OBJECT
  5
EFE0
102
{ACAD_REACTORS
330
D06A
102
}
330
D06A
100
AcDbZombieObject
 90
      499
 91
      509
 93
      484
310
42135BD9195B1A5B99D0A409038333333333333E33F0000000000000F901074090290700405010000000000201990108421405064090741402480A1B40
1001
ACAD
1000
AcDbSavedByObjectVersion
1070
     0
  0
ACAD_PROXY_OBJECT
  5
D29E
102
{ACAD_REACTORS
330
D06A
102
}
330
D06A
100
AcDbZombieObject
 90
      499
 91
      509
 93
      444
310
42D3DD995C9A185B99D3D999915409028333333333333E3BF0000000000000FB010790141107004050150941D405064090741402480A0350
1001
ACAD
1000
AcDbSavedByObjectVersion
1070
     0
  0
ACAD_PROXY_OBJECT
  5
D074
102
{ACAD_REACTORS
330
D06A
102
}
330
D06A
100
AcDbZombieObject
 90
      499
 91
      509
 93
      420
310
425499585B1A5CDD1A58D08409028333333333333E3BF0000000000000FB01079019070040501508421405064090741402480A1B40
1001
ACAD
1000
AcDbSavedByObjectVersion
1070
     0
  0
ACAD_PROXY_OBJECT
  5
EFDF
102
{ACAD_REACTORS
330
D06A
102
}
330
D06A
100
AcDbZombieObject
 90
      499
 91
      509
 93
      420
310
4194DA1859195911B40902404333333333333E33F0000000000000F9010740A41107004050150800405405064090840C02480A0B40
1001
ACAD
1000
AcDbSavedByObjectVersion
1070
     0
  0
ACAD_PROXY_OBJECT
  5
EFDE
102
{ACAD_REACTORS
330
D06A
102
}
330
D06A
100
AcDbZombieObject
 90
      499
 91
      509
 93
      516
310
4454DA18591959081DDA5D1A08195919D95CD1A40902404333333333333E33F0000000000000F901074090142907004050250800405405064090740C02480A0B40
1001
ACAD
1000
AcDbSavedByObjectVersion
1070
     0
  0
ACAD_PROXY_OBJECT
  5
EFDB
102
{ACAD_REACTORS
330
D06A
102
}
330
D06A
100
AcDbZombieObject
 90
      499
 91
      509
 93
      532
310
4394DA1859195CC81BD98811DC985E5174090240C333333333333E33F0000000000000F901079024090741D01000000000000111010841D405064090740C02480A0340
1001
ACAD
1000
AcDbSavedByObjectVersion
1070
     0
  0
ACAD_PROXY_OBJECT
  5
EFDC
102
{ACAD_REACTORS
330
D06A
102
}
330
D06A
100
AcDbZombieObject
 90
      499
 91
      509
 93
      476
310
41D4DAD95D18DA1E51840502408333333333333E33F0000000000000F901079024090741D01000000000000111010B41D405064090741802480A0340
1001
ACAD
1000
AcDbSavedByObjectVersion
1070
     0
  0
ACAD_PROXY_OBJECT
  5
D077
102
{ACAD_REACTORS
330
D06A
102
}
330
D06A
100
AcDbZombieObject
 90
      499
 91
      509
 93
      412
310
41D51A1A58DAD95B90D409028333333333333E3BF0000000000000FB010790141107004050150C41D405064090741402480A0350
1001
ACAD
1000
AcDbSavedByObjectVersion
1070
     0
  0
ACAD_PROXY_OBJECT
  5
EFD9
102
{ACAD_REACTORS
330
D06A
102
}
330
D06A
100
AcDbZombieObject
 90
      499
 91
      509
 93
      420
310
4255DA5C99599C985B595059028333333333333E33F0000000000000F90107901411070040501600405405064090740C02480A0340
1001
ACAD
1000
AcDbSavedByObjectVersion
1070
     0
  0
ACAD_PROXY_OBJECT
  5
EFDD
102
{ACAD_REACTORS
330
D06A
102
}
330
D06A
100
AcDbZombieObject
 90
      499
 91
      509
 93
      404
310
41560B54985E51940902404000000000000E03F0000000000000F9010740501907004050150841D405064090740C02480A1B40
1001
ACAD
1000
AcDbSavedByObjectVersion
1070
     0
  0
XRECORD
  5
108E6
102
{ACAD_REACTORS
330
108E5
102
}
330
108E5
100
AcDbXrecord
340
18D
  0
XRECORD
  5
108E7
102
{ACAD_REACTORS
330
108E5
102
}
330
108E5
100
AcDbXrecord
340
18C
  0
DICTIONARYVAR
  5
F7D9
102
{ACAD_REACTORS
330
37
102
}
330
37
100
DictionaryVariables
280
     0
  1
1:1
  0
DICTIONARYVAR
  5
D117
102
{ACAD_REACTORS
330
37
102
}
330
37
100
DictionaryVariables
280
     0
  1
Standard
  0
DICTIONARYVAR
  5
29E
102
{ACAD_REACTORS
330
37
102
}
330
37
100
DictionaryVariables
280
     0
  1
Standard
  0
DICTIONARYVAR
  5
38
102
{ACAD_REACTORS
330
37
102
}
330
37
100
DictionaryVariables
280
     0
  1
-1
  0
DICTIONARYVAR
  5
1CE
102
{ACAD_REACTORS
330
37
102
}
330
37
100
DictionaryVariables
280
     0
  1
2
  0
DICTIONARYVAR
  5
704E
102
{ACAD_REACTORS
330
37
102
}
330
37
100
DictionaryVariables
280
     0
  1
1
  0
DICTIONARYVAR
  5
D11A
102
{ACAD_REACTORS
330
37
102
}
330
37
100
DictionaryVariables
280
     0
  1
0
  0
DICTIONARYVAR
  5
7052
102
{ACAD_REACTORS
330
37
102
}
330
37
100
DictionaryVariables
280
     0
  1
8
  0
DICTIONARYVAR
  5
7051
102
{ACAD_REACTORS
330
37
102
}
330
37
100
DictionaryVariables
280
     0
  1
1
  0
DICTIONARYVAR
  5
F829
102
{ACAD_REACTORS
330
37
102
}
330
37
100
DictionaryVariables
280
     0
  1
0
  0
DICTIONARYVAR
  5
704F
102
{ACAD_REACTORS
330
37
102
}
330
37
100
DictionaryVariables
280
     0
  1
8
  0
DICTIONARYVAR
  5
7050
102
{ACAD_REACTORS
330
37
102
}
330
37
100
DictionaryVariables
280
     0
  1
2
  0
DICTIONARYVAR
  5
1CF
102
{ACAD_REACTORS
330
37
102
}
330
37
100
DictionaryVariables
280
     0
  1

  0
DICTIONARYVAR
  5
D119
102
{ACAD_REACTORS
330
37
102
}
330
37
100
DictionaryVariables
280
     0
  1
127
  0
DICTIONARYVAR
  5
EFD8
102
{ACAD_REACTORS
330
37
102
}
330
37
100
DictionaryVariables
280
     0
  1
2
  0
DICTIONARY
  5
10A83
330
D05A
100
AcDbDictionary
  3
ACAD_XREC_ROUNDTRIP
360
10A84
1001
ACAD
1000
TREAT_AS_HARD
1070
     1
  0
DICTIONARY
  5
10A85
330
D052
100
AcDbDictionary
  3
ACAD_XREC_ROUNDTRIP
360
10A86
1001
ACAD
1000
TREAT_AS_HARD
1070
     1
  0
DICTIONARY
  5
10A87
330
D062
100
AcDbDictionary
  3
ACAD_XREC_ROUNDTRIP
360
10A88
1001
ACAD
1000
TREAT_AS_HARD
1070
     1
  0
XRECORD
  5
10A84
102
{ACAD_REACTORS
330
10A83
102
}
330
10A83
100
AcDbXrecord
102
MATERIAL
148
0.0
149
0.0
149
0.0
 93
        0
 94
      127
282
     0
 72
     0
 77
     0
171
     0
175
     0
179
     0
273
     0
  0
XRECORD
  5
10A86
102
{ACAD_REACTORS
330
10A85
102
}
330
10A85
100
AcDbXrecord
102
MATERIAL
148
0.0
149
0.0
149
0.0
 93
        0
 94
      127
282
     0
 72
     0
 77
     0
171
     0
175
     0
179
     0
273
     0
  0
XRECORD
  5
10A88
102
{ACAD_REACTORS
330
10A87
102
}
330
10A87
100
AcDbXrecord
102
MATERIAL
148
0.0
149
0.0
149
0.0
 93
        0
 94
      127
282
     0
 72
     0
 77
     0
171
     0
175
     0
179
     0
273
     0
  0
ENDSEC
  0
EOF
