  0
SECTION
  2
HEADER
  9
$ACADVER
  1
AC1012
  9
$DWGCODEPAGE
  3
ansi_932
  9
$INSBASE
 10
0.0
 20
0.0
 30
0.0
  9
$EXTMIN
 10
-206.0227812414504
 20
-30.99999999999199
 30
0.0
  9
$EXTMAX
 10
94.55838013648477
 20
173.0173478229608
 30
0.0
  9
$LIMMIN
 10
0.0
 20
0.0
  9
$LIMMAX
 10
420.0
 20
297.0
  9
$ORTHOMODE
 70
     0
  9
$REGENMODE
 70
     1
  9
$FILLMODE
 70
     1
  9
$QTEXTMODE
 70
     0
  9
$MIRRTEXT
 70
     0
  9
$DRAGMODE
 70
     2
  9
$LTSCALE
 40
0.5
  9
$OSMODE
 70
  2175
  9
$ATTMODE
 70
     1
  9
$TEXTSIZE
 40
4.0
  9
$TRACEWID
 40
1.0
  9
$TEXTSTYLE
  7
STANDARD
  9
$CLAYER
  8
1TEXT
  9
$CELTYPE
  6
BYLAYER
  9
$CECOLOR
 62
   256
  9
$CELTSCALE
 40
1.0
  9
$DELOBJ
 70
     1
  9
$DISPSILH
 70
     0
  9
$DIMSCALE
 40
1.0
  9
$DIMASZ
 40
2.0
  9
$DIMEXO
 40
0.0
  9
$DIMDLI
 40
7.0
  9
$DIMRND
 40
0.0
  9
$DIMDLE
 40
0.0
  9
$DIMEXE
 40
1.0
  9
$DIMTP
 40
0.0
  9
$DIMTM
 40
0.0
  9
$DIMTXT
 40
3.5
  9
$DIMCEN
 40
0.0
  9
$DIMTSZ
 40
0.0
  9
$DIMTOL
 70
     0
  9
$DIMLIM
 70
     0
  9
$DIMTIH
 70
     0
  9
$DIMTOH
 70
     0
  9
$DIMSE1
 70
     0
  9
$DIMSE2
 70
     0
  9
$DIMTAD
 70
     1
  9
$DIMZIN
 70
     8
  9
$DIMBLK
  1

  9
$DIMASO
 70
     1
  9
$DIMSHO
 70
     1
  9
$DIMPOST
  1
 
  9
$DIMAPOST
  1

  9
$DIMALT
 70
     0
  9
$DIMALTD
 70
     2
  9
$DIMALTF
 40
25.4
  9
$DIMLFAC
 40
1.0
  9
$DIMTOFL
 70
     1
  9
$DIMTVP
 40
0.0
  9
$DIMTIX
 70
     0
  9
$DIMSOXD
 70
     0
  9
$DIMSAH
 70
     1
  9
$DIMBLK1
  1
OPEN30
  9
$DIMBLK2
  1
OPEN30
  9
$DIMSTYLE
  2
NEWX10
  9
$DIMCLRD
 70
   256
  9
$DIMCLRE
 70
   256
  9
$DIMCLRT
 70
   201
  9
$DIMTFAC
 40
0.7
  9
$DIMGAP
 40
0.7
  9
$DIMJUST
 70
     0
  9
$DIMSD1
 70
     0
  9
$DIMSD2
 70
     0
  9
$DIMTOLJ
 70
     1
  9
$DIMTZIN
 70
     8
  9
$DIMALTZ
 70
     0
  9
$DIMALTTZ
 70
     0
  9
$DIMFIT
 70
     2
  9
$DIMUPT
 70
     0
  9
$DIMUNIT
 70
     2
  9
$DIMDEC
 70
     2
  9
$DIMTDEC
 70
     4
  9
$DIMALTU
 70
     2
  9
$DIMALTTD
 70
     2
  9
$DIMTXSTY
  7
STANDARD
  9
$DIMAUNIT
 70
     0
  9
$LUNITS
 70
     2
  9
$LUPREC
 70
     4
  9
$SKETCHINC
 40
1.0
  9
$FILLETRAD
 40
0.0
  9
$AUNITS
 70
     0
  9
$AUPREC
 70
     2
  9
$MENU
  1
acad
  9
$ELEVATION
 40
0.0
  9
$PELEVATION
 40
0.0
  9
$THICKNESS
 40
0.0
  9
$LIMCHECK
 70
     0
  9
$CHAMFERA
 40
10.0
  9
$CHAMFERB
 40
10.0
  9
$CHAMFERC
 40
20.0
  9
$CHAMFERD
 40
0.0
  9
$SKPOLY
 70
     0
  9
$TDCREATE
 40
2451318.621352917
  9
$TDUPDATE
 40
2459111.576499525
  9
$TDINDWG
 40
0.7894273032
  9
$TDUSRTIMER
 40
0.7894273032
  9
$USRTIMER
 70
     1
  9
$ANGBASE
 50
0.0
  9
$ANGDIR
 70
     0
  9
$PDMODE
 70
     0
  9
$PDSIZE
 40
0.0
  9
$PLINEWID
 40
0.0
  9
$COORDS
 70
     2
  9
$SPLFRAME
 70
     0
  9
$SPLINETYPE
 70
     6
  9
$SPLINESEGS
 70
     8
  9
$ATTDIA
 70
     0
  9
$ATTREQ
 70
     1
  9
$HANDLING
 70
     1
  9
$HANDSEED
  5
10705
  9
$SURFTAB1
 70
     6
  9
$SURFTAB2
 70
     6
  9
$SURFTYPE
 70
     6
  9
$SURFU
 70
     6
  9
$SURFV
 70
     6
  9
$UCSNAME
  2

  9
$UCSORG
 10
0.0
 20
0.0
 30
0.0
  9
$UCSXDIR
 10
1.0
 20
0.0
 30
0.0
  9
$UCSYDIR
 10
0.0
 20
1.0
 30
0.0
  9
$PUCSNAME
  2

  9
$PUCSORG
 10
0.0
 20
0.0
 30
0.0
  9
$PUCSXDIR
 10
1.0
 20
0.0
 30
0.0
  9
$PUCSYDIR
 10
0.0
 20
1.0
 30
0.0
  9
$USERI1
 70
     0
  9
$USERI2
 70
     0
  9
$USERI3
 70
     0
  9
$USERI4
 70
     0
  9
$USERI5
 70
     0
  9
$USERR1
 40
0.0
  9
$USERR2
 40
0.0
  9
$USERR3
 40
0.0
  9
$USERR4
 40
0.0
  9
$USERR5
 40
0.0
  9
$WORLDVIEW
 70
     1
  9
$SHADEDGE
 70
     3
  9
$SHADEDIF
 70
    70
  9
$TILEMODE
 70
     1
  9
$MAXACTVP
 70
    48
  9
$PINSBASE
 10
0.0
 20
0.0
 30
0.0
  9
$PLIMCHECK
 70
     0
  9
$PEXTMIN
 10
1.000000000000000E+20
 20
1.000000000000000E+20
 30
1.000000000000000E+20
  9
$PEXTMAX
 10
-1.000000000000000E+20
 20
-1.000000000000000E+20
 30
-1.000000000000000E+20
  9
$PLIMMIN
 10
0.0
 20
0.0
  9
$PLIMMAX
 10
420.0
 20
297.0
  9
$UNITMODE
 70
     0
  9
$VISRETAIN
 70
     1
  9
$PLINEGEN
 70
     0
  9
$PSLTSCALE
 70
     1
  9
$TREEDEPTH
 70
  3020
  9
$PICKSTYLE
 70
     1
  9
$CMLSTYLE
  2
STANDARD
  9
$CMLJUST
 70
     0
  9
$CMLSCALE
 40
20.0
  9
$SAVEIMAGES
 70
     1
  0
ENDSEC
  0
SECTION
  2
CLASSES
  0
CLASS
  1
DICTIONARYVAR
  2
AcDbDictionaryVar
  3
ObjectDBX Classes
 90
        0
280
     0
281
     0
  0
CLASS
  1
IDBUFFER
  2
AcDbIdBuffer
  3
ObjectDBX Classes
 90
    32768
280
     0
281
     0
  0
CLASS
  1
LWPOLYLINE
  2
AcDbPolyline
  3
ObjectDBX Classes
 90
    32768
280
     0
281
     1
  0
CLASS
  1
ACDBDICTIONARYWDFLT
  2
AcDbDictionaryWithDefault
  3
ObjectDBX Classes
 90
    32768
280
     0
281
     0
  0
CLASS
  1
ACDBPLACEHOLDER
  2
AcDbPlaceHolder
  3
ObjectDBX Classes
 90
        0
280
     0
281
     0
  0
CLASS
  1
LAYOUT
  2
AcDbLayout
  3
ObjectDBX Classes
 90
        0
280
     0
281
     0
  0
CLASS
  1
TABLESTYLE
  2
AcDbTableStyle
  3
ObjectDBX Classes
 90
     4095
280
     0
281
     0
  0
CLASS
  1
SORTENTSTABLE
  2
AcDbSortentsTable
  3
ObjectDBX Classes
 90
    32768
280
     0
281
     0
  0
CLASS
  1
MATERIAL
  2
AcDbMaterial
  3
ObjectDBX Classes
 90
     1153
280
     0
281
     0
  0
CLASS
  1
VISUALSTYLE
  2
AcDbVisualStyle
  3
ObjectDBX Classes
 90
     4095
280
     0
281
     0
  0
CLASS
  1
SCALE
  2
AcDbScale
  3
ObjectDBX Classes
 90
     1153
280
     0
281
     0
  0
CLASS
  1
MLEADERSTYLE
  2
AcDbMLeaderStyle
  3
ACDB_MLEADERSTYLE_CLASS
 90
     4095
280
     0
281
     0
  0
CLASS
  1
CELLSTYLEMAP
  2
AcDbCellStyleMap
  3
ObjectDBX Classes
 90
     1152
280
     0
281
     0
  0
CLASS
  1
SUN
  2
AcDbSun
  3
SCENEOE
 90
     1153
280
     0
281
     0
  0
CLASS
  1
MULTILEADER
  2
AcDbMLeader
  3
ACDB_MLEADER_CLASS
 90
     1025
280
     0
281
     1
  0
CLASS
  1
XRECORD
  2
AcDbXrecord
  3
ObjectDBX Classes
 90
    32768
280
     0
281
     0
  0
CLASS
  1
HATCH
  2
AcDbHatch
  3
ObjectDBX Classes
 90
    32768
280
     0
281
     1
  0
ENDSEC
  0
SECTION
  2
TABLES
  0
TABLE
  2
VPORT
  5
8
330
0
100
AcDbSymbolTable
 70
     1
  0
VPORT
  5
CFAB
330
8
100
AcDbSymbolTableRecord
100
AcDbViewportTableRecord
  2
*ACTIVE
 70
     0
 10
0.0
 20
0.0
 11
1.0
 21
1.0
 12
-55.73220055248282
 22
71.00867391148441
 13
0.0
 23
0.0
 14
10.0
 24
10.0
 15
10.0
 25
10.0
 16
0.0
 26
0.0
 36
1.0
 17
0.0
 27
0.0
 37
0.0
 40
219.0502050309599
 41
1.803066037735849
 42
50.0
 43
0.0
 44
0.0
 50
0.0
 51
0.0
 71
    16
 72
   100
 73
     1
 74
     1
 75
     0
 76
     0
 77
     0
 78
     0
  0
ENDTAB
  0
TABLE
  2
LTYPE
  5
5
330
0
100
AcDbSymbolTable
 70
     2
  0
LTYPE
  5
12
330
5
100
AcDbSymbolTableRecord
100
AcDbLinetypeTableRecord
  2
BYBLOCK
 70
     0
  3

 72
    65
 73
     0
 40
0.0
  0
LTYPE
  5
13
330
5
100
AcDbSymbolTableRecord
100
AcDbLinetypeTableRecord
  2
BYLAYER
 70
     0
  3

 72
    65
 73
     0
 40
0.0
  0
LTYPE
  5
14
330
5
100
AcDbSymbolTableRecord
100
AcDbLinetypeTableRecord
  2
CONTINUOUS
 70
     0
  3
Solid line
 72
    65
 73
     0
 40
0.0
  0
LTYPE
  5
A61B
330
5
100
AcDbSymbolTableRecord
100
AcDbLinetypeTableRecord
  2
CENTER2
 70
     0
  3
Center (.5x) ___ _ ___ _ ___ _ ___ _ ___ _ ___
 72
    65
 73
     4
 40
28.575
 49
19.05
 74
     0
 49
-3.175
 74
     0
 49
3.175
 74
     0
 49
-3.175
 74
     0
  0
ENDTAB
  0
TABLE
  2
LAYER
  5
2
102
{ACAD_XDICTIONARY
360
D16C
102
}
330
0
100
AcDbSymbolTable
 70
     5
  0
LAYER
  5
E
102
{ACAD_XDICTIONARY
360
D0B5
102
}
330
2
100
AcDbSymbolTableRecord
100
AcDbLayerTableRecord
  2
0
 70
     0
 62
     7
  6
CONTINUOUS
  0
LAYER
  5
29
102
{ACAD_XDICTIONARY
360
D0B7
102
}
330
2
100
AcDbSymbolTableRecord
100
AcDbLayerTableRecord
  2
1CENTER
 70
     0
 62
     7
  6
CENTER2
  0
LAYER
  5
31
102
{ACAD_XDICTIONARY
360
D0B9
102
}
330
2
100
AcDbSymbolTableRecord
100
AcDbLayerTableRecord
  2
1TEXT
 70
     0
 62
     7
  6
CONTINUOUS
  0
LAYER
  5
243
102
{ACAD_XDICTIONARY
360
D0BF
102
}
330
2
100
AcDbSymbolTableRecord
100
AcDbLayerTableRecord
  2
01
 70
     0
 62
     1
  6
CONTINUOUS
  0
LAYER
  5
24E
102
{ACAD_XDICTIONARY
360
D0C5
102
}
330
2
100
AcDbSymbolTableRecord
100
AcDbLayerTableRecord
  2
1DIM
 70
     0
 62
     7
  6
CONTINUOUS
  0
ENDTAB
  0
TABLE
  2
STYLE
  5
3
330
0
100
AcDbSymbolTable
 70
     1
  0
STYLE
  5
F
330
3
100
AcDbSymbolTableRecord
100
AcDbTextStyleTableRecord
  2
STANDARD
 70
     0
 40
0.0
 41
1.0
 50
0.0
 71
     0
 42
4.0
  3
txt.shx
  4
extfont.shx
  0
ENDTAB
  0
TABLE
  2
VIEW
  5
6
330
0
100
AcDbSymbolTable
 70
     0
  0
ENDTAB
  0
TABLE
  2
UCS
  5
7
330
0
100
AcDbSymbolTable
 70
     0
  0
ENDTAB
  0
TABLE
  2
APPID
  5
9
330
0
100
AcDbSymbolTable
 70
    17
  0
APPID
  5
10
330
9
100
AcDbSymbolTableRecord
100
AcDbRegAppTableRecord
  2
ACAD
 70
     0
  0
APPID
  5
21
330
9
100
AcDbSymbolTableRecord
100
AcDbRegAppTableRecord
  2
DRAWINGVARIABLESXDATA
 70
     0
  0
APPID
  5
64
330
9
100
AcDbSymbolTableRecord
100
AcDbRegAppTableRecord
  2
CONTENTTABDATA
 70
     0
  0
APPID
  5
65
330
9
100
AcDbSymbolTableRecord
100
AcDbRegAppTableRecord
  2
CONTENTCURRENTTAB
 70
     0
  0
APPID
  5
66
330
9
100
AcDbSymbolTableRecord
100
AcDbRegAppTableRecord
  2
CONTENTBLOCKDESCRIPTION
 70
     0
  0
APPID
  5
67
330
9
100
AcDbSymbolTableRecord
100
AcDbRegAppTableRecord
  2
CONTENTBLOCKICON
 70
     0
  0
APPID
  5
68
330
9
100
AcDbSymbolTableRecord
100
AcDbRegAppTableRecord
  2
CONTENTLONGBLOCKNAME
 70
     0
  0
APPID
  5
2AE
330
9
100
AcDbSymbolTableRecord
100
AcDbRegAppTableRecord
  2
ACAD_PSEXT
 70
     0
  0
APPID
  5
D09F
330
9
100
AcDbSymbolTableRecord
100
AcDbRegAppTableRecord
  2
ACAD_MLEADERVER
 70
     0
  0
APPID
  5
D7D9
330
9
100
AcDbSymbolTableRecord
100
AcDbRegAppTableRecord
  2
ACAD_EXEMPT_FROM_CAD_STAND
 70
     0
  0
APPID
  5
DB3E
330
9
100
AcDbSymbolTableRecord
100
AcDbRegAppTableRecord
  2
ACAECLAYERSTANDARD
 70
     0
  0
APPID
  5
F289
330
9
100
AcDbSymbolTableRecord
100
AcDbRegAppTableRecord
  2
ACADANNOTATIVE
 70
     0
  0
APPID
  5
F2A2
330
9
100
AcDbSymbolTableRecord
100
AcDbRegAppTableRecord
  2
ACDBBLOCKREPETAG
 70
     0
  0
APPID
  5
F2A3
330
9
100
AcDbSymbolTableRecord
100
AcDbRegAppTableRecord
  2
ACLAYERTOOLS
 70
     0
  0
APPID
  5
F2A4
330
9
100
AcDbSymbolTableRecord
100
AcDbRegAppTableRecord
  2
ACAD_NAV_VCDISPLAY
 70
     0
  0
APPID
  5
FE13
330
9
100
AcDbSymbolTableRecord
100
AcDbRegAppTableRecord
  2
ACAD_DSTYLE_DIMRADIAL_EXTE
 70
     0
  0
APPID
  5
10080
330
9
100
AcDbSymbolTableRecord
100
AcDbRegAppTableRecord
  2
ACAD_OBJECT_CHANGE_GUID
 70
     0
  0
ENDTAB
  0
TABLE
  2
DIMSTYLE
  5
A
330
0
100
AcDbSymbolTable
 70
     1
  0
DIMSTYLE
105
48
330
A
100
AcDbSymbolTableRecord
100
AcDbDimStyleTableRecord
  2
NEWX10
 70
     0
  3
 
  4

  5

  6
OPEN30
  7
OPEN30
 40
1.0
 41
2.0
 42
0.0
 43
7.0
 44
1.0
 45
0.0
 46
0.0
 47
0.0
 48
0.0
140
3.5
141
0.0
142
0.0
143
25.4
144
1.0
145
0.0
146
0.7
147
0.7
 71
     0
 72
     0
 73
     0
 74
     0
 75
     0
 76
     0
 77
     1
 78
     8
170
     0
171
     2
172
     1
173
     1
174
     0
175
     0
176
   256
177
   256
178
   201
179
     2
270
     2
271
     2
272
     4
273
     2
274
     2
340
F
275
     0
280
     0
281
     0
282
     0
283
     1
284
     8
285
     0
286
     0
287
     2
288
     0
  0
ENDTAB
  0
TABLE
  2
BLOCK_RECORD
  5
1
330
0
100
AcDbSymbolTable
 70
     9
  0
BLOCK_RECORD
  5
18
102
{ACAD_XDICTIONARY
360
88F
102
}
330
1
100
AcDbSymbolTableRecord
100
AcDbBlockTableRecord
  2
*MODEL_SPACE
  0
BLOCK_RECORD
  5
15
330
1
100
AcDbSymbolTableRecord
100
AcDbBlockTableRecord
  2
*PAPER_SPACE
  0
BLOCK_RECORD
  5
42
330
1
100
AcDbSymbolTableRecord
100
AcDbBlockTableRecord
  2
_OPEN30
  0
BLOCK_RECORD
  5
F2F3
330
1
100
AcDbSymbolTableRecord
100
AcDbBlockTableRecord
  2
A3WAKUKAWAJUN2017_HYOUDAI_
  0
BLOCK_RECORD
  5
FAC2
102
{ACAD_XDICTIONARY
360
FAC3
102
}
330
1
100
AcDbSymbolTableRecord
100
AcDbBlockTableRecord
  2
NOCIRCLE
1001
ACADANNOTATIVE
1000
AnnotativeData
1002
{
1070
     1
1070
     0
1002
}
  0
BLOCK_RECORD
  5
10565
330
1
100
AcDbSymbolTableRecord
100
AcDbBlockTableRecord
  2
*X32
  0
BLOCK_RECORD
  5
105B3
330
1
100
AcDbSymbolTableRecord
100
AcDbBlockTableRecord
  2
*X33
  0
BLOCK_RECORD
  5
10605
330
1
100
AcDbSymbolTableRecord
100
AcDbBlockTableRecord
  2
*X34
  0
BLOCK_RECORD
  5
10656
330
1
100
AcDbSymbolTableRecord
100
AcDbBlockTableRecord
  2
*X35
  0
BLOCK_RECORD
  5
10693
330
1
100
AcDbSymbolTableRecord
100
AcDbBlockTableRecord
  2
*X36
  0
BLOCK_RECORD
  5
106D3
330
1
100
AcDbSymbolTableRecord
100
AcDbBlockTableRecord
  2
*X37
  0
ENDTAB
  0
ENDSEC
  0
SECTION
  2
BLOCKS
  0
BLOCK
  5
19
330
18
100
AcDbEntity
  8
0
100
AcDbBlockBegin
  2
*MODEL_SPACE
 70
     0
 10
0.0
 20
0.0
 30
0.0
  3
*MODEL_SPACE
  1

  0
ENDBLK
  5
1A
330
18
100
AcDbEntity
  8
0
100
AcDbBlockEnd
  0
BLOCK
  5
16
330
15
100
AcDbEntity
 67
     1
  8
0
100
AcDbBlockBegin
  2
*PAPER_SPACE
 70
     0
 10
0.0
 20
0.0
 30
0.0
  3
*PAPER_SPACE
  1

  0
ENDBLK
  5
17
330
15
100
AcDbEntity
 67
     1
  8
0
100
AcDbBlockEnd
  0
BLOCK
  5
43
330
42
100
AcDbEntity
  8
0
100
AcDbBlockBegin
  2
_OPEN30
 70
     0
 10
0.0
 20
0.0
 30
0.0
  3
_OPEN30
  1

  0
LINE
  5
44
330
42
100
AcDbEntity
  8
0
  6
BYBLOCK
 62
     0
100
AcDbLine
 10
-1.0
 20
0.26794919
 30
0.0
 11
0.0
 21
0.0
 31
0.0
  0
LINE
  5
45
330
42
100
AcDbEntity
  8
0
  6
BYBLOCK
 62
     0
100
AcDbLine
 10
0.0
 20
0.0
 30
0.0
 11
-1.0
 21
-0.26794919
 31
0.0
  0
LINE
  5
46
330
42
100
AcDbEntity
  8
0
  6
BYBLOCK
 62
     0
100
AcDbLine
 10
0.0
 20
0.0
 30
0.0
 11
-1.0
 21
0.0
 31
0.0
  0
ENDBLK
  5
47
330
42
100
AcDbEntity
  8
0
100
AcDbBlockEnd
  0
BLOCK
  5
FA01
330
F2F3
100
AcDbEntity
  8
0
100
AcDbBlockBegin
  2
A3WAKUKAWAJUN2017_HYOUDAI_
 70
     0
 10
0.0
 20
0.0
 30
0.0
  3
A3WAKUKAWAJUN2017_HYOUDAI_
  1

  0
LINE
  5
F2F5
330
F2F3
100
AcDbEntity
  8
0
100
AcDbLine
 10
13.26299999998673
 20
-0.0001000000000317
 30
0.0
 11
9.236999999990758
 21
8.999899999990987
 31
0.0
1001
ACAD
1000
ASC_BOUNDS
1002
{
1070
    19
1005
F336
1002
}
  0
LINE
  5
F2F6
330
F2F3
100
AcDbEntity
  8
0
100
AcDbLine
 10
5.657999999994331
 20
0.9999999999989768
 30
0.0
 11
9.236999999990758
 21
8.999999999991019
 31
0.0
1001
ACAD
1000
ASC_BOUNDS
1002
{
1070
    19
1005
F336
1002
}
  0
LINE
  5
F2F7
330
F2F3
100
AcDbEntity
  8
0
100
AcDbLine
 10
18.59199999998134
 20
-0.2368999999997641
 30
0.0
 11
16.46099999998353
 21
5.432899999994561
 31
0.0
1001
ACAD
1000
ASC_BOUNDS
1002
{
1070
    19
1005
F337
1002
}
  0
LINE
  5
F2F8
330
F2F3
100
AcDbEntity
  8
0
100
AcDbLine
 10
18.59199999998134
 20
-0.2368999999997641
 30
0.0
 11
22.38199999997767
 21
8.763099999991255
 31
0.0
1001
ACAD
1000
ASC_BOUNDS
1002
{
1070
    19
1005
F337
1002
}
  0
LINE
  5
F2F9
330
F2F3
100
AcDbEntity
  8
0
100
AcDbLine
 10
14.32899999998563
 20
-0.2368999999997641
 30
0.0
 11
16.46099999998353
 21
5.432899999994561
 31
0.0
1001
ACAD
1000
ASC_BOUNDS
1002
{
1070
    19
1005
F337
1002
}
  0
LINE
  5
F2FA
330
F2F3
100
AcDbEntity
  8
0
100
AcDbLine
 10
14.32899999998563
 20
-0.2368999999997641
 30
0.0
 11
10.53899999998941
 21
8.763099999991255
 31
0.0
1001
ACAD
1000
ASC_BOUNDS
1002
{
1070
    19
1005
F337
1002
}
  0
LINE
  5
F2FB
330
F2F3
100
AcDbEntity
  8
0
100
AcDbLine
 10
19.53899999998043
 20
-0.0001000000000317
 30
0.0
 11
23.56599999997638
 21
8.999899999990987
 31
0.0
1001
ACAD
1000
ASC_BOUNDS
1002
{
1070
    19
1005
F338
1002
}
  0
LINE
  5
F2FC
330
F2F3
100
AcDbEntity
  8
0
100
AcDbLine
 10
26.97358892824991
 20
1.383099999991202
 30
0.0
 11
23.56599999997638
 21
8.999899999990987
 31
0.0
1001
ACAD
1000
ASC_BOUNDS
1002
{
1070
    19
1005
F338
1002
}
  0
LINE
  5
F2FD
330
F2F3
100
AcDbEntity
  8
0
100
AcDbLine
 10
5.657999999994331
 20
0.9999999999989768
 30
0.0
 11
3.181999999996833
 21
4.668599999995308
 31
0.0
1001
ACAD
1000
ASC_BOUNDS
1002
{
1070
    19
1005
F336
1002
}
  0
LINE
  5
F2FE
330
F2F3
100
AcDbEntity
  8
0
100
AcDbLine
 10
4.617999999995391
 20
-0.0001000000000317
 30
0.0
 11
1.420999999998571
 21
4.736799999995242
 31
0.0
1001
ACAD
1000
ASC_BOUNDS
1002
{
1070
    19
1005
F336
1002
}
  0
LINE
  5
F2FF
330
F2F3
100
AcDbEntity
  8
0
100
AcDbLine
 10
1.420999999998571
 20
8.763099999991255
 30
0.0
 11
1.420999999998571
 21
0.0
 31
0.0
1001
ACAD
1000
ASC_BOUNDS
1002
{
1070
    19
1005
F33B
1002
}
  0
LINE
  5
F300
330
F2F3
100
AcDbEntity
  8
0
100
AcDbLine
 10
0.0
 20
8.763099999991255
 30
0.0
 11
0.0
 21
0.0
 31
0.0
1001
ACAD
1000
ASC_BOUNDS
1002
{
1070
    19
1005
F33B
1002
}
  0
LINE
  5
F301
330
F2F3
100
AcDbEntity
  8
0
100
AcDbLine
 10
6.766999999993232
 20
-0.0001000000000317
 30
0.0
 11
7.826999999992154
 21
2.368399999997621
 31
0.0
1001
ACAD
1000
ASC_BOUNDS
1002
{
1070
    19
1005
F336
1002
}
  0
LINE
  5
F302
330
F2F3
100
AcDbEntity
  8
0
100
AcDbLine
 10
0.0
 20
0.0
 30
0.0
 11
1.420999999998571
 21
0.0
 31
0.0
1001
ACAD
1000
ASC_BOUNDS
1002
{
1070
    19
1005
F33B
1002
}
  0
LINE
  5
F303
330
F2F3
100
AcDbEntity
  8
0
100
AcDbLine
 10
4.617999999995391
 20
0.0
 30
0.0
 11
6.766999999993232
 21
0.0
 31
0.0
1001
ACAD
1000
ASC_BOUNDS
1002
{
1070
    19
1005
F336
1002
}
  0
LINE
  5
F304
330
F2F3
100
AcDbEntity
  8
0
100
AcDbLine
 10
11.70599999998831
 20
-0.0001000000000317
 30
0.0
 11
10.64699999998936
 21
2.368399999997621
 31
0.0
1001
ACAD
1000
ASC_BOUNDS
1002
{
1070
    19
1005
F336
1002
}
  0
LINE
  5
F305
330
F2F3
100
AcDbEntity
  8
0
100
AcDbLine
 10
7.826999999992154
 20
2.368399999997621
 30
0.0
 11
10.64699999998936
 21
2.368399999997621
 31
0.0
1001
ACAD
1000
ASC_BOUNDS
1002
{
1070
    19
1005
F336
1002
}
  0
LINE
  5
F306
330
F2F3
100
AcDbEntity
  8
0
100
AcDbLine
 10
11.70599999998831
 20
0.0
 30
0.0
 11
13.26299999998673
 21
0.0
 31
0.0
1001
ACAD
1000
ASC_BOUNDS
1002
{
1070
    19
1005
F336
1002
}
  0
LINE
  5
F307
330
F2F3
100
AcDbEntity
  8
0
100
AcDbLine
 10
22.15599999997789
 20
2.368399999997621
 30
0.0
 11
24.97599999997499
 21
2.368399999997621
 31
0.0
1001
ACAD
1000
ASC_BOUNDS
1002
{
1070
    19
1005
F338
1002
}
  0
LINE
  5
F308
330
F2F3
100
AcDbEntity
  8
0
100
AcDbLine
 10
19.53899999998043
 20
0.0
 30
0.0
 11
21.09599999997886
 21
0.0
 31
0.0
1001
ACAD
1000
ASC_BOUNDS
1002
{
1070
    19
1005
F338
1002
}
  0
LINE
  5
F309
330
F2F3
100
AcDbEntity
  8
0
100
AcDbLine
 10
21.09599999997886
 20
-0.0001000000000317
 30
0.0
 11
22.15599999997789
 21
2.368399999997621
 31
0.0
1001
ACAD
1000
ASC_BOUNDS
1002
{
1070
    19
1005
F338
1002
}
  0
LINE
  5
F30A
330
F2F3
100
AcDbEntity
  8
0
100
AcDbLine
 10
26.02015566812236
 20
0.0330999999912365
 30
0.0
 11
24.97599999997499
 21
2.368399999997621
 31
0.0
1001
ACAD
1000
ASC_BOUNDS
1002
{
1070
    19
1005
F338
1002
}
  0
LINE
  5
F30B
330
F2F3
100
AcDbEntity
  8
0
100
AcDbLine
 10
14.32399999998563
 20
3.315799999996671
 30
0.0
 11
16.46099999998353
 21
8.999899999990987
 31
0.0
1001
ACAD
1000
ASC_BOUNDS
1002
{
1070
    19
1005
F337
1002
}
  0
LINE
  5
F30C
330
F2F3
100
AcDbEntity
  8
0
100
AcDbLine
 10
6.432999999993513
 20
8.763099999991255
 30
0.0
 11
3.181999999996833
 21
4.668599999995308
 31
0.0
1001
ACAD
1000
ASC_BOUNDS
1002
{
1070
    19
1005
F336
1002
}
  0
LINE
  5
F30D
330
F2F3
100
AcDbEntity
  8
0
100
AcDbLine
 10
4.617999999995391
 20
8.763099999991255
 30
0.0
 11
1.420999999998571
 21
4.736799999995242
 31
0.0
1001
ACAD
1000
ASC_BOUNDS
1002
{
1070
    19
1005
F336
1002
}
  0
LINE
  5
F30E
330
F2F3
100
AcDbEntity
  8
0
100
AcDbLine
 10
0.0
 20
8.763099999991255
 30
0.0
 11
1.420999999998571
 21
8.763099999991255
 31
0.0
1001
ACAD
1000
ASC_BOUNDS
1002
{
1070
    19
1005
F33B
1002
}
  0
LINE
  5
F30F
330
F2F3
100
AcDbEntity
  8
0
100
AcDbLine
 10
4.617999999995391
 20
8.763099999991255
 30
0.0
 11
6.432999999993513
 21
8.763099999991255
 31
0.0
1001
ACAD
1000
ASC_BOUNDS
1002
{
1070
    19
1005
F336
1002
}
  0
LINE
  5
F310
330
F2F3
100
AcDbEntity
  8
0
100
AcDbLine
 10
14.32399999998563
 20
3.315799999996671
 30
0.0
 11
12.02999999998792
 21
8.763099999991255
 31
0.0
1001
ACAD
1000
ASC_BOUNDS
1002
{
1070
    19
1005
F337
1002
}
  0
LINE
  5
F311
330
F2F3
100
AcDbEntity
  8
0
100
AcDbLine
 10
10.06399999998996
 20
3.670999999996297
 30
0.0
 11
9.236999999990758
 21
5.5200999999945
 31
0.0
1001
ACAD
1000
ASC_BOUNDS
1002
{
1070
    19
1005
F336
1002
}
  0
LINE
  5
F312
330
F2F3
100
AcDbEntity
  8
0
100
AcDbLine
 10
8.409999999991555
 20
3.670999999996297
 30
0.0
 11
9.236999999990758
 21
5.5200999999945
 31
0.0
1001
ACAD
1000
ASC_BOUNDS
1002
{
1070
    19
1005
F336
1002
}
  0
LINE
  5
F313
330
F2F3
100
AcDbEntity
  8
0
100
AcDbLine
 10
8.409999999991555
 20
3.670999999996297
 30
0.0
 11
10.06399999998996
 21
3.670999999996297
 31
0.0
1001
ACAD
1000
ASC_BOUNDS
1002
{
1070
    19
1005
F336
1002
}
  0
LINE
  5
F314
330
F2F3
100
AcDbEntity
  8
0
100
AcDbLine
 10
10.53899999998941
 20
8.763099999991255
 30
0.0
 11
12.02999999998792
 21
8.763099999991255
 31
0.0
1001
ACAD
1000
ASC_BOUNDS
1002
{
1070
    19
1005
F337
1002
}
  0
LINE
  5
F315
330
F2F3
100
AcDbEntity
  8
0
100
AcDbLine
 10
22.7389999999773
 20
3.670999999996297
 30
0.0
 11
23.56599999997638
 21
5.5200999999945
 31
0.0
1001
ACAD
1000
ASC_BOUNDS
1002
{
1070
    19
1005
F338
1002
}
  0
LINE
  5
F316
330
F2F3
100
AcDbEntity
  8
0
100
AcDbLine
 10
22.7389999999773
 20
3.670999999996297
 30
0.0
 11
24.39299999997559
 21
3.670999999996297
 31
0.0
1001
ACAD
1000
ASC_BOUNDS
1002
{
1070
    19
1005
F338
1002
}
  0
LINE
  5
F317
330
F2F3
100
AcDbEntity
  8
0
100
AcDbLine
 10
18.59799999998143
 20
3.315799999996671
 30
0.0
 11
20.89099999997916
 21
8.763099999991255
 31
0.0
1001
ACAD
1000
ASC_BOUNDS
1002
{
1070
    19
1005
F337
1002
}
  0
LINE
  5
F318
330
F2F3
100
AcDbEntity
  8
0
100
AcDbLine
 10
18.59799999998143
 20
3.315799999996671
 30
0.0
 11
16.46099999998353
 21
8.999899999990987
 31
0.0
1001
ACAD
1000
ASC_BOUNDS
1002
{
1070
    19
1005
F337
1002
}
  0
LINE
  5
F319
330
F2F3
100
AcDbEntity
  8
0
100
AcDbLine
 10
20.89099999997916
 20
8.763099999991255
 30
0.0
 11
22.38199999997767
 21
8.763099999991255
 31
0.0
1001
ACAD
1000
ASC_BOUNDS
1002
{
1070
    19
1005
F337
1002
}
  0
LINE
  5
F31A
330
F2F3
100
AcDbEntity
  8
0
100
AcDbLine
 10
24.39299999997559
 20
3.670999999996297
 30
0.0
 11
23.56599999997638
 21
5.5200999999945
 31
0.0
1001
ACAD
1000
ASC_BOUNDS
1002
{
1070
    19
1005
F338
1002
}
  0
LINE
  5
F31B
330
F2F3
100
AcDbEntity
  8
0
100
AcDbLine
 10
44.99999999995498
 20
-0.2368999999997641
 30
0.0
 11
40.02599999995994
 21
5.341799999994635
 31
0.0
1001
ACAD
1000
ASC_BOUNDS
1002
{
1070
    19
1005
F33A
1002
}
  0
LINE
  5
F31C
330
F2F3
100
AcDbEntity
  8
0
100
AcDbLine
 10
40.02599999995994
 20
5.341799999994635
 30
0.0
 11
40.02599999995994
 21
0.0
 31
0.0
1001
ACAD
1000
ASC_BOUNDS
1002
{
1070
    19
1005
F33A
1002
}
  0
LINE
  5
F31D
330
F2F3
100
AcDbEntity
  8
0
100
AcDbLine
 10
38.60499999996136
 20
8.999999999991019
 30
0.0
 11
38.60499999996136
 21
0.0
 31
0.0
1001
ACAD
1000
ASC_BOUNDS
1002
{
1070
    19
1005
F33A
1002
}
  0
LINE
  5
F31E
330
F2F3
100
AcDbEntity
  8
0
100
AcDbLine
 10
44.99999999995498
 20
8.763099999991255
 30
0.0
 11
44.99999999995498
 21
-0.2368999999997641
 31
0.0
1001
ACAD
1000
ASC_BOUNDS
1002
{
1070
    19
1005
F33A
1002
}
  0
LINE
  5
F31F
330
F2F3
100
AcDbEntity
  8
0
100
AcDbLine
 10
38.60499999996136
 20
0.0
 30
0.0
 11
40.02599999995994
 21
0.0
 31
0.0
1001
ACAD
1000
ASC_BOUNDS
1002
{
1070
    19
1005
F33A
1002
}
  0
LINE
  5
F320
330
F2F3
100
AcDbEntity
  8
0
100
AcDbLine
 10
43.57899999995641
 20
3.421199999996588
 30
0.0
 11
38.60499999996136
 21
8.999899999990987
 31
0.0
1001
ACAD
1000
ASC_BOUNDS
1002
{
1070
    19
1005
F33A
1002
}
  0
LINE
  5
F321
330
F2F3
100
AcDbEntity
  8
0
100
AcDbLine
 10
43.57899999995641
 20
8.763099999991255
 30
0.0
 11
43.57899999995641
 21
3.421199999996588
 31
0.0
1001
ACAD
1000
ASC_BOUNDS
1002
{
1070
    19
1005
F33A
1002
}
  0
LINE
  5
F322
330
F2F3
100
AcDbEntity
  8
0
100
AcDbLine
 10
43.57899999995641
 20
8.763099999991255
 30
0.0
 11
44.99999999995498
 21
8.763099999991255
 31
0.0
1001
ACAD
1000
ASC_BOUNDS
1002
{
1070
    19
1005
F33A
1002
}
  0
LINE
  5
F323
330
F2F3
100
AcDbEntity
  8
0
100
AcDbLine
 10
37.67199999996831
 20
8.763099999991255
 30
0.0
 11
36.23199999996837
 21
8.763099999991255
 31
0.0
  0
LINE
  5
F324
330
F2F3
100
AcDbEntity
  8
0
100
AcDbLine
 10
31.64199999996833
 20
8.763099999991255
 30
0.0
 11
31.64199999996833
 21
2.481619422925121
 31
0.0
  0
LINE
  5
F325
330
F2F3
100
AcDbEntity
  8
0
100
AcDbLine
 10
37.67199999996831
 20
8.763099999991255
 30
0.0
 11
37.67199999996831
 21
2.481619422925121
 31
0.0
  0
LINE
  5
F326
330
F2F3
100
AcDbEntity
  8
0
100
AcDbLine
 10
36.23199999996837
 20
8.763099999991255
 30
0.0
 11
36.23199999996837
 21
2.481619422925064
 31
0.0
  0
LINE
  5
F327
330
F2F3
100
AcDbEntity
  8
0
100
AcDbLine
 10
33.08199999996839
 20
8.763099999991255
 30
0.0
 11
33.08199999996839
 21
2.481619422925121
 31
0.0
  0
ARC
  5
F328
330
F2F3
100
AcDbEntity
  8
0
100
AcDbCircle
 10
34.65699999996832
 20
3.183099999991214
 30
0.0
 40
3.420000000000007
100
AcDbArc
 50
240.0000000000255
 51
299.9999999999766
  0
ARC
  5
F329
330
F2F3
100
AcDbEntity
  8
0
100
AcDbCircle
 10
34.65699999996832
 20
3.183099999991214
 30
0.0
 40
1.97999999999999
100
AcDbArc
 50
240.000000000026
 51
299.9999999999703
  0
LINE
  5
F32A
330
F2F3
100
AcDbEntity
  8
0
100
AcDbLine
 10
33.08199999996828
 20
8.763099999991255
 30
0.0
 11
31.64199999996833
 21
8.763099999991255
 31
0.0
  0
ARC
  5
F32B
330
F2F3
100
AcDbEntity
  8
0
100
AcDbCircle
 10
35.06199999996829
 20
2.481619422925064
 30
0.0
 40
1.17
100
AcDbArc
 50
299.9999999999699
 51
0.0
  0
ARC
  5
F32C
330
F2F3
100
AcDbEntity
  8
0
100
AcDbCircle
 10
34.25199999996835
 20
2.481619422925121
 30
0.0
 40
1.17
100
AcDbArc
 50
180.0
 51
240.0000000000238
  0
ARC
  5
F32D
330
F2F3
100
AcDbEntity
  8
0
100
AcDbCircle
 10
35.06199999996841
 20
2.481619422925121
 30
0.0
 40
2.61
100
AcDbArc
 50
299.9999999999756
 51
0.0
  0
ARC
  5
F32E
330
F2F3
100
AcDbEntity
  8
0
100
AcDbCircle
 10
34.25199999996835
 20
2.481619422925121
 30
0.0
 40
2.61
100
AcDbArc
 50
180.0
 51
240.0000000000244
  0
LINE
  5
F32F
330
F2F3
100
AcDbEntity
  8
0
100
AcDbLine
 10
29.30199999996933
 20
8.763099999991255
 30
0.0
 11
30.74199999996927
 21
8.763099999991255
 31
0.0
1001
ACAD
1000
ASC_BOUNDS
1002
{
1070
    19
1005
F338
1002
}
  0
LINE
  5
F330
330
F2F3
100
AcDbEntity
  8
0
100
AcDbLine
 10
30.74199999996927
 20
8.763099999991255
 30
0.0
 11
30.74199999996927
 21
2.373099999991211
 31
0.0
1001
ACAD
1000
ASC_BOUNDS
1002
{
1070
    19
1005
F338
1002
}
  0
LINE
  5
F331
330
F2F3
100
AcDbEntity
  8
0
100
AcDbLine
 10
26.02015566812236
 20
0.0330999999912365
 30
0.0
 11
28.40199999996923
 21
0.0330999999912365
 31
0.0
1001
ACAD
1000
ASC_BOUNDS
1002
{
1070
    19
1005
F338
1002
}
  0
LINE
  5
F332
330
F2F3
100
AcDbEntity
  8
0
100
AcDbLine
 10
29.30199999996933
 20
8.763099999991255
 30
0.0
 11
29.30199999996933
 21
2.283099999991236
 31
0.0
1001
ACAD
1000
ASC_BOUNDS
1002
{
1070
    19
1005
F338
1002
}
  0
LINE
  5
F333
330
F2F3
100
AcDbEntity
  8
0
100
AcDbLine
 10
26.97358892824991
 20
1.383099999991202
 30
0.0
 11
28.40199999996923
 21
1.383099999991202
 31
0.0
1001
ACAD
1000
ASC_BOUNDS
1002
{
1070
    19
1005
F338
1002
}
  0
ARC
  5
F334
330
F2F3
100
AcDbEntity
  8
0
100
AcDbCircle
 10
28.40199999996923
 20
2.283099999991236
 30
0.0
 40
0.9
100
AcDbArc
 50
270.0
 51
0.0
1001
ACAD
1000
ASC_BOUNDS
1002
{
1070
    19
1005
F338
1002
}
  0
ARC
  5
F335
330
F2F3
100
AcDbEntity
  8
0
100
AcDbCircle
 10
28.40199999996923
 20
2.373099999991211
 30
0.0
 40
2.34
100
AcDbArc
 50
270.0
 51
0.0
1001
ACAD
1000
ASC_BOUNDS
1002
{
1070
    19
1005
F338
1002
}
  0
INSERT
  5
F336
330
F2F3
100
AcDbEntity
  8
0
100
AcDbBlockReference
  2
*X32
 10
0.0
 20
0.0
 30
0.0
1001
ACAD
1000
HATCH
1002
{
1070
    19
1000
ANSI37
1040
0.15
1040
0.0
1000
ASC_BOUNDS
1070
     2
1070
     2
1070
    12
1005
F2F5
1005
F2F6
1005
F2FD
1005
F30C
1005
F30F
1005
F30D
1005
F2FE
1005
F303
1005
F301
1005
F305
1005
F304
1005
F306
1070
     2
1070
     3
1005
F311
1005
F313
1005
F312
1000
ASC_SEEDPOINT
1011
3.614004224891801
1021
2.996669441146025
1031
0.0
1000
R14_HATCH_DATA
1000
F336
1011
1.0
1021
0.0
1031
0.0
1011
0.0
1021
1.0
1031
0.0
1011
0.0
1021
0.0
1031
1.0
1040
0.0
1010
0.0
1020
0.0
1030
1.0
1000
ANSI37
1070
     0
1070
     1
1071
        2
1071
        7
1070
     0
1070
     1
1071
       17
1040
13.26299999998673
1040
-0.0001000000000317
1040
9.236999999990758
1040
8.999899999990987
1040
9.236999999990758
1040
8.999999999991019
1040
5.657999999994331
1040
0.9999999999989768
1040
3.181999999996833
1040
4.668599999995308
1040
6.432999999993513
1040
8.763099999991255
1040
4.617999999995391
1040
8.763099999991255
1040
1.420999999998571
1040
4.736799999995242
1040
4.617999999995391
1040
-0.0001000000000317
1040
4.617999999995391
1040
0.0
1040
6.766999999993232
1040
0.0
1040
6.766999999993232
1040
-0.0001000000000317
1040
7.826999999992154
1040
2.368399999997621
1040
10.64699999998936
1040
2.368399999997621
1040
11.70599999998831
1040
-0.0001000000000317
1040
11.70599999998831
1040
0.0
1040
13.26299999998673
1040
0.0
1071
       12
1005
F2F5
1005
F2F6
1005
F2FD
1005
F30C
1005
F30F
1005
F30D
1005
F2FE
1005
F303
1005
F301
1005
F305
1005
F304
1005
F306
1071
       22
1070
     0
1070
     1
1071
        3
1040
9.236999999990758
1040
5.5200999999945
1040
10.06399999998996
1040
3.670999999996297
1040
8.409999999991555
1040
3.670999999996297
1071
        3
1005
F311
1005
F313
1005
F312
1070
     0
1070
     1
1040
0.0
1040
0.15
1070
     0
1070
     2
1040
0.7853981633974483
1040
49.29960901727088
1040
-10.17736998311392
1040
-0.3367596045400932
1040
0.3367596045400932
1070
     0
1040
2.356194490192345
1040
49.29960901727088
1040
-10.17736998311392
1040
-0.3367596045400932
1040
-0.3367596045400932
1070
     0
1040
0.0110235143455945
1071
        2
1040
3.614004224891801
1040
2.996669441146025
1040
0.0
1040
3.614004224891801
1040
2.996669441146025
1040
0.0
1002
}
  0
INSERT
  5
F337
330
F2F3
100
AcDbEntity
  8
0
100
AcDbBlockReference
  2
*X33
 10
0.0
 20
0.0
 30
0.0
1001
ACAD
1000
HATCH
1002
{
1070
    19
1000
ANSI37
1040
0.15
1040
0.0
1000
ASC_BOUNDS
1070
     1
1070
     2
1070
    10
1005
F2F7
1005
F2F8
1005
F319
1005
F317
1005
F318
1005
F30B
1005
F310
1005
F314
1005
F2FA
1005
F2F9
1000
ASC_SEEDPOINT
1011
14.73245321214324
1021
2.798246178283421
1031
0.0
1000
R14_HATCH_DATA
1000
F337
1011
1.0
1021
0.0
1031
0.0
1011
0.0
1021
1.0
1031
0.0
1011
0.0
1021
0.0
1031
1.0
1040
0.0
1010
0.0
1020
0.0
1030
1.0
1000
ANSI37
1070
     0
1070
     1
1071
        1
1071
        7
1070
     0
1070
     1
1071
       10
1040
16.46099999998353
1040
5.432899999994561
1040
18.59199999998134
1040
-0.2368999999997641
1040
22.38199999997767
1040
8.763099999991255
1040
20.89099999997916
1040
8.763099999991255
1040
18.59799999998143
1040
3.315799999996671
1040
16.46099999998353
1040
8.999899999990987
1040
14.32399999998563
1040
3.315799999996671
1040
12.02999999998792
1040
8.763099999991255
1040
10.53899999998941
1040
8.763099999991255
1040
14.32899999998563
1040
-0.2368999999997641
1071
       10
1005
F2F7
1005
F2F8
1005
F319
1005
F317
1005
F318
1005
F30B
1005
F310
1005
F314
1005
F2FA
1005
F2F9
1070
     0
1070
     1
1040
0.0
1040
0.15
1070
     0
1070
     2
1040
0.7853981633974483
1040
49.29960901727088
1040
-10.17736998311392
1040
-0.3367596045400932
1040
0.3367596045400932
1070
     0
1040
2.356194490192345
1040
49.29960901727088
1040
-10.17736998311392
1040
-0.3367596045400932
1040
-0.3367596045400932
1070
     0
1040
0.0110235143455945
1071
        1
1040
14.73245321214324
1040
2.798246178283421
1040
0.0
1002
}
  0
INSERT
  5
F338
330
F2F3
100
AcDbEntity
  8
0
100
AcDbBlockReference
  2
*X34
 10
0.0
 20
0.0
 30
0.0
1001
ACAD
1000
HATCH
1002
{
1070
    19
1000
ANSI37
1040
0.15
1040
0.0
1000
ASC_BOUNDS
1070
     2
1070
     2
1070
    13
1005
F2FB
1005
F308
1005
F309
1005
F307
1005
F30A
1005
F331
1005
F335
1005
F330
1005
F32F
1005
F332
1005
F334
1005
F333
1005
F2FC
1070
     2
1070
     3
1005
F315
1005
F31A
1005
F316
1000
ASC_SEEDPOINT
1011
21.97929957367762
1021
3.294304244259308
1031
0.0
1000
R14_HATCH_DATA
1000
F338
1011
1.0
1021
0.0
1031
0.0
1011
0.0
1021
1.0
1031
0.0
1011
0.0
1021
0.0
1031
1.0
1040
0.0
1010
0.0
1020
0.0
1030
1.0
1000
ANSI37
1070
     0
1070
     1
1071
        2
1071
        7
1070
     1
1070
     1
1071
       15
1040
23.56599999997638
1040
8.999899999990987
1040
0.0
1040
19.53899999998043
1040
-0.0001000000000317
1040
0.0
1040
19.53899999998043
1040
0.0
1040
0.0
1040
21.09599999997886
1040
0.0
1040
0.0
1040
21.09599999997886
1040
-0.0001000000000317
1040
0.0
1040
22.15599999997789
1040
2.368399999997621
1040
0.0
1040
24.97599999997499
1040
2.368399999997621
1040
0.0
1040
26.02015566812236
1040
0.0330999999912365
1040
0.0
1040
28.40199999996923
1040
0.0330999999912365
1040
0.414213562373095
1040
30.74199999996923
1040
2.373099999991211
1040
0.0
1040
30.74199999996927
1040
8.763099999991255
1040
0.0
1040
29.30199999996933
1040
8.763099999991255
1040
0.0
1040
29.30199999996933
1040
2.283099999991236
1040
-0.414213562373095
1040
28.40199999996923
1040
1.383099999991237
1040
0.0
1040
26.97358892824991
1040
1.383099999991202
1040
0.0
1071
       13
1005
F2FB
1005
F308
1005
F309
1005
F307
1005
F30A
1005
F331
1005
F335
1005
F330
1005
F32F
1005
F332
1005
F334
1005
F333
1005
F2FC
1071
       22
1070
     0
1070
     1
1071
        3
1040
22.7389999999773
1040
3.670999999996297
1040
23.56599999997638
1040
5.5200999999945
1040
24.39299999997559
1040
3.670999999996297
1071
        3
1005
F315
1005
F31A
1005
F316
1070
     0
1070
     1
1040
0.0
1040
0.15
1070
     0
1070
     2
1040
0.7853981633974483
1040
49.29960901727088
1040
-10.17736998311392
1040
-0.3367596045400932
1040
0.3367596045400932
1070
     0
1040
2.356194490192345
1040
49.29960901727088
1040
-10.17736998311392
1040
-0.3367596045400932
1040
-0.3367596045400932
1070
     0
1040
0.0110235143455945
1071
        2
1040
21.97929957367762
1040
3.294304244259308
1040
0.0
1040
21.97929957367762
1040
3.294304244259308
1040
0.0
1002
}
  0
INSERT
  5
F339
330
F2F3
100
AcDbEntity
  8
0
100
AcDbBlockReference
  2
*X35
 10
0.0
 20
0.0
 30
0.0
1001
ACAD
1000
HATCH
1002
{
1070
    19
1000
ANSI37
1040
0.15
1040
0.0
1000
R14_HATCH_DATA
1000
F339
1011
1.0
1021
0.0
1031
0.0
1011
0.0
1021
1.0
1031
0.0
1011
0.0
1021
0.0
1031
1.0
1040
0.0
1010
0.0
1020
0.0
1030
1.0
1000
ANSI37
1070
     0
1070
     1
1071
        1
1071
        7
1070
     1
1070
     1
1071
       12
1040
31.64199999996833
1040
2.481619422925121
1040
0.2679491924310942
1040
32.94699999997067
1040
0.2212931190493919
1040
0.2679491924301353
1040
36.36699999995983
1040
0.2212931190459813
1040
0.2679491924321411
1040
37.67199999996831
1040
2.481619422928361
1040
0.0
1040
37.67199999996831
1040
8.763099999991255
1040
0.0
1040
36.23199999996837
1040
8.763099999991255
1040
0.0
1040
36.23199999996837
1040
2.481619422925064
1040
-0.2679491924310291
1040
35.64699999996708
1040
1.468369700498386
1040
-0.267949192430519
1040
33.66699999997093
1040
1.468369700497703
1040
-0.267949192431809
1040
33.08199999996839
1040
2.481619422926997
1040
0.0
1040
33.08199999996839
1040
8.763099999991255
1040
0.0
1040
31.64199999996833
1040
8.763099999991255
1040
0.0
1071
        0
1070
     0
1070
     1
1040
0.0
1040
0.15
1070
     0
1070
     2
1040
0.7853981633974483
1040
49.29960901727088
1040
-10.17736998311392
1040
-0.3367596045400932
1040
0.3367596045400932
1070
     0
1040
2.356194490192345
1040
49.29960901727088
1040
-10.17736998311392
1040
-0.3367596045400932
1040
-0.3367596045400932
1070
     0
1040
0.0110235143455945
1071
        1
1040
32.30357378967278
1040
3.988785755459219
1040
0.0
1002
}
  0
INSERT
  5
F33A
330
F2F3
100
AcDbEntity
  8
0
100
AcDbBlockReference
  2
*X36
 10
0.0
 20
0.0
 30
0.0
1001
ACAD
1000
HATCH
1002
{
1070
    19
1000
ANSI37
1040
0.15
1040
0.0
1000
ASC_BOUNDS
1070
     1
1070
     2
1070
     8
1005
F31B
1005
F31E
1005
F322
1005
F321
1005
F320
1005
F31D
1005
F31F
1005
F31C
1000
ASC_SEEDPOINT
1011
39.74896370716704
1021
4.484843821435049
1031
0.0
1000
R14_HATCH_DATA
1000
F33A
1011
1.0
1021
0.0
1031
0.0
1011
0.0
1021
1.0
1031
0.0
1011
0.0
1021
0.0
1031
1.0
1040
0.0
1010
0.0
1020
0.0
1030
1.0
1000
ANSI37
1070
     0
1070
     1
1071
        1
1071
        7
1070
     0
1070
     1
1071
        9
1040
40.02599999995994
1040
5.341799999994635
1040
44.99999999995498
1040
-0.2368999999997641
1040
44.99999999995498
1040
8.763099999991255
1040
43.57899999995641
1040
8.763099999991255
1040
43.57899999995641
1040
3.421199999996588
1040
38.60499999996136
1040
8.999899999990987
1040
38.60499999996136
1040
8.999999999991019
1040
38.60499999996136
1040
0.0
1040
40.02599999995994
1040
0.0
1071
        8
1005
F31B
1005
F31E
1005
F322
1005
F321
1005
F320
1005
F31D
1005
F31F
1005
F31C
1070
     0
1070
     1
1040
0.0
1040
0.15
1070
     0
1070
     2
1040
0.7853981633974483
1040
49.29960901727088
1040
-10.17736998311392
1040
-0.3367596045400932
1040
0.3367596045400932
1070
     0
1040
2.356194490192345
1040
49.29960901727088
1040
-10.17736998311392
1040
-0.3367596045400932
1040
-0.3367596045400932
1070
     0
1040
0.0110235143455945
1071
        1
1040
39.74896370716704
1040
4.484843821435049
1040
0.0
1002
}
  0
INSERT
  5
F33B
330
F2F3
100
AcDbEntity
  8
0
100
AcDbBlockReference
  2
*X37
 10
0.0
 20
0.0
 30
0.0
1001
ACAD
1000
HATCH
1002
{
1070
    19
1000
ANSI37
1040
0.15
1040
0.0
1000
ASC_BOUNDS
1070
     1
1070
     2
1070
     4
1005
F2FF
1005
F30E
1005
F300
1005
F302
1000
ASC_SEEDPOINT
1011
1.079051535452663
1021
4.148538732891836
1031
0.0
1000
R14_HATCH_DATA
1000
F33B
1011
1.0
1021
0.0
1031
0.0
1011
0.0
1021
1.0
1031
0.0
1011
0.0
1021
0.0
1031
1.0
1040
0.0
1010
0.0
1020
0.0
1030
1.0
1000
ANSI37
1070
     0
1070
     1
1071
        1
1071
        7
1070
     0
1070
     1
1071
        4
1040
1.420999999998571
1040
0.0
1040
1.420999999998571
1040
8.763099999991255
1040
0.0
1040
8.763099999991255
1040
0.0
1040
0.0
1071
        4
1005
F2FF
1005
F30E
1005
F300
1005
F302
1070
     0
1070
     1
1040
0.0
1040
0.15
1070
     0
1070
     2
1040
0.7853981633974483
1040
49.29960901727088
1040
-10.17736998311392
1040
-0.3367596045400932
1040
0.3367596045400932
1070
     0
1040
2.356194490192345
1040
49.29960901727088
1040
-10.17736998311392
1040
-0.3367596045400932
1040
-0.3367596045400932
1070
     0
1040
0.0053004257112761
1071
        1
1040
1.079051535452663
1040
4.148538732891836
1040
0.0
1002
}
  0
ENDBLK
  5
FA02
330
F2F3
100
AcDbEntity
  8
0
100
AcDbBlockEnd
  0
BLOCK
  5
FC6E
330
FAC2
100
AcDbEntity
  8
0
100
AcDbBlockBegin
  2
NOCIRCLE
 70
     2
 10
0.0
 20
0.0
 30
0.0
  3
NOCIRCLE
  1

  0
CIRCLE
  5
FAC6
330
FAC2
100
AcDbEntity
  8
0
  6
BYBLOCK
 62
     0
100
AcDbCircle
 10
0.0
 20
0.0
 30
0.0
 40
4.2
  0
ATTDEF
  5
FAC7
330
FAC2
100
AcDbEntity
  8
1TEXT
100
AcDbText
 10
-1.904761904761876
 20
-2.0
 30
0.0
 40
4.0
  1
0
 72
     4
 11
0.0
 21
0.0
 31
0.0
100
AcDbAttributeDefinition
  3
NO.
  2
NO
 70
     0
  0
ENDBLK
  5
FC6F
330
FAC2
100
AcDbEntity
  8
0
100
AcDbBlockEnd
  0
BLOCK
  5
106F3
330
10565
100
AcDbEntity
  8
0
100
AcDbBlockBegin
  2
*X32
 70
     1
 10
0.0
 20
0.0
 30
0.0
  3
*X32
  1

  0
LINE
  5
10566
330
10565
100
AcDbEntity
  8
0
  6
CONTINUOUS
100
AcDbLine
 10
3.418023043697893
 20
7.251849696850613
 30
0.0
 11
4.929273346838536
 21
8.763099999991255
 31
0.0
  0
LINE
  5
10567
330
10565
100
AcDbEntity
  8
0
  6
CONTINUOUS
100
AcDbLine
 10
1.483656411257782
 20
4.643963855330318
 30
0.0
 11
5.60279255591872
 21
8.763099999991255
 31
0.0
  0
LINE
  5
10568
330
10565
100
AcDbEntity
  8
0
  6
CONTINUOUS
100
AcDbLine
 10
1.755053947328235
 20
4.241842182320584
 30
0.0
 11
6.276311764998907
 21
8.763099999991255
 31
0.0
  0
LINE
  5
10569
330
10565
100
AcDbEntity
  8
0
  6
CONTINUOUS
100
AcDbLine
 10
2.026451483398688
 20
3.839720509310849
 30
0.0
 11
4.441040904851878
 21
6.254309930764039
 31
0.0
  0
LINE
  5
1056A
330
10565
100
AcDbEntity
  8
0
  6
CONTINUOUS
100
AcDbLine
 10
2.297849019469139
 20
3.437598836301114
 30
0.0
 11
3.321765168359338
 21
4.461514985191313
 31
0.0
  0
LINE
  5
1056B
330
10565
100
AcDbEntity
  8
0
  6
CONTINUOUS
100
AcDbLine
 10
2.569246555539591
 20
3.03547716329138
 30
0.0
 11
3.593163397972743
 21
4.059394005724531
 31
0.0
  0
LINE
  5
1056C
330
10565
100
AcDbEntity
  8
0
  6
CONTINUOUS
100
AcDbLine
 10
2.840644091610043
 20
2.633355490281646
 30
0.0
 11
3.864561627586149
 21
3.657273026257751
 31
0.0
  0
LINE
  5
1056D
330
10565
100
AcDbEntity
  8
0
  6
CONTINUOUS
100
AcDbLine
 10
3.112041627680496
 20
2.231233817271911
 30
0.0
 11
4.135959857199554
 21
3.25515204679097
 31
0.0
  0
LINE
  5
1056E
330
10565
100
AcDbEntity
  8
0
  6
CONTINUOUS
100
AcDbLine
 10
3.383439163750948
 20
1.829112144262177
 30
0.0
 11
4.40735808681296
 21
2.853031067324189
 31
0.0
  0
LINE
  5
1056F
330
10565
100
AcDbEntity
  8
0
  6
CONTINUOUS
100
AcDbLine
 10
3.654836699821399
 20
1.426990471252442
 30
0.0
 11
4.678756316426365
 21
2.450910087857407
 31
0.0
  0
LINE
  5
10570
330
10565
100
AcDbEntity
  8
0
  6
CONTINUOUS
100
AcDbLine
 10
3.926234235891853
 20
1.024868798242709
 30
0.0
 11
4.95015454603977
 21
2.048789108390626
 31
0.0
  0
LINE
  5
10571
330
10565
100
AcDbEntity
  8
0
  6
CONTINUOUS
100
AcDbLine
 10
4.197631771962304
 20
0.6227471252329737
 30
0.0
 11
5.221552775653176
 21
1.646668128923846
 31
0.0
  0
LINE
  5
10572
330
10565
100
AcDbEntity
  8
0
  6
CONTINUOUS
100
AcDbLine
 10
8.715877546767851
 20
7.835069736359266
 30
0.0
 11
9.435953450375058
 21
8.555145639966472
 31
0.0
  0
LINE
  5
10573
330
10565
100
AcDbEntity
  8
0
  6
CONTINUOUS
100
AcDbLine
 10
8.170620868422267
 20
6.616293848933497
 30
0.0
 11
9.644120833743461
 21
8.08979381425469
 31
0.0
  0
LINE
  5
10574
330
10565
100
AcDbEntity
  8
0
  6
CONTINUOUS
100
AcDbLine
 10
7.625364190076684
 20
5.397517961507727
 30
0.0
 11
9.852288217111864
 21
7.624441988542907
 31
0.0
  0
LINE
  5
10575
330
10565
100
AcDbEntity
  8
0
  6
CONTINUOUS
100
AcDbLine
 10
7.080107511731101
 20
4.178742074081957
 30
0.0
 11
10.06045560048027
 21
7.159090162831124
 31
0.0
  0
LINE
  5
10576
330
10565
100
AcDbEntity
  8
0
  6
CONTINUOUS
100
AcDbLine
 10
6.534850833385518
 20
2.959966186656187
 30
0.0
 11
10.26862298384867
 21
6.693738337119342
 31
0.0
  0
LINE
  5
10577
330
10565
100
AcDbEntity
  8
0
  6
CONTINUOUS
100
AcDbLine
 10
4.469029308032756
 20
0.2206254522232385
 30
0.0
 11
5.492951005266582
 21
1.244547149457064
 31
0.0
  0
LINE
  5
10578
330
10565
100
AcDbEntity
  8
0
  6
CONTINUOUS
100
AcDbLine
 10
5.989594155039935
 20
1.741190299230417
 30
0.0
 11
8.806950407233131
 21
4.558546551423613
 31
0.0
  0
LINE
  5
10579
330
10565
100
AcDbEntity
  8
0
  6
CONTINUOUS
100
AcDbLine
 10
9.401251593263643
 20
5.152847737454126
 30
0.0
 11
10.47679036721708
 21
6.228386511407559
 31
0.0
  0
LINE
  5
1057A
330
10565
100
AcDbEntity
  8
0
  6
CONTINUOUS
100
AcDbLine
 10
4.921837203428691
 20
-0.0000858614610131
 30
0.0
 11
8.592923064886001
 21
3.670999999996297
 31
0.0
  0
LINE
  5
1057B
330
10565
100
AcDbEntity
  8
0
  6
CONTINUOUS
100
AcDbLine
 10
9.609390446785305
 20
4.6874673818956
 30
0.0
 11
10.68495775058548
 21
5.763034685695775
 31
0.0
  0
LINE
  5
1057C
330
10565
100
AcDbEntity
  8
0
  6
CONTINUOUS
100
AcDbLine
 10
5.595387755019432
 20
-0.0000545189504582
 30
0.0
 11
7.716137258923768
 21
2.120694984953879
 31
0.0
  0
LINE
  5
1057D
330
10565
100
AcDbEntity
  8
0
  6
CONTINUOUS
100
AcDbLine
 10
6.268938306610172
 20
-0.000023176439905
 30
0.0
 11
7.170485805526503
 21
0.9015243224764267
 31
0.0
  0
LINE
  5
1057E
330
10565
100
AcDbEntity
  8
0
  6
CONTINUOUS
100
AcDbLine
 10
7.963842273967511
 20
2.368399999997621
 30
0.0
 11
9.266442273966188
 21
3.670999999996297
 31
0.0
  0
LINE
  5
1057F
330
10565
100
AcDbEntity
  8
0
  6
CONTINUOUS
100
AcDbLine
 10
8.637361483047696
 20
2.368399999997621
 30
0.0
 11
9.939961483046375
 21
3.670999999996297
 31
0.0
  0
LINE
  5
10580
330
10565
100
AcDbEntity
  8
0
  6
CONTINUOUS
100
AcDbLine
 10
9.817529300306965
 20
4.222087026337075
 30
0.0
 11
10.89312513395388
 21
5.297682859983993
 31
0.0
  0
LINE
  5
10581
330
10565
100
AcDbEntity
  8
0
  6
CONTINUOUS
100
AcDbLine
 10
10.02566815382863
 20
3.756706670778549
 30
0.0
 11
11.10129251732229
 21
4.832331034272211
 31
0.0
  0
LINE
  5
10582
330
10565
100
AcDbEntity
  8
0
  6
CONTINUOUS
100
AcDbLine
 10
9.310880692127883
 20
2.368399999997621
 30
0.0
 11
11.30945990069069
 21
4.366979208560428
 31
0.0
  0
LINE
  5
10583
330
10565
100
AcDbEntity
  8
0
  6
CONTINUOUS
100
AcDbLine
 10
9.98439990120807
 20
2.36839999999762
 30
0.0
 11
11.5176272840591
 21
3.901627382848645
 31
0.0
  0
LINE
  5
10584
330
10565
100
AcDbEntity
  8
0
  6
CONTINUOUS
100
AcDbLine
 10
10.65037369446246
 20
2.36085458417182
 30
0.0
 11
11.7257946674275
 21
3.436275557136862
 31
0.0
  0
LINE
  5
10585
330
10565
100
AcDbEntity
  8
0
  6
CONTINUOUS
100
AcDbLine
 10
10.85847197087848
 20
1.895433651507656
 30
0.0
 11
11.9339620507959
 21
2.97092373142508
 31
0.0
  0
LINE
  5
10586
330
10565
100
AcDbEntity
  8
0
  6
CONTINUOUS
100
AcDbLine
 10
11.0665702472945
 20
1.430012718843491
 30
0.0
 11
12.14212943416431
 21
2.505571905713296
 31
0.0
  0
LINE
  5
10587
330
10565
100
AcDbEntity
  8
0
  6
CONTINUOUS
100
AcDbLine
 10
11.27466852371052
 20
0.9645917861793256
 30
0.0
 11
12.35029681753271
 21
2.040220080001513
 31
0.0
  0
LINE
  5
10588
330
10565
100
AcDbEntity
  8
0
  6
CONTINUOUS
100
AcDbLine
 10
11.48276680012654
 20
0.4991708535151611
 30
0.0
 11
12.55846420090111
 21
1.57486825428973
 31
0.0
  0
LINE
  5
10589
330
10565
100
AcDbEntity
  8
0
  6
CONTINUOUS
100
AcDbLine
 10
11.69086507654257
 20
0.0337499208509957
 30
0.0
 11
12.76663158426952
 21
1.109516428577947
 31
0.0
  0
LINE
  5
1058A
330
10565
100
AcDbEntity
  8
0
  6
CONTINUOUS
100
AcDbLine
 10
12.33057447873954
 20
-0.0000598860322123
 30
0.0
 11
12.97479896763792
 21
0.6441646028661663
 31
0.0
  0
LINE
  5
1058B
330
10565
100
AcDbEntity
  8
0
  6
CONTINUOUS
100
AcDbLine
 10
13.00413694809395
 20
-0.0000166257579952
 30
0.0
 11
13.18296635100632
 21
0.1788127771543824
 31
0.0
  0
LINE
  5
1058C
330
10565
100
AcDbEntity
  8
0
  6
CONTINUOUS
100
AcDbLine
 10
4.772852165289667
 20
-0.000092794222212
 30
0.0
 11
4.296495091028902
 21
0.4762642800385528
 31
0.0
  0
LINE
  5
1058D
330
10565
100
AcDbEntity
  8
0
  6
CONTINUOUS
100
AcDbLine
 10
5.446340034776103
 20
-0.0000614546284616
 30
0.0
 11
2.898195908335625
 21
2.548082671812017
 31
0.0
  0
LINE
  5
1058E
330
10565
100
AcDbEntity
  8
0
  6
CONTINUOUS
100
AcDbLine
 10
6.119827904262539
 20
-0.0000301150347113
 30
0.0
 11
1.499896725642348
 21
4.61990106358548
 31
0.0
  0
LINE
  5
1058F
330
10565
100
AcDbEntity
  8
0
  6
CONTINUOUS
100
AcDbLine
 10
6.775136745476159
 20
0.0181802528318542
 30
0.0
 11
5.699826040202669
 21
1.093490958105344
 31
0.0
  0
LINE
  5
10590
330
10565
100
AcDbEntity
  8
0
  6
CONTINUOUS
100
AcDbLine
 10
6.983376846288489
 20
0.4834593610997118
 30
0.0
 11
5.908008617934405
 21
1.558827589453796
 31
0.0
  0
LINE
  5
10591
330
10565
100
AcDbEntity
  8
0
  6
CONTINUOUS
100
AcDbLine
 10
5.377063484962296
 20
1.416253513345719
 30
0.0
 11
1.702276957014131
 21
5.091040041293883
 31
0.0
  0
LINE
  5
10592
330
10565
100
AcDbEntity
  8
0
  6
CONTINUOUS
100
AcDbLine
 10
3.978745891735324
 20
3.488090315652877
 30
0.0
 11
2.000373521109399
 21
5.466462686278803
 31
0.0
  0
LINE
  5
10593
330
10565
100
AcDbEntity
  8
0
  6
CONTINUOUS
100
AcDbLine
 10
7.191616947100819
 20
0.948738469367568
 30
0.0
 11
6.11619119566614
 21
2.024164220802247
 31
0.0
  0
LINE
  5
10594
330
10565
100
AcDbEntity
  8
0
  6
CONTINUOUS
100
AcDbLine
 10
7.399857047913149
 20
1.414017577635424
 30
0.0
 11
6.324373773397875
 21
2.489500852150698
 31
0.0
  0
LINE
  5
10595
330
10565
100
AcDbEntity
  8
0
  6
CONTINUOUS
100
AcDbLine
 10
7.608097148725479
 20
1.879296685903281
 30
0.0
 11
6.53255635112961
 21
2.95483748349915
 31
0.0
  0
LINE
  5
10596
330
10565
100
AcDbEntity
  8
0
  6
CONTINUOUS
100
AcDbLine
 10
7.816337249537808
 20
2.344575794171138
 30
0.0
 11
6.740738928861345
 21
3.420174114847601
 31
0.0
  0
LINE
  5
10597
330
10565
100
AcDbEntity
  8
0
  6
CONTINUOUS
100
AcDbLine
 10
3.310241080789734
 20
4.830114335678653
 30
0.0
 11
2.298470085204666
 21
5.84188533126372
 31
0.0
  0
LINE
  5
10598
330
10565
100
AcDbEntity
  8
0
  6
CONTINUOUS
100
AcDbLine
 10
3.60832983563551
 20
5.205544789913063
 30
0.0
 11
2.596566649299935
 21
6.217307976248638
 31
0.0
  0
LINE
  5
10599
330
10565
100
AcDbEntity
  8
0
  6
CONTINUOUS
100
AcDbLine
 10
3.906418590481286
 20
5.580975244147473
 30
0.0
 11
2.894663213395203
 21
6.592730621233557
 31
0.0
  0
LINE
  5
1059A
330
10565
100
AcDbEntity
  8
0
  6
CONTINUOUS
100
AcDbLine
 10
4.204507345327062
 20
5.956405698381884
 30
0.0
 11
3.192759777490472
 21
6.968153266218474
 31
0.0
  0
LINE
  5
1059B
330
10565
100
AcDbEntity
  8
0
  6
CONTINUOUS
100
AcDbLine
 10
8.466032252791512
 20
2.368399999997621
 30
0.0
 11
6.948921506593081
 21
3.885510746196053
 31
0.0
  0
LINE
  5
1059C
330
10565
100
AcDbEntity
  8
0
  6
CONTINUOUS
100
AcDbLine
 10
9.139551461871699
 20
2.36839999999762
 30
0.0
 11
7.157104084324816
 21
4.350847377544504
 31
0.0
  0
LINE
  5
1059D
330
10565
100
AcDbEntity
  8
0
  6
CONTINUOUS
100
AcDbLine
 10
4.502596100172839
 20
6.331836152616295
 30
0.0
 11
3.49085634158574
 21
7.343575911203393
 31
0.0
  0
LINE
  5
1059E
330
10565
100
AcDbEntity
  8
0
  6
CONTINUOUS
100
AcDbLine
 10
4.800684855018615
 20
6.707266606850705
 30
0.0
 11
3.788952905681008
 21
7.718998556188312
 31
0.0
  0
LINE
  5
1059F
330
10565
100
AcDbEntity
  8
0
  6
CONTINUOUS
100
AcDbLine
 10
12.18154012887317
 20
-0.0000694579236642
 30
0.0
 11
11.32140332908496
 21
0.8600673418645499
 31
0.0
  0
LINE
  5
105A0
330
10565
100
AcDbEntity
  8
0
  6
CONTINUOUS
100
AcDbLine
 10
12.85501608323566
 20
-0.0000262032059659
 30
0.0
 11
10.77672456435345
 21
2.078265315676246
 31
0.0
  0
LINE
  5
105A1
330
10565
100
AcDbEntity
  8
0
  6
CONTINUOUS
100
AcDbLine
 10
9.813070670951886
 20
2.36839999999762
 30
0.0
 11
8.51047067095321
 21
3.670999999996297
 31
0.0
  0
LINE
  5
105A2
330
10565
100
AcDbEntity
  8
0
  6
CONTINUOUS
100
AcDbLine
 10
10.48658988003207
 20
2.36839999999762
 30
0.0
 11
9.183989880033396
 21
3.670999999996297
 31
0.0
  0
LINE
  5
105A3
330
10565
100
AcDbEntity
  8
0
  6
CONTINUOUS
100
AcDbLine
 10
8.441048632286794
 20
3.740422038662712
 30
0.0
 11
7.365286662056551
 21
4.816184008892956
 31
0.0
  0
LINE
  5
105A4
330
10565
100
AcDbEntity
  8
0
  6
CONTINUOUS
100
AcDbLine
 10
8.649187485808454
 20
4.205802394221237
 30
0.0
 11
7.573469239788285
 21
5.281520640241407
 31
0.0
  0
LINE
  5
105A5
330
10565
100
AcDbEntity
  8
0
  6
CONTINUOUS
100
AcDbLine
 10
5.098773609864391
 20
7.082697061085115
 30
0.0
 11
4.087049469776277
 21
8.09442120117323
 31
0.0
  0
LINE
  5
105A6
330
10565
100
AcDbEntity
  8
0
  6
CONTINUOUS
100
AcDbLine
 10
5.396862364710167
 20
7.458127515319526
 30
0.0
 11
4.385146033871544
 21
8.469843846158149
 31
0.0
  0
LINE
  5
105A7
330
10565
100
AcDbEntity
  8
0
  6
CONTINUOUS
100
AcDbLine
 10
13.04801363231285
 20
0.4804954567970334
 30
0.0
 11
9.85750908911358
 21
3.670999999996297
 31
0.0
  0
LINE
  5
105A8
330
10565
100
AcDbEntity
  8
0
  6
CONTINUOUS
100
AcDbLine
 10
8.857326339330116
 20
4.671182749779763
 30
0.0
 11
7.781651817520021
 21
5.746857271589858
 31
0.0
  0
LINE
  5
105A9
330
10565
100
AcDbEntity
  8
0
  6
CONTINUOUS
100
AcDbLine
 10
5.694951119555943
 20
7.833557969553937
 30
0.0
 11
4.765409089118624
 21
8.763099999991255
 31
0.0
  0
LINE
  5
105AA
330
10565
100
AcDbEntity
  8
0
  6
CONTINUOUS
100
AcDbLine
 10
12.50286117236978
 20
1.699167125820288
 30
0.0
 11
9.68611877250287
 21
4.515909525687196
 31
0.0
  0
LINE
  5
105AB
330
10565
100
AcDbEntity
  8
0
  6
CONTINUOUS
100
AcDbLine
 10
9.065465192851777
 20
5.136563105338288
 30
0.0
 11
7.989834395251757
 21
6.21219390293831
 31
0.0
  0
LINE
  5
105AC
330
10565
100
AcDbEntity
  8
0
  6
CONTINUOUS
100
AcDbLine
 10
5.993039874401719
 20
8.208988423788346
 30
0.0
 11
5.43892829819881
 21
8.763099999991255
 31
0.0
  0
LINE
  5
105AD
330
10565
100
AcDbEntity
  8
0
  6
CONTINUOUS
100
AcDbLine
 10
11.95770871242671
 20
2.917838794843543
 30
0.0
 11
8.19801697298349
 21
6.677530534286761
 31
0.0
  0
LINE
  5
105AE
330
10565
100
AcDbEntity
  8
0
  6
CONTINUOUS
100
AcDbLine
 10
6.291128629247495
 20
8.584418878022756
 30
0.0
 11
6.112447507278997
 21
8.763099999991255
 31
0.0
  0
LINE
  5
105AF
330
10565
100
AcDbEntity
  8
0
  6
CONTINUOUS
100
AcDbLine
 10
11.41255625248364
 20
4.136510463866797
 30
0.0
 11
8.406199550715227
 21
7.142867165635211
 31
0.0
  0
LINE
  5
105B0
330
10565
100
AcDbEntity
  8
0
  6
CONTINUOUS
100
AcDbLine
 10
10.86740379254057
 20
5.355182132890051
 30
0.0
 11
8.614382128446962
 21
7.608203796983664
 31
0.0
  0
LINE
  5
105B1
330
10565
100
AcDbEntity
  8
0
  6
CONTINUOUS
100
AcDbLine
 10
10.3222513325975
 20
6.573853801913305
 30
0.0
 11
8.822564706178696
 21
8.073540428332114
 31
0.0
  0
LINE
  5
105B2
330
10565
100
AcDbEntity
  8
0
  6
CONTINUOUS
100
AcDbLine
 10
9.777098872654436
 20
7.792525470936562
 30
0.0
 11
9.030747283910433
 21
8.538877059680566
 31
0.0
  0
ENDBLK
  5
106F4
330
10565
100
AcDbEntity
  8
0
100
AcDbBlockEnd
  0
BLOCK
  5
106F5
330
105B3
100
AcDbEntity
  8
0
100
AcDbBlockBegin
  2
*X33
 70
     1
 10
0.0
 20
0.0
 30
0.0
  3
*X33
  1

  0
LINE
  5
105B4
330
105B3
100
AcDbEntity
  8
0
  6
CONTINUOUS
100
AcDbLine
 10
10.67292308101235
 20
8.445076852443387
 30
0.0
 11
10.99094622856022
 21
8.763099999991255
 31
0.0
  0
LINE
  5
105B5
330
105B3
100
AcDbEntity
  8
0
  6
CONTINUOUS
100
AcDbLine
 10
10.87250383178748
 20
7.971138394138331
 30
0.0
 11
11.6644654376404
 21
8.763099999991255
 31
0.0
  0
LINE
  5
105B6
330
105B3
100
AcDbEntity
  8
0
  6
CONTINUOUS
100
AcDbLine
 10
11.07208458256261
 20
7.497199935833273
 30
0.0
 11
12.12126590876355
 21
8.546381262034211
 31
0.0
  0
LINE
  5
105B7
330
105B3
100
AcDbEntity
  8
0
  6
CONTINUOUS
100
AcDbLine
 10
11.27166533333774
 20
7.023261477528216
 30
0.0
 11
12.32085164573666
 21
8.072447789927136
 31
0.0
  0
LINE
  5
105B8
330
105B3
100
AcDbEntity
  8
0
  6
CONTINUOUS
100
AcDbLine
 10
11.47124608411287
 20
6.549323019223158
 30
0.0
 11
12.52043738270977
 21
7.59851431782006
 31
0.0
  0
LINE
  5
105B9
330
105B3
100
AcDbEntity
  8
0
  6
CONTINUOUS
100
AcDbLine
 10
11.670826834888
 20
6.075384560918101
 30
0.0
 11
12.72002311968288
 21
7.124580845712984
 31
0.0
  0
LINE
  5
105BA
330
105B3
100
AcDbEntity
  8
0
  6
CONTINUOUS
100
AcDbLine
 10
11.87040758566313
 20
5.601446102613043
 30
0.0
 11
12.91960885665599
 21
6.650647373605907
 31
0.0
  0
LINE
  5
105BB
330
105B3
100
AcDbEntity
  8
0
  6
CONTINUOUS
100
AcDbLine
 10
12.06998833643825
 20
5.127507644307986
 30
0.0
 11
13.1191945936291
 21
6.176713901498832
 31
0.0
  0
LINE
  5
105BC
330
105B3
100
AcDbEntity
  8
0
  6
CONTINUOUS
100
AcDbLine
 10
12.26956908721338
 20
4.65356918600293
 30
0.0
 11
13.31878033060221
 21
5.702780429391757
 31
0.0
  0
LINE
  5
105BD
330
105B3
100
AcDbEntity
  8
0
  6
CONTINUOUS
100
AcDbLine
 10
12.46914983798851
 20
4.179630727697873
 30
0.0
 11
13.51836606757532
 21
5.228846957284683
 31
0.0
  0
LINE
  5
105BE
330
105B3
100
AcDbEntity
  8
0
  6
CONTINUOUS
100
AcDbLine
 10
12.66873058876364
 20
3.705692269392816
 30
0.0
 11
13.71795180454843
 21
4.754913485177607
 31
0.0
  0
LINE
  5
105BF
330
105B3
100
AcDbEntity
  8
0
  6
CONTINUOUS
100
AcDbLine
 10
12.86831133953877
 20
3.231753811087759
 30
0.0
 11
13.91753754152154
 21
4.280980013070531
 31
0.0
  0
LINE
  5
105C0
330
105B3
100
AcDbEntity
  8
0
  6
CONTINUOUS
100
AcDbLine
 10
13.0678920903139
 20
2.757815352782702
 30
0.0
 11
14.11712327849465
 21
3.807046540963456
 31
0.0
  0
LINE
  5
105C1
330
105B3
100
AcDbEntity
  8
0
  6
CONTINUOUS
100
AcDbLine
 10
13.26747284108903
 20
2.283876894477644
 30
0.0
 11
14.31670901546777
 21
3.333113068856379
 31
0.0
  0
LINE
  5
105C2
330
105B3
100
AcDbEntity
  8
0
  6
CONTINUOUS
100
AcDbLine
 10
16.36767838827179
 20
8.751678487061342
 30
0.0
 11
16.50332410898388
 21
8.887324207773432
 31
0.0
  0
LINE
  5
105C3
330
105B3
100
AcDbEntity
  8
0
  6
CONTINUOUS
100
AcDbLine
 10
15.96190732182191
 20
7.67238821153127
 30
0.0
 11
16.68735328004734
 21
8.397834169756699
 31
0.0
  0
LINE
  5
105C4
330
105B3
100
AcDbEntity
  8
0
  6
CONTINUOUS
100
AcDbLine
 10
15.55613625537202
 20
6.593097936001196
 30
0.0
 11
16.87138245111079
 21
7.908344131739965
 31
0.0
  0
LINE
  5
105C5
330
105B3
100
AcDbEntity
  8
0
  6
CONTINUOUS
100
AcDbLine
 10
15.15036518892213
 20
5.513807660471122
 30
0.0
 11
17.05541162217424
 21
7.418854093723231
 31
0.0
  0
LINE
  5
105C6
330
105B3
100
AcDbEntity
  8
0
  6
CONTINUOUS
100
AcDbLine
 10
14.74459412247225
 20
4.434517384941048
 30
0.0
 11
17.2394407932377
 21
6.929364055706499
 31
0.0
  0
LINE
  5
105C7
330
105B3
100
AcDbEntity
  8
0
  6
CONTINUOUS
100
AcDbLine
 10
14.33882305602236
 20
3.355227109410975
 30
0.0
 11
17.42346996430115
 21
6.439874017689766
 31
0.0
  0
LINE
  5
105C8
330
105B3
100
AcDbEntity
  8
0
  6
CONTINUOUS
100
AcDbLine
 10
13.46705359186416
 20
1.809938436172586
 30
0.0
 11
16.0819338255367
 21
4.424818669845129
 31
0.0
  0
LINE
  5
105C9
330
105B3
100
AcDbEntity
  8
0
  6
CONTINUOUS
100
AcDbLine
 10
16.63283254238972
 20
4.975717386698149
 30
0.0
 11
17.60749913536461
 21
5.950383979673033
 31
0.0
  0
LINE
  5
105CA
330
105B3
100
AcDbEntity
  8
0
  6
CONTINUOUS
100
AcDbLine
 10
13.66663434263929
 20
1.335999977867529
 30
0.0
 11
15.67604797733754
 21
3.345413612565779
 31
0.0
  0
LINE
  5
105CB
330
105B3
100
AcDbEntity
  8
0
  6
CONTINUOUS
100
AcDbLine
 10
13.86621509341442
 20
0.8620615195624723
 30
0.0
 11
15.27016212913838
 21
2.26600855528643
 31
0.0
  0
LINE
  5
105CC
330
105B3
100
AcDbEntity
  8
0
  6
CONTINUOUS
100
AcDbLine
 10
16.81682257348267
 20
4.486188208710908
 30
0.0
 11
17.79152830642806
 21
5.460893941656299
 31
0.0
  0
LINE
  5
105CD
330
105B3
100
AcDbEntity
  8
0
  6
CONTINUOUS
100
AcDbLine
 10
17.00081260457561
 20
3.996659030723667
 30
0.0
 11
17.97555747749151
 21
4.971403903639565
 31
0.0
  0
LINE
  5
105CE
330
105B3
100
AcDbEntity
  8
0
  6
CONTINUOUS
100
AcDbLine
 10
20.74362343514722
 20
8.412989070375462
 30
0.0
 11
21.09373436476302
 21
8.763099999991256
 31
0.0
  0
LINE
  5
105CF
330
105B3
100
AcDbEntity
  8
0
  6
CONTINUOUS
100
AcDbLine
 10
20.25401257174777
 20
7.249858997895826
 30
0.0
 11
21.7672535738432
 21
8.763099999991255
 31
0.0
  0
LINE
  5
105D0
330
105B3
100
AcDbEntity
  8
0
  6
CONTINUOUS
100
AcDbLine
 10
14.06579584418955
 20
0.3881230612574149
 30
0.0
 11
14.86427628093921
 21
1.186603498007082
 31
0.0
  0
LINE
  5
105D1
330
105B3
100
AcDbEntity
  8
0
  6
CONTINUOUS
100
AcDbLine
 10
14.26537659496467
 20
-0.0858153970476412
 30
0.0
 11
14.45839043274005
 21
0.1071984407277329
 31
0.0
  0
LINE
  5
105D2
330
105B3
100
AcDbEntity
  8
0
  6
CONTINUOUS
100
AcDbLine
 10
17.18480263566856
 20
3.507129852736426
 30
0.0
 11
18.15958664855496
 21
4.481913865622833
 31
0.0
  0
LINE
  5
105D3
330
105B3
100
AcDbEntity
  8
0
  6
CONTINUOUS
100
AcDbLine
 10
17.3687926667615
 20
3.017600674749186
 30
0.0
 11
18.34361581961842
 21
3.9924238276061
 31
0.0
  0
LINE
  5
105D4
330
105B3
100
AcDbEntity
  8
0
  6
CONTINUOUS
100
AcDbLine
 10
19.76440170834832
 20
6.086728925416191
 30
0.0
 11
22.33924590259489
 21
8.661573119662755
 31
0.0
  0
LINE
  5
105D5
330
105B3
100
AcDbEntity
  8
0
  6
CONTINUOUS
100
AcDbLine
 10
19.27479084494887
 20
4.923598852936555
 30
0.0
 11
21.84929622842713
 21
7.498104236414807
 31
0.0
  0
LINE
  5
105D6
330
105B3
100
AcDbEntity
  8
0
  6
CONTINUOUS
100
AcDbLine
 10
17.55278269785445
 20
2.528071496761945
 30
0.0
 11
18.52764499068187
 21
3.502933789589366
 31
0.0
  0
LINE
  5
105D7
330
105B3
100
AcDbEntity
  8
0
  6
CONTINUOUS
100
AcDbLine
 10
18.78517998154942
 20
3.760468780456919
 30
0.0
 11
21.35934655425936
 21
6.33463535316686
 31
0.0
  0
LINE
  5
105D8
330
105B3
100
AcDbEntity
  8
0
  6
CONTINUOUS
100
AcDbLine
 10
17.73677272894739
 20
2.038542318774704
 30
0.0
 11
20.8693968800916
 21
5.171166469918914
 31
0.0
  0
LINE
  5
105D9
330
105B3
100
AcDbEntity
  8
0
  6
CONTINUOUS
100
AcDbLine
 10
17.92076276004034
 20
1.549013140787464
 30
0.0
 11
20.37944720592384
 21
4.007697586670968
 31
0.0
  0
LINE
  5
105DA
330
105B3
100
AcDbEntity
  8
0
  6
CONTINUOUS
100
AcDbLine
 10
18.10475279113329
 20
1.059483962800223
 30
0.0
 11
19.88949753175608
 21
2.84422870342302
 31
0.0
  0
LINE
  5
105DB
330
105B3
100
AcDbEntity
  8
0
  6
CONTINUOUS
100
AcDbLine
 10
18.28874282222623
 20
0.5699547848129822
 30
0.0
 11
19.39954785758832
 21
1.680759820175074
 31
0.0
  0
LINE
  5
105DC
330
105B3
100
AcDbEntity
  8
0
  6
CONTINUOUS
100
AcDbLine
 10
18.47273285331918
 20
0.0804256068257416
 30
0.0
 11
18.90959818342056
 21
0.517290936927127
 31
0.0
  0
LINE
  5
105DD
330
105B3
100
AcDbEntity
  8
0
  6
CONTINUOUS
100
AcDbLine
 10
14.3590401358224
 20
-0.1570118376323384
 30
0.0
 11
14.24903296539946
 21
-0.0470046672093929
 31
0.0
  0
LINE
  5
105DE
330
105B3
100
AcDbEntity
  8
0
  6
CONTINUOUS
100
AcDbLine
 10
14.54309291258661
 20
0.332454594683643
 30
0.0
 11
13.75908329123172
 21
1.116464216038529
 31
0.0
  0
LINE
  5
105DF
330
105B3
100
AcDbEntity
  8
0
  6
CONTINUOUS
100
AcDbLine
 10
14.72714568935081
 20
0.8219210269996244
 30
0.0
 11
13.26913361706399
 21
2.27993309928645
 31
0.0
  0
LINE
  5
105E0
330
105B3
100
AcDbEntity
  8
0
  6
CONTINUOUS
100
AcDbLine
 10
14.91119846611502
 20
1.311387459315606
 30
0.0
 11
12.77918394289625
 21
3.443401982534371
 31
0.0
  0
LINE
  5
105E1
330
105B3
100
AcDbEntity
  8
0
  6
CONTINUOUS
100
AcDbLine
 10
15.09525124287922
 20
1.800853891631587
 30
0.0
 11
12.28923426872852
 21
4.606870865782293
 31
0.0
  0
LINE
  5
105E2
330
105B3
100
AcDbEntity
  8
0
  6
CONTINUOUS
100
AcDbLine
 10
15.27930401964343
 20
2.290320323947569
 30
0.0
 11
11.79928459456078
 21
5.770339749030213
 31
0.0
  0
LINE
  5
105E3
330
105B3
100
AcDbEntity
  8
0
  6
CONTINUOUS
100
AcDbLine
 10
15.46335679640763
 20
2.77978675626355
 30
0.0
 11
14.48885470994921
 21
3.754288842721972
 31
0.0
  0
LINE
  5
105E4
330
105B3
100
AcDbEntity
  8
0
  6
CONTINUOUS
100
AcDbLine
 10
13.88507249233704
 20
4.358071060334137
 30
0.0
 11
11.30933492039305
 21
6.933808632278135
 31
0.0
  0
LINE
  5
105E5
330
105B3
100
AcDbEntity
  8
0
  6
CONTINUOUS
100
AcDbLine
 10
18.75840522805855
 20
0.1582575336928151
 30
0.0
 11
18.25383727664818
 21
0.6628254851031863
 31
0.0
  0
LINE
  5
105E6
330
105B3
100
AcDbEntity
  8
0
  6
CONTINUOUS
100
AcDbLine
 10
15.64740957317184
 20
3.269253188579531
 30
0.0
 11
14.67288388101266
 21
4.243778880738705
 31
0.0
  0
LINE
  5
105E7
330
105B3
100
AcDbEntity
  8
0
  6
CONTINUOUS
100
AcDbLine
 10
13.39509276772158
 20
5.521569994029786
 30
0.0
 11
10.81938524622531
 21
8.097277515526056
 31
0.0
  0
LINE
  5
105E8
330
105B3
100
AcDbEntity
  8
0
  6
CONTINUOUS
100
AcDbLine
 10
18.95798597883369
 20
0.6321959919978686
 30
0.0
 11
17.84825644852853
 21
1.741925522303024
 31
0.0
  0
LINE
  5
105E9
330
105B3
100
AcDbEntity
  8
0
  6
CONTINUOUS
100
AcDbLine
 10
19.15756672960882
 20
1.106134450302922
 30
0.0
 11
17.44267562040888
 21
2.821025559502861
 31
0.0
  0
LINE
  5
105EA
330
105B3
100
AcDbEntity
  8
0
  6
CONTINUOUS
100
AcDbLine
 10
15.83146234993604
 20
3.758719620895513
 30
0.0
 11
14.85691305207612
 21
4.733268918755439
 31
0.0
  0
LINE
  5
105EB
330
105B3
100
AcDbEntity
  8
0
  6
CONTINUOUS
100
AcDbLine
 10
16.01551512670025
 20
4.248186053211494
 30
0.0
 11
15.04094222313957
 21
5.222758956772172
 31
0.0
  0
LINE
  5
105EC
330
105B3
100
AcDbEntity
  8
0
  6
CONTINUOUS
100
AcDbLine
 10
12.90511304310612
 20
6.685068927725435
 30
0.0
 11
10.8270819708403
 21
8.763099999991255
 31
0.0
  0
LINE
  5
105ED
330
105B3
100
AcDbEntity
  8
0
  6
CONTINUOUS
100
AcDbLine
 10
12.41513331849066
 20
7.848567861421083
 30
0.0
 11
11.50060117992049
 21
8.763099999991255
 31
0.0
  0
LINE
  5
105EE
330
105B3
100
AcDbEntity
  8
0
  6
CONTINUOUS
100
AcDbLine
 10
19.35714748038395
 20
1.580072908607975
 30
0.0
 11
17.03709479228923
 21
3.900125596702697
 31
0.0
  0
LINE
  5
105EF
330
105B3
100
AcDbEntity
  8
0
  6
CONTINUOUS
100
AcDbLine
 10
19.55672823115909
 20
2.054011366913028
 30
0.0
 11
16.63151396416958
 21
4.979225633902534
 31
0.0
  0
LINE
  5
105F0
330
105B3
100
AcDbEntity
  8
0
  6
CONTINUOUS
100
AcDbLine
 10
16.19956790346445
 20
4.737652485527476
 30
0.0
 11
15.22497139420302
 21
5.712248994788904
 31
0.0
  0
LINE
  5
105F1
330
105B3
100
AcDbEntity
  8
0
  6
CONTINUOUS
100
AcDbLine
 10
16.38362068022866
 20
5.227118917843457
 30
0.0
 11
15.40900056526648
 21
6.201739032805637
 31
0.0
  0
LINE
  5
105F2
330
105B3
100
AcDbEntity
  8
0
  6
CONTINUOUS
100
AcDbLine
 10
19.75630898193422
 20
2.527949825218081
 30
0.0
 11
18.70774536448286
 21
3.576513442669441
 31
0.0
  0
LINE
  5
105F3
330
105B3
100
AcDbEntity
  8
0
  6
CONTINUOUS
100
AcDbLine
 10
19.95588973270936
 20
3.001888283523134
 30
0.0
 11
18.90726987211446
 21
4.050508144118028
 31
0.0
  0
LINE
  5
105F4
330
105B3
100
AcDbEntity
  8
0
  6
CONTINUOUS
100
AcDbLine
 10
20.15547048348449
 20
3.475826741828186
 30
0.0
 11
19.10679437974606
 21
4.524502845566614
 31
0.0
  0
LINE
  5
105F5
330
105B3
100
AcDbEntity
  8
0
  6
CONTINUOUS
100
AcDbLine
 10
20.35505123425962
 20
3.94976520013324
 30
0.0
 11
19.30631888737766
 21
4.998497547015201
 31
0.0
  0
LINE
  5
105F6
330
105B3
100
AcDbEntity
  8
0
  6
CONTINUOUS
100
AcDbLine
 10
20.55463198503475
 20
4.423703658438292
 30
0.0
 11
19.50584339500926
 21
5.472492248463787
 31
0.0
  0
LINE
  5
105F7
330
105B3
100
AcDbEntity
  8
0
  6
CONTINUOUS
100
AcDbLine
 10
18.37481191085755
 20
3.909446896294752
 30
0.0
 11
15.59302973632993
 21
6.691229070822371
 31
0.0
  0
LINE
  5
105F8
330
105B3
100
AcDbEntity
  8
0
  6
CONTINUOUS
100
AcDbLine
 10
17.96904084440766
 20
4.988737171824825
 30
0.0
 11
15.77705890739338
 21
7.180719108839104
 31
0.0
  0
LINE
  5
105F9
330
105B3
100
AcDbEntity
  8
0
  6
CONTINUOUS
100
AcDbLine
 10
17.56326977795777
 20
6.068027447354899
 30
0.0
 11
15.96108807845684
 21
7.670209146855838
 31
0.0
  0
LINE
  5
105FA
330
105B3
100
AcDbEntity
  8
0
  6
CONTINUOUS
100
AcDbLine
 10
17.15749871150789
 20
7.147317722884972
 30
0.0
 11
16.14511724952029
 21
8.15969918487257
 31
0.0
  0
LINE
  5
105FB
330
105B3
100
AcDbEntity
  8
0
  6
CONTINUOUS
100
AcDbLine
 10
16.751727645058
 20
8.226607998415046
 30
0.0
 11
16.32914642058374
 21
8.649189222889303
 31
0.0
  0
LINE
  5
105FC
330
105B3
100
AcDbEntity
  8
0
  6
CONTINUOUS
100
AcDbLine
 10
20.75421273580989
 20
4.897642116743345
 30
0.0
 11
19.70536790264086
 21
5.946486949912374
 31
0.0
  0
LINE
  5
105FD
330
105B3
100
AcDbEntity
  8
0
  6
CONTINUOUS
100
AcDbLine
 10
20.95379348658502
 20
5.371580575048398
 30
0.0
 11
19.90489241027246
 21
6.42048165136096
 31
0.0
  0
LINE
  5
105FE
330
105B3
100
AcDbEntity
  8
0
  6
CONTINUOUS
100
AcDbLine
 10
21.15337423736015
 20
5.845519033353452
 30
0.0
 11
20.10441691790406
 21
6.894476352809547
 31
0.0
  0
LINE
  5
105FF
330
105B3
100
AcDbEntity
  8
0
  6
CONTINUOUS
100
AcDbLine
 10
21.35295498813529
 20
6.319457491658505
 30
0.0
 11
20.30394142553566
 21
7.368471054258134
 31
0.0
  0
LINE
  5
10600
330
105B3
100
AcDbEntity
  8
0
  6
CONTINUOUS
100
AcDbLine
 10
21.55253573891042
 20
6.793395949963558
 30
0.0
 11
20.50346593316726
 21
7.842465755706721
 31
0.0
  0
LINE
  5
10601
330
105B3
100
AcDbEntity
  8
0
  6
CONTINUOUS
100
AcDbLine
 10
21.75211648968556
 20
7.267334408268612
 30
0.0
 11
20.70299044079886
 21
8.316460457155308
 31
0.0
  0
LINE
  5
10602
330
105B3
100
AcDbEntity
  8
0
  6
CONTINUOUS
100
AcDbLine
 10
21.95169724046069
 20
7.741272866573663
 30
0.0
 11
20.9298701070431
 21
8.763099999991256
 31
0.0
  0
LINE
  5
10603
330
105B3
100
AcDbEntity
  8
0
  6
CONTINUOUS
100
AcDbLine
 10
22.15127799123582
 20
8.215211324878716
 30
0.0
 11
21.60338931612328
 21
8.763099999991256
 31
0.0
  0
LINE
  5
10604
330
105B3
100
AcDbEntity
  8
0
  6
CONTINUOUS
100
AcDbLine
 10
22.35085874201096
 20
8.689149783183769
 30
0.0
 11
22.27690852520347
 21
8.763099999991255
 31
0.0
  0
ENDBLK
  5
106F6
330
105B3
100
AcDbEntity
  8
0
100
AcDbBlockEnd
  0
BLOCK
  5
106F7
330
10605
100
AcDbEntity
  8
0
100
AcDbBlockBegin
  2
*X34
 70
     1
 10
0.0
 20
0.0
 30
0.0
  3
*X34
  1

  0
LINE
  5
10606
330
10605
100
AcDbEntity
  8
0
  6
CONTINUOUS
100
AcDbLine
 10
23.19462913593892
 20
8.169917934846424
 30
0.0
 11
23.70775465517246
 21
8.683043454079957
 31
0.0
  0
LINE
  5
10607
330
10605
100
AcDbEntity
  8
0
  6
CONTINUOUS
100
AcDbLine
 10
22.64923161835078
 20
6.951001208178088
 30
0.0
 11
23.9159364069932
 21
8.217705996820516
 31
0.0
  0
LINE
  5
10608
330
10605
100
AcDbEntity
  8
0
  6
CONTINUOUS
100
AcDbLine
 10
22.10383410076263
 20
5.732084481509751
 30
0.0
 11
24.12411815881395
 21
7.752368539561078
 31
0.0
  0
LINE
  5
10609
330
10605
100
AcDbEntity
  8
0
  6
CONTINUOUS
100
AcDbLine
 10
21.55843658317447
 20
4.513167754841414
 30
0.0
 11
24.3322999106347
 21
7.287031082301639
 31
0.0
  0
LINE
  5
1060A
330
10605
100
AcDbEntity
  8
0
  6
CONTINUOUS
100
AcDbLine
 10
21.01303906558632
 20
3.294251028173077
 30
0.0
 11
24.54048166245544
 21
6.821693625042199
 31
0.0
  0
LINE
  5
1060B
330
10605
100
AcDbEntity
  8
0
  6
CONTINUOUS
100
AcDbLine
 10
20.46764154799817
 20
2.075334301504738
 30
0.0
 11
23.28571549467848
 21
4.89340824818505
 31
0.0
  0
LINE
  5
1060C
330
10605
100
AcDbEntity
  8
0
  6
CONTINUOUS
100
AcDbLine
 10
19.92224403041002
 20
0.8564175748364002
 30
0.0
 11
22.74075865492779
 21
3.674932199354171
 31
0.0
  0
LINE
  5
1060D
330
10605
100
AcDbEntity
  8
0
  6
CONTINUOUS
100
AcDbLine
 10
23.67305085490148
 20
5.280743608408048
 30
0.0
 11
24.74866341427619
 21
6.356356167782759
 31
0.0
  0
LINE
  5
1060E
330
10605
100
AcDbEntity
  8
0
  6
CONTINUOUS
100
AcDbLine
 10
23.88118970842314
 20
4.815363252849522
 30
0.0
 11
24.95684516609694
 21
5.89101871052332
 31
0.0
  0
LINE
  5
1060F
330
10605
100
AcDbEntity
  8
0
  6
CONTINUOUS
100
AcDbLine
 10
19.73925852647308
 20
-0.0000871381807288
 30
0.0
 11
23.4103456646501
 21
3.670999999996297
 31
0.0
  0
LINE
  5
10610
330
10605
100
AcDbEntity
  8
0
  6
CONTINUOUS
100
AcDbLine
 10
24.0893285619448
 20
4.349982897290997
 30
0.0
 11
25.16502691791769
 21
5.42568125326388
 31
0.0
  0
LINE
  5
10611
330
10605
100
AcDbEntity
  8
0
  6
CONTINUOUS
100
AcDbLine
 10
20.41282099582748
 20
-0.0000438779065108
 30
0.0
 11
21.64944178675636
 21
1.236576913022366
 31
0.0
  0
LINE
  5
10612
330
10605
100
AcDbEntity
  8
0
  6
CONTINUOUS
100
AcDbLine
 10
22.78126487373161
 20
2.36839999999762
 30
0.0
 11
24.08386487373029
 21
3.670999999996297
 31
0.0
  0
LINE
  5
10613
330
10605
100
AcDbEntity
  8
0
  6
CONTINUOUS
100
AcDbLine
 10
24.29746741546646
 20
3.884602541732471
 30
0.0
 11
25.37320866973843
 21
4.960343796004441
 31
0.0
  0
LINE
  5
10614
330
10605
100
AcDbEntity
  8
0
  6
CONTINUOUS
100
AcDbLine
 10
21.08638346518189
 20
-0.0000006176322938
 30
0.0
 11
21.10379033335899
 21
0.0174062505448083
 31
0.0
  0
LINE
  5
10615
330
10605
100
AcDbEntity
  8
0
  6
CONTINUOUS
100
AcDbLine
 10
23.4547840828118
 20
2.36839999999762
 30
0.0
 11
25.58139042155918
 21
4.495006338745002
 31
0.0
  0
LINE
  5
10616
330
10605
100
AcDbEntity
  8
0
  6
CONTINUOUS
100
AcDbLine
 10
29.30199999996933
 20
8.215615917155148
 30
0.0
 11
29.84948408280543
 21
8.763099999991255
 31
0.0
  0
LINE
  5
10617
330
10605
100
AcDbEntity
  8
0
  6
CONTINUOUS
100
AcDbLine
 10
24.12830329189199
 20
2.36839999999762
 30
0.0
 11
25.78957217337993
 21
4.029668881485562
 31
0.0
  0
LINE
  5
10618
330
10605
100
AcDbEntity
  8
0
  6
CONTINUOUS
100
AcDbLine
 10
29.30199999996933
 20
7.54209670807496
 30
0.0
 11
30.52300329188562
 21
8.763099999991255
 31
0.0
  0
LINE
  5
10619
330
10605
100
AcDbEntity
  8
0
  6
CONTINUOUS
100
AcDbLine
 10
24.80182250097217
 20
2.36839999999762
 30
0.0
 11
25.99775392520067
 21
3.564331424226122
 31
0.0
  0
LINE
  5
1061A
330
10605
100
AcDbEntity
  8
0
  6
CONTINUOUS
100
AcDbLine
 10
29.30199999996933
 20
6.868577498994774
 30
0.0
 11
30.74199999996926
 21
8.308577498994712
 31
0.0
  0
LINE
  5
1061B
330
10605
100
AcDbEntity
  8
0
  6
CONTINUOUS
100
AcDbLine
 10
25.13028238392013
 20
2.023340673865392
 30
0.0
 11
26.20593567702142
 21
3.098993966966683
 31
0.0
  0
LINE
  5
1061C
330
10605
100
AcDbEntity
  8
0
  6
CONTINUOUS
100
AcDbLine
 10
25.33838066033617
 20
1.557919741201244
 30
0.0
 11
26.41411742884217
 21
2.633656509707244
 31
0.0
  0
LINE
  5
1061D
330
10605
100
AcDbEntity
  8
0
  6
CONTINUOUS
100
AcDbLine
 10
25.54647893675221
 20
1.092498808537098
 30
0.0
 11
26.62229918066291
 21
2.168319052447804
 31
0.0
  0
LINE
  5
1061E
330
10605
100
AcDbEntity
  8
0
  6
CONTINUOUS
100
AcDbLine
 10
25.75457721316825
 20
0.62707787587295
 30
0.0
 11
26.83048093248366
 21
1.702981595188365
 31
0.0
  0
LINE
  5
1061F
330
10605
100
AcDbEntity
  8
0
  6
CONTINUOUS
100
AcDbLine
 10
29.30199999996933
 20
6.195058289914587
 30
0.0
 11
30.74199999996926
 21
7.635058289914522
 31
0.0
  0
LINE
  5
10620
330
10605
100
AcDbEntity
  8
0
  6
CONTINUOUS
100
AcDbLine
 10
29.30199999996933
 20
5.521539080834401
 30
0.0
 11
30.74199999996926
 21
6.961539080834331
 31
0.0
  0
LINE
  5
10621
330
10605
100
AcDbEntity
  8
0
  6
CONTINUOUS
100
AcDbLine
 10
29.30199999996933
 20
4.848019871754214
 30
0.0
 11
30.74199999996925
 21
6.288019871754143
 31
0.0
  0
LINE
  5
10622
330
10605
100
AcDbEntity
  8
0
  6
CONTINUOUS
100
AcDbLine
 10
29.30199999996933
 20
4.174500662674028
 30
0.0
 11
30.74199999996925
 21
5.614500662673953
 31
0.0
  0
LINE
  5
10623
330
10605
100
AcDbEntity
  8
0
  6
CONTINUOUS
100
AcDbLine
 10
25.96267548958429
 20
0.1616569432088024
 30
0.0
 11
27.18411854636669
 21
1.383099999991207
 31
0.0
  0
LINE
  5
10624
330
10605
100
AcDbEntity
  8
0
  6
CONTINUOUS
100
AcDbLine
 10
29.30199999996933
 20
3.500981453593841
 30
0.0
 11
30.74199999996925
 21
4.940981453593762
 31
0.0
  0
LINE
  5
10625
330
10605
100
AcDbEntity
  8
0
  6
CONTINUOUS
100
AcDbLine
 10
26.50763775544691
 20
0.0330999999912356
 30
0.0
 11
27.85763775544689
 21
1.383099999991223
 31
0.0
  0
LINE
  5
10626
330
10605
100
AcDbEntity
  8
0
  6
CONTINUOUS
100
AcDbLine
 10
29.30199999996933
 20
2.827462244513656
 30
0.0
 11
30.74199999996925
 21
4.267462244513574
 31
0.0
  0
LINE
  5
10627
330
10605
100
AcDbEntity
  8
0
  6
CONTINUOUS
100
AcDbLine
 10
27.18115696452709
 20
0.0330999999912356
 30
0.0
 11
28.55073879889363
 21
1.402681834357775
 31
0.0
  0
LINE
  5
10628
330
10605
100
AcDbEntity
  8
0
  6
CONTINUOUS
100
AcDbLine
 10
29.28241816560272
 20
2.134361201066866
 30
0.0
 11
30.74199999996924
 21
3.593943035433383
 31
0.0
  0
LINE
  5
10629
330
10605
100
AcDbEntity
  8
0
  6
CONTINUOUS
100
AcDbLine
 10
27.85467617360728
 20
0.0330999999912356
 30
0.0
 11
30.74199999996924
 21
2.920423826353195
 31
0.0
  0
LINE
  5
1062A
330
10605
100
AcDbEntity
  8
0
  6
CONTINUOUS
100
AcDbLine
 10
28.53897559587887
 20
0.0438802131826428
 30
0.0
 11
30.73121978677781
 21
2.236124404081585
 31
0.0
  0
LINE
  5
1062B
330
10605
100
AcDbEntity
  8
0
  6
CONTINUOUS
100
AcDbLine
 10
29.45140055588722
 20
0.2827859641107988
 30
0.0
 11
30.49231403584965
 21
1.323699444073236
 31
0.0
  0
LINE
  5
1062C
330
10605
100
AcDbEntity
  8
0
  6
CONTINUOUS
100
AcDbLine
 10
19.59027867740337
 20
-0.0000967065718083
 30
0.0
 11
19.55485265190471
 21
0.035329318926844
 31
0.0
  0
LINE
  5
1062D
330
10605
100
AcDbEntity
  8
0
  6
CONTINUOUS
100
AcDbLine
 10
20.26375463176586
 20
-0.0000534518541091
 30
0.0
 11
19.76305575737534
 21
0.5006454225364014
 31
0.0
  0
LINE
  5
1062E
330
10605
100
AcDbEntity
  8
0
  6
CONTINUOUS
100
AcDbLine
 10
20.93723058612834
 20
-0.0000101971364099
 30
0.0
 11
19.97125886284597
 21
0.965961526145958
 31
0.0
  0
LINE
  5
1062F
330
10605
100
AcDbEntity
  8
0
  6
CONTINUOUS
100
AcDbLine
 10
21.25514828313686
 20
0.355591314935257
 30
0.0
 11
20.1794619683166
 21
1.431277629755512
 31
0.0
  0
LINE
  5
10630
330
10605
100
AcDbEntity
  8
0
  6
CONTINUOUS
100
AcDbLine
 10
21.46338838394921
 20
0.8208704232030986
 30
0.0
 11
20.38766507378723
 21
1.896593733365069
 31
0.0
  0
LINE
  5
10631
330
10605
100
AcDbEntity
  8
0
  6
CONTINUOUS
100
AcDbLine
 10
21.67162848476155
 20
1.28614953147094
 30
0.0
 11
20.59586817925786
 21
2.361909836974626
 31
0.0
  0
LINE
  5
10632
330
10605
100
AcDbEntity
  8
0
  6
CONTINUOUS
100
AcDbLine
 10
21.8798685855739
 20
1.751428639738782
 30
0.0
 11
20.80407128472849
 21
2.827225940584183
 31
0.0
  0
LINE
  5
10633
330
10605
100
AcDbEntity
  8
0
  6
CONTINUOUS
100
AcDbLine
 10
22.08810868638624
 20
2.216707748006623
 30
0.0
 11
21.01227439019912
 21
3.292542044193739
 31
0.0
  0
LINE
  5
10634
330
10605
100
AcDbEntity
  8
0
  6
CONTINUOUS
100
AcDbLine
 10
22.60993564347543
 20
2.36839999999762
 30
0.0
 11
21.22047749566975
 21
3.757858147803296
 31
0.0
  0
LINE
  5
10635
330
10605
100
AcDbEntity
  8
0
  6
CONTINUOUS
100
AcDbLine
 10
23.28345485255561
 20
2.36839999999762
 30
0.0
 11
21.42868060114038
 21
4.223174251412853
 31
0.0
  0
LINE
  5
10636
330
10605
100
AcDbEntity
  8
0
  6
CONTINUOUS
100
AcDbLine
 10
26.29227406164219
 20
0.0330999999912356
 30
0.0
 11
25.80009199592872
 21
0.5252820657046957
 31
0.0
  0
LINE
  5
10637
330
10605
100
AcDbEntity
  8
0
  6
CONTINUOUS
100
AcDbLine
 10
23.9569740616358
 20
2.36839999999762
 30
0.0
 11
21.63688370661101
 21
4.688490355022409
 31
0.0
  0
LINE
  5
10638
330
10605
100
AcDbEntity
  8
0
  6
CONTINUOUS
100
AcDbLine
 10
26.96579327072237
 20
0.0330999999912356
 30
0.0
 11
25.2554132311971
 21
1.743480039516508
 31
0.0
  0
LINE
  5
10639
330
10605
100
AcDbEntity
  8
0
  6
CONTINUOUS
100
AcDbLine
 10
24.63049327071599
 20
2.36839999999762
 30
0.0
 11
23.32789327071731
 21
3.670999999996297
 31
0.0
  0
LINE
  5
1063A
330
10605
100
AcDbEntity
  8
0
  6
CONTINUOUS
100
AcDbLine
 10
22.92098674744635
 20
4.077906523267254
 30
0.0
 11
21.84508681208164
 21
5.153806458631966
 31
0.0
  0
LINE
  5
1063B
330
10605
100
AcDbEntity
  8
0
  6
CONTINUOUS
100
AcDbLine
 10
27.63931247980256
 20
0.0330999999912356
 30
0.0
 11
24.0014124797975
 21
3.670999999996297
 31
0.0
  0
LINE
  5
1063C
330
10605
100
AcDbEntity
  8
0
  6
CONTINUOUS
100
AcDbLine
 10
23.129125600968
 20
4.5432868788258
 30
0.0
 11
22.05328991755227
 21
5.619122562241522
 31
0.0
  0
LINE
  5
1063D
330
10605
100
AcDbEntity
  8
0
  6
CONTINUOUS
100
AcDbLine
 10
28.31283168888275
 20
0.0330999999912356
 30
0.0
 11
24.16488385994816
 21
4.181047828925828
 31
0.0
  0
LINE
  5
1063E
330
10605
100
AcDbEntity
  8
0
  6
CONTINUOUS
100
AcDbLine
 10
23.33726445448964
 20
5.008667234384345
 30
0.0
 11
22.2614930230229
 21
6.084438665851079
 31
0.0
  0
LINE
  5
1063F
330
10605
100
AcDbEntity
  8
0
  6
CONTINUOUS
100
AcDbLine
 10
28.92085740005492
 20
0.0985934978992438
 30
0.0
 11
27.63635089796295
 21
1.383099999991217
 31
0.0
  0
LINE
  5
10640
330
10605
100
AcDbEntity
  8
0
  6
CONTINUOUS
100
AcDbLine
 10
26.43704649509776
 20
2.582404402856405
 30
0.0
 11
23.61992702019732
 21
5.399523877756844
 31
0.0
  0
LINE
  5
10641
330
10605
100
AcDbEntity
  8
0
  6
CONTINUOUS
100
AcDbLine
 10
23.54540330801128
 20
5.47404758994289
 30
0.0
 11
22.46969612849353
 21
6.549754769460635
 31
0.0
  0
LINE
  5
10642
330
10605
100
AcDbEntity
  8
0
  6
CONTINUOUS
100
AcDbLine
 10
29.42225615078443
 20
0.2707139562499279
 30
0.0
 11
28.30987010704312
 21
1.383099999991234
 31
0.0
  0
LINE
  5
10643
330
10605
100
AcDbEntity
  8
0
  6
CONTINUOUS
100
AcDbLine
 10
25.89179548232307
 20
3.801174624711282
 30
0.0
 11
22.67789923396416
 21
7.015070873070191
 31
0.0
  0
LINE
  5
10644
330
10605
100
AcDbEntity
  8
0
  6
CONTINUOUS
100
AcDbLine
 10
29.83624534690007
 20
0.5302439692144705
 30
0.0
 11
28.85811781497101
 21
1.508371501143527
 31
0.0
  0
LINE
  5
10645
330
10605
100
AcDbEntity
  8
0
  6
CONTINUOUS
100
AcDbLine
 10
25.34654446954838
 20
5.01994484656616
 30
0.0
 11
22.88610233943479
 21
7.480386976679748
 31
0.0
  0
LINE
  5
10646
330
10605
100
AcDbEntity
  8
0
  6
CONTINUOUS
100
AcDbLine
 10
30.17865975401872
 20
0.8613487711760022
 30
0.0
 11
29.18888744090175
 21
1.851121084292977
 31
0.0
  0
LINE
  5
10647
330
10605
100
AcDbEntity
  8
0
  6
CONTINUOUS
100
AcDbLine
 10
24.80129345677369
 20
6.238715068421037
 30
0.0
 11
23.09430544490542
 21
7.945703080289305
 31
0.0
  0
LINE
  5
10648
330
10605
100
AcDbEntity
  8
0
  6
CONTINUOUS
100
AcDbLine
 10
30.45496647202376
 20
1.258561262251155
 30
0.0
 11
29.30199999996933
 21
2.411527734305588
 31
0.0
  0
LINE
  5
10649
330
10605
100
AcDbEntity
  8
0
  6
CONTINUOUS
100
AcDbLine
 10
24.256042443999
 20
7.457485290275915
 30
0.0
 11
23.30250855037605
 21
8.411019183898862
 31
0.0
  0
LINE
  5
1064A
330
10605
100
AcDbEntity
  8
0
  6
CONTINUOUS
100
AcDbLine
 10
30.64868582078271
 20
1.738361122572387
 30
0.0
 11
29.30199999996933
 21
3.085046943385775
 31
0.0
  0
LINE
  5
1064B
330
10605
100
AcDbEntity
  8
0
  6
CONTINUOUS
100
AcDbLine
 10
23.71079143122431
 20
8.676255512130794
 30
0.0
 11
23.51071165584668
 21
8.876335287508416
 31
0.0
  0
LINE
  5
1064C
330
10605
100
AcDbEntity
  8
0
  6
CONTINUOUS
100
AcDbLine
 10
30.73802122914428
 20
2.322544923291007
 30
0.0
 11
29.30199999996933
 21
3.758566152465961
 31
0.0
  0
LINE
  5
1064D
330
10605
100
AcDbEntity
  8
0
  6
CONTINUOUS
100
AcDbLine
 10
30.74199999996924
 20
2.992085361546236
 30
0.0
 11
29.30199999996933
 21
4.432085361546148
 31
0.0
  0
LINE
  5
1064E
330
10605
100
AcDbEntity
  8
0
  6
CONTINUOUS
100
AcDbLine
 10
30.74199999996924
 20
3.665604570626419
 30
0.0
 11
29.30199999996933
 21
5.105604570626333
 31
0.0
  0
LINE
  5
1064F
330
10605
100
AcDbEntity
  8
0
  6
CONTINUOUS
100
AcDbLine
 10
30.74199999996925
 20
4.339123779706602
 30
0.0
 11
29.30199999996933
 21
5.77912377970652
 31
0.0
  0
LINE
  5
10650
330
10605
100
AcDbEntity
  8
0
  6
CONTINUOUS
100
AcDbLine
 10
30.74199999996925
 20
5.012642988786785
 30
0.0
 11
29.30199999996933
 21
6.452642988786707
 31
0.0
  0
LINE
  5
10651
330
10605
100
AcDbEntity
  8
0
  6
CONTINUOUS
100
AcDbLine
 10
30.74199999996925
 20
5.68616219786697
 30
0.0
 11
29.30199999996933
 21
7.126162197866894
 31
0.0
  0
LINE
  5
10652
330
10605
100
AcDbEntity
  8
0
  6
CONTINUOUS
100
AcDbLine
 10
30.74199999996925
 20
6.359681406947153
 30
0.0
 11
29.30199999996933
 21
7.799681406947081
 31
0.0
  0
LINE
  5
10653
330
10605
100
AcDbEntity
  8
0
  6
CONTINUOUS
100
AcDbLine
 10
30.74199999996926
 20
7.033200616027337
 30
0.0
 11
29.30199999996933
 21
8.473200616027269
 31
0.0
  0
LINE
  5
10654
330
10605
100
AcDbEntity
  8
0
  6
CONTINUOUS
100
AcDbLine
 10
30.74199999996926
 20
7.706719825107518
 30
0.0
 11
29.68561982508552
 21
8.763099999991255
 31
0.0
  0
LINE
  5
10655
330
10605
100
AcDbEntity
  8
0
  6
CONTINUOUS
100
AcDbLine
 10
30.74199999996926
 20
8.380239034187703
 30
0.0
 11
30.35913903416571
 21
8.763099999991255
 31
0.0
  0
ENDBLK
  5
106F8
330
10605
100
AcDbEntity
  8
0
100
AcDbBlockEnd
  0
BLOCK
  5
106F9
330
10656
100
AcDbEntity
  8
0
100
AcDbBlockBegin
  2
*X35
 70
     1
 10
0.0
 20
0.0
 30
0.0
  3
*X35
  1

  0
LINE
  5
10657
330
10656
100
AcDbEntity
  8
0
  6
CONTINUOUS
100
AcDbLine
 10
31.64199999996833
 20
8.535058289913598
 30
0.0
 11
31.87004171004599
 21
8.763099999991255
 31
0.0
  0
LINE
  5
10658
330
10656
100
AcDbEntity
  8
0
  6
CONTINUOUS
100
AcDbLine
 10
31.64199999996833
 20
7.861539080833412
 30
0.0
 11
32.54356091912618
 21
8.763099999991255
 31
0.0
  0
LINE
  5
10659
330
10656
100
AcDbEntity
  8
0
  6
CONTINUOUS
100
AcDbLine
 10
31.64199999996833
 20
7.188019871753226
 30
0.0
 11
33.08199999996839
 21
8.628019871753281
 31
0.0
  0
LINE
  5
1065A
330
10656
100
AcDbEntity
  8
0
  6
CONTINUOUS
100
AcDbLine
 10
31.64199999996833
 20
6.51450066267304
 30
0.0
 11
33.08199999996839
 21
7.954500662673095
 31
0.0
  0
LINE
  5
1065B
330
10656
100
AcDbEntity
  8
0
  6
CONTINUOUS
100
AcDbLine
 10
31.64199999996833
 20
5.840981453592853
 30
0.0
 11
33.08199999996839
 21
7.280981453592908
 31
0.0
  0
LINE
  5
1065C
330
10656
100
AcDbEntity
  8
0
  6
CONTINUOUS
100
AcDbLine
 10
31.64199999996833
 20
5.167462244512667
 30
0.0
 11
33.08199999996839
 21
6.607462244512721
 31
0.0
  0
LINE
  5
1065D
330
10656
100
AcDbEntity
  8
0
  6
CONTINUOUS
100
AcDbLine
 10
31.64199999996833
 20
4.493943035432481
 30
0.0
 11
33.08199999996839
 21
5.933943035432535
 31
0.0
  0
LINE
  5
1065E
330
10656
100
AcDbEntity
  8
0
  6
CONTINUOUS
100
AcDbLine
 10
31.64199999996833
 20
3.820423826352293
 30
0.0
 11
33.08199999996839
 21
5.260423826352348
 31
0.0
  0
LINE
  5
1065F
330
10656
100
AcDbEntity
  8
0
  6
CONTINUOUS
100
AcDbLine
 10
31.64199999996833
 20
3.146904617272106
 30
0.0
 11
33.08199999996839
 21
4.586904617272161
 31
0.0
  0
LINE
  5
10660
330
10656
100
AcDbEntity
  8
0
  6
CONTINUOUS
100
AcDbLine
 10
36.23199999996837
 20
8.410423826352325
 30
0.0
 11
36.5846761736073
 21
8.763099999991255
 31
0.0
  0
LINE
  5
10661
330
10656
100
AcDbEntity
  8
0
  6
CONTINUOUS
100
AcDbLine
 10
36.23199999996837
 20
7.73690461727214
 30
0.0
 11
37.25819538268748
 21
8.763099999991255
 31
0.0
  0
LINE
  5
10662
330
10656
100
AcDbEntity
  8
0
  6
CONTINUOUS
100
AcDbLine
 10
31.64257403601376
 20
2.473959444237348
 30
0.0
 11
33.08199999996839
 21
3.913385408191974
 31
0.0
  0
LINE
  5
10663
330
10656
100
AcDbEntity
  8
0
  6
CONTINUOUS
100
AcDbLine
 10
36.23199999996837
 20
7.063385408191953
 30
0.0
 11
37.67199999996831
 21
8.503385408191894
 31
0.0
  0
LINE
  5
10664
330
10656
100
AcDbEntity
  8
0
  6
CONTINUOUS
100
AcDbLine
 10
31.72013636841932
 20
1.87800256756272
 30
0.0
 11
33.08199999996839
 21
3.239866199111788
 31
0.0
  0
LINE
  5
10665
330
10656
100
AcDbEntity
  8
0
  6
CONTINUOUS
100
AcDbLine
 10
36.23199999996837
 20
6.389866199111767
 30
0.0
 11
37.67199999996831
 21
7.829866199111708
 31
0.0
  0
LINE
  5
10666
330
10656
100
AcDbEntity
  8
0
  6
CONTINUOUS
100
AcDbLine
 10
31.89042734314753
 20
1.374774333210744
 30
0.0
 11
33.08199999996839
 21
2.566346990031601
 31
0.0
  0
LINE
  5
10667
330
10656
100
AcDbEntity
  8
0
  6
CONTINUOUS
100
AcDbLine
 10
36.23199999996837
 20
5.71634699003158
 30
0.0
 11
37.67199999996831
 21
7.156346990031521
 31
0.0
  0
LINE
  5
10668
330
10656
100
AcDbEntity
  8
0
  6
CONTINUOUS
100
AcDbLine
 10
32.14210568064475
 20
0.952933461627778
 30
0.0
 11
33.18745552475986
 21
1.998283305742888
 31
0.0
  0
LINE
  5
10669
330
10656
100
AcDbEntity
  8
0
  6
CONTINUOUS
100
AcDbLine
 10
36.23199999996837
 20
5.042827780951393
 30
0.0
 11
37.67199999996831
 21
6.482827780951334
 31
0.0
  0
LINE
  5
1066A
330
10656
100
AcDbEntity
  8
0
  6
CONTINUOUS
100
AcDbLine
 10
32.45820639400955
 20
0.5955149659123915
 30
0.0
 11
33.47242681921943
 21
1.60973539112227
 31
0.0
  0
LINE
  5
1066B
330
10656
100
AcDbEntity
  8
0
  6
CONTINUOUS
100
AcDbLine
 10
36.23199999996837
 20
4.369308571871207
 30
0.0
 11
37.67199999996831
 21
5.809308571871147
 31
0.0
  0
LINE
  5
1066C
330
10656
100
AcDbEntity
  8
0
  6
CONTINUOUS
100
AcDbLine
 10
32.83432456621412
 20
0.2981139290367771
 30
0.0
 11
33.89722476612215
 21
1.361014128944803
 31
0.0
  0
LINE
  5
1066D
330
10656
100
AcDbEntity
  8
0
  6
CONTINUOUS
100
AcDbLine
 10
36.23199999996837
 20
3.69578936279102
 30
0.0
 11
37.67199999996831
 21
5.135789362790962
 31
0.0
  0
LINE
  5
1066E
330
10656
100
AcDbEntity
  8
0
  6
CONTINUOUS
100
AcDbLine
 10
33.2711633111245
 20
0.0614334648669672
 30
0.0
 11
34.43247338014423
 21
1.222743533886696
 31
0.0
  0
LINE
  5
1066F
330
10656
100
AcDbEntity
  8
0
  6
CONTINUOUS
100
AcDbLine
 10
36.23199999996837
 20
3.022270153710834
 30
0.0
 11
37.67199999996831
 21
4.462270153710775
 31
0.0
  0
LINE
  5
10670
330
10656
100
AcDbEntity
  8
0
  6
CONTINUOUS
100
AcDbLine
 10
33.76515245874577
 20
-0.1180965965919523
 30
0.0
 11
35.1587445516215
 21
1.27549549628378
 31
0.0
  0
LINE
  5
10671
330
10656
100
AcDbEntity
  8
0
  6
CONTINUOUS
100
AcDbLine
 10
36.21639478609585
 20
2.333145730758136
 30
0.0
 11
37.67199999996831
 21
3.788750944630588
 31
0.0
  0
LINE
  5
10672
330
10656
100
AcDbEntity
  8
0
  6
CONTINUOUS
100
AcDbLine
 10
34.34060583368432
 20
-0.2161624307335863
 30
0.0
 11
37.67199999996831
 21
3.115231735550401
 31
0.0
  0
LINE
  5
10673
330
10656
100
AcDbEntity
  8
0
  6
CONTINUOUS
100
AcDbLine
 10
35.01698193613905
 20
-0.2133055373590427
 30
0.0
 11
37.66876712070525
 21
2.438479647207154
 31
0.0
  0
LINE
  5
10674
330
10656
100
AcDbEntity
  8
0
  6
CONTINUOUS
100
AcDbLine
 10
35.90743367693304
 20
0.0036269943547609
 30
0.0
 11
37.51723902192366
 21
1.613432339345381
 31
0.0
  0
LINE
  5
10675
330
10656
100
AcDbEntity
  8
0
  6
CONTINUOUS
100
AcDbLine
 10
32.55309425579761
 20
0.5074718966376706
 30
0.0
 11
32.27784730925847
 21
0.7827188431768102
 31
0.0
  0
LINE
  5
10676
330
10656
100
AcDbEntity
  8
0
  6
CONTINUOUS
100
AcDbLine
 10
33.87496468909684
 20
-0.1408793275813673
 30
0.0
 11
31.67993083278052
 21
2.054154528734943
 31
0.0
  0
LINE
  5
10677
330
10656
100
AcDbEntity
  8
0
  6
CONTINUOUS
100
AcDbLine
 10
34.64362813207632
 20
-0.2360235614806649
 30
0.0
 11
31.64199999996833
 21
2.765604570627322
 31
0.0
  0
LINE
  5
10678
330
10656
100
AcDbEntity
  8
0
  6
CONTINUOUS
100
AcDbLine
 10
35.25801106796118
 20
-0.1768872882853429
 30
0.0
 11
31.64199999996833
 21
3.439123779707508
 31
0.0
  0
LINE
  5
10679
330
10656
100
AcDbEntity
  8
0
  6
CONTINUOUS
100
AcDbLine
 10
35.79065650332146
 20
-0.0360135145654361
 30
0.0
 11
34.54143210838231
 21
1.213210880373721
 31
0.0
  0
LINE
  5
1067A
330
10656
100
AcDbEntity
  8
0
  6
CONTINUOUS
100
AcDbLine
 10
33.08199999996839
 20
2.67264298878764
 30
0.0
 11
31.64199999996833
 21
4.112642988787695
 31
0.0
  0
LINE
  5
1067B
330
10656
100
AcDbEntity
  8
0
  6
CONTINUOUS
100
AcDbLine
 10
36.25975597779143
 20
0.1684062200447833
 30
0.0
 11
35.15395110240023
 21
1.274211095435983
 31
0.0
  0
LINE
  5
1067C
330
10656
100
AcDbEntity
  8
0
  6
CONTINUOUS
100
AcDbLine
 10
33.08199999996839
 20
3.346162197867826
 30
0.0
 11
31.64199999996833
 21
4.786162197867881
 31
0.0
  0
LINE
  5
1067D
330
10656
100
AcDbEntity
  8
0
  6
CONTINUOUS
100
AcDbLine
 10
36.67226329638774
 20
0.4294181105286579
 30
0.0
 11
35.63766478748767
 21
1.464016619428737
 31
0.0
  0
LINE
  5
1067E
330
10656
100
AcDbEntity
  8
0
  6
CONTINUOUS
100
AcDbLine
 10
33.08199999996839
 20
4.019681406948012
 30
0.0
 11
31.64199999996833
 21
5.459681406948068
 31
0.0
  0
LINE
  5
1067F
330
10656
100
AcDbEntity
  8
0
  6
CONTINUOUS
100
AcDbLine
 10
37.01677749710036
 20
0.7584231188962329
 30
0.0
 11
35.99563422741351
 21
1.779566388583076
 31
0.0
  0
LINE
  5
10680
330
10656
100
AcDbEntity
  8
0
  6
CONTINUOUS
100
AcDbLine
 10
33.08199999996839
 20
4.693200616028199
 30
0.0
 11
31.64199999996833
 21
6.133200616028255
 31
0.0
  0
LINE
  5
10681
330
10656
100
AcDbEntity
  8
0
  6
CONTINUOUS
100
AcDbLine
 10
37.29859977568887
 20
1.1501200493879
 30
0.0
 11
36.20680593341555
 21
2.241913891661226
 31
0.0
  0
LINE
  5
10682
330
10656
100
AcDbEntity
  8
0
  6
CONTINUOUS
100
AcDbLine
 10
33.08199999996839
 20
5.366719825108386
 30
0.0
 11
31.64199999996833
 21
6.80671982510844
 31
0.0
  0
LINE
  5
10683
330
10656
100
AcDbEntity
  8
0
  6
CONTINUOUS
100
AcDbLine
 10
37.5148623517228
 20
1.607376682434161
 30
0.0
 11
36.23199999996837
 21
2.890239034188594
 31
0.0
  0
LINE
  5
10684
330
10656
100
AcDbEntity
  8
0
  6
CONTINUOUS
100
AcDbLine
 10
33.08199999996839
 20
6.040239034188573
 30
0.0
 11
31.64199999996833
 21
7.480239034188627
 31
0.0
  0
LINE
  5
10685
330
10656
100
AcDbEntity
  8
0
  6
CONTINUOUS
100
AcDbLine
 10
37.64705163358367
 20
2.148706609653477
 30
0.0
 11
36.23199999996837
 21
3.56375824326878
 31
0.0
  0
LINE
  5
10686
330
10656
100
AcDbEntity
  8
0
  6
CONTINUOUS
100
AcDbLine
 10
33.08199999996839
 20
6.713758243268758
 30
0.0
 11
31.64199999996833
 21
8.153758243268815
 31
0.0
  0
LINE
  5
10687
330
10656
100
AcDbEntity
  8
0
  6
CONTINUOUS
100
AcDbLine
 10
37.67199999996831
 20
2.797277452349026
 30
0.0
 11
36.23199999996837
 21
4.237277452348967
 31
0.0
  0
LINE
  5
10688
330
10656
100
AcDbEntity
  8
0
  6
CONTINUOUS
100
AcDbLine
 10
37.67199999996831
 20
3.470796661429213
 30
0.0
 11
36.23199999996837
 21
4.910796661429154
 31
0.0
  0
LINE
  5
10689
330
10656
100
AcDbEntity
  8
0
  6
CONTINUOUS
100
AcDbLine
 10
37.67199999996831
 20
4.144315870509399
 30
0.0
 11
36.23199999996837
 21
5.58431587050934
 31
0.0
  0
LINE
  5
1068A
330
10656
100
AcDbEntity
  8
0
  6
CONTINUOUS
100
AcDbLine
 10
33.08199999996839
 20
7.387277452348945
 30
0.0
 11
31.70617745232608
 21
8.763099999991255
 31
0.0
  0
LINE
  5
1068B
330
10656
100
AcDbEntity
  8
0
  6
CONTINUOUS
100
AcDbLine
 10
33.08199999996839
 20
8.060796661429132
 30
0.0
 11
32.37969666140626
 21
8.763099999991255
 31
0.0
  0
LINE
  5
1068C
330
10656
100
AcDbEntity
  8
0
  6
CONTINUOUS
100
AcDbLine
 10
33.08199999996839
 20
8.734315870509318
 30
0.0
 11
33.05321587048645
 21
8.763099999991255
 31
0.0
  0
LINE
  5
1068D
330
10656
100
AcDbEntity
  8
0
  6
CONTINUOUS
100
AcDbLine
 10
37.67199999996831
 20
4.817835079589585
 30
0.0
 11
36.23199999996837
 21
6.257835079589526
 31
0.0
  0
LINE
  5
1068E
330
10656
100
AcDbEntity
  8
0
  6
CONTINUOUS
100
AcDbLine
 10
37.67199999996831
 20
5.491354288669771
 30
0.0
 11
36.23199999996837
 21
6.931354288669713
 31
0.0
  0
LINE
  5
1068F
330
10656
100
AcDbEntity
  8
0
  6
CONTINUOUS
100
AcDbLine
 10
37.67199999996831
 20
6.164873497749958
 30
0.0
 11
36.23199999996837
 21
7.6048734977499
 31
0.0
  0
LINE
  5
10690
330
10656
100
AcDbEntity
  8
0
  6
CONTINUOUS
100
AcDbLine
 10
37.67199999996831
 20
6.838392706830144
 30
0.0
 11
36.23199999996837
 21
8.278392706830086
 31
0.0
  0
LINE
  5
10691
330
10656
100
AcDbEntity
  8
0
  6
CONTINUOUS
100
AcDbLine
 10
37.67199999996831
 20
7.511911915910332
 30
0.0
 11
36.42081191588738
 21
8.763099999991255
 31
0.0
  0
LINE
  5
10692
330
10656
100
AcDbEntity
  8
0
  6
CONTINUOUS
100
AcDbLine
 10
37.67199999996831
 20
8.185431124990519
 30
0.0
 11
37.09433112496757
 21
8.763099999991255
 31
0.0
  0
ENDBLK
  5
106FA
330
10656
100
AcDbEntity
  8
0
100
AcDbBlockEnd
  0
BLOCK
  5
106FB
330
10693
100
AcDbEntity
  8
0
100
AcDbBlockBegin
  2
*X36
 70
     1
 10
0.0
 20
0.0
 30
0.0
  3
*X36
  1

  0
LINE
  5
10694
330
10693
100
AcDbEntity
  8
0
  6
CONTINUOUS
100
AcDbLine
 10
38.60499999996136
 20
8.762866199104765
 30
0.0
 11
38.71672554182345
 21
8.874591740966855
 31
0.0
  0
LINE
  5
10695
330
10693
100
AcDbEntity
  8
0
  6
CONTINUOUS
100
AcDbLine
 10
38.60499999996136
 20
8.089346990024577
 30
0.0
 11
39.03418785440363
 21
8.518534844466847
 31
0.0
  0
LINE
  5
10696
330
10693
100
AcDbEntity
  8
0
  6
CONTINUOUS
100
AcDbLine
 10
38.60499999996136
 20
7.41582778094439
 30
0.0
 11
39.35165016698382
 21
8.16247794796684
 31
0.0
  0
LINE
  5
10697
330
10693
100
AcDbEntity
  8
0
  6
CONTINUOUS
100
AcDbLine
 10
38.60499999996136
 20
6.742308571864204
 30
0.0
 11
39.66911247956399
 21
7.806421051466834
 31
0.0
  0
LINE
  5
10698
330
10693
100
AcDbEntity
  8
0
  6
CONTINUOUS
100
AcDbLine
 10
38.60499999996136
 20
6.068789362784018
 30
0.0
 11
39.98657479214418
 21
7.450364154966827
 31
0.0
  0
LINE
  5
10699
330
10693
100
AcDbEntity
  8
0
  6
CONTINUOUS
100
AcDbLine
 10
38.60499999996136
 20
5.395270153703832
 30
0.0
 11
40.30403710472435
 21
7.09430725846682
 31
0.0
  0
LINE
  5
1069A
330
10693
100
AcDbEntity
  8
0
  6
CONTINUOUS
100
AcDbLine
 10
38.60499999996136
 20
4.721750944623645
 30
0.0
 11
40.62149941730453
 21
6.738250361966813
 31
0.0
  0
LINE
  5
1069B
330
10693
100
AcDbEntity
  8
0
  6
CONTINUOUS
100
AcDbLine
 10
38.60499999996136
 20
4.048231735543458
 30
0.0
 11
40.93896172988471
 21
6.382193465466806
 31
0.0
  0
LINE
  5
1069C
330
10693
100
AcDbEntity
  8
0
  6
CONTINUOUS
100
AcDbLine
 10
38.60499999996136
 20
3.374712526463272
 30
0.0
 11
40.02599999995994
 21
4.795712526461843
 31
0.0
  0
LINE
  5
1069D
330
10693
100
AcDbEntity
  8
0
  6
CONTINUOUS
100
AcDbLine
 10
38.60499999996136
 20
2.701193317383085
 30
0.0
 11
40.02599999995994
 21
4.122193317381657
 31
0.0
  0
LINE
  5
1069E
330
10693
100
AcDbEntity
  8
0
  6
CONTINUOUS
100
AcDbLine
 10
40.28339754687704
 20
5.053110073378947
 30
0.0
 11
41.25642404246489
 21
6.026136568966799
 31
0.0
  0
LINE
  5
1069F
330
10693
100
AcDbEntity
  8
0
  6
CONTINUOUS
100
AcDbLine
 10
40.60085985945722
 20
4.697053176878939
 30
0.0
 11
41.57388635504507
 21
5.670079672466793
 31
0.0
  0
LINE
  5
106A0
330
10693
100
AcDbEntity
  8
0
  6
CONTINUOUS
100
AcDbLine
 10
43.57899999995641
 20
8.348712526458318
 30
0.0
 11
43.99338747348935
 21
8.763099999991255
 31
0.0
  0
LINE
  5
106A1
330
10693
100
AcDbEntity
  8
0
  6
CONTINUOUS
100
AcDbLine
 10
43.57899999995641
 20
7.675193317378131
 30
0.0
 11
44.66690668256953
 21
8.763099999991255
 31
0.0
  0
LINE
  5
106A2
330
10693
100
AcDbEntity
  8
0
  6
CONTINUOUS
100
AcDbLine
 10
38.60499999996136
 20
2.027674108302898
 30
0.0
 11
40.02599999995994
 21
3.44867410830147
 31
0.0
  0
LINE
  5
106A3
330
10693
100
AcDbEntity
  8
0
  6
CONTINUOUS
100
AcDbLine
 10
38.60499999996136
 20
1.354154899222712
 30
0.0
 11
40.02599999995994
 21
2.775154899221284
 31
0.0
  0
LINE
  5
106A4
330
10693
100
AcDbEntity
  8
0
  6
CONTINUOUS
100
AcDbLine
 10
38.60499999996136
 20
0.6806356901425255
 30
0.0
 11
40.02599999995994
 21
2.101635690141098
 31
0.0
  0
LINE
  5
106A5
330
10693
100
AcDbEntity
  8
0
  6
CONTINUOUS
100
AcDbLine
 10
38.60499999996136
 20
0.0071164810623383
 30
0.0
 11
40.02599999995994
 21
1.428116481060911
 31
0.0
  0
LINE
  5
106A6
330
10693
100
AcDbEntity
  8
0
  6
CONTINUOUS
100
AcDbLine
 10
40.9183221720374
 20
4.340996280378933
 30
0.0
 11
41.89134866762525
 21
5.314022775966786
 31
0.0
  0
LINE
  5
106A7
330
10693
100
AcDbEntity
  8
0
  6
CONTINUOUS
100
AcDbLine
 10
41.23578448461758
 20
3.984939383878926
 30
0.0
 11
42.20881098020543
 21
4.957965879466778
 31
0.0
  0
LINE
  5
106A8
330
10693
100
AcDbEntity
  8
0
  6
CONTINUOUS
100
AcDbLine
 10
41.55324679719776
 20
3.628882487378919
 30
0.0
 11
42.52627329278561
 21
4.601908982966772
 31
0.0
  0
LINE
  5
106A9
330
10693
100
AcDbEntity
  8
0
  6
CONTINUOUS
100
AcDbLine
 10
41.87070910977793
 20
3.272825590878912
 30
0.0
 11
42.84373560536579
 21
4.245852086466765
 31
0.0
  0
LINE
  5
106AA
330
10693
100
AcDbEntity
  8
0
  6
CONTINUOUS
100
AcDbLine
 10
43.57899999995641
 20
7.001674108297943
 30
0.0
 11
44.99999999995498
 21
8.422674108296516
 31
0.0
  0
LINE
  5
106AB
330
10693
100
AcDbEntity
  8
0
  6
CONTINUOUS
100
AcDbLine
 10
43.57899999995641
 20
6.328154899217758
 30
0.0
 11
44.99999999995498
 21
7.749154899216329
 31
0.0
  0
LINE
  5
106AC
330
10693
100
AcDbEntity
  8
0
  6
CONTINUOUS
100
AcDbLine
 10
43.57899999995641
 20
5.654635690137571
 30
0.0
 11
44.99999999995498
 21
7.075635690136142
 31
0.0
  0
LINE
  5
106AD
330
10693
100
AcDbEntity
  8
0
  6
CONTINUOUS
100
AcDbLine
 10
43.57899999995641
 20
4.981116481057384
 30
0.0
 11
44.99999999995498
 21
6.402116481055955
 31
0.0
  0
LINE
  5
106AE
330
10693
100
AcDbEntity
  8
0
  6
CONTINUOUS
100
AcDbLine
 10
39.27140272797921
 20
-0.0000000000000009
 30
0.0
 11
40.02599999995994
 21
0.7545972719807246
 31
0.0
  0
LINE
  5
106AF
330
10693
100
AcDbEntity
  8
0
  6
CONTINUOUS
100
AcDbLine
 10
39.9449219370594
 20
-0.0000000000000009
 30
0.0
 11
40.02599999995994
 21
0.0810780629005379
 31
0.0
  0
LINE
  5
106B0
330
10693
100
AcDbEntity
  8
0
  6
CONTINUOUS
100
AcDbLine
 10
42.18817142235812
 20
2.916768694378905
 30
0.0
 11
43.16119791794597
 21
3.889795189966758
 31
0.0
  0
LINE
  5
106B1
330
10693
100
AcDbEntity
  8
0
  6
CONTINUOUS
100
AcDbLine
 10
42.50563373493829
 20
2.560711797878898
 30
0.0
 11
43.47866023052615
 21
3.533738293466751
 31
0.0
  0
LINE
  5
106B2
330
10693
100
AcDbEntity
  8
0
  6
CONTINUOUS
100
AcDbLine
 10
43.57899999995641
 20
4.307597271977198
 30
0.0
 11
44.99999999995498
 21
5.728597271975769
 31
0.0
  0
LINE
  5
106B3
330
10693
100
AcDbEntity
  8
0
  6
CONTINUOUS
100
AcDbLine
 10
43.57899999995641
 20
3.634078062897011
 30
0.0
 11
44.99999999995498
 21
5.055078062895582
 31
0.0
  0
LINE
  5
106B4
330
10693
100
AcDbEntity
  8
0
  6
CONTINUOUS
100
AcDbLine
 10
42.82309604751848
 20
2.204654901378891
 30
0.0
 11
44.99999999995498
 21
4.381558853815395
 31
0.0
  0
LINE
  5
106B5
330
10693
100
AcDbEntity
  8
0
  6
CONTINUOUS
100
AcDbLine
 10
43.14055836009865
 20
1.848598004878885
 30
0.0
 11
44.99999999995498
 21
3.70803964473521
 31
0.0
  0
LINE
  5
106B6
330
10693
100
AcDbEntity
  8
0
  6
CONTINUOUS
100
AcDbLine
 10
43.45802067267883
 20
1.492541108378878
 30
0.0
 11
44.99999999995498
 21
3.034520435655023
 31
0.0
  0
LINE
  5
106B7
330
10693
100
AcDbEntity
  8
0
  6
CONTINUOUS
100
AcDbLine
 10
43.77548298525902
 20
1.136484211878871
 30
0.0
 11
44.99999999995498
 21
2.361001226574837
 31
0.0
  0
LINE
  5
106B8
330
10693
100
AcDbEntity
  8
0
  6
CONTINUOUS
100
AcDbLine
 10
44.09294529783919
 20
0.7804273153788639
 30
0.0
 11
44.99999999995498
 21
1.687482017494649
 31
0.0
  0
LINE
  5
106B9
330
10693
100
AcDbEntity
  8
0
  6
CONTINUOUS
100
AcDbLine
 10
44.41040761041938
 20
0.4243704188788566
 30
0.0
 11
44.99999999995498
 21
1.013962808414463
 31
0.0
  0
LINE
  5
106BA
330
10693
100
AcDbEntity
  8
0
  6
CONTINUOUS
100
AcDbLine
 10
44.72786992299955
 20
0.0683135223788494
 30
0.0
 11
44.99999999995498
 21
0.340443599334276
 31
0.0
  0
LINE
  5
106BB
330
10693
100
AcDbEntity
  8
0
  6
CONTINUOUS
100
AcDbLine
 10
39.12223903415696
 20
-0.0000000000000009
 30
0.0
 11
38.60499999996136
 21
0.5172390341955961
 31
0.0
  0
LINE
  5
106BC
330
10693
100
AcDbEntity
  8
0
  6
CONTINUOUS
100
AcDbLine
 10
39.79575824323715
 20
-0.0000000000000009
 30
0.0
 11
38.60499999996136
 21
1.190758243275783
 31
0.0
  0
LINE
  5
106BD
330
10693
100
AcDbEntity
  8
0
  6
CONTINUOUS
100
AcDbLine
 10
40.02599999995994
 20
0.443277452357397
 30
0.0
 11
38.60499999996136
 21
1.864277452355969
 31
0.0
  0
LINE
  5
106BE
330
10693
100
AcDbEntity
  8
0
  6
CONTINUOUS
100
AcDbLine
 10
40.02599999995994
 20
1.116796661437583
 30
0.0
 11
38.60499999996136
 21
2.537796661436155
 31
0.0
  0
LINE
  5
106BF
330
10693
100
AcDbEntity
  8
0
  6
CONTINUOUS
100
AcDbLine
 10
40.02599999995994
 20
1.79031587051777
 30
0.0
 11
38.60499999996136
 21
3.211315870516341
 31
0.0
  0
LINE
  5
106C0
330
10693
100
AcDbEntity
  8
0
  6
CONTINUOUS
100
AcDbLine
 10
40.02599999995994
 20
2.463835079597956
 30
0.0
 11
38.60499999996136
 21
3.884835079596527
 31
0.0
  0
LINE
  5
106C1
330
10693
100
AcDbEntity
  8
0
  6
CONTINUOUS
100
AcDbLine
 10
40.02599999995994
 20
3.137354288678143
 30
0.0
 11
38.60499999996136
 21
4.558354288676714
 31
0.0
  0
LINE
  5
106C2
330
10693
100
AcDbEntity
  8
0
  6
CONTINUOUS
100
AcDbLine
 10
40.02599999995994
 20
3.810873497758329
 30
0.0
 11
38.60499999996136
 21
5.2318734977569
 31
0.0
  0
LINE
  5
106C3
330
10693
100
AcDbEntity
  8
0
  6
CONTINUOUS
100
AcDbLine
 10
40.02599999995994
 20
4.484392706838515
 30
0.0
 11
38.60499999996136
 21
5.905392706837086
 31
0.0
  0
LINE
  5
106C4
330
10693
100
AcDbEntity
  8
0
  6
CONTINUOUS
100
AcDbLine
 10
44.99999999995498
 20
0.183911915923658
 30
0.0
 11
41.53858364506288
 21
3.64532827081576
 31
0.0
  0
LINE
  5
106C5
330
10693
100
AcDbEntity
  8
0
  6
CONTINUOUS
100
AcDbLine
 10
40.02599999995994
 20
5.157911915918703
 30
0.0
 11
38.60499999996136
 21
6.578911915917274
 31
0.0
  0
LINE
  5
106C6
330
10693
100
AcDbEntity
  8
0
  6
CONTINUOUS
100
AcDbLine
 10
44.99999999995498
 20
0.8574311250038447
 30
0.0
 11
38.60499999996136
 21
7.25243112499746
 31
0.0
  0
LINE
  5
106C7
330
10693
100
AcDbEntity
  8
0
  6
CONTINUOUS
100
AcDbLine
 10
44.99999999995498
 20
1.530950334084031
 30
0.0
 11
38.60499999996136
 21
7.925950334077647
 31
0.0
  0
LINE
  5
106C8
330
10693
100
AcDbEntity
  8
0
  6
CONTINUOUS
100
AcDbLine
 10
44.99999999995498
 20
2.204469543164218
 30
0.0
 11
43.57899999995641
 21
3.625469543162789
 31
0.0
  0
LINE
  5
106C9
330
10693
100
AcDbEntity
  8
0
  6
CONTINUOUS
100
AcDbLine
 10
41.89876730984767
 20
5.305702233271528
 30
0.0
 11
38.60499999996136
 21
8.599469543157834
 31
0.0
  0
LINE
  5
106CA
330
10693
100
AcDbEntity
  8
0
  6
CONTINUOUS
100
AcDbLine
 10
44.99999999995498
 20
2.877988752244405
 30
0.0
 11
43.57899999995641
 21
4.298988752242975
 31
0.0
  0
LINE
  5
106CB
330
10693
100
AcDbEntity
  8
0
  6
CONTINUOUS
100
AcDbLine
 10
44.99999999995498
 20
3.551507961324591
 30
0.0
 11
43.57899999995641
 21
4.972507961323163
 31
0.0
  0
LINE
  5
106CC
330
10693
100
AcDbEntity
  8
0
  6
CONTINUOUS
100
AcDbLine
 10
44.99999999995498
 20
4.225027170404777
 30
0.0
 11
43.57899999995641
 21
5.646027170403348
 31
0.0
  0
LINE
  5
106CD
330
10693
100
AcDbEntity
  8
0
  6
CONTINUOUS
100
AcDbLine
 10
44.99999999995498
 20
4.898546379484964
 30
0.0
 11
43.57899999995641
 21
6.319546379483535
 31
0.0
  0
LINE
  5
106CE
330
10693
100
AcDbEntity
  8
0
  6
CONTINUOUS
100
AcDbLine
 10
44.99999999995498
 20
5.572065588565151
 30
0.0
 11
43.57899999995641
 21
6.993065588563722
 31
0.0
  0
LINE
  5
106CF
330
10693
100
AcDbEntity
  8
0
  6
CONTINUOUS
100
AcDbLine
 10
44.99999999995498
 20
6.245584797645336
 30
0.0
 11
43.57899999995641
 21
7.666584797643908
 31
0.0
  0
LINE
  5
106D0
330
10693
100
AcDbEntity
  8
0
  6
CONTINUOUS
100
AcDbLine
 10
44.99999999995498
 20
6.919104006725522
 30
0.0
 11
43.57899999995641
 21
8.340104006724093
 31
0.0
  0
LINE
  5
106D1
330
10693
100
AcDbEntity
  8
0
  6
CONTINUOUS
100
AcDbLine
 10
44.99999999995498
 20
7.592623215805709
 30
0.0
 11
43.82952321576943
 21
8.763099999991255
 31
0.0
  0
LINE
  5
106D2
330
10693
100
AcDbEntity
  8
0
  6
CONTINUOUS
100
AcDbLine
 10
44.99999999995498
 20
8.266142424885896
 30
0.0
 11
44.50304242484962
 21
8.763099999991255
 31
0.0
  0
ENDBLK
  5
106FC
330
10693
100
AcDbEntity
  8
0
100
AcDbBlockEnd
  0
BLOCK
  5
106FD
330
106D3
100
AcDbEntity
  8
0
100
AcDbBlockBegin
  2
*X37
 70
     1
 10
0.0
 20
0.0
 30
0.0
  3
*X37
  1

  0
LINE
  5
106D4
330
106D3
100
AcDbEntity
  8
0
  6
CONTINUOUS
100
AcDbLine
 10
0.0
 20
8.548461116714023
 30
0.0
 11
0.2146388832772324
 21
8.763099999991255
 31
0.0
  0
LINE
  5
106D5
330
106D3
100
AcDbEntity
  8
0
  6
CONTINUOUS
100
AcDbLine
 10
-0.0000000000000002
 20
7.874941907633837
 30
0.0
 11
0.8881580923574184
 21
8.763099999991255
 31
0.0
  0
LINE
  5
106D6
330
106D3
100
AcDbEntity
  8
0
  6
CONTINUOUS
100
AcDbLine
 10
0.0
 20
7.20142269855365
 30
0.0
 11
1.420999999998572
 21
8.622422698552223
 31
0.0
  0
LINE
  5
106D7
330
106D3
100
AcDbEntity
  8
0
  6
CONTINUOUS
100
AcDbLine
 10
-0.0000000000000001
 20
6.527903489473465
 30
0.0
 11
1.420999999998571
 21
7.948903489472036
 31
0.0
  0
LINE
  5
106D8
330
106D3
100
AcDbEntity
  8
0
  6
CONTINUOUS
100
AcDbLine
 10
-0.0000000000000002
 20
5.854384280393278
 30
0.0
 11
1.420999999998571
 21
7.275384280391849
 31
0.0
  0
LINE
  5
106D9
330
106D3
100
AcDbEntity
  8
0
  6
CONTINUOUS
100
AcDbLine
 10
-0.0000000000000002
 20
5.180865071313091
 30
0.0
 11
1.420999999998571
 21
6.601865071311663
 31
0.0
  0
LINE
  5
106DA
330
106D3
100
AcDbEntity
  8
0
  6
CONTINUOUS
100
AcDbLine
 10
0.0
 20
4.507345862232905
 30
0.0
 11
1.420999999998571
 21
5.928345862231477
 31
0.0
  0
LINE
  5
106DB
330
106D3
100
AcDbEntity
  8
0
  6
CONTINUOUS
100
AcDbLine
 10
-0.0000000000000003
 20
3.833826653152718
 30
0.0
 11
1.420999999998571
 21
5.25482665315129
 31
0.0
  0
LINE
  5
106DC
330
106D3
100
AcDbEntity
  8
0
  6
CONTINUOUS
100
AcDbLine
 10
-0.0000000000000002
 20
3.160307444072532
 30
0.0
 11
1.420999999998571
 21
4.581307444071103
 31
0.0
  0
LINE
  5
106DD
330
106D3
100
AcDbEntity
  8
0
  6
CONTINUOUS
100
AcDbLine
 10
-0.0000000000000001
 20
2.486788234992345
 30
0.0
 11
1.420999999998571
 21
3.907788234990917
 31
0.0
  0
LINE
  5
106DE
330
106D3
100
AcDbEntity
  8
0
  6
CONTINUOUS
100
AcDbLine
 10
-0.0000000000000006
 20
1.813269025912159
 30
0.0
 11
1.420999999998571
 21
3.234269025910731
 31
0.0
  0
LINE
  5
106DF
330
106D3
100
AcDbEntity
  8
0
  6
CONTINUOUS
100
AcDbLine
 10
0.0
 20
1.139749816831973
 30
0.0
 11
1.420999999998571
 21
2.560749816830544
 31
0.0
  0
LINE
  5
106E0
330
106D3
100
AcDbEntity
  8
0
  6
CONTINUOUS
100
AcDbLine
 10
0.0000000000000002
 20
0.466230607751787
 30
0.0
 11
1.420999999998571
 21
1.887230607750358
 31
0.0
  0
LINE
  5
106E1
330
106D3
100
AcDbEntity
  8
0
  6
CONTINUOUS
100
AcDbLine
 10
0.2072886013284003
 20
-0.0000000000000009
 30
0.0
 11
1.420999999998571
 21
1.213711398670171
 31
0.0
  0
LINE
  5
106E2
330
106D3
100
AcDbEntity
  8
0
  6
CONTINUOUS
100
AcDbLine
 10
0.8808078104085864
 20
-0.0000000000000009
 30
0.0
 11
1.420999999998571
 21
0.5401921895899839
 31
0.0
  0
LINE
  5
106E3
330
106D3
100
AcDbEntity
  8
0
  6
CONTINUOUS
100
AcDbLine
 10
0.0581249075061505
 20
-0.0000000000000009
 30
0.0
 11
-0.0000000000000002
 21
0.0581249075061496
 31
0.0
  0
LINE
  5
106E4
330
106D3
100
AcDbEntity
  8
0
  6
CONTINUOUS
100
AcDbLine
 10
0.7316441165863372
 20
-0.0000000000000009
 30
0.0
 11
-0.0000000000000002
 21
0.7316441165863363
 31
0.0
  0
LINE
  5
106E5
330
106D3
100
AcDbEntity
  8
0
  6
CONTINUOUS
100
AcDbLine
 10
1.405163325666523
 20
-0.0000000000000009
 30
0.0
 11
-0.0000000000000002
 21
1.405163325666523
 31
0.0
  0
LINE
  5
106E6
330
106D3
100
AcDbEntity
  8
0
  6
CONTINUOUS
100
AcDbLine
 10
1.420999999998572
 20
0.6576825347481381
 30
0.0
 11
-0.0000000000000001
 21
2.07868253474671
 31
0.0
  0
LINE
  5
106E7
330
106D3
100
AcDbEntity
  8
0
  6
CONTINUOUS
100
AcDbLine
 10
1.420999999998571
 20
1.331201743828324
 30
0.0
 11
-0.0000000000000001
 21
2.752201743826896
 31
0.0
  0
LINE
  5
106E8
330
106D3
100
AcDbEntity
  8
0
  6
CONTINUOUS
100
AcDbLine
 10
1.420999999998571
 20
2.004720952908511
 30
0.0
 11
-0.0000000000000002
 21
3.425720952907082
 31
0.0
  0
LINE
  5
106E9
330
106D3
100
AcDbEntity
  8
0
  6
CONTINUOUS
100
AcDbLine
 10
1.420999999998571
 20
2.678240161988697
 30
0.0
 11
-0.0000000000000001
 21
4.099240161987269
 31
0.0
  0
LINE
  5
106EA
330
106D3
100
AcDbEntity
  8
0
  6
CONTINUOUS
100
AcDbLine
 10
1.420999999998572
 20
3.351759371068884
 30
0.0
 11
0.0
 21
4.772759371067455
 31
0.0
  0
LINE
  5
106EB
330
106D3
100
AcDbEntity
  8
0
  6
CONTINUOUS
100
AcDbLine
 10
1.420999999998571
 20
4.02527858014907
 30
0.0
 11
-0.0000000000000003
 21
5.446278580147642
 31
0.0
  0
LINE
  5
106EC
330
106D3
100
AcDbEntity
  8
0
  6
CONTINUOUS
100
AcDbLine
 10
1.420999999998571
 20
4.698797789229257
 30
0.0
 11
0.0
 21
6.119797789227828
 31
0.0
  0
LINE
  5
106ED
330
106D3
100
AcDbEntity
  8
0
  6
CONTINUOUS
100
AcDbLine
 10
1.420999999998571
 20
5.372316998309444
 30
0.0
 11
-0.0000000000000001
 21
6.793316998308015
 31
0.0
  0
LINE
  5
106EE
330
106D3
100
AcDbEntity
  8
0
  6
CONTINUOUS
100
AcDbLine
 10
1.420999999998572
 20
6.045836207389629
 30
0.0
 11
-0.0000000000000004
 21
7.466836207388202
 31
0.0
  0
LINE
  5
106EF
330
106D3
100
AcDbEntity
  8
0
  6
CONTINUOUS
100
AcDbLine
 10
1.420999999998571
 20
6.719355416469816
 30
0.0
 11
0.0
 21
8.140355416468388
 31
0.0
  0
LINE
  5
106F0
330
106D3
100
AcDbEntity
  8
0
  6
CONTINUOUS
100
AcDbLine
 10
1.420999999998571
 20
7.392874625550003
 30
0.0
 11
0.0507746255573185
 21
8.763099999991255
 31
0.0
  0
LINE
  5
106F1
330
106D3
100
AcDbEntity
  8
0
  6
CONTINUOUS
100
AcDbLine
 10
1.420999999998571
 20
8.06639383463019
 30
0.0
 11
0.7242938346375052
 21
8.763099999991255
 31
0.0
  0
LINE
  5
106F2
330
106D3
100
AcDbEntity
  8
0
  6
CONTINUOUS
100
AcDbLine
 10
1.420999999998571
 20
8.739913043710375
 30
0.0
 11
1.397813043717691
 21
8.763099999991255
 31
0.0
  0
ENDBLK
  5
106FE
330
106D3
100
AcDbEntity
  8
0
100
AcDbBlockEnd
  0
ENDSEC
  0
SECTION
  2
ENTITIES
  0
TEXT
  5
E3BA
330
18
100
AcDbEntity
  8
1TEXT
100
AcDbText
 10
-206.0227812414504
 20
165.0062367118497
 30
0.0
 40
8.0
  1
PC-465-XX100
100
AcDbText
  0
LINE
  5
E3ED
330
18
100
AcDbEntity
  8
1DIM
100
AcDbLine
 10
-204.7925369098564
 20
133.7906380986238
 30
0.0
 11
-204.7925369098564
 21
154.7906380986238
 31
0.0
  0
LINE
  5
E401
330
18
100
AcDbEntity
  8
1CENTER
100
AcDbLine
 10
61.5
 20
10.00000000000847
 30
0.0
 11
61.5
 21
-1.99999999999153
 31
0.0
  0
LINE
  5
E404
330
18
100
AcDbEntity
  8
1CENTER
100
AcDbLine
 10
0.0
 20
96.99998100000795
 30
0.0
 11
0.0
 21
102.9999810000079
 31
0.0
  0
LINE
  5
E405
330
18
100
AcDbEntity
  8
1CENTER
100
AcDbLine
 10
-3.0
 20
99.99998100000795
 30
0.0
 11
3.0
 21
99.99998100000795
 31
0.0
  0
LINE
  5
E868
330
18
100
AcDbEntity
  8
1CENTER
100
AcDbLine
 10
0.0
 20
10.00000000000801
 30
0.0
 11
0.0
 21
-1.999999999991985
 31
0.0
  0
TEXT
  5
E89B
330
18
100
AcDbEntity
  8
1TEXT
100
AcDbText
 10
-168.32587024319
 20
149.2906380986238
 30
0.0
 40
4.0
  1
表面処理：握り
 72
     1
 11
-152.3925369098567
 21
149.2906380986238
 31
0.0
100
AcDbText
  0
TEXT
  5
E89C
330
18
100
AcDbEntity
  8
1TEXT
100
AcDbText
 10
-167.2725369098567
 20
142.4553494390995
 30
0.0
 40
4.0
  1
ブラストブラック
 41
0.8
 72
     1
 11
-152.3925369098567
 21
142.4553494390995
 31
0.0
100
AcDbText
  0
LINE
  5
E89D
330
18
100
AcDbEntity
  8
1DIM
100
AcDbLine
 10
-204.7925369098564
 20
154.7906380986238
 30
0.0
 11
-99.79253690985632
 21
154.7906380986238
 31
0.0
  0
LINE
  5
E89E
330
18
100
AcDbEntity
  8
1DIM
100
AcDbLine
 10
-204.7925369098564
 20
140.7906380986238
 30
0.0
 11
-99.79253690985632
 21
140.7906380986238
 31
0.0
  0
LINE
  5
E89F
330
18
100
AcDbEntity
  8
1DIM
100
AcDbLine
 10
-204.7925369098564
 20
147.7906380986238
 30
0.0
 11
-99.79253690985632
 21
147.7906380986238
 31
0.0
  0
LINE
  5
E8A0
330
18
100
AcDbEntity
  8
1DIM
100
AcDbLine
 10
-204.7925369098564
 20
133.7906380986238
 30
0.0
 11
-99.79253690985632
 21
133.7906380986238
 31
0.0
  0
LINE
  5
E8A1
330
18
100
AcDbEntity
  8
1DIM
100
AcDbLine
 10
-204.7925369098564
 20
133.7906380986238
 30
0.0
 11
-99.79253690985632
 21
133.7906380986238
 31
0.0
  0
LINE
  5
E8A2
330
18
100
AcDbEntity
  8
1DIM
100
AcDbLine
 10
-134.7925369098563
 20
154.7906380986238
 30
0.0
 11
-134.7925369098563
 21
133.7906380986238
 31
0.0
  0
TEXT
  5
E8A3
330
18
100
AcDbEntity
  8
1TEXT
100
AcDbText
 10
-132.6592035765224
 20
142.0762811149744
 30
0.0
 40
4.0
  1
PC-465-K003100
 41
0.6
 72
     1
 11
-117.3925369098558
 21
142.0762811149744
 31
0.0
100
AcDbText
  0
TEXT
  5
E8A4
330
18
100
AcDbEntity
  8
1TEXT
100
AcDbText
 10
-124.2592035765233
 20
149.2906380986238
 30
0.0
 40
4.0
  1
コード
 72
     1
 11
-117.3925369098567
 21
149.2906380986238
 31
0.0
100
AcDbText
  0
LINE
  5
E8A5
330
18
100
AcDbEntity
  8
1DIM
100
AcDbLine
 10
-169.7925369098563
 20
133.7906380986238
 30
0.0
 11
-169.7925369098563
 21
154.7906380986238
 31
0.0
  0
LINE
  5
E8A6
330
18
100
AcDbEntity
  8
1DIM
100
AcDbLine
 10
-99.79253690985632
 20
133.7906380986238
 30
0.0
 11
-99.79253690985632
 21
154.7906380986238
 31
0.0
  0
TEXT
  5
E8A7
330
18
100
AcDbEntity
  8
1TEXT
100
AcDbText
 10
-168.0325369098567
 20
135.4553494390995
 30
0.0
 40
4.0
  1
ステンカラーヘアライン
 41
0.6
 72
     1
 11
-152.3925369098567
 21
135.4553494390995
 31
0.0
100
AcDbText
  0
TEXT
  5
E8A8
330
18
100
AcDbEntity
  8
1TEXT
100
AcDbText
 10
-132.8703146876336
 20
135.0762811149744
 30
0.0
 40
4.0
  1
PC-465-ZC100
 41
0.7
 72
     1
 11
-117.3925369098558
 21
135.0762811149744
 31
0.0
100
AcDbText
  0
TEXT
  5
E8A9
330
18
100
AcDbEntity
  8
1TEXT
100
AcDbText
 10
-203.8592035765234
 20
149.2906380986238
 30
0.0
 40
4.0
  1
表面処理：脚部
 72
     1
 11
-187.3925369098567
 21
149.2906380986238
 31
0.0
100
AcDbText
  0
TEXT
  5
E8AA
330
18
100
AcDbEntity
  8
1TEXT
100
AcDbText
 10
-203.6592035765233
 20
142.4553494390995
 30
0.0
 40
4.0
  1
マットブラック
 72
     1
 11
-187.3925369098567
 21
142.4553494390995
 31
0.0
100
AcDbText
  0
TEXT
  5
E8AB
330
18
100
AcDbEntity
  8
1TEXT
100
AcDbText
 10
-196.8592035765234
 20
135.4553494390995
 30
0.0
 40
4.0
  1
クローム
 72
     1
 11
-187.3925369098567
 21
135.4553494390995
 31
0.0
100
AcDbText
  0
LINE
  5
FF1A
330
18
100
AcDbEntity
  8
01
100
AcDbLine
 10
72.79999845175439
 20
34.00000188646464
 30
0.0
 11
72.79999845175439
 21
30.30000188646903
 31
0.0
  0
LINE
  5
FF1C
330
18
100
AcDbEntity
  8
01
100
AcDbLine
 10
50.19999845175437
 20
34.00000188646464
 30
0.0
 11
50.19999845175437
 21
30.30000188646903
 31
0.0
  0
LINE
  5
FF1E
330
18
100
AcDbEntity
  8
01
100
AcDbLine
 10
51.49999845175444
 20
0.0000018864646449
 30
0.0
 11
50.19999845175437
 21
0.0000018864646449
 31
0.0
  0
LINE
  5
FF20
330
18
100
AcDbEntity
  8
01
100
AcDbLine
 10
72.79999845175439
 20
0.0000018864646449
 30
0.0
 11
71.49999845175444
 21
0.0000018864646449
 31
0.0
  0
LINE
  5
FF24
330
18
100
AcDbEntity
  8
01
100
AcDbLine
 10
51.49999845175444
 20
35.30000188646471
 30
0.0
 11
71.49999845175444
 21
35.30000188646471
 31
0.0
  0
LINE
  5
FF25
330
18
100
AcDbEntity
  8
01
100
AcDbLine
 10
71.49999845175444
 20
0.0000018864646449
 30
0.0
 11
51.49999845175444
 21
0.0000018864646449
 31
0.0
  0
LINE
  5
FF27
330
18
100
AcDbEntity
  8
01
100
AcDbLine
 10
50.19999845175437
 20
0.0000018864646449
 30
0.0
 11
50.19999845175437
 21
30.30000188646903
 31
0.0
  0
LINE
  5
FF28
330
18
100
AcDbEntity
  8
01
100
AcDbLine
 10
72.79999845175439
 20
0.0000018864646449
 30
0.0
 11
72.79999845175439
 21
30.30000188646903
 31
0.0
  0
LINE
  5
FF29
102
{ACAD_REACTORS
330
10031
102
}
330
18
100
AcDbEntity
  8
01
100
AcDbLine
 10
4.300000000004669
 20
111.2999810000079
 30
0.0
 11
-14.69999999999965
 21
111.2999810000079
 31
0.0
  0
LINE
  5
FF2A
102
{ACAD_REACTORS
330
10031
102
}
330
18
100
AcDbEntity
  8
01
100
AcDbLine
 10
4.300000000004669
 20
88.69998100000801
 30
0.0
 11
-14.69999999999965
 21
88.69998100000801
 31
0.0
  0
LINE
  5
FF2B
102
{ACAD_REACTORS
330
10031
102
}
330
18
100
AcDbEntity
  8
01
100
AcDbLine
 10
9.300000000000349
 20
89.99998100000796
 30
0.0
 11
9.300000000000349
 21
109.9999810000079
 31
0.0
  0
LINE
  5
FF2D
102
{ACAD_REACTORS
330
10031
102
}
330
18
100
AcDbEntity
  8
01
100
AcDbLine
 10
4.300000000004669
 20
88.69998100000801
 30
0.0
 11
8.00000000000028
 21
88.69998100000801
 31
0.0
  0
LINE
  5
FF2E
102
{ACAD_REACTORS
330
10031
102
}
330
18
100
AcDbEntity
  8
01
100
AcDbLine
 10
4.300000000004669
 20
111.2999810000079
 30
0.0
 11
8.00000000000028
 21
111.2999810000079
 31
0.0
  0
ARC
  5
FF34
102
{ACAD_REACTORS
330
10031
102
}
330
18
100
AcDbEntity
  8
01
100
AcDbCircle
 10
-14.70000000309409
 20
110.9999810027875
 30
0.0
 40
0.2999999969053495
100
AcDbArc
 50
173.0875262543766
 51
176.582735983485
  0
LINE
  5
FF36
102
{ACAD_REACTORS
330
10031
102
}
330
18
100
AcDbEntity
  8
01
100
AcDbLine
 10
-14.99999999999972
 20
89.99998099972977
 30
0.0
 11
-14.99999999999972
 21
109.9999810002861
 31
0.0
  0
LINE
  5
FF37
102
{ACAD_REACTORS
330
10031
102
}
330
18
100
AcDbEntity
  8
01
100
AcDbLine
 10
-14.99999999999961
 20
110.8564616455893
 30
0.0
 11
-14.99999999999961
 21
110.8724870159407
 31
0.0
  0
LINE
  5
FF38
102
{ACAD_REACTORS
330
10031
102
}
330
18
100
AcDbEntity
  8
01
100
AcDbLine
 10
-14.99999999999972
 20
110.8805161192943
 30
0.0
 11
-14.99999999999972
 21
110.9275924055391
 31
0.0
  0
LINE
  5
FF39
102
{ACAD_REACTORS
330
10031
102
}
330
18
100
AcDbEntity
  8
01
100
AcDbLine
 10
-14.99999999999961
 20
110.9401935984438
 30
0.0
 11
-14.99999999999961
 21
110.9495004208699
 31
0.0
  0
LINE
  5
FF3A
102
{ACAD_REACTORS
330
10031
102
}
330
18
100
AcDbEntity
  8
01
100
AcDbLine
 10
-14.99999999999961
 20
110.9557525874276
 30
0.0
 11
-14.99999999999961
 21
110.9590146824673
 31
0.0
  0
LINE
  5
FF3B
102
{ACAD_REACTORS
330
10031
102
}
330
18
100
AcDbEntity
  8
01
100
AcDbLine
 10
-14.99999999999961
 20
110.9690590625907
 30
0.0
 11
-14.99999999999961
 21
110.9872829094396
 31
0.0
  0
LINE
  5
FF3C
102
{ACAD_REACTORS
330
10031
102
}
330
18
100
AcDbEntity
  8
01
100
AcDbLine
 10
-14.99999999999972
 20
110.9960947642023
 30
0.0
 11
-14.99999999999972
 21
110.999159815288
 31
0.0
  0
LINE
  5
FF3D
102
{ACAD_REACTORS
330
10031
102
}
330
18
100
AcDbEntity
  8
01
100
AcDbLine
 10
-14.99999999999972
 20
110.999159815288
 30
0.0
 11
-14.99999999999972
 21
110.9998535951615
 31
0.0
  0
LINE
  5
FF3E
102
{ACAD_REACTORS
330
10031
102
}
330
18
100
AcDbEntity
  8
01
100
AcDbLine
 10
-14.99999999999972
 20
110.9998535951615
 30
0.0
 11
-14.99999999999972
 21
110.9999884333983
 31
0.0
  0
LINE
  5
FF3F
102
{ACAD_REACTORS
330
10031
102
}
330
18
100
AcDbEntity
  8
01
100
AcDbLine
 10
-14.99999999999972
 20
110.9999884333983
 30
0.0
 11
-14.99999999999972
 21
110.9999999398464
 31
0.0
  0
LINE
  5
FF40
102
{ACAD_REACTORS
330
10031
102
}
330
18
100
AcDbEntity
  8
01
100
AcDbLine
 10
-14.99999999999972
 20
110.9999999398464
 30
0.0
 11
-14.99999999999972
 21
111.0000023553443
 31
0.0
  0
LINE
  5
FF41
102
{ACAD_REACTORS
330
10031
102
}
330
18
100
AcDbEntity
  8
01
100
AcDbLine
 10
-14.99999999999972
 20
111.0000023553443
 30
0.0
 11
-14.99999999999972
 21
111.0000025439313
 31
0.0
  0
LINE
  5
FF42
102
{ACAD_REACTORS
330
10031
102
}
330
18
100
AcDbEntity
  8
01
100
AcDbLine
 10
-14.99999999999972
 20
111.0000025439313
 30
0.0
 11
-14.99999999999972
 21
110.999981002775
 31
0.0
  0
LINE
  5
FF43
102
{ACAD_REACTORS
330
10031
102
}
330
18
100
AcDbEntity
  8
01
100
AcDbLine
 10
-14.99999999999961
 20
89.14350035442665
 30
0.0
 11
-14.99999999999961
 21
89.12747498407528
 31
0.0
  0
LINE
  5
FF44
102
{ACAD_REACTORS
330
10031
102
}
330
18
100
AcDbEntity
  8
01
100
AcDbLine
 10
-14.99999999999961
 20
89.11944654636598
 30
0.0
 11
-14.99999999999961
 21
89.07236959447683
 31
0.0
  0
LINE
  5
FF45
102
{ACAD_REACTORS
330
10031
102
}
330
18
100
AcDbEntity
  8
01
100
AcDbLine
 10
-14.99999999999961
 20
89.05976840157207
 30
0.0
 11
-14.99999999999961
 21
89.05046157914587
 31
0.0
  0
LINE
  5
FF46
102
{ACAD_REACTORS
330
10031
102
}
330
18
100
AcDbEntity
  8
01
100
AcDbLine
 10
-14.99999999999972
 20
89.04420941258827
 30
0.0
 11
-14.99999999999972
 21
89.04094731754863
 31
0.0
  0
LINE
  5
FF47
102
{ACAD_REACTORS
330
10031
102
}
330
18
100
AcDbEntity
  8
01
100
AcDbLine
 10
-14.99999999999972
 20
89.0309029374251
 30
0.0
 11
-14.99999999999972
 21
89.01267909057636
 31
0.0
  0
LINE
  5
FF48
102
{ACAD_REACTORS
330
10031
102
}
330
18
100
AcDbEntity
  8
01
100
AcDbLine
 10
-14.99999999999972
 20
89.00386723581364
 30
0.0
 11
-14.99999999999972
 21
89.00080218472779
 31
0.0
  0
LINE
  5
FF49
102
{ACAD_REACTORS
330
10031
102
}
330
18
100
AcDbEntity
  8
01
100
AcDbLine
 10
-14.99999999999972
 20
89.00080218472779
 30
0.0
 11
-14.99999999999972
 21
89.00010840485432
 31
0.0
  0
LINE
  5
FF4A
102
{ACAD_REACTORS
330
10031
102
}
330
18
100
AcDbEntity
  8
01
100
AcDbLine
 10
-14.99999999999972
 20
89.00010840485432
 30
0.0
 11
-14.99999999999972
 21
88.99997356661761
 31
0.0
  0
LINE
  5
FF4B
102
{ACAD_REACTORS
330
10031
102
}
330
18
100
AcDbEntity
  8
01
100
AcDbLine
 10
-14.99999999999972
 20
88.99997356661761
 30
0.0
 11
-14.99999999999972
 21
88.9999620601695
 31
0.0
  0
LINE
  5
FF4C
102
{ACAD_REACTORS
330
10031
102
}
330
18
100
AcDbEntity
  8
01
100
AcDbLine
 10
-14.99999999999972
 20
88.9999620601695
 30
0.0
 11
-14.99999999999972
 21
88.99995964467173
 31
0.0
  0
LINE
  5
FF4D
102
{ACAD_REACTORS
330
10031
102
}
330
18
100
AcDbEntity
  8
01
100
AcDbLine
 10
-14.99999999999972
 20
88.99995964467173
 30
0.0
 11
-14.99999999999972
 21
88.99995945608448
 31
0.0
  0
LINE
  5
FF4E
102
{ACAD_REACTORS
330
10031
102
}
330
18
100
AcDbEntity
  8
01
100
AcDbLine
 10
-14.99999999999972
 20
88.99995945608448
 30
0.0
 11
-14.99999999999972
 21
88.99998099724094
 31
0.0
  0
LINE
  5
FF50
102
{ACAD_REACTORS
330
10031
102
}
330
18
100
AcDbEntity
  8
01
100
AcDbLine
 10
-14.99999999999972
 20
109.9999810005643
 30
0.0
 11
-14.99999999999961
 21
110.8564616455904
 31
0.0
  0
LINE
  5
FF51
102
{ACAD_REACTORS
330
10031
102
}
330
18
100
AcDbEntity
  8
01
100
AcDbLine
 10
-14.99999999999972
 20
110.87248701594
 30
0.0
 11
-14.99999999999972
 21
110.8805161192971
 31
0.0
  0
LINE
  5
FF52
102
{ACAD_REACTORS
330
10031
102
}
330
18
100
AcDbEntity
  8
01
100
AcDbLine
 10
-14.99999999999972
 20
110.9275924055349
 30
0.0
 11
-14.99999999999961
 21
110.9401935984812
 31
0.0
  0
LINE
  5
FF53
102
{ACAD_REACTORS
330
10031
102
}
330
18
100
AcDbEntity
  8
01
100
AcDbLine
 10
-14.99999999999961
 20
110.9495004208182
 30
0.0
 11
-14.99999999999961
 21
110.9557525875263
 31
0.0
  0
LINE
  5
FF54
102
{ACAD_REACTORS
330
10031
102
}
330
18
100
AcDbEntity
  8
01
100
AcDbLine
 10
-14.99999999999972
 20
110.9590146824559
 30
0.0
 11
-14.99999999999972
 21
110.9690590628776
 31
0.0
  0
LINE
  5
FF55
102
{ACAD_REACTORS
330
10031
102
}
330
18
100
AcDbEntity
  8
01
100
AcDbLine
 10
-14.99999999999961
 20
110.9872829098857
 30
0.0
 11
-14.99999999999972
 21
110.9960947643183
 31
0.0
  0
ARC
  5
FF56
102
{ACAD_REACTORS
330
10031
102
}
330
18
100
AcDbEntity
  8
01
100
AcDbCircle
 10
-14.69999673805609
 20
111.0000059916345
 30
0.0
 40
0.3000032619611788
100
AcDbArc
 50
90.00062297855652
 51
180.0006212330138
  0
LINE
  5
FF57
102
{ACAD_REACTORS
330
10031
102
}
330
18
100
AcDbEntity
  8
01
100
AcDbLine
 10
-14.99999999999972
 20
89.99998099945158
 30
0.0
 11
-14.99999999999961
 21
89.14350035442551
 31
0.0
  0
LINE
  5
FF58
102
{ACAD_REACTORS
330
10031
102
}
330
18
100
AcDbEntity
  8
01
100
AcDbLine
 10
-14.99999999999961
 20
89.12747498407596
 30
0.0
 11
-14.99999999999961
 21
89.11944654646852
 31
0.0
  0
LINE
  5
FF59
102
{ACAD_REACTORS
330
10031
102
}
330
18
100
AcDbEntity
  8
01
100
AcDbLine
 10
-14.99999999999961
 20
89.07236959448092
 30
0.0
 11
-14.99999999999961
 21
89.05976840153455
 31
0.0
  0
LINE
  5
FF5A
102
{ACAD_REACTORS
330
10031
102
}
330
18
100
AcDbEntity
  8
01
100
AcDbLine
 10
-14.99999999999972
 20
89.05046157919772
 30
0.0
 11
-14.99999999999961
 21
89.0442094124896
 31
0.0
  0
LINE
  5
FF5B
102
{ACAD_REACTORS
330
10031
102
}
330
18
100
AcDbEntity
  8
01
100
AcDbLine
 10
-14.99999999999972
 20
89.04094731756
 30
0.0
 11
-14.99999999999972
 21
89.03090293713826
 31
0.0
  0
LINE
  5
FF5C
102
{ACAD_REACTORS
330
10031
102
}
330
18
100
AcDbEntity
  8
01
100
AcDbLine
 10
-14.99999999999972
 20
89.01267909013025
 30
0.0
 11
-14.99999999999972
 21
89.00386723569757
 31
0.0
  0
ARC
  5
FF5D
102
{ACAD_REACTORS
330
10031
102
}
330
18
100
AcDbEntity
  8
01
100
AcDbCircle
 10
-14.69999674493039
 20
88.99995600150721
 30
0.0
 40
0.3000032550869866
100
AcDbArc
 50
179.9993774541347
 51
269.9993783343099
  0
ARC
  5
FF5E
102
{ACAD_REACTORS
330
10031
102
}
330
18
100
AcDbEntity
  8
01
100
AcDbCircle
 10
8.00000000000028
 20
109.9999810000079
 30
0.0
 40
1.3
100
AcDbArc
 50
0.0
 51
90.0
  0
ARC
  5
FF5F
102
{ACAD_REACTORS
330
10031
102
}
330
18
100
AcDbEntity
  8
01
100
AcDbCircle
 10
8.00000000000028
 20
89.99998100000796
 30
0.0
 40
1.3
100
AcDbArc
 50
270.0
 51
0.0
  0
ARC
  5
FF65
330
18
100
AcDbEntity
  8
01
100
AcDbCircle
 10
71.49999845175444
 20
34.00000188646464
 30
0.0
 40
1.3
100
AcDbArc
 50
0.0
 51
90.0
  0
ARC
  5
FF66
330
18
100
AcDbEntity
  8
01
100
AcDbCircle
 10
51.49999845175444
 20
34.00000188646464
 30
0.0
 40
1.3
100
AcDbArc
 50
90.0
 51
180.0
  0
ARC
  5
FFD7
102
{ACAD_REACTORS
330
10032
102
}
330
18
100
AcDbEntity
  8
01
100
AcDbCircle
 10
-43.75000000001754
 20
19.50002500567986
 30
0.0
 40
0.5
100
AcDbArc
 50
90.0
 51
90.0
  0
LINE
  5
FFD8
102
{ACAD_REACTORS
330
10032
102
}
330
18
100
AcDbEntity
  8
01
100
AcDbLine
 10
-70.50000000001754
 20
20.00002500568003
 30
0.0
 11
-49.50000000001754
 21
20.00002500567988
 31
0.0
  0
LINE
  5
FFD9
102
{ACAD_REACTORS
330
10032
102
}
330
18
100
AcDbEntity
  8
01
100
AcDbLine
 10
-14.99999999999983
 20
20.00002500567964
 30
0.0
 11
-85.00000000003527
 21
20.00002500568014
 31
0.0
  0
LINE
  5
FFDA
102
{ACAD_REACTORS
330
10032
102
}
330
18
100
AcDbEntity
  8
01
100
AcDbLine
 10
-15.00000000001751
 20
35.00002500567962
 30
0.0
 11
-85.00000000003516
 21
35.00002500568011
 31
0.0
  0
ARC
  5
FFDD
102
{ACAD_REACTORS
330
10032
102
}
330
18
100
AcDbEntity
  8
01
100
AcDbCircle
 10
-85.30000324792209
 20
35.00002500568016
 30
0.0
 40
0.3000032479046291
100
AcDbArc
 50
359.9993777019432
 51
89.99937970599458
  0
ARC
  5
FFDE
102
{ACAD_REACTORS
330
10032
102
}
330
18
100
AcDbEntity
  8
01
100
AcDbCircle
 10
-85.30000603875479
 20
19.99995370479039
 30
0.0
 40
0.3000060387802676
100
AcDbArc
 50
270.0011532872671
 51
0.0011531915599286
  0
LINE
  5
FFDF
102
{ACAD_REACTORS
330
10032
102
}
330
18
100
AcDbEntity
  8
01
100
AcDbLine
 10
-85.00000000003527
 20
20.00002500568017
 30
0.0
 11
-85.00000000003516
 21
35.00002500568016
 31
0.0
  0
LINE
  5
FFE0
102
{ACAD_REACTORS
330
10032
102
}
330
18
100
AcDbEntity
  8
01
100
AcDbLine
 10
-104.3000000000351
 20
35.2999999999995
 30
0.0
 11
-85.30000000003511
 21
35.29999999999936
 31
0.0
  0
LINE
  5
FFE1
102
{ACAD_REACTORS
330
10032
102
}
330
18
100
AcDbEntity
  8
01
100
AcDbLine
 10
-91.5959804499702
 20
19.6999999999995
 30
0.0
 11
-85.30000000003523
 21
19.69999999999946
 31
0.0
  0
LINE
  5
FFE2
102
{ACAD_REACTORS
330
10032
102
}
330
18
100
AcDbEntity
  8
01
100
AcDbLine
 10
-108.0000000000354
 20
-0.0000000000004263
 30
0.0
 11
-109.3000000000353
 21
-0.0000000000004263
 31
0.0
  0
LINE
  5
FFE3
102
{ACAD_REACTORS
330
10032
102
}
330
18
100
AcDbEntity
  8
01
100
AcDbLine
 10
-109.3000000000353
 20
-0.0000000000004263
 30
0.0
 11
-109.3000000000351
 21
30.29999999999954
 31
0.0
  0
LINE
  5
FFE4
102
{ACAD_REACTORS
330
10032
102
}
330
18
100
AcDbEntity
  8
01
100
AcDbLine
 10
-106.1257511606946
 20
-0.0000000000004405
 30
0.0
 11
-106.760935540306
 21
-0.0000000000004405
 31
0.0
  0
LINE
  5
FFE5
102
{ACAD_REACTORS
330
10032
102
}
330
18
100
AcDbEntity
  8
01
100
AcDbLine
 10
-93.70000000003532
 20
-0.0000000000005258
 30
0.0
 11
-94.36481562042391
 21
-0.0000000000005258
 31
0.0
  0
ARC
  5
FFE6
102
{ACAD_REACTORS
330
10032
102
}
330
18
100
AcDbEntity
  8
01
100
AcDbCircle
 10
-91.57834604131875
 20
17.57834604165239
 30
0.0
 40
2.121654650726992
100
AcDbArc
 50
90.47622680877856
 51
179.5237858521366
  0
ARC
  5
FFE7
102
{ACAD_REACTORS
330
10032
102
}
330
18
100
AcDbEntity
  8
01
100
AcDbCircle
 10
-104.0775686544917
 20
30.07756865445606
 30
0.0
 40
2.684374323655809
100
AcDbArc
 50
88.43021994954559
 51
181.5697800504589
  0
LINE
  5
FFE8
102
{ACAD_REACTORS
330
10032
102
}
330
18
100
AcDbEntity
  8
01
100
AcDbLine
 10
-85.00000000003519
 20
32.76093554026997
 30
0.0
 11
-104.0040318227756
 21
32.76093554027011
 31
0.0
  0
LINE
  5
FFE9
102
{ACAD_REACTORS
330
10032
102
}
330
18
100
AcDbEntity
  8
01
100
AcDbLine
 10
-106.760935540306
 20
-0.0000000000004405
 30
0.0
 11
-106.7609355403057
 21
30.00403182273978
 31
0.0
  0
LINE
  5
FFEA
102
{ACAD_REACTORS
330
10032
102
}
330
18
100
AcDbEntity
  8
01
100
AcDbLine
 10
-94.36481562042391
 20
-0.0000000000005258
 30
0.0
 11
-106.1257511606946
 21
-0.0000000000004405
 31
0.0
  0
LINE
  5
FFEB
102
{ACAD_REACTORS
330
10032
102
}
330
18
100
AcDbEntity
  8
01
100
AcDbLine
 10
-93.7000000000352
 20
17.57828066208064
 30
0.0
 11
-93.70000000003532
 21
-0.0000000000005258
 31
0.0
  0
LINE
  5
FFEC
102
{ACAD_REACTORS
330
10032
102
}
330
18
100
AcDbEntity
  8
01
100
AcDbLine
 10
-106.760935540306
 20
-0.0000000000004405
 30
0.0
 11
-108.0000000000354
 21
-0.0000000000004263
 31
0.0
  0
ARC
  5
FFED
102
{ACAD_REACTORS
330
10032
102
}
330
18
100
AcDbEntity
  8
01
100
AcDbCircle
 10
-104.3004292935971
 20
30.30042929356148
 30
0.0
 40
4.999570731448183
100
AcDbArc
 50
89.9933514694368
 51
180.0066485305618
  0
ARC
  5
FFEF
102
{ACAD_REACTORS
330
10032
102
}
330
18
100
AcDbEntity
  8
01
100
AcDbCircle
 10
-14.69999675211284
 20
35.0000250056797
 30
0.0
 40
0.3000032479046291
100
AcDbArc
 50
90.00062029400542
 51
180.0006222980555
  0
ARC
  5
FFF0
102
{ACAD_REACTORS
330
10032
102
}
330
18
100
AcDbEntity
  8
01
100
AcDbCircle
 10
-14.69999396128026
 20
19.99995370478993
 30
0.0
 40
0.3000060387802676
100
AcDbArc
 50
179.9988468084401
 51
269.9988467127221
  0
LINE
  5
FFF1
102
{ACAD_REACTORS
330
10032
102
}
330
18
100
AcDbEntity
  8
01
100
AcDbLine
 10
-14.99999999999977
 20
20.00002500567972
 30
0.0
 11
-14.99999999999977
 21
35.0000250056797
 31
0.0
  0
LINE
  5
FFF2
102
{ACAD_REACTORS
330
10032
102
}
330
18
100
AcDbEntity
  8
01
100
AcDbLine
 10
4.300000000000182
 20
35.2999999999988
 30
0.0
 11
-14.69999999999982
 21
35.2999999999989
 31
0.0
  0
LINE
  5
FFF3
102
{ACAD_REACTORS
330
10032
102
}
330
18
100
AcDbEntity
  8
01
100
AcDbLine
 10
-8.404019550064902
 20
19.69999999999896
 30
0.0
 11
-14.69999999999987
 21
19.69999999999899
 31
0.0
  0
LINE
  5
FFF4
102
{ACAD_REACTORS
330
10032
102
}
330
18
100
AcDbEntity
  8
01
100
AcDbLine
 10
8.000000000000057
 20
-0.0000000000011795
 30
0.0
 11
9.300000000000011
 21
-0.0000000000011795
 31
0.0
  0
LINE
  5
FFF5
102
{ACAD_REACTORS
330
10032
102
}
330
18
100
AcDbEntity
  8
01
100
AcDbLine
 10
9.300000000000011
 20
-0.0000000000011795
 30
0.0
 11
9.300000000000182
 21
30.29999999999878
 31
0.0
  0
LINE
  5
FFF6
102
{ACAD_REACTORS
330
10032
102
}
330
18
100
AcDbEntity
  8
01
100
AcDbLine
 10
6.125751160659263
 20
-0.0000000000011653
 30
0.0
 11
6.760935540270623
 21
-0.0000000000011653
 31
0.0
  0
LINE
  5
FFF7
102
{ACAD_REACTORS
330
10032
102
}
330
18
100
AcDbEntity
  8
01
100
AcDbLine
 10
-6.300000000000011
 20
-0.0000000000010942
 30
0.0
 11
-5.635184379611417
 21
-0.0000000000011084
 31
0.0
  0
ARC
  5
FFF8
102
{ACAD_REACTORS
330
10032
102
}
330
18
100
AcDbEntity
  8
01
100
AcDbCircle
 10
-8.421653958716377
 20
17.57834604165185
 30
0.0
 40
2.121654650726992
100
AcDbArc
 50
0.4762141478625951
 51
89.52377319122067
  0
ARC
  5
FFF9
102
{ACAD_REACTORS
330
10032
102
}
330
18
100
AcDbEntity
  8
01
100
AcDbCircle
 10
4.077568654456741
 20
30.07756865445536
 30
0.0
 40
2.684374323655809
100
AcDbArc
 50
358.4302199495404
 51
91.56978005045441
  0
LINE
  5
FFFA
102
{ACAD_REACTORS
330
10032
102
}
330
18
100
AcDbEntity
  8
01
100
AcDbLine
 10
-14.99999999999977
 20
32.76093554026951
 30
0.0
 11
4.004031822740671
 21
32.76093554026941
 31
0.0
  0
LINE
  5
FFFB
102
{ACAD_REACTORS
330
10032
102
}
330
18
100
AcDbEntity
  8
01
100
AcDbLine
 10
6.760935540270623
 20
-0.0000000000011653
 30
0.0
 11
6.760935540270793
 21
30.00403182273905
 31
0.0
  0
LINE
  5
FFFC
102
{ACAD_REACTORS
330
10032
102
}
330
18
100
AcDbEntity
  8
01
100
AcDbLine
 10
-5.635184379611417
 20
-0.0000000000011084
 30
0.0
 11
6.125751160659263
 21
-0.0000000000011653
 31
0.0
  0
LINE
  5
FFFD
102
{ACAD_REACTORS
330
10032
102
}
330
18
100
AcDbEntity
  8
01
100
AcDbLine
 10
-6.299999999999955
 20
17.57828066208007
 30
0.0
 11
-6.300000000000011
 21
-0.0000000000010942
 31
0.0
  0
LINE
  5
FFFE
102
{ACAD_REACTORS
330
10032
102
}
330
18
100
AcDbEntity
  8
01
100
AcDbLine
 10
6.760935540270623
 20
-0.0000000000011653
 30
0.0
 11
8.000000000000057
 21
-0.0000000000011795
 31
0.0
  0
ARC
  5
FFFF
102
{ACAD_REACTORS
330
10032
102
}
330
18
100
AcDbEntity
  8
01
100
AcDbCircle
 10
4.300429293562161
 20
30.30042929356078
 30
0.0
 40
4.999570731448183
100
AcDbArc
 50
359.9933514694375
 51
90.00664853056287
  0
LINE
  5
10000
102
{ACAD_REACTORS
330
10031
102
}
330
18
100
AcDbEntity
  8
01
100
AcDbLine
 10
-104.3000000000396
 20
111.2999810000079
 30
0.0
 11
-85.30000000003525
 21
111.2999810000079
 31
0.0
  0
LINE
  5
10001
102
{ACAD_REACTORS
330
10031
102
}
330
18
100
AcDbEntity
  8
01
100
AcDbLine
 10
-104.3000000000396
 20
88.69998100000801
 30
0.0
 11
-85.30000000003525
 21
88.69998100000801
 31
0.0
  0
LINE
  5
10002
102
{ACAD_REACTORS
330
10031
102
}
330
18
100
AcDbEntity
  8
01
100
AcDbLine
 10
-109.3000000000353
 20
89.99998100000796
 30
0.0
 11
-109.3000000000353
 21
109.9999810000079
 31
0.0
  0
LINE
  5
10003
102
{ACAD_REACTORS
330
10031
102
}
330
18
100
AcDbEntity
  8
01
100
AcDbLine
 10
-104.3000000000396
 20
88.69998100000801
 30
0.0
 11
-108.0000000000352
 21
88.69998100000801
 31
0.0
  0
LINE
  5
10004
102
{ACAD_REACTORS
330
10031
102
}
330
18
100
AcDbEntity
  8
01
100
AcDbLine
 10
-104.3000000000396
 20
111.2999810000079
 30
0.0
 11
-108.0000000000352
 21
111.2999810000079
 31
0.0
  0
ARC
  5
10005
102
{ACAD_REACTORS
330
10031
102
}
330
18
100
AcDbEntity
  8
01
100
AcDbCircle
 10
-85.29999999694081
 20
110.9999810027875
 30
0.0
 40
0.2999999969053495
100
AcDbArc
 50
3.41726401651502
 51
6.912473745623268
  0
LINE
  5
10006
102
{ACAD_REACTORS
330
10031
102
}
330
18
100
AcDbEntity
  8
01
100
AcDbLine
 10
-85.00000000003519
 20
89.99998099972977
 30
0.0
 11
-85.00000000003519
 21
109.9999810002861
 31
0.0
  0
LINE
  5
10007
102
{ACAD_REACTORS
330
10031
102
}
330
18
100
AcDbEntity
  8
01
100
AcDbLine
 10
-85.0000000000353
 20
110.8564616455893
 30
0.0
 11
-85.0000000000353
 21
110.8724870159407
 31
0.0
  0
LINE
  5
10008
102
{ACAD_REACTORS
330
10031
102
}
330
18
100
AcDbEntity
  8
01
100
AcDbLine
 10
-85.00000000003519
 20
110.8805161192943
 30
0.0
 11
-85.00000000003519
 21
110.9275924055391
 31
0.0
  0
LINE
  5
10009
102
{ACAD_REACTORS
330
10031
102
}
330
18
100
AcDbEntity
  8
01
100
AcDbLine
 10
-85.0000000000353
 20
110.9401935984438
 30
0.0
 11
-85.0000000000353
 21
110.9495004208699
 31
0.0
  0
LINE
  5
1000A
102
{ACAD_REACTORS
330
10031
102
}
330
18
100
AcDbEntity
  8
01
100
AcDbLine
 10
-85.0000000000353
 20
110.9557525874276
 30
0.0
 11
-85.0000000000353
 21
110.9590146824673
 31
0.0
  0
LINE
  5
1000B
102
{ACAD_REACTORS
330
10031
102
}
330
18
100
AcDbEntity
  8
01
100
AcDbLine
 10
-85.0000000000353
 20
110.9690590625907
 30
0.0
 11
-85.0000000000353
 21
110.9872829094396
 31
0.0
  0
LINE
  5
1000C
102
{ACAD_REACTORS
330
10031
102
}
330
18
100
AcDbEntity
  8
01
100
AcDbLine
 10
-85.00000000003519
 20
110.9960947642023
 30
0.0
 11
-85.00000000003519
 21
110.999159815288
 31
0.0
  0
LINE
  5
1000D
102
{ACAD_REACTORS
330
10031
102
}
330
18
100
AcDbEntity
  8
01
100
AcDbLine
 10
-85.00000000003519
 20
110.999159815288
 30
0.0
 11
-85.00000000003519
 21
110.9998535951615
 31
0.0
  0
LINE
  5
1000E
102
{ACAD_REACTORS
330
10031
102
}
330
18
100
AcDbEntity
  8
01
100
AcDbLine
 10
-85.00000000003519
 20
110.9998535951615
 30
0.0
 11
-85.00000000003519
 21
110.9999884333983
 31
0.0
  0
LINE
  5
1000F
102
{ACAD_REACTORS
330
10031
102
}
330
18
100
AcDbEntity
  8
01
100
AcDbLine
 10
-85.00000000003519
 20
110.9999884333983
 30
0.0
 11
-85.00000000003519
 21
110.9999999398464
 31
0.0
  0
LINE
  5
10010
102
{ACAD_REACTORS
330
10031
102
}
330
18
100
AcDbEntity
  8
01
100
AcDbLine
 10
-85.00000000003519
 20
110.9999999398464
 30
0.0
 11
-85.00000000003519
 21
111.0000023553443
 31
0.0
  0
LINE
  5
10011
102
{ACAD_REACTORS
330
10031
102
}
330
18
100
AcDbEntity
  8
01
100
AcDbLine
 10
-85.00000000003519
 20
111.0000023553443
 30
0.0
 11
-85.00000000003519
 21
111.0000025439313
 31
0.0
  0
LINE
  5
10012
102
{ACAD_REACTORS
330
10031
102
}
330
18
100
AcDbEntity
  8
01
100
AcDbLine
 10
-85.00000000003519
 20
111.0000025439313
 30
0.0
 11
-85.00000000003519
 21
110.999981002775
 31
0.0
  0
LINE
  5
10013
102
{ACAD_REACTORS
330
10031
102
}
330
18
100
AcDbEntity
  8
01
100
AcDbLine
 10
-85.0000000000353
 20
89.14350035442665
 30
0.0
 11
-85.0000000000353
 21
89.12747498407528
 31
0.0
  0
LINE
  5
10014
102
{ACAD_REACTORS
330
10031
102
}
330
18
100
AcDbEntity
  8
01
100
AcDbLine
 10
-85.0000000000353
 20
89.11944654636598
 30
0.0
 11
-85.0000000000353
 21
89.07236959447683
 31
0.0
  0
LINE
  5
10015
102
{ACAD_REACTORS
330
10031
102
}
330
18
100
AcDbEntity
  8
01
100
AcDbLine
 10
-85.0000000000353
 20
89.05976840157207
 30
0.0
 11
-85.0000000000353
 21
89.05046157914587
 31
0.0
  0
LINE
  5
10016
102
{ACAD_REACTORS
330
10031
102
}
330
18
100
AcDbEntity
  8
01
100
AcDbLine
 10
-85.00000000003519
 20
89.04420941258827
 30
0.0
 11
-85.00000000003519
 21
89.04094731754863
 31
0.0
  0
LINE
  5
10017
102
{ACAD_REACTORS
330
10031
102
}
330
18
100
AcDbEntity
  8
01
100
AcDbLine
 10
-85.00000000003519
 20
89.0309029374251
 30
0.0
 11
-85.00000000003519
 21
89.01267909057636
 31
0.0
  0
LINE
  5
10018
102
{ACAD_REACTORS
330
10031
102
}
330
18
100
AcDbEntity
  8
01
100
AcDbLine
 10
-85.00000000003519
 20
89.00386723581364
 30
0.0
 11
-85.00000000003519
 21
89.00080218472779
 31
0.0
  0
LINE
  5
10019
102
{ACAD_REACTORS
330
10031
102
}
330
18
100
AcDbEntity
  8
01
100
AcDbLine
 10
-85.00000000003519
 20
89.00080218472779
 30
0.0
 11
-85.00000000003519
 21
89.00010840485432
 31
0.0
  0
LINE
  5
1001A
102
{ACAD_REACTORS
330
10031
102
}
330
18
100
AcDbEntity
  8
01
100
AcDbLine
 10
-85.00000000003519
 20
89.00010840485432
 30
0.0
 11
-85.00000000003519
 21
88.99997356661761
 31
0.0
  0
LINE
  5
1001B
102
{ACAD_REACTORS
330
10031
102
}
330
18
100
AcDbEntity
  8
01
100
AcDbLine
 10
-85.00000000003519
 20
88.99997356661761
 30
0.0
 11
-85.00000000003519
 21
88.9999620601695
 31
0.0
  0
LINE
  5
1001C
102
{ACAD_REACTORS
330
10031
102
}
330
18
100
AcDbEntity
  8
01
100
AcDbLine
 10
-85.00000000003519
 20
88.9999620601695
 30
0.0
 11
-85.00000000003519
 21
88.99995964467173
 31
0.0
  0
LINE
  5
1001D
102
{ACAD_REACTORS
330
10031
102
}
330
18
100
AcDbEntity
  8
01
100
AcDbLine
 10
-85.00000000003519
 20
88.99995964467173
 30
0.0
 11
-85.00000000003519
 21
88.99995945608448
 31
0.0
  0
LINE
  5
1001E
102
{ACAD_REACTORS
330
10031
102
}
330
18
100
AcDbEntity
  8
01
100
AcDbLine
 10
-85.00000000003519
 20
88.99995945608448
 30
0.0
 11
-85.00000000003519
 21
88.99998099724094
 31
0.0
  0
LINE
  5
1001F
102
{ACAD_REACTORS
330
10031
102
}
330
18
100
AcDbEntity
  8
01
100
AcDbLine
 10
-85.00000000003519
 20
109.9999810005643
 30
0.0
 11
-85.0000000000353
 21
110.8564616455904
 31
0.0
  0
LINE
  5
10020
102
{ACAD_REACTORS
330
10031
102
}
330
18
100
AcDbEntity
  8
01
100
AcDbLine
 10
-85.00000000003519
 20
110.87248701594
 30
0.0
 11
-85.00000000003519
 21
110.8805161192971
 31
0.0
  0
LINE
  5
10021
102
{ACAD_REACTORS
330
10031
102
}
330
18
100
AcDbEntity
  8
01
100
AcDbLine
 10
-85.00000000003519
 20
110.9275924055349
 30
0.0
 11
-85.0000000000353
 21
110.9401935984812
 31
0.0
  0
LINE
  5
10022
102
{ACAD_REACTORS
330
10031
102
}
330
18
100
AcDbEntity
  8
01
100
AcDbLine
 10
-85.0000000000353
 20
110.9495004208182
 30
0.0
 11
-85.0000000000353
 21
110.9557525875263
 31
0.0
  0
LINE
  5
10023
102
{ACAD_REACTORS
330
10031
102
}
330
18
100
AcDbEntity
  8
01
100
AcDbLine
 10
-85.00000000003519
 20
110.9590146824559
 30
0.0
 11
-85.00000000003519
 21
110.9690590628776
 31
0.0
  0
LINE
  5
10024
102
{ACAD_REACTORS
330
10031
102
}
330
18
100
AcDbEntity
  8
01
100
AcDbLine
 10
-85.0000000000353
 20
110.9872829098857
 30
0.0
 11
-85.00000000003519
 21
110.9960947643183
 31
0.0
  0
ARC
  5
10025
102
{ACAD_REACTORS
330
10031
102
}
330
18
100
AcDbEntity
  8
01
100
AcDbCircle
 10
-85.30000326197882
 20
111.0000059916345
 30
0.0
 40
0.3000032619611788
100
AcDbArc
 50
359.9993787669862
 51
89.99937702144348
  0
LINE
  5
10026
102
{ACAD_REACTORS
330
10031
102
}
330
18
100
AcDbEntity
  8
01
100
AcDbLine
 10
-85.00000000003519
 20
89.99998099945158
 30
0.0
 11
-85.0000000000353
 21
89.14350035442551
 31
0.0
  0
LINE
  5
10027
102
{ACAD_REACTORS
330
10031
102
}
330
18
100
AcDbEntity
  8
01
100
AcDbLine
 10
-85.0000000000353
 20
89.12747498407596
 30
0.0
 11
-85.0000000000353
 21
89.11944654646852
 31
0.0
  0
LINE
  5
10028
102
{ACAD_REACTORS
330
10031
102
}
330
18
100
AcDbEntity
  8
01
100
AcDbLine
 10
-85.0000000000353
 20
89.07236959448092
 30
0.0
 11
-85.0000000000353
 21
89.05976840153455
 31
0.0
  0
LINE
  5
10029
102
{ACAD_REACTORS
330
10031
102
}
330
18
100
AcDbEntity
  8
01
100
AcDbLine
 10
-85.00000000003519
 20
89.05046157919772
 30
0.0
 11
-85.0000000000353
 21
89.0442094124896
 31
0.0
  0
LINE
  5
1002A
102
{ACAD_REACTORS
330
10031
102
}
330
18
100
AcDbEntity
  8
01
100
AcDbLine
 10
-85.00000000003519
 20
89.04094731756
 30
0.0
 11
-85.00000000003519
 21
89.03090293713826
 31
0.0
  0
LINE
  5
1002B
102
{ACAD_REACTORS
330
10031
102
}
330
18
100
AcDbEntity
  8
01
100
AcDbLine
 10
-85.00000000003519
 20
89.01267909013025
 30
0.0
 11
-85.00000000003519
 21
89.00386723569757
 31
0.0
  0
ARC
  5
1002C
102
{ACAD_REACTORS
330
10031
102
}
330
18
100
AcDbEntity
  8
01
100
AcDbCircle
 10
-85.30000325510451
 20
88.99995600150721
 30
0.0
 40
0.3000032550869866
100
AcDbArc
 50
270.0006216656901
 51
0.0006225458653465
  0
ARC
  5
1002D
102
{ACAD_REACTORS
330
10031
102
}
330
18
100
AcDbEntity
  8
01
100
AcDbCircle
 10
-108.0000000000352
 20
109.9999810000079
 30
0.0
 40
1.3
100
AcDbArc
 50
90.0
 51
180.0
  0
ARC
  5
1002E
102
{ACAD_REACTORS
330
10031
102
}
330
18
100
AcDbEntity
  8
01
100
AcDbCircle
 10
-108.0000000000352
 20
89.99998100000796
 30
0.0
 40
1.3
100
AcDbArc
 50
180.0
 51
270.0
  0
LINE
  5
1002F
102
{ACAD_REACTORS
330
10031
102
}
330
18
100
AcDbEntity
  8
01
100
AcDbLine
 10
-14.99999999999972
 20
110.9999810000079
 30
0.0
 11
-85.00000000003519
 21
110.9999810000079
 31
0.0
  0
LINE
  5
10030
102
{ACAD_REACTORS
330
10031
102
}
330
18
100
AcDbEntity
  8
01
100
AcDbLine
 10
-14.99999999999972
 20
88.999981000008
 30
0.0
 11
-85.00000000003519
 21
88.999981000008
 31
0.0
  0
LINE
  5
10035
330
18
100
AcDbEntity
  8
1CENTER
100
AcDbLine
 10
-100.0
 20
96.99998100000792
 30
0.0
 11
-100.0
 21
102.9999810000079
 31
0.0
  0
LINE
  5
10036
330
18
100
AcDbEntity
  8
1CENTER
100
AcDbLine
 10
-103.0
 20
99.99998100000792
 30
0.0
 11
-97.0
 21
99.99998100000792
 31
0.0
  0
LINE
  5
10037
330
18
100
AcDbEntity
  8
1CENTER
100
AcDbLine
 10
-100.0
 20
10.00000000000799
 30
0.0
 11
-100.0
 21
-1.999999999992013
 31
0.0
  0
LINE
  5
10079
330
18
100
AcDbEntity
  8
01
100
AcDbLine
 10
-85.00000000003519
 20
32.76093554026997
 30
0.0
 11
-14.99999999999977
 21
32.76093554026951
 31
0.0
  0
LINE
  5
104C2
330
18
100
AcDbEntity
  8
01
100
AcDbLine
 10
-100.0
 20
-1.999999999992013
 30
0.0
 11
-100.0
 21
-30.99999999999199
 31
0.0
1001
ACAD
1000
DSTYLE
1002
{
1070
    45
1040
0.5
1002
}
  0
LINE
  5
104C3
330
18
100
AcDbEntity
  8
01
100
AcDbLine
 10
0.0
 20
-1.999999999991985
 30
0.0
 11
0.0
 21
-30.99999999999199
 31
0.0
1001
ACAD
1000
DSTYLE
1002
{
1070
    45
1040
0.5
1002
}
  0
LINE
  5
104C4
330
18
100
AcDbEntity
  8
01
100
AcDbLine
 10
-98.0
 20
-29.99999999999199
 30
0.0
 11
-2.0
 21
-29.99999999999199
 31
0.0
1001
ACAD
1000
DSTYLE
1002
{
1070
    45
1040
0.5
1002
}
  0
LINE
  5
104C8
330
18
100
AcDbEntity
  8
01
100
AcDbLine
 10
-93.70000000003529
 20
-0.0000000000005258
 30
0.0
 11
-93.70000000003529
 21
-20.99999999999153
 31
0.0
1001
ACAD
1000
DSTYLE
1002
{
1070
    45
1040
0.5
1002
}
  0
LINE
  5
104C9
330
18
100
AcDbEntity
  8
01
100
AcDbLine
 10
-6.5
 20
0.0000000000084697
 30
0.0
 11
-6.5
 21
-20.99999999999153
 31
0.0
1001
ACAD
1000
DSTYLE
1002
{
1070
    45
1040
0.5
1002
}
  0
LINE
  5
104CA
330
18
100
AcDbEntity
  8
01
100
AcDbLine
 10
-91.70000000003529
 20
-19.99999999999153
 30
0.0
 11
-8.5
 21
-19.99999999999153
 31
0.0
1001
ACAD
1000
DSTYLE
1002
{
1070
    45
1040
0.5
1002
}
  0
LINE
  5
104CE
330
18
100
AcDbEntity
  8
01
100
AcDbLine
 10
0.0
 20
-1.999999999991985
 30
0.0
 11
0.0
 21
-30.99999999999199
 31
0.0
1001
ACAD
1000
DSTYLE
1002
{
1070
    45
1040
0.5
1002
}
  0
LINE
  5
104CF
330
18
100
AcDbEntity
  8
01
100
AcDbLine
 10
9.300000000000011
 20
-0.0000000000011795
 30
0.0
 11
9.300000000000011
 21
-30.99999999999199
 31
0.0
1001
ACAD
1000
DSTYLE
1002
{
1070
    45
1040
0.5
1002
}
  0
LINE
  5
104D0
330
18
100
AcDbEntity
  8
01
100
AcDbLine
 10
2.0
 20
-29.99999999999199
 30
0.0
 11
7.300000000000011
 21
-29.99999999999199
 31
0.0
1001
ACAD
1000
DSTYLE
1002
{
1070
    45
1040
0.5
1002
}
  0
LINE
  5
104D4
330
18
100
AcDbEntity
  8
01
100
AcDbLine
 10
-100.0
 20
-1.999999999992013
 30
0.0
 11
-100.0
 21
-30.99999999999199
 31
0.0
1001
ACAD
1000
DSTYLE
1002
{
1070
    45
1040
0.5
1002
}
  0
LINE
  5
104D5
330
18
100
AcDbEntity
  8
01
100
AcDbLine
 10
-109.3000000000353
 20
-0.0000000000004263
 30
0.0
 11
-109.3000000000353
 21
-30.99999999999199
 31
0.0
1001
ACAD
1000
DSTYLE
1002
{
1070
    45
1040
0.5
1002
}
  0
LINE
  5
104D6
330
18
100
AcDbEntity
  8
01
100
AcDbLine
 10
-102.0
 20
-29.99999999999199
 30
0.0
 11
-107.3000000000353
 21
-29.99999999999199
 31
0.0
1001
ACAD
1000
DSTYLE
1002
{
1070
    45
1040
0.5
1002
}
  0
LINE
  5
104DA
330
18
100
AcDbEntity
  8
01
  6
BYBLOCK
100
AcDbLine
 10
-98.0
 20
-30.53589837999198
 30
0.0
 11
-100.0
 21
-29.99999999999199
 31
0.0
  0
LINE
  5
104DB
330
18
100
AcDbEntity
  8
01
  6
BYBLOCK
100
AcDbLine
 10
-100.0
 20
-29.99999999999199
 30
0.0
 11
-98.0
 21
-29.46410161999199
 31
0.0
  0
LINE
  5
104DC
330
18
100
AcDbEntity
  8
01
  6
BYBLOCK
100
AcDbLine
 10
-100.0
 20
-29.99999999999199
 30
0.0
 11
-98.0
 21
-29.99999999999199
 31
0.0
  0
LINE
  5
104DD
330
18
100
AcDbEntity
  8
01
  6
BYBLOCK
100
AcDbLine
 10
-2.0
 20
-29.46410161999199
 30
0.0
 11
0.0
 21
-29.99999999999199
 31
0.0
  0
LINE
  5
104DE
330
18
100
AcDbEntity
  8
01
  6
BYBLOCK
100
AcDbLine
 10
0.0
 20
-29.99999999999199
 30
0.0
 11
-2.0
 21
-30.53589837999198
 31
0.0
  0
LINE
  5
104DF
330
18
100
AcDbEntity
  8
01
  6
BYBLOCK
100
AcDbLine
 10
0.0
 20
-29.99999999999199
 30
0.0
 11
-2.0
 21
-29.99999999999199
 31
0.0
  0
TEXT
  5
104E0
330
18
100
AcDbEntity
  8
01
  6
CONTINUOUS
100
AcDbText
 10
-55.32291666666666
 20
-29.29999999999199
 30
0.0
 40
3.5
  1
P100
100
AcDbText
1001
ACAD
1000
DSTYLE
1002
{
1070
    45
1040
0.5
1002
}
  0
LINE
  5
104E1
330
18
100
AcDbEntity
  8
01
  6
BYBLOCK
100
AcDbLine
 10
-91.70000000003529
 20
-20.53589837999153
 30
0.0
 11
-93.70000000003529
 21
-19.99999999999153
 31
0.0
  0
LINE
  5
104E2
330
18
100
AcDbEntity
  8
01
  6
BYBLOCK
100
AcDbLine
 10
-93.70000000003529
 20
-19.99999999999153
 30
0.0
 11
-91.70000000003529
 21
-19.46410161999153
 31
0.0
  0
LINE
  5
104E3
330
18
100
AcDbEntity
  8
01
  6
BYBLOCK
100
AcDbLine
 10
-93.70000000003529
 20
-19.99999999999153
 30
0.0
 11
-91.70000000003529
 21
-19.99999999999153
 31
0.0
  0
LINE
  5
104E4
330
18
100
AcDbEntity
  8
01
  6
BYBLOCK
100
AcDbLine
 10
-8.5
 20
-19.46410161999153
 30
0.0
 11
-6.5
 21
-19.99999999999153
 31
0.0
  0
LINE
  5
104E5
330
18
100
AcDbEntity
  8
01
  6
BYBLOCK
100
AcDbLine
 10
-6.5
 20
-19.99999999999153
 30
0.0
 11
-8.5
 21
-20.53589837999153
 31
0.0
  0
LINE
  5
104E6
330
18
100
AcDbEntity
  8
01
  6
BYBLOCK
100
AcDbLine
 10
-6.5
 20
-19.99999999999153
 30
0.0
 11
-8.5
 21
-19.99999999999153
 31
0.0
  0
TEXT
  5
104E7
330
18
100
AcDbEntity
  8
01
  6
CONTINUOUS
100
AcDbText
 10
-53.01666666668431
 20
-19.29999999999153
 30
0.0
 40
3.5
  1
87
100
AcDbText
1001
ACAD
1000
DSTYLE
1002
{
1070
    45
1040
0.5
1002
}
  0
LINE
  5
104E8
330
18
100
AcDbEntity
  8
01
  6
BYBLOCK
100
AcDbLine
 10
2.0
 20
-30.53589837999198
 30
0.0
 11
0.0
 21
-29.99999999999199
 31
0.0
  0
LINE
  5
104E9
330
18
100
AcDbEntity
  8
01
  6
BYBLOCK
100
AcDbLine
 10
0.0
 20
-29.99999999999199
 30
0.0
 11
2.0
 21
-29.46410161999199
 31
0.0
  0
LINE
  5
104EA
330
18
100
AcDbEntity
  8
01
  6
BYBLOCK
100
AcDbLine
 10
0.0
 20
-29.99999999999199
 30
0.0
 11
2.0
 21
-29.99999999999199
 31
0.0
  0
LINE
  5
104EB
330
18
100
AcDbEntity
  8
01
  6
BYBLOCK
100
AcDbLine
 10
7.300000000000011
 20
-29.46410161999199
 30
0.0
 11
9.300000000000011
 21
-29.99999999999199
 31
0.0
  0
LINE
  5
104EC
330
18
100
AcDbEntity
  8
01
  6
BYBLOCK
100
AcDbLine
 10
9.300000000000011
 20
-29.99999999999199
 30
0.0
 11
7.300000000000011
 21
-30.53589837999198
 31
0.0
  0
LINE
  5
104ED
330
18
100
AcDbEntity
  8
01
  6
BYBLOCK
100
AcDbLine
 10
9.300000000000011
 20
-29.99999999999199
 30
0.0
 11
7.300000000000011
 21
-29.99999999999199
 31
0.0
  0
TEXT
  5
104EE
330
18
100
AcDbEntity
  8
01
  6
CONTINUOUS
100
AcDbText
 10
1.148379629629635
 20
-29.29999999999199
 30
0.0
 40
3.5
  1
9.5
100
AcDbText
1001
ACAD
1000
DSTYLE
1002
{
1070
    45
1040
0.5
1002
}
  0
LINE
  5
104EF
330
18
100
AcDbEntity
  8
01
  6
BYBLOCK
100
AcDbLine
 10
-102.0
 20
-29.46410161999199
 30
0.0
 11
-100.0
 21
-29.99999999999199
 31
0.0
  0
LINE
  5
104F0
330
18
100
AcDbEntity
  8
01
  6
BYBLOCK
100
AcDbLine
 10
-100.0
 20
-29.99999999999199
 30
0.0
 11
-102.0
 21
-30.53589837999198
 31
0.0
  0
LINE
  5
104F1
330
18
100
AcDbEntity
  8
01
  6
BYBLOCK
100
AcDbLine
 10
-100.0
 20
-29.99999999999199
 30
0.0
 11
-102.0
 21
-29.99999999999199
 31
0.0
  0
LINE
  5
104F2
330
18
100
AcDbEntity
  8
01
  6
BYBLOCK
100
AcDbLine
 10
-107.3000000000353
 20
-30.53589837999198
 30
0.0
 11
-109.3000000000353
 21
-29.99999999999199
 31
0.0
  0
LINE
  5
104F3
330
18
100
AcDbEntity
  8
01
  6
BYBLOCK
100
AcDbLine
 10
-109.3000000000353
 20
-29.99999999999199
 30
0.0
 11
-107.3000000000353
 21
-29.46410161999199
 31
0.0
  0
LINE
  5
104F4
330
18
100
AcDbEntity
  8
01
  6
BYBLOCK
100
AcDbLine
 10
-109.3000000000353
 20
-29.99999999999199
 30
0.0
 11
-107.3000000000353
 21
-29.99999999999199
 31
0.0
  0
TEXT
  5
104F5
330
18
100
AcDbEntity
  8
01
  6
CONTINUOUS
100
AcDbText
 10
-108.151620370388
 20
-29.29999999999199
 30
0.0
 40
3.5
  1
9.5
100
AcDbText
1001
ACAD
1000
DSTYLE
1002
{
1070
    45
1040
0.5
1002
}
  0
LINE
  5
104F6
330
18
100
AcDbEntity
  8
1DIM
100
AcDbLine
 10
-109.3000000000353
 20
99.99998100000798
 30
0.0
 11
-109.3000000000353
 21
73.99998100000795
 31
0.0
1001
ACAD
1000
DSTYLE
1002
{
1070
    45
1040
0.5
1002
}
  0
LINE
  5
104F7
330
18
100
AcDbEntity
  8
1DIM
100
AcDbLine
 10
9.300000000000349
 20
99.99998100000795
 30
0.0
 11
9.300000000000349
 21
73.99998100000795
 31
0.0
1001
ACAD
1000
DSTYLE
1002
{
1070
    45
1040
0.5
1002
}
  0
LINE
  5
104F8
330
18
100
AcDbEntity
  8
1DIM
100
AcDbLine
 10
-107.3000000000353
 20
74.99998100000795
 30
0.0
 11
7.300000000000349
 21
74.99998100000795
 31
0.0
1001
ACAD
1000
DSTYLE
1002
{
1070
    45
1040
0.5
1002
}
  0
LINE
  5
104FC
330
18
100
AcDbEntity
  8
1DIM
100
AcDbLine
 10
8.00000000000028
 20
88.69998100000801
 30
0.0
 11
37.5
 21
88.69998100000801
 31
0.0
1001
ACAD
1000
DSTYLE
1002
{
1070
    45
1040
0.5
1002
}
  0
LINE
  5
104FD
330
18
100
AcDbEntity
  8
1DIM
100
AcDbLine
 10
8.00000000000028
 20
111.2999810000079
 30
0.0
 11
37.5
 21
111.2999810000079
 31
0.0
1001
ACAD
1000
DSTYLE
1002
{
1070
    45
1040
0.5
1002
}
  0
LINE
  5
104FE
330
18
100
AcDbEntity
  8
1DIM
100
AcDbLine
 10
36.5
 20
90.69998100000801
 30
0.0
 11
36.5
 21
109.2999810000079
 31
0.0
1001
ACAD
1000
DSTYLE
1002
{
1070
    45
1040
0.5
1002
}
  0
LINE
  5
10502
330
18
100
AcDbEntity
  8
1DIM
100
AcDbLine
 10
6.5
 20
0.0000000000080149
 30
0.0
 11
37.5
 21
0.000000000008013
 31
0.0
1001
ACAD
1000
DSTYLE
1002
{
1070
    45
1040
0.5
1002
}
  0
LINE
  5
10503
330
18
100
AcDbEntity
  8
1DIM
100
AcDbLine
 10
4.299849149631543
 20
35.29999999134937
 30
0.0
 11
37.5
 21
35.29999999134937
 31
0.0
1001
ACAD
1000
DSTYLE
1002
{
1070
    45
1040
0.5
1002
}
  0
LINE
  5
10504
330
18
100
AcDbEntity
  8
1DIM
100
AcDbLine
 10
36.5
 20
2.000000000008013
 30
0.0
 11
36.5
 21
33.29999999134937
 31
0.0
1001
ACAD
1000
DSTYLE
1002
{
1070
    45
1040
0.5
1002
}
  0
LINE
  5
10508
330
18
100
AcDbEntity
  8
1DIM
100
AcDbLine
 10
6.5
 20
0.0000000000080149
 30
0.0
 11
27.5
 21
0.0000000000080136
 31
0.0
1001
ACAD
1000
DSTYLE
1002
{
1070
    45
1040
0.5
1002
}
  0
LINE
  5
10509
330
18
100
AcDbEntity
  8
1DIM
100
AcDbLine
 10
-15.00000000006052
 20
19.99995370478993
 30
0.0
 11
27.5
 21
19.99995370478993
 31
0.0
1001
ACAD
1000
DSTYLE
1002
{
1070
    45
1040
0.5
1002
}
  0
LINE
  5
1050A
330
18
100
AcDbEntity
  8
1DIM
100
AcDbLine
 10
26.5
 20
2.000000000008014
 30
0.0
 11
26.5
 21
17.99995370478993
 31
0.0
1001
ACAD
1000
DSTYLE
1002
{
1070
    45
1040
0.5
1002
}
  0
SOLID
  5
1050E
330
18
100
AcDbEntity
  8
1DIM
100
AcDbTrace
 10
-55.47016447275205
 20
36.14584876808126
 30
0.0
 11
-56.58301301223878
 21
34.45095076546477
 31
0.0
 12
-56.08001509735668
 22
36.41515651047606
 32
0.0
 13
-56.08001509735668
 23
36.41515651047606
 33
0.0
1001
ACAD
1000
DSTYLE
1002
{
1070
    45
1040
0.5
1002
}
  0
LINE
  5
1050F
330
18
100
AcDbEntity
  8
1DIM
100
AcDbLine
 10
-55.77508978505436
 20
36.28050263927866
 30
0.0
 11
-50.07718419963358
 21
49.1834784293802
 31
0.0
1001
ACAD
1000
DSTYLE
1002
{
1070
    45
1040
0.5
1002
}
  0
LINE
  5
10510
330
18
100
AcDbEntity
  8
1DIM
100
AcDbLine
 10
-50.07718419963358
 20
49.1834784293802
 30
0.0
 11
-10.39385086630024
 21
49.1834784293802
 31
0.0
1001
ACAD
1000
DSTYLE
1002
{
1070
    45
1040
0.5
1002
}
  0
TEXT
  5
10511
330
18
100
AcDbEntity
  8
1TEXT
  6
CONTINUOUS
100
AcDbText
 10
-47.61051753296691
 20
55.71681176271354
 30
0.0
 40
3.5
  1
材質：アルミ
100
AcDbText
1001
ACADANNOTATIVE
1000
AnnotativeData
1002
{
1070
     1
1070
     0
1002
}
  0
TEXT
  5
10512
330
18
100
AcDbEntity
  8
1TEXT
  6
CONTINUOUS
100
AcDbText
 10
-47.49385086630024
 20
49.8834784293802
 30
0.0
 40
3.5
  1
仕上げ：各種仕上げ
100
AcDbText
1001
ACADANNOTATIVE
1000
AnnotativeData
1002
{
1070
     1
1070
     0
1002
}
  0
LINE
  5
10513
330
18
100
AcDbEntity
  8
1DIM
100
AcDbLine
 10
-50.00000000002633
 20
35.00002500567987
 30
0.0
 11
-67.73751493757928
 21
35.00002500567987
 31
0.0
1001
ACAD
1000
DSTYLE
1002
{
1070
    45
1040
0.5
1002
}
  0
LINE
  5
10514
330
18
100
AcDbEntity
  8
1DIM
100
AcDbLine
 10
-50.00000000001755
 20
20.00002500567989
 30
0.0
 11
-67.73751493757928
 21
20.00002500567989
 31
0.0
1001
ACAD
1000
DSTYLE
1002
{
1070
    45
1040
0.5
1002
}
  0
LINE
  5
10515
330
18
100
AcDbEntity
  8
1DIM
100
AcDbLine
 10
-66.73751493757928
 20
35.00002500567987
 30
0.0
 11
-66.73751493757928
 21
43.56669167234653
 31
0.0
1001
ACAD
1000
DSTYLE
1002
{
1070
    45
1040
0.5
1002
}
  0
LINE
  5
10516
330
18
100
AcDbEntity
  8
1DIM
100
AcDbLine
 10
-66.73751493757928
 20
33.00002500567987
 30
0.0
 11
-66.73751493757928
 21
22.00002500567989
 31
0.0
1001
ACAD
1000
DSTYLE
1002
{
1070
    45
1040
0.5
1002
}
  0
SOLID
  5
1051A
330
18
100
AcDbEntity
  8
1DIM
100
AcDbTrace
 10
62.29374666316578
 20
-1.865762002132302
 30
0.0
 11
61.49999845175444
 21
0.0000018864646449
 31
0.0
 12
62.85595396695877
 22
-1.507478047696355
 32
0.0
 13
62.85595396695877
 23
-1.507478047696355
 33
0.0
1001
ACAD
1000
DSTYLE
1002
{
1070
    45
1040
0.5
1002
}
  0
LINE
  5
1051B
330
18
100
AcDbEntity
  8
1DIM
100
AcDbLine
 10
62.57485031506228
 20
-1.686620024914328
 30
0.0
 11
74.69171346981811
 21
-20.69999999999153
 31
0.0
1001
ACAD
1000
DSTYLE
1002
{
1070
    45
1040
0.5
1002
}
  0
LINE
  5
1051C
330
18
100
AcDbEntity
  8
1DIM
100
AcDbLine
 10
74.69171346981811
 20
-20.69999999999153
 30
0.0
 11
94.55838013648477
 21
-20.69999999999153
 31
0.0
1001
ACAD
1000
DSTYLE
1002
{
1070
    45
1040
0.5
1002
}
  0
TEXT
  5
1051D
330
18
100
AcDbEntity
  8
1DIM
  6
CONTINUOUS
100
AcDbText
 10
77.39171346981811
 20
-19.99999999999153
 30
0.0
 40
3.5
  1
M4-10
100
AcDbText
  0
SOLID
  5
1051E
330
18
100
AcDbEntity
  8
1DIM
100
AcDbTrace
 10
0.8232416776651452
 20
16.95835757827291
 30
0.0
 11
0.2163015403464215
 21
15.02374268615029
 31
0.0
 12
0.1629914349594976
 22
17.05062925026154
 32
0.0
 13
0.1629914349594976
 23
17.05062925026154
 33
0.0
1001
ACAD
1000
DSTYLE
1002
{
1070
    45
1040
0.5
1002
}
  0
LINE
  5
1051F
330
18
100
AcDbEntity
  8
1DIM
100
AcDbLine
 10
0.4931165563123206
 20
17.00449341426723
 30
0.0
 11
4.990212593829983
 21
49.1834784293802
 31
0.0
1001
ACAD
1000
DSTYLE
1002
{
1070
    45
1040
0.5
1002
}
  0
LINE
  5
10520
330
18
100
AcDbEntity
  8
1DIM
100
AcDbLine
 10
4.990212593829983
 20
49.1834784293802
 30
0.0
 11
52.25687926049666
 21
49.1834784293802
 31
0.0
1001
ACAD
1000
DSTYLE
1002
{
1070
    45
1040
0.5
1002
}
  0
TEXT
  5
10521
330
18
100
AcDbEntity
  8
1TEXT
  6
CONTINUOUS
100
AcDbText
 10
7.45687926049665
 20
55.71681176271354
 30
0.0
 40
3.5
  1
材質：亜鉛ダイキャスト
100
AcDbText
1001
ACADANNOTATIVE
1000
AnnotativeData
1002
{
1070
     1
1070
     0
1002
}
  0
TEXT
  5
10522
330
18
100
AcDbEntity
  8
1TEXT
  6
CONTINUOUS
100
AcDbText
 10
7.573545927163317
 20
49.8834784293802
 30
0.0
 40
3.5
  1
仕上げ：各種仕上げ
100
AcDbText
1001
ACADANNOTATIVE
1000
AnnotativeData
1002
{
1070
     1
1070
     0
1002
}
  0
LINE
  5
10523
330
18
100
AcDbEntity
  8
1DIM
100
AcDbLine
 10
8.00000000000028
 20
111.2999810000079
 30
0.0
 11
27.5
 21
111.2999810000079
 31
0.0
1001
ACAD
1000
DSTYLE
1002
{
1070
    45
1040
0.5
1002
}
  0
LINE
  5
10524
330
18
100
AcDbEntity
  8
1DIM
100
AcDbLine
 10
3.0
 20
99.99998100000795
 30
0.0
 11
27.5
 21
99.99998100000795
 31
0.0
1001
ACAD
1000
DSTYLE
1002
{
1070
    45
1040
0.5
1002
}
  0
LINE
  5
10525
330
18
100
AcDbEntity
  8
1DIM
100
AcDbLine
 10
26.5
 20
111.2999810000079
 30
0.0
 11
26.5
 21
124.8666476666746
 31
0.0
1001
ACAD
1000
DSTYLE
1002
{
1070
    45
1040
0.5
1002
}
  0
LINE
  5
10526
330
18
100
AcDbEntity
  8
1DIM
100
AcDbLine
 10
26.5
 20
109.2999810000079
 30
0.0
 11
26.5
 21
101.9999810000079
 31
0.0
1001
ACAD
1000
DSTYLE
1002
{
1070
    45
1040
0.5
1002
}
  0
LINE
  5
1052A
330
18
100
AcDbEntity
  8
1DIM
100
AcDbLine
 10
50.19999845175437
 20
0.0000018864646449
 30
0.0
 11
50.19999845175437
 21
-20.99999999999153
 31
0.0
1001
ACAD
1000
DSTYLE
1002
{
1070
    45
1040
0.5
1002
}
  0
LINE
  5
1052B
330
18
100
AcDbEntity
  8
1DIM
100
AcDbLine
 10
72.79999845175439
 20
-0.0000000000001705
 30
0.0
 11
72.79999845175439
 21
-20.99999999999153
 31
0.0
1001
ACAD
1000
DSTYLE
1002
{
1070
    45
1040
0.5
1002
}
  0
LINE
  5
1052C
330
18
100
AcDbEntity
  8
1DIM
100
AcDbLine
 10
52.19999845175437
 20
-19.99999999999153
 30
0.0
 11
70.79999845175439
 21
-19.99999999999153
 31
0.0
1001
ACAD
1000
DSTYLE
1002
{
1070
    45
1040
0.5
1002
}
  0
LINE
  5
10530
330
18
100
AcDbEntity
  8
0
  6
BYBLOCK
100
AcDbLine
 10
-107.3000000000353
 20
74.46408262000794
 30
0.0
 11
-109.3000000000353
 21
74.99998100000795
 31
0.0
  0
LINE
  5
10531
330
18
100
AcDbEntity
  8
0
  6
BYBLOCK
100
AcDbLine
 10
-109.3000000000353
 20
74.99998100000795
 30
0.0
 11
-107.3000000000353
 21
75.53587938000796
 31
0.0
  0
LINE
  5
10532
330
18
100
AcDbEntity
  8
0
  6
BYBLOCK
100
AcDbLine
 10
-109.3000000000353
 20
74.99998100000795
 30
0.0
 11
-107.3000000000353
 21
74.99998100000795
 31
0.0
  0
LINE
  5
10533
330
18
100
AcDbEntity
  8
0
  6
BYBLOCK
100
AcDbLine
 10
7.300000000000349
 20
75.53587938000796
 30
0.0
 11
9.300000000000349
 21
74.99998100000795
 31
0.0
  0
LINE
  5
10534
330
18
100
AcDbEntity
  8
0
  6
BYBLOCK
100
AcDbLine
 10
9.300000000000349
 20
74.99998100000795
 30
0.0
 11
7.300000000000349
 21
74.46408262000794
 31
0.0
  0
LINE
  5
10535
330
18
100
AcDbEntity
  8
0
  6
BYBLOCK
100
AcDbLine
 10
9.300000000000349
 20
74.99998100000795
 30
0.0
 11
7.300000000000349
 21
74.99998100000795
 31
0.0
  0
TEXT
  5
10536
330
18
100
AcDbEntity
  8
1DIM
  6
CONTINUOUS
100
AcDbText
 10
-55.83333333335079
 20
75.69998100000794
 30
0.0
 40
3.5
  1
118.5
100
AcDbText
1001
ACAD
1000
DSTYLE
1002
{
1070
    45
1040
0.5
1002
}
  0
LINE
  5
10537
330
18
100
AcDbEntity
  8
0
  6
BYBLOCK
100
AcDbLine
 10
37.03589838
 20
90.69998100000801
 30
0.0
 11
36.5
 21
88.69998100000801
 31
0.0
  0
LINE
  5
10538
330
18
100
AcDbEntity
  8
0
  6
BYBLOCK
100
AcDbLine
 10
36.5
 20
88.69998100000801
 30
0.0
 11
35.96410162
 21
90.69998100000801
 31
0.0
  0
LINE
  5
10539
330
18
100
AcDbEntity
  8
0
  6
BYBLOCK
100
AcDbLine
 10
36.5
 20
88.69998100000801
 30
0.0
 11
36.5
 21
90.69998100000801
 31
0.0
  0
LINE
  5
1053A
330
18
100
AcDbEntity
  8
0
  6
BYBLOCK
100
AcDbLine
 10
35.96410162
 20
109.2999810000079
 30
0.0
 11
36.5
 21
111.2999810000079
 31
0.0
  0
LINE
  5
1053B
330
18
100
AcDbEntity
  8
0
  6
BYBLOCK
100
AcDbLine
 10
36.5
 20
111.2999810000079
 30
0.0
 11
37.03589838
 21
109.2999810000079
 31
0.0
  0
LINE
  5
1053C
330
18
100
AcDbEntity
  8
0
  6
BYBLOCK
100
AcDbLine
 10
36.5
 20
111.2999810000079
 30
0.0
 11
36.5
 21
109.2999810000079
 31
0.0
  0
TEXT
  5
1053D
330
18
100
AcDbEntity
  8
1DIM
  6
CONTINUOUS
100
AcDbText
 10
35.8
 20
94.74998100000798
 30
0.0
 40
3.5
  1
22.5
 50
90.0
100
AcDbText
1001
ACAD
1000
DSTYLE
1002
{
1070
    45
1040
0.5
1002
}
  0
LINE
  5
1053E
330
18
100
AcDbEntity
  8
0
  6
BYBLOCK
100
AcDbLine
 10
37.03589838
 20
2.000000000008013
 30
0.0
 11
36.5
 21
0.0000000000080131
 31
0.0
  0
LINE
  5
1053F
330
18
100
AcDbEntity
  8
0
  6
BYBLOCK
100
AcDbLine
 10
36.5
 20
0.0000000000080131
 30
0.0
 11
35.96410162
 21
2.000000000008013
 31
0.0
  0
LINE
  5
10540
330
18
100
AcDbEntity
  8
0
  6
BYBLOCK
100
AcDbLine
 10
36.5
 20
0.0000000000080131
 30
0.0
 11
36.5
 21
2.000000000008013
 31
0.0
  0
LINE
  5
10541
330
18
100
AcDbEntity
  8
0
  6
BYBLOCK
100
AcDbLine
 10
35.96410162
 20
33.29999999134937
 30
0.0
 11
36.5
 21
35.29999999134937
 31
0.0
  0
LINE
  5
10542
330
18
100
AcDbEntity
  8
0
  6
BYBLOCK
100
AcDbLine
 10
36.5
 20
35.29999999134937
 30
0.0
 11
37.03589838
 21
33.29999999134937
 31
0.0
  0
LINE
  5
10543
330
18
100
AcDbEntity
  8
0
  6
BYBLOCK
100
AcDbLine
 10
36.5
 20
35.29999999134937
 30
0.0
 11
36.5
 21
33.29999999134937
 31
0.0
  0
TEXT
  5
10544
330
18
100
AcDbEntity
  8
1DIM
  6
CONTINUOUS
100
AcDbText
 10
35.8
 20
12.38784721790091
 30
0.0
 40
3.5
  1
35.5
 50
90.0
100
AcDbText
1001
ACAD
1000
DSTYLE
1002
{
1070
    45
1040
0.5
1002
}
  0
LINE
  5
10545
330
18
100
AcDbEntity
  8
0
  6
BYBLOCK
100
AcDbLine
 10
27.03589838
 20
2.000000000008014
 30
0.0
 11
26.5
 21
0.0000000000080137
 31
0.0
  0
LINE
  5
10546
330
18
100
AcDbEntity
  8
0
  6
BYBLOCK
100
AcDbLine
 10
26.5
 20
0.0000000000080137
 30
0.0
 11
25.96410162
 21
2.000000000008014
 31
0.0
  0
LINE
  5
10547
330
18
100
AcDbEntity
  8
0
  6
BYBLOCK
100
AcDbLine
 10
26.5
 20
0.0000000000080137
 30
0.0
 11
26.5
 21
2.000000000008014
 31
0.0
  0
LINE
  5
10548
330
18
100
AcDbEntity
  8
0
  6
BYBLOCK
100
AcDbLine
 10
25.96410162
 20
17.99995370478993
 30
0.0
 11
26.5
 21
19.99995370478993
 31
0.0
  0
LINE
  5
10549
330
18
100
AcDbEntity
  8
0
  6
BYBLOCK
100
AcDbLine
 10
26.5
 20
19.99995370478993
 30
0.0
 11
27.03589838
 21
17.99995370478993
 31
0.0
  0
LINE
  5
1054A
330
18
100
AcDbEntity
  8
0
  6
BYBLOCK
100
AcDbLine
 10
26.5
 20
19.99995370478993
 30
0.0
 11
26.5
 21
17.99995370478993
 31
0.0
  0
TEXT
  5
1054B
330
18
100
AcDbEntity
  8
1DIM
  6
CONTINUOUS
100
AcDbText
 10
25.8
 20
7.302060185732303
 30
0.0
 40
3.5
  1
20
 50
90.0
100
AcDbText
1001
ACAD
1000
DSTYLE
1002
{
1070
    45
1040
0.5
1002
}
  0
LINE
  5
1054C
330
18
100
AcDbEntity
  8
0
  6
BYBLOCK
100
AcDbLine
 10
-67.27341331757928
 20
33.00002500567987
 30
0.0
 11
-66.73751493757928
 21
35.00002500567987
 31
0.0
  0
LINE
  5
1054D
330
18
100
AcDbEntity
  8
0
  6
BYBLOCK
100
AcDbLine
 10
-66.73751493757928
 20
35.00002500567987
 30
0.0
 11
-66.20161655757927
 21
33.00002500567987
 31
0.0
  0
LINE
  5
1054E
330
18
100
AcDbEntity
  8
0
  6
BYBLOCK
100
AcDbLine
 10
-66.73751493757928
 20
35.00002500567987
 30
0.0
 11
-66.73751493757928
 21
33.00002500567987
 31
0.0
  0
LINE
  5
1054F
330
18
100
AcDbEntity
  8
0
  6
BYBLOCK
100
AcDbLine
 10
-66.20161655757927
 20
22.00002500567989
 30
0.0
 11
-66.73751493757928
 21
20.00002500567989
 31
0.0
  0
LINE
  5
10550
330
18
100
AcDbEntity
  8
0
  6
BYBLOCK
100
AcDbLine
 10
-66.73751493757928
 20
20.00002500567989
 30
0.0
 11
-67.27341331757928
 21
22.00002500567989
 31
0.0
  0
LINE
  5
10551
330
18
100
AcDbEntity
  8
0
  6
BYBLOCK
100
AcDbLine
 10
-66.73751493757928
 20
20.00002500567989
 30
0.0
 11
-66.73751493757928
 21
22.00002500567989
 31
0.0
  0
TEXT
  5
10552
330
18
100
AcDbEntity
  8
1DIM
  6
CONTINUOUS
100
AcDbText
 10
-67.43751493757928
 20
37.95002500567986
 30
0.0
 40
3.5
  1
15
 50
90.0
100
AcDbText
1001
ACAD
1000
DSTYLE
1002
{
1070
    45
1040
0.5
1002
}
  0
LINE
  5
10553
330
18
100
AcDbEntity
  8
0
  6
BYBLOCK
100
AcDbLine
 10
25.96410162
 20
109.2999810000079
 30
0.0
 11
26.5
 21
111.2999810000079
 31
0.0
  0
LINE
  5
10554
330
18
100
AcDbEntity
  8
0
  6
BYBLOCK
100
AcDbLine
 10
26.5
 20
111.2999810000079
 30
0.0
 11
27.03589838
 21
109.2999810000079
 31
0.0
  0
LINE
  5
10555
330
18
100
AcDbEntity
  8
0
  6
BYBLOCK
100
AcDbLine
 10
26.5
 20
111.2999810000079
 30
0.0
 11
26.5
 21
109.2999810000079
 31
0.0
  0
LINE
  5
10556
330
18
100
AcDbEntity
  8
0
  6
BYBLOCK
100
AcDbLine
 10
27.03589838
 20
101.9999810000079
 30
0.0
 11
26.5
 21
99.99998100000795
 31
0.0
  0
LINE
  5
10557
330
18
100
AcDbEntity
  8
0
  6
BYBLOCK
100
AcDbLine
 10
26.5
 20
99.99998100000795
 30
0.0
 11
25.96410162
 21
101.9999810000079
 31
0.0
  0
LINE
  5
10558
330
18
100
AcDbEntity
  8
0
  6
BYBLOCK
100
AcDbLine
 10
26.5
 20
99.99998100000795
 30
0.0
 11
26.5
 21
101.9999810000079
 31
0.0
  0
TEXT
  5
10559
330
18
100
AcDbEntity
  8
1DIM
  6
CONTINUOUS
100
AcDbText
 10
25.80000000000001
 20
114.9999810000079
 30
0.0
 40
3.5
  1
11.5
 50
90.0
100
AcDbText
1001
ACAD
1000
DSTYLE
1002
{
1070
    45
1040
0.5
1002
}
  0
LINE
  5
1055A
330
18
100
AcDbEntity
  8
0
  6
BYBLOCK
100
AcDbLine
 10
52.19999845175437
 20
-20.53589837999153
 30
0.0
 11
50.19999845175437
 21
-19.99999999999153
 31
0.0
  0
LINE
  5
1055B
330
18
100
AcDbEntity
  8
0
  6
BYBLOCK
100
AcDbLine
 10
50.19999845175437
 20
-19.99999999999153
 30
0.0
 11
52.19999845175437
 21
-19.46410161999153
 31
0.0
  0
LINE
  5
1055C
330
18
100
AcDbEntity
  8
0
  6
BYBLOCK
100
AcDbLine
 10
50.19999845175437
 20
-19.99999999999153
 30
0.0
 11
52.19999845175437
 21
-19.99999999999153
 31
0.0
  0
LINE
  5
1055D
330
18
100
AcDbEntity
  8
0
  6
BYBLOCK
100
AcDbLine
 10
70.79999845175439
 20
-19.46410161999153
 30
0.0
 11
72.79999845175439
 21
-19.99999999999153
 31
0.0
  0
LINE
  5
1055E
330
18
100
AcDbEntity
  8
0
  6
BYBLOCK
100
AcDbLine
 10
72.79999845175439
 20
-19.99999999999153
 30
0.0
 11
70.79999845175439
 21
-20.53589837999153
 31
0.0
  0
LINE
  5
1055F
330
18
100
AcDbEntity
  8
0
  6
BYBLOCK
100
AcDbLine
 10
72.79999845175439
 20
-19.99999999999153
 30
0.0
 11
70.79999845175439
 21
-19.99999999999153
 31
0.0
  0
TEXT
  5
10560
330
18
100
AcDbEntity
  8
1DIM
  6
CONTINUOUS
100
AcDbText
 10
56.24999845175438
 20
-19.29999999999153
 30
0.0
 40
3.5
  1
22.5
100
AcDbText
1001
ACAD
1000
DSTYLE
1002
{
1070
    45
1040
0.5
1002
}
  0
VIEWPORT
  5
57
330
15
100
AcDbEntity
 67
     1
  8
0
100
AcDbViewport
 68
     1
 10
0.0
 20
0.0
 30
0.0
 40
535.5106132075472
 41
297.0
 68
     1
 69
     1
1001
ACAD
1000
MVIEW
1002
{
1070
    16
1010
0.0
1020
0.0
1030
0.0
1010
0.0
1020
0.0
1030
1.0
1040
0.0
1040
297.0
1040
-4.171999999925333
1040
12.83903210976956
1040
50.0
1040
0.0
1040
0.0
1070
    16
1070
   100
1070
     0
1070
     1
1070
     0
1070
     0
1070
     0
1070
     0
1040
0.0
1040
0.0
1040
0.0
1040
10.0
1040
10.0
1040
10.0
1040
10.0
1070
     0
1002
{
1002
}
1002
}
  0
ENDSEC
  0
SECTION
  2
OBJECTS
  0
DICTIONARY
  5
C
330
0
100
AcDbDictionary
  3
ACAD_COLOR
350
18D
  3
ACAD_GROUP
350
D
  3
ACAD_LAYOUT
350
18E
  3
ACAD_MATERIAL
350
18C
  3
ACAD_MLEADERSTYLE
350
D09D
  3
ACAD_MLINESTYLE
350
1B
  3
ACAD_PLOTSETTINGS
350
18F
  3
ACAD_SCALELIST
350
D07B
  3
ACAD_VISUALSTYLE
350
D06A
  3
ACDBHEADERROUNDTRIPXREC
350
10561
  3
ACDBVARIABLEDICTIONARY
350
37
  3
CONTENTDICTIONARY
350
D8
  3
DRAWINGVARIABLESDICT
350
20
  3
DWGPROPS
350
10564
1001
ACAD
1000
TREAT_AS_HARD
1070
     0
  0
DICTIONARY
  5
D16C
330
2
100
AcDbDictionary
  3
ACAD_LAYERSTATES
360
D16D
1001
ACAD
1000
TREAT_AS_HARD
1070
     1
  0
DICTIONARY
  5
D0B5
330
E
100
AcDbDictionary
  3
ADSK_XREC_LAYER_RECONCILED
360
D0B6
1001
ACAD
1000
TREAT_AS_HARD
1070
     1
  0
DICTIONARY
  5
D0B7
330
29
100
AcDbDictionary
  3
ADSK_XREC_LAYER_RECONCILED
360
D0B8
1001
ACAD
1000
TREAT_AS_HARD
1070
     1
  0
DICTIONARY
  5
D0B9
330
31
100
AcDbDictionary
  3
ADSK_XREC_LAYER_RECONCILED
360
D0BA
1001
ACAD
1000
TREAT_AS_HARD
1070
     1
  0
DICTIONARY
  5
D0BF
330
243
100
AcDbDictionary
  3
ADSK_XREC_LAYER_RECONCILED
360
D0C0
1001
ACAD
1000
TREAT_AS_HARD
1070
     1
  0
DICTIONARY
  5
D0C5
330
24E
100
AcDbDictionary
  3
ADSK_XREC_LAYER_RECONCILED
360
D0C6
1001
ACAD
1000
TREAT_AS_HARD
1070
     1
  0
DICTIONARY
  5
88F
330
18
100
AcDbDictionary
  3
ACAD_SORTENTS
360
890
1001
ACAD
1000
TREAT_AS_HARD
1070
     1
  0
DICTIONARY
  5
FAC3
330
FAC2
100
AcDbDictionary
  3
ACAD_SORTENTS
360
FAC4
1001
ACAD
1000
TREAT_AS_HARD
1070
     1
  0
DICTIONARY
  5
18D
102
{ACAD_REACTORS
330
C
102
}
330
C
100
AcDbDictionary
1001
ACAD
1000
TREAT_AS_HARD
1070
     0
  0
DICTIONARY
  5
D
102
{ACAD_REACTORS
330
C
102
}
330
C
100
AcDbDictionary
  3
*A1
350
10031
  3
*A2
350
10032
1001
ACAD
1000
TREAT_AS_HARD
1070
     0
  0
DICTIONARY
  5
18E
102
{ACAD_REACTORS
330
C
102
}
330
C
100
AcDbDictionary
1001
ACAD
1000
TREAT_AS_HARD
1070
     0
  0
DICTIONARY
  5
18C
102
{ACAD_REACTORS
330
C
102
}
330
C
100
AcDbDictionary
  3
BYBLOCK
350
D05A
  3
BYLAYER
350
D052
  3
GLOBAL
350
D062
1001
ACAD
1000
TREAT_AS_HARD
1070
     0
  0
DICTIONARY
  5
D09D
102
{ACAD_REACTORS
330
C
102
}
330
C
100
AcDbDictionary
  3
BALLOONS05
350
FAC1
  3
LEADERMULTI
350
FE1A
  3
STANDARD
350
D09E
1001
ACAD
1000
TREAT_AS_HARD
1070
     0
  0
DICTIONARY
  5
1B
102
{ACAD_REACTORS
330
C
102
}
330
C
100
AcDbDictionary
  3
STANDARD
350
1C
1001
ACAD
1000
TREAT_AS_HARD
1070
     0
  0
DICTIONARY
  5
18F
102
{ACAD_REACTORS
330
C
102
}
330
C
100
AcDbDictionary
1001
ACAD
1000
TREAT_AS_HARD
1070
     0
  0
DICTIONARY
  5
D07B
102
{ACAD_REACTORS
330
C
102
}
330
C
100
AcDbDictionary
  3
A0
350
D07C
  3
A1
350
D07D
  3
A2
350
D07E
  3
A3
350
D07F
  3
A4
350
D080
  3
A5
350
D081
  3
A6
350
D082
  3
A7
350
D083
  3
A8
350
D084
  3
A9
350
D085
  3
B0
350
D086
  3
B1
350
D087
  3
B2
350
D088
  3
B3
350
D089
  3
B4
350
D08A
  3
B5
350
D08B
  3
B6
350
D08C
  3
B7
350
D08D
  3
B8
350
D08E
  3
B9
350
D08F
  3
C0
350
D090
  3
C1
350
D091
  3
C2
350
D092
  3
C3
350
D093
  3
C4
350
D094
  3
C5
350
D095
  3
C6
350
D096
  3
C7
350
D097
  3
C8
350
D098
  3
C9
350
D099
  3
D0
350
D09A
  3
D1
350
D09B
  3
D2
350
D09C
1001
ACAD
1000
TREAT_AS_HARD
1070
     0
  0
DICTIONARY
  5
D06A
102
{ACAD_REACTORS
330
C
102
}
330
C
100
AcDbDictionary
  3
2DWIREFRAME
350
D070
  3
3D_HIDDEN
350
D072
  3
3DWIREFRAME
350
D071
  3
BASIC
350
D06F
  3
BRIGHTEN
350
D076
  3
COLORCHANGE
350
D07A
  3
CONCEPTUAL
350
D073
  3
DIM
350
D075
  3
EDGECOLOROFF
350
D29F
  3
FACEPATTERN
350
D079
  3
FLAT
350
D06B
  3
FLATWITHEDGES
350
D06C
  3
GOURAUD
350
D06D
  3
GOURAUDWITHEDGES
350
D06E
  3
HIDDEN
350
F225
  3
JITTEROFF
350
D29D
  3
LINEPATTERN
350
D078
  3
MODELING
350
F22B
  3
OVERHANGOFF
350
D29E
  3
REALISTIC
350
D074
  3
SHADED
350
F22A
  3
SHADED_WITH_EDGES
350
F229
  3
SHADES_OF_GRAY
350
F226
  3
SKETCHY
350
F227
  3
THICKEN
350
D077
  3
WIREFRAME
350
F224
  3
X-RAY
350
F228
1001
ACAD
1000
TREAT_AS_HARD
1070
     0
  0
DICTIONARY
  5
10561
102
{ACAD_REACTORS
330
C
102
}
330
C
100
AcDbDictionary
  3
COLORDICT
350
10562
  3
MATERIALDICT
350
10563
1001
ACAD
1000
TREAT_AS_HARD
1070
     0
  0
DICTIONARY
  5
37
102
{ACAD_REACTORS
330
C
102
}
330
C
100
AcDbDictionary
  3
CANNOSCALE
350
F285
  3
CMLEADERSTYLE
350
D117
  3
CTABLESTYLE
350
29E
  3
DIMADEC
350
38
  3
DIMASSOC
350
1CE
  3
HIDETEXT
350
704E
  3
INDEXCTL
350
D11A
  3
INTERSECTIONCOLOR
350
7052
  3
INTERSECTIONDISPLAY
350
7051
  3
MSLTSCALE
350
F286
  3
OBSCOLOR
350
704F
  3
OBSLTYPE
350
7050
  3
PROJECTNAME
350
1CF
  3
SORTENTS
350
D119
  3
XCLIPFRAME
350
F223
1001
ACAD
1000
TREAT_AS_HARD
1070
     0
  0
DICTIONARY
  5
D8
102
{ACAD_REACTORS
330
C
102
}
330
C
100
AcDbDictionary
1001
ACAD
1000
TREAT_AS_HARD
1070
     0
  0
DICTIONARY
  5
20
102
{ACAD_REACTORS
330
C
102
}
330
C
100
AcDbDictionary
1001
DRAWINGVARIABLESXDATA
1000
POLARANG
1000
0.261799387799149410000000
1000
POLARMODE
1000
1
1000
POLARSTYLE
1000
1
1001
ACAD
1000
TREAT_AS_HARD
1070
     0
  0
XRECORD
  5
10564
102
{ACAD_REACTORS
330
C
102
}
330
C
100
AcDbXrecord
  1
DWGPROPS COOKIE
  2

  3

  4

  6

  7

  8
3684
  9

300
=
301
=
302
=
303
=
304
=
305
=
306
=
307
=
308
=
309
=
 40
0.0
 41
2451318.246352917
 42
2459111.201499525
  1

 90
        0
  0
DICTIONARY
  5
D16D
102
{ACAD_REACTORS
330
D16C
102
}
330
D16C
100
AcDbDictionary
1001
ACAD
1000
TREAT_AS_HARD
1070
     0
  0
ACAD_PROXY_OBJECT
  5
D0B6
102
{ACAD_REACTORS
330
D0B5
102
}
330
D0B5
100
AcDbZombieObject
 90
      499
 91
      515
 93
       34
310
40C8804040
  0
ACAD_PROXY_OBJECT
  5
D0B8
102
{ACAD_REACTORS
330
D0B7
102
}
330
D0B7
100
AcDbZombieObject
 90
      499
 91
      515
 93
       34
310
40C8804040
  0
ACAD_PROXY_OBJECT
  5
D0BA
102
{ACAD_REACTORS
330
D0B9
102
}
330
D0B9
100
AcDbZombieObject
 90
      499
 91
      515
 93
       34
310
40C8804040
  0
ACAD_PROXY_OBJECT
  5
D0C0
102
{ACAD_REACTORS
330
D0BF
102
}
330
D0BF
100
AcDbZombieObject
 90
      499
 91
      515
 93
       34
310
40C8804040
  0
ACAD_PROXY_OBJECT
  5
D0C6
102
{ACAD_REACTORS
330
D0C5
102
}
330
D0C5
100
AcDbZombieObject
 90
      499
 91
      515
 93
       34
310
40C8804040
  0
SORTENTSTABLE
  5
890
102
{ACAD_REACTORS
330
88F
102
}
330
88F
100
AcDbSortentsTable
330
18
331
0
  5
C618
331
0
  5
E8A1
331
0
  5
E8A2
331
0
  5
E8A3
331
0
  5
E8A7
331
E401
  5
FFF7
331
E404
  5
FFF8
331
E405
  5
FFF9
331
0
  5
FF41
331
0
  5
FF42
331
0
  5
FF43
331
0
  5
FF44
331
0
  5
FF45
331
E868
  5
10014
331
0
  5
FF47
331
0
  5
FF48
331
E89B
  5
1001A
331
E89C
  5
1001B
331
E89D
  5
1001C
331
E89E
  5
1001D
331
E89F
  5
1001E
331
E8A0
  5
1001F
331
E8A1
  5
10020
331
E8A2
  5
10021
331
E8A3
  5
10022
331
E8A4
  5
10023
331
E8A5
  5
10024
331
E8A6
  5
10025
331
E8A7
  5
10026
331
E8A8
  5
10027
331
E8A9
  5
10028
331
E8AA
  5
10029
331
E8AB
  5
1002A
331
0
  5
FF5B
331
0
  5
FF5C
331
FF1A
  5
104CD
331
FF1C
  5
104CE
331
FF1E
  5
104CF
331
FF20
  5
104D0
331
FF24
  5
104D1
331
FF25
  5
104D2
331
FF27
  5
104D3
331
FF28
  5
104D4
331
FF29
  5
104D5
331
FF2A
  5
104D6
331
FF2B
  5
104D7
331
FF2D
  5
104D8
331
FF2E
  5
104D9
331
FF34
  5
104DA
331
FF36
  5
104DB
331
FF37
  5
104DC
331
FF38
  5
104DD
331
FF39
  5
104DE
331
FF3A
  5
104DF
331
FF3B
  5
104E0
331
FF3C
  5
104E1
331
FF3D
  5
104E2
331
FF3E
  5
104E3
331
FF3F
  5
104E4
331
FF40
  5
104E5
331
FF41
  5
104E6
331
FF42
  5
104E7
331
FF43
  5
104E8
331
FF44
  5
104E9
331
FF45
  5
104EA
331
FF46
  5
104EB
331
FF47
  5
104EC
331
FF48
  5
104ED
331
FF49
  5
104EE
331
FF4A
  5
104EF
331
FF4B
  5
104F0
331
FF4C
  5
104F1
331
FF4D
  5
104F2
331
FF4E
  5
104F3
331
FF50
  5
104F4
331
FF51
  5
104F5
331
FF52
  5
104F6
331
FF53
  5
104F7
331
FF54
  5
104F8
331
FF55
  5
104F9
331
FF56
  5
104FA
331
FF57
  5
104FB
331
FF58
  5
104FC
331
FF59
  5
104FD
331
FF5A
  5
104FE
331
FF5B
  5
104FF
331
FF5C
  5
10500
331
FF5D
  5
10501
331
FF5E
  5
10502
331
FF5F
  5
10503
331
FF65
  5
10504
331
FF66
  5
10505
331
FFD7
  5
10506
331
FFD8
  5
10507
331
FFD9
  5
10508
331
FFDA
  5
10509
331
FFDD
  5
1050A
331
FFDE
  5
1050B
331
FFDF
  5
1050C
331
FFE0
  5
1050D
331
FFE1
  5
1050E
331
FFE2
  5
1050F
331
FFE3
  5
10510
331
FFE4
  5
10511
331
FFE5
  5
10512
331
FFE6
  5
10513
331
FFE7
  5
10514
331
FFE8
  5
10515
331
FFE9
  5
10516
331
FFEA
  5
10517
331
FFEB
  5
10518
331
FFEC
  5
10519
331
FFED
  5
1051A
331
FFEF
  5
1051B
331
FFF0
  5
1051C
331
FFF1
  5
1051D
331
FFF2
  5
1051E
331
FFF3
  5
1051F
331
FFF4
  5
10520
331
FFF5
  5
10521
331
FFF6
  5
10522
331
FFF7
  5
10523
331
FFF8
  5
10524
331
FFF9
  5
10525
331
FFFA
  5
10526
331
FFFB
  5
10527
331
FFFC
  5
10528
331
FFFD
  5
10529
331
FFFE
  5
1052A
331
FFFF
  5
1052B
331
10000
  5
1052C
331
10001
  5
1052D
331
10002
  5
1052E
331
10003
  5
1052F
331
10004
  5
10530
331
10005
  5
10531
331
10006
  5
10532
331
10007
  5
10533
331
10008
  5
10534
331
10009
  5
10535
331
1000A
  5
10536
331
1000B
  5
10537
331
1000C
  5
10538
331
1000D
  5
10539
331
1000E
  5
1053A
331
1000F
  5
1053B
331
10010
  5
1053C
331
10011
  5
1053D
331
10012
  5
1053E
331
10013
  5
1053F
331
10014
  5
10540
331
10015
  5
10541
331
10016
  5
10542
331
10017
  5
10543
331
10018
  5
10544
331
10019
  5
10545
331
1001A
  5
10546
331
1001B
  5
10547
331
1001C
  5
10548
331
1001D
  5
10549
331
1001E
  5
1054A
331
1001F
  5
1054B
331
10020
  5
1054C
331
10021
  5
1054D
331
10022
  5
1054E
331
10023
  5
1054F
331
10024
  5
10550
331
10025
  5
10551
331
10026
  5
10552
331
10027
  5
10553
331
10028
  5
10554
331
10029
  5
10555
331
1002A
  5
10556
331
1002B
  5
10557
331
1002C
  5
10558
331
1002D
  5
10559
331
1002E
  5
1055A
331
1002F
  5
1055B
331
10030
  5
1055C
331
10035
  5
1055D
331
10036
  5
1055E
331
10037
  5
1055F
331
10079
  5
10560
331
104C2
  5
E3F0
331
104C3
  5
E3F1
331
104C4
  5
E3F2
331
0
  5
E3F3
331
0
  5
E401
331
0
  5
E404
331
104C8
  5
FF5E
331
104C9
  5
FF5F
331
104CA
  5
FF65
331
0
  5
E886
331
0
  5
E887
331
0
  5
E8A0
331
104CE
  5
FFDF
331
104CF
  5
FFE0
331
104D0
  5
FFE1
331
0
  5
E8A4
331
0
  5
E8A5
331
0
  5
E8A6
331
104D4
  5
FFEC
331
104D5
  5
FFED
331
104D6
  5
FFEF
331
0
  5
E8AA
331
0
  5
E8AB
331
0
  5
E8AC
331
104DA
  5
E405
331
104DB
  5
E72E
331
104DC
  5
E72F
331
104DD
  5
E84E
331
104DE
  5
E863
331
104DF
  5
E868
331
104E0
  5
E869
331
104E1
  5
FF66
331
104E2
  5
FFD7
331
104E3
  5
FFD8
331
104E4
  5
FFD9
331
104E5
  5
FFDA
331
104E6
  5
FFDD
331
104E7
  5
FFDE
331
104E8
  5
FFE2
331
104E9
  5
FFE6
331
104EA
  5
FFE7
331
104EB
  5
FFE8
331
104EC
  5
FFE9
331
104ED
  5
FFEA
331
104EE
  5
FFEB
331
104EF
  5
FFF0
331
104F0
  5
FFF1
331
104F1
  5
FFF2
331
104F2
  5
FFF3
331
104F3
  5
FFF4
331
104F4
  5
FFF5
331
104F5
  5
FFF6
331
104F6
  5
E8A8
331
104F7
  5
E8A9
331
104F8
  5
E8AE
331
0
  5
E8B1
331
0
  5
E8B2
331
0
  5
E8B3
331
104FC
  5
FF2D
331
104FD
  5
FF2E
331
104FE
  5
FF38
331
0
  5
FF1C
331
0
  5
FF1E
331
0
  5
FF20
331
10502
  5
FF40
331
10503
  5
FF46
331
10504
  5
FF49
331
0
  5
FF28
331
0
  5
FF29
331
0
  5
FF2A
331
10508
  5
FF52
331
10509
  5
FF53
331
1050A
  5
FF54
331
0
  5
FF34
331
0
  5
FF36
331
0
  5
FF37
331
1050E
  5
FFFA
331
1050F
  5
FFFB
331
10510
  5
FFFC
331
10511
  5
FFFD
331
10512
  5
FFFE
331
10513
  5
FFFF
331
10514
  5
10000
331
10515
  5
10001
331
10516
  5
10002
331
0
  5
FFE3
331
0
  5
FFE4
331
0
  5
FFE5
331
1051A
  5
10010
331
1051B
  5
10011
331
1051C
  5
10012
331
1051D
  5
10013
331
1051E
  5
10015
331
1051F
  5
10016
331
10520
  5
10017
331
10521
  5
10018
331
10522
  5
10019
331
10523
  5
1002B
331
10524
  5
1002C
331
10525
  5
1002D
331
10526
  5
1002E
331
0
  5
10006
331
0
  5
10007
331
0
  5
10008
331
1052A
  5
104C3
331
1052B
  5
104C4
331
1052C
  5
104C5
331
0
  5
1000C
331
0
  5
1000D
331
0
  5
1000E
331
10530
  5
E93C
331
10531
  5
ECAA
331
10532
  5
FF1A
331
10533
  5
FF24
331
10534
  5
FF25
331
10535
  5
FF27
331
10536
  5
FF2B
331
10537
  5
FF39
331
10538
  5
FF3A
331
10539
  5
FF3B
331
1053A
  5
FF3C
331
1053B
  5
FF3D
331
1053C
  5
FF3E
331
1053D
  5
FF3F
331
1053E
  5
FF4A
331
1053F
  5
FF4B
331
10540
  5
FF4C
331
10541
  5
FF4D
331
10542
  5
FF4E
331
10543
  5
FF50
331
10544
  5
FF51
331
10545
  5
FF55
331
10546
  5
FF56
331
10547
  5
FF57
331
10548
  5
FF58
331
10549
  5
FF59
331
1054A
  5
FF5A
331
1054B
  5
FF5D
331
1054C
  5
10003
331
1054D
  5
10004
331
1054E
  5
10005
331
1054F
  5
10009
331
10550
  5
1000A
331
10551
  5
1000B
331
10552
  5
1000F
331
10553
  5
1002F
331
10554
  5
10030
331
10555
  5
10035
331
10556
  5
10036
331
10557
  5
10037
331
10558
  5
10079
331
10559
  5
104C2
331
1055A
  5
104C6
331
1055B
  5
104C7
331
1055C
  5
104C8
331
1055D
  5
104C9
331
1055E
  5
104CA
331
1055F
  5
104CB
331
10560
  5
104CC
  0
SORTENTSTABLE
  5
FAC4
102
{ACAD_REACTORS
330
FAC3
102
}
330
FAC3
100
AcDbSortentsTable
330
FAC2
331
FAC6
  5
FAC7
331
FAC7
  5
FAC6
  0
GROUP
  5
10031
102
{ACAD_REACTORS
330
D
102
}
330
D
100
AcDbGroup
300

 70
     1
 71
     1
340
10030
340
1002F
340
1002E
340
1002D
340
1002C
340
1002B
340
1002A
340
10029
340
10028
340
10027
340
10026
340
10025
340
10024
340
10023
340
10022
340
10021
340
10020
340
1001F
340
1001E
340
1001D
340
1001C
340
1001B
340
1001A
340
10019
340
10018
340
10017
340
10016
340
10015
340
10014
340
10013
340
10012
340
10011
340
10010
340
1000F
340
1000E
340
1000D
340
1000C
340
1000B
340
1000A
340
10009
340
10008
340
10007
340
10006
340
10005
340
10004
340
10003
340
10002
340
10001
340
10000
340
FF5F
340
FF5E
340
FF5D
340
FF5C
340
FF5B
340
FF5A
340
FF59
340
FF58
340
FF57
340
FF56
340
FF55
340
FF54
340
FF53
340
FF52
340
FF51
340
FF50
340
FF4E
340
FF4D
340
FF4C
340
FF4B
340
FF4A
340
FF49
340
FF48
340
FF47
340
FF46
340
FF45
340
FF44
340
FF43
340
FF42
340
FF41
340
FF40
340
FF3F
340
FF3E
340
FF3D
340
FF3C
340
FF3B
340
FF3A
340
FF39
340
FF38
340
FF37
340
FF36
340
FF34
340
FF2E
340
FF2D
340
FF2B
340
FF2A
340
FF29
  0
GROUP
  5
10032
102
{ACAD_REACTORS
330
D
102
}
330
D
100
AcDbGroup
300

 70
     1
 71
     1
340
FFFF
340
FFFE
340
FFFD
340
FFFC
340
FFFB
340
FFFA
340
FFF9
340
FFF8
340
FFF7
340
FFF6
340
FFF5
340
FFF4
340
FFF3
340
FFF2
340
FFF1
340
FFF0
340
FFEF
340
FFED
340
FFEC
340
FFEB
340
FFEA
340
FFE9
340
FFE8
340
FFE7
340
FFE6
340
FFE5
340
FFE4
340
FFE3
340
FFE2
340
FFE1
340
FFE0
340
FFDF
340
FFDE
340
FFDD
340
FFDA
340
FFD9
340
FFD8
340
FFD7
  0
MATERIAL
  5
D05A
102
{ACAD_REACTORS
330
18C
102
}
102
{ACAD_XDICTIONARY
360
106FF
102
}
330
18C
100
AcDbMaterial
  1
BYBLOCK
 72
     0
 73
     2
 43
0.0208333333333333
 43
0.0
 43
0.0
 43
0.0
 43
0.0
 43
0.0208333333333333
 43
0.0
 43
0.0
 43
0.0
 43
0.0
 43
1.0
 43
0.0
 43
0.0
 43
0.0
 43
0.0
 43
1.0
 77
     0
 78
     2
 47
0.0208333333333333
 47
0.0
 47
0.0
 47
0.0
 47
0.0
 47
0.0208333333333333
 47
0.0
 47
0.0
 47
0.0
 47
0.0
 47
1.0
 47
0.0
 47
0.0
 47
0.0
 47
0.0
 47
1.0
171
     0
172
     2
 49
0.0208333333333333
 49
0.0
 49
0.0
 49
0.0
 49
0.0
 49
0.0208333333333333
 49
0.0
 49
0.0
 49
0.0
 49
0.0
 49
1.0
 49
0.0
 49
0.0
 49
0.0
 49
0.0
 49
1.0
175
     0
176
     2
142
0.0208333333333333
142
0.0
142
0.0
142
0.0
142
0.0
142
0.0208333333333333
142
0.0
142
0.0
142
0.0
142
0.0
142
1.0
142
0.0
142
0.0
142
0.0
142
0.0
142
1.0
179
     0
270
     2
144
0.0208333333333333
144
0.0
144
0.0
144
0.0
144
0.0
144
0.0208333333333333
144
0.0
144
0.0
144
0.0
144
0.0
144
1.0
144
0.0
144
0.0
144
0.0
144
0.0
144
1.0
274
     2
147
0.0208333333333333
147
0.0
147
0.0
147
0.0
147
0.0
147
0.0208333333333333
147
0.0
147
0.0
147
0.0
147
0.0
147
1.0
147
0.0
147
0.0
147
0.0
147
0.0
147
1.0
  0
MATERIAL
  5
D052
102
{ACAD_REACTORS
330
18C
102
}
102
{ACAD_XDICTIONARY
360
10701
102
}
330
18C
100
AcDbMaterial
  1
BYLAYER
 72
     0
 73
     2
 43
0.0208333333333333
 43
0.0
 43
0.0
 43
0.0
 43
0.0
 43
0.0208333333333333
 43
0.0
 43
0.0
 43
0.0
 43
0.0
 43
1.0
 43
0.0
 43
0.0
 43
0.0
 43
0.0
 43
1.0
 77
     0
 78
     2
 47
0.0208333333333333
 47
0.0
 47
0.0
 47
0.0
 47
0.0
 47
0.0208333333333333
 47
0.0
 47
0.0
 47
0.0
 47
0.0
 47
1.0
 47
0.0
 47
0.0
 47
0.0
 47
0.0
 47
1.0
171
     0
172
     2
 49
0.0208333333333333
 49
0.0
 49
0.0
 49
0.0
 49
0.0
 49
0.0208333333333333
 49
0.0
 49
0.0
 49
0.0
 49
0.0
 49
1.0
 49
0.0
 49
0.0
 49
0.0
 49
0.0
 49
1.0
175
     0
176
     2
142
0.0208333333333333
142
0.0
142
0.0
142
0.0
142
0.0
142
0.0208333333333333
142
0.0
142
0.0
142
0.0
142
0.0
142
1.0
142
0.0
142
0.0
142
0.0
142
0.0
142
1.0
179
     0
270
     2
144
0.0208333333333333
144
0.0
144
0.0
144
0.0
144
0.0
144
0.0208333333333333
144
0.0
144
0.0
144
0.0
144
0.0
144
1.0
144
0.0
144
0.0
144
0.0
144
0.0
144
1.0
274
     2
147
0.0208333333333333
147
0.0
147
0.0
147
0.0
147
0.0
147
0.0208333333333333
147
0.0
147
0.0
147
0.0
147
0.0
147
1.0
147
0.0
147
0.0
147
0.0
147
0.0
147
1.0
  0
MATERIAL
  5
D062
102
{ACAD_REACTORS
330
18C
102
}
102
{ACAD_XDICTIONARY
360
10703
102
}
330
18C
100
AcDbMaterial
  1
GLOBAL
 72
     0
 73
     2
 43
0.0208333333333333
 43
0.0
 43
0.0
 43
0.0
 43
0.0
 43
0.0208333333333333
 43
0.0
 43
0.0
 43
0.0
 43
0.0
 43
1.0
 43
0.0
 43
0.0
 43
0.0
 43
0.0
 43
1.0
 77
     0
 78
     2
 47
0.0208333333333333
 47
0.0
 47
0.0
 47
0.0
 47
0.0
 47
0.0208333333333333
 47
0.0
 47
0.0
 47
0.0
 47
0.0
 47
1.0
 47
0.0
 47
0.0
 47
0.0
 47
0.0
 47
1.0
171
     0
172
     2
 49
0.0208333333333333
 49
0.0
 49
0.0
 49
0.0
 49
0.0
 49
0.0208333333333333
 49
0.0
 49
0.0
 49
0.0
 49
0.0
 49
1.0
 49
0.0
 49
0.0
 49
0.0
 49
0.0
 49
1.0
175
     0
176
     2
142
0.0208333333333333
142
0.0
142
0.0
142
0.0
142
0.0
142
0.0208333333333333
142
0.0
142
0.0
142
0.0
142
0.0
142
1.0
142
0.0
142
0.0
142
0.0
142
0.0
142
1.0
179
     0
270
     2
144
0.0208333333333333
144
0.0
144
0.0
144
0.0
144
0.0
144
0.0208333333333333
144
0.0
144
0.0
144
0.0
144
0.0
144
1.0
144
0.0
144
0.0
144
0.0
144
0.0
144
1.0
274
     2
147
0.0208333333333333
147
0.0
147
0.0
147
0.0
147
0.0
147
0.0208333333333333
147
0.0
147
0.0
147
0.0
147
0.0
147
1.0
147
0.0
147
0.0
147
0.0
147
0.0
147
1.0
  0
ACAD_PROXY_OBJECT
  5
FAC1
102
{ACAD_REACTORS
330
D09D
102
}
330
D09D
100
AcDbZombieObject
 90
      499
 91
      511
 93
      610
310
40501902A4063FBFFFFFE0000000000000020000000000000020408000000000000004090140501A000000000000041000000000000000410257501000000000000380FC000000000000039000
340
12
340
42
340
F
340
FAC2
 94
        0
1001
ACAD_MLEADERVER
1070
     2
  0
ACAD_PROXY_OBJECT
  5
FE1A
102
{ACAD_REACTORS
330
D09D
102
}
330
D09D
100
AcDbZombieObject
 90
      499
 91
      511
 93
      546
310
40901902A4063FBFFFFFE0000000000000020400000000000020C080000000000000040905415019C900000000000003100000000000000041025764000000000000039000
340
12
340
42
340
F
340
0
 94
        0
1001
ACAD_MLEADERVER
1070
     2
  0
ACAD_PROXY_OBJECT
  5
D09E
102
{ACAD_REACTORS
330
D09D
102
}
330
D09D
100
AcDbZombieObject
 90
      499
 91
      511
 93
      610
310
40901902A4063FBFFFFFE000000000000002040AD7A3703D0AD73F4214DD185B99185C990000000000000104090141901A00000000000004100000000000000041025764000000000000300FC0
340
12
340
0
340
F
340
0
 94
        0
1001
ACAD_MLEADERVER
1070
     2
  0
MLINESTYLE
  5
1C
102
{ACAD_REACTORS
330
1B
102
}
330
1B
100
AcDbMlineStyle
  2
STANDARD
 70
     0
  3

 62
   256
 51
90.0
 52
90.0
 71
     2
 49
0.5
 62
   256
  6
BYLAYER
 49
-0.5
 62
   256
  6
BYLAYER
  0
ACAD_PROXY_OBJECT
  5
D07C
102
{ACAD_REACTORS
330
D07B
102
}
330
D07B
100
AcDbZombieObject
 90
      499
 91
      510
 93
       41
310
903313A31580
  0
ACAD_PROXY_OBJECT
  5
D07D
102
{ACAD_REACTORS
330
D07B
102
}
330
D07B
100
AcDbZombieObject
 90
      499
 91
      510
 93
      105
310
903313A324000000000000004000
  0
ACAD_PROXY_OBJECT
  5
D07E
102
{ACAD_REACTORS
330
D07B
102
}
330
D07B
100
AcDbZombieObject
 90
      499
 91
      510
 93
      105
310
903313A344000000000000104000
  0
ACAD_PROXY_OBJECT
  5
D07F
102
{ACAD_REACTORS
330
D07B
102
}
330
D07B
100
AcDbZombieObject
 90
      499
 91
      510
 93
      105
310
903313A354000000000000144000
  0
ACAD_PROXY_OBJECT
  5
D080
102
{ACAD_REACTORS
330
D07B
102
}
330
D07B
100
AcDbZombieObject
 90
      499
 91
      510
 93
      105
310
903313A384000000000000204000
  0
ACAD_PROXY_OBJECT
  5
D081
102
{ACAD_REACTORS
330
D07B
102
}
330
D07B
100
AcDbZombieObject
 90
      499
 91
      510
 93
      113
310
904313A31304000000000000244000
  0
ACAD_PROXY_OBJECT
  5
D082
102
{ACAD_REACTORS
330
D07B
102
}
330
D07B
100
AcDbZombieObject
 90
      499
 91
      510
 93
      113
310
904313A31364000000000000304000
  0
ACAD_PROXY_OBJECT
  5
D083
102
{ACAD_REACTORS
330
D07B
102
}
330
D07B
100
AcDbZombieObject
 90
      499
 91
      510
 93
      113
310
904313A32304000000000000344000
  0
ACAD_PROXY_OBJECT
  5
D084
102
{ACAD_REACTORS
330
D07B
102
}
330
D07B
100
AcDbZombieObject
 90
      499
 91
      510
 93
      113
310
904313A333040000000000003E4000
  0
ACAD_PROXY_OBJECT
  5
D085
102
{ACAD_REACTORS
330
D07B
102
}
330
D07B
100
AcDbZombieObject
 90
      499
 91
      510
 93
      113
310
904313A34304000000000000444000
  0
ACAD_PROXY_OBJECT
  5
D086
102
{ACAD_REACTORS
330
D07B
102
}
330
D07B
100
AcDbZombieObject
 90
      499
 91
      510
 93
      113
310
904313A35304000000000000494000
  0
ACAD_PROXY_OBJECT
  5
D087
102
{ACAD_REACTORS
330
D07B
102
}
330
D07B
100
AcDbZombieObject
 90
      499
 91
      510
 93
      121
310
905313A3130304000000000000594000
  0
ACAD_PROXY_OBJECT
  5
D088
102
{ACAD_REACTORS
330
D07B
102
}
330
D07B
100
AcDbZombieObject
 90
      499
 91
      510
 93
      105
310
903323A310000000000000010100
  0
ACAD_PROXY_OBJECT
  5
D089
102
{ACAD_REACTORS
330
D07B
102
}
330
D07B
100
AcDbZombieObject
 90
      499
 91
      510
 93
      105
310
903343A310000000000000410100
  0
ACAD_PROXY_OBJECT
  5
D08A
102
{ACAD_REACTORS
330
D07B
102
}
330
D07B
100
AcDbZombieObject
 90
      499
 91
      510
 93
      105
310
903383A310000000000000810100
  0
ACAD_PROXY_OBJECT
  5
D08B
102
{ACAD_REACTORS
330
D07B
102
}
330
D07B
100
AcDbZombieObject
 90
      499
 91
      510
 93
      113
310
90431303A310000000000000910100
  0
ACAD_PROXY_OBJECT
  5
D08C
102
{ACAD_REACTORS
330
D07B
102
}
330
D07B
100
AcDbZombieObject
 90
      499
 91
      510
 93
      121
310
9053130303A310000000000001650100
  0
ACAD_PROXY_OBJECT
  5
D08D
102
{ACAD_REACTORS
330
D07B
102
}
330
D07B
100
AcDbZombieObject
 90
      499
 91
      510
 93
      257
310
90E312F31323822203D2031272D3022000000000000200FC000000000000284000
  0
ACAD_PROXY_OBJECT
  5
D08E
102
{ACAD_REACTORS
330
D07B
102
}
330
D07B
100
AcDbZombieObject
 90
      499
 91
      510
 93
      249
310
90D312F363422203D2031272D3022000000000000240FC000000000000284000
  0
ACAD_PROXY_OBJECT
  5
D08F
102
{ACAD_REACTORS
330
D07B
102
}
330
D07B
100
AcDbZombieObject
 90
      499
 91
      510
 93
      249
310
90D312F333222203D2031272D3022000000000000280FC000000000000284000
  0
ACAD_PROXY_OBJECT
  5
D090
102
{ACAD_REACTORS
330
D07B
102
}
330
D07B
100
AcDbZombieObject
 90
      499
 91
      510
 93
      249
310
90D312F313622203D2031272D30220000000000002C0FC000000000000284000
  0
ACAD_PROXY_OBJECT
  5
D091
102
{ACAD_REACTORS
330
D07B
102
}
330
D07B
100
AcDbZombieObject
 90
      499
 91
      510
 93
      249
310
90D332F333222203D2031272D30220000000000002E0FC000000000000284000
  0
ACAD_PROXY_OBJECT
  5
D092
102
{ACAD_REACTORS
330
D07B
102
}
330
D07B
100
AcDbZombieObject
 90
      499
 91
      510
 93
      241
310
90C312F3822203D2031272D3022000000000000300FC000000000000284000
  0
ACAD_PROXY_OBJECT
  5
D093
102
{ACAD_REACTORS
330
D07B
102
}
330
D07B
100
AcDbZombieObject
 90
      499
 91
      510
 93
      249
310
90D332F313622203D2031272D3022000000000000320FC000000000000284000
  0
ACAD_PROXY_OBJECT
  5
D094
102
{ACAD_REACTORS
330
D07B
102
}
330
D07B
100
AcDbZombieObject
 90
      499
 91
      510
 93
      241
310
90C312F3422203D2031272D3022000000000000340FC000000000000284000
  0
ACAD_PROXY_OBJECT
  5
D095
102
{ACAD_REACTORS
330
D07B
102
}
330
D07B
100
AcDbZombieObject
 90
      499
 91
      510
 93
      241
310
90C332F3822203D2031272D3022000000000000360FC000000000000284000
  0
ACAD_PROXY_OBJECT
  5
D096
102
{ACAD_REACTORS
330
D07B
102
}
330
D07B
100
AcDbZombieObject
 90
      499
 91
      510
 93
      241
310
90C312F3222203D2031272D3022000000000000380FC000000000000284000
  0
ACAD_PROXY_OBJECT
  5
D097
102
{ACAD_REACTORS
330
D07B
102
}
330
D07B
100
AcDbZombieObject
 90
      499
 91
      510
 93
      241
310
90C332F3422203D2031272D30220000000000003A0FC000000000000284000
  0
ACAD_PROXY_OBJECT
  5
D098
102
{ACAD_REACTORS
330
D07B
102
}
330
D07B
100
AcDbZombieObject
 90
      499
 91
      510
 93
      161
310
90A3122203D2031272D30224000000000000284000
  0
ACAD_PROXY_OBJECT
  5
D099
102
{ACAD_REACTORS
330
D07B
102
}
330
D07B
100
AcDbZombieObject
 90
      499
 91
      510
 93
      257
310
90E312D312F3222203D2031272D30220000000000003E0FC000000000000284000
  0
ACAD_PROXY_OBJECT
  5
D09A
102
{ACAD_REACTORS
330
D07B
102
}
330
D07B
100
AcDbZombieObject
 90
      499
 91
      510
 93
      225
310
90A3322203D2031272D302200000000000002100000000000000284000
  0
ACAD_PROXY_OBJECT
  5
D09B
102
{ACAD_REACTORS
330
D07B
102
}
330
D07B
100
AcDbZombieObject
 90
      499
 91
      510
 93
      225
310
90A3622203D2031272D302200000000000006100000000000000284000
  0
ACAD_PROXY_OBJECT
  5
D09C
102
{ACAD_REACTORS
330
D07B
102
}
330
D07B
100
AcDbZombieObject
 90
      499
 91
      510
 93
      249
310
90D31272D3022203D2031272D30220000000000000A100000000000000284000
  0
ACAD_PROXY_OBJECT
  5
D070
102
{ACAD_REACTORS
330
D06A
102
}
330
D06A
100
AcDbZombieObject
 90
      499
 91
      509
 93
      436
310
42CC9915DA5C99599C985B595049028333333333333E3BF0000000000000FB0107901411070040501600405405064090741402480A0340
1001
ACAD
1000
AcDbSavedByObjectVersion
1070
     0
  0
ACAD_PROXY_OBJECT
  5
D072
102
{ACAD_REACTORS
330
D06A
102
}
330
D06A
100
AcDbZombieObject
 90
      499
 91
      509
 93
      500
310
424CD108121A5919195B90640502408333333333333E3BF0000000000000FB01079024090700405020000000000001110200405405064090740C02480A0340
1001
ACAD
1000
AcDbSavedByObjectVersion
1070
     0
  0
ACAD_PROXY_OBJECT
  5
D071
102
{ACAD_REACTORS
330
D06A
102
}
330
D06A
100
AcDbZombieObject
 90
      499
 91
      509
 93
      436
310
42CCD915DA5C99599C985B595059028333333333333E3BF0000000000000FB0107901411070040501600405405064090741402480A0340
1001
ACAD
1000
AcDbSavedByObjectVersion
1070
     0
  0
ACAD_PROXY_OBJECT
  5
D06F
102
{ACAD_REACTORS
330
D06A
102
}
330
D06A
100
AcDbZombieObject
 90
      499
 91
      509
 93
      388
310
4150985CDA58D07406404333333333333E3BF0000000000000FB0107A41107004050150841D405064090741402480A0350
1001
ACAD
1000
AcDbSavedByObjectVersion
1070
     0
  0
ACAD_PROXY_OBJECT
  5
D076
102
{ACAD_REACTORS
330
D06A
102
}
330
D06A
100
AcDbZombieObject
 90
      499
 91
      509
 93
      428
310
42109C9A59DA1D195B90C409028333333333333E3BF0000000000000FB010790141107004050150841D405064090741402480A029950
1001
ACAD
1000
AcDbSavedByObjectVersion
1070
     0
  0
ACAD_PROXY_OBJECT
  5
D07A
102
{ACAD_REACTORS
330
D06A
102
}
330
D06A
100
AcDbZombieObject
 90
      499
 91
      509
 93
      452
310
42D0DBDB1BDC90DA185B99D95104090240C333333333333E3BF0000000000000FB0108901411070040501508421405064090741402480A0350
1001
ACAD
1000
AcDbSavedByObjectVersion
1070
     0
  0
ACAD_PROXY_OBJECT
  5
D073
102
{ACAD_REACTORS
330
D06A
102
}
330
D06A
100
AcDbZombieObject
 90
      499
 91
      509
 93
      500
310
4290DBDB98D95C1D1D585B10940D028333333333333E3BF0000000000000FB0107902409070040501000000000000111010841D405064090740C02480A0340
1001
ACAD
1000
AcDbSavedByObjectVersion
1070
     0
  0
ACAD_PROXY_OBJECT
  5
D075
102
{ACAD_REACTORS
330
D06A
102
}
330
D06A
100
AcDbZombieObject
 90
      499
 91
      509
 93
      412
310
40D11A5B50B409028333333333333E3BF0000000000000FB010790141107004050150841D405064090741402480A02677FFFFFD0
1001
ACAD
1000
AcDbSavedByObjectVersion
1070
     0
  0
ACAD_PROXY_OBJECT
  5
D29F
102
{ACAD_REACTORS
330
D06A
102
}
330
D06A
100
AcDbZombieObject
 90
      499
 91
      509
 93
      452
310
43115919D950DBDB1BDC93D999916409028333333333333E3BF0000000000000FB010790141107004050150841D405064090741402480A0350
1001
ACAD
1000
AcDbSavedByObjectVersion
1070
     0
  0
ACAD_PROXY_OBJECT
  5
D079
102
{ACAD_REACTORS
330
D06A
102
}
330
D06A
100
AcDbZombieObject
 90
      499
 91
      509
 93
      444
310
42D19858D95C185D1D195C9B90F409028333333333333E3BF0000000000000FB010790141107004050150841D405064090741402480A0350
1001
ACAD
1000
AcDbSavedByObjectVersion
1070
     0
  0
ACAD_PROXY_OBJECT
  5
D06B
102
{ACAD_REACTORS
330
D06A
102
}
330
D06A
100
AcDbZombieObject
 90
      499
 91
      509
 93
      388
310
41119B185D240901404333333333333E3BF0000000000000F9010740A41107004050150841D405064090741402480A1B50
1001
ACAD
1000
AcDbSavedByObjectVersion
1070
     0
  0
ACAD_PROXY_OBJECT
  5
D06C
102
{ACAD_REACTORS
330
D06A
102
}
330
D06A
100
AcDbZombieObject
 90
      499
 91
      509
 93
      476
310
43519B185D15DA5D1A115919D95CD0140901404333333333333E3BF0000000000000F9010740901411070040501600405405064090741402480A1B50
1001
ACAD
1000
AcDbSavedByObjectVersion
1070
     0
  0
ACAD_PROXY_OBJECT
  5
D06D
102
{ACAD_REACTORS
330
D06A
102
}
330
D06A
100
AcDbZombieObject
 90
      499
 91
      509
 93
      412
310
41D1DBDD5C985D5910240902404333333333333E3BF0000000000000F9010740A411070040501641D405064090741402480A1B50
1001
ACAD
1000
AcDbSavedByObjectVersion
1070
     0
  0
ACAD_PROXY_OBJECT
  5
D06E
102
{ACAD_REACTORS
330
D06A
102
}
330
D06A
100
AcDbZombieObject
 90
      499
 91
      509
 93
      500
310
4411DBDD5C985D5915DA5D1A115919D95CD0340902404333333333333E3BF0000000000000F9010740901411070040501600405405064090741402480A1B50
1001
ACAD
1000
AcDbSavedByObjectVersion
1070
     0
  0
ACAD_PROXY_OBJECT
  5
F225
102
{ACAD_REACTORS
330
D06A
102
}
330
D06A
100
AcDbZombieObject
 90
      499
 91
      509
 93
      476
310
41921A5919195B90640502408333333333333E33F0000000000000F901079024090700405020000000000001110200405405064090740C02480A0340
1001
ACAD
1000
AcDbSavedByObjectVersion
1070
     0
  0
ACAD_PROXY_OBJECT
  5
D29D
102
{ACAD_REACTORS
330
D06A
102
}
330
D06A
100
AcDbZombieObject
 90
      499
 91
      509
 93
      428
310
42529A5D1D195C93D999914409028333333333333E3BF0000000000000FB010790141107004050150A41D405064090741402480A0350
1001
ACAD
1000
AcDbSavedByObjectVersion
1070
     0
  0
ACAD_PROXY_OBJECT
  5
D078
102
{ACAD_REACTORS
330
D06A
102
}
330
D06A
100
AcDbZombieObject
 90
      499
 91
      509
 93
      444
310
42D31A5B995C185D1D195C9B90E409028333333333333E3BF0000000000000FB010790141107004050750841D405064090741402483A0350
1001
ACAD
1000
AcDbSavedByObjectVersion
1070
     0
  0
ACAD_PROXY_OBJECT
  5
F22B
102
{ACAD_REACTORS
330
D06A
102
}
330
D06A
100
AcDbZombieObject
 90
      499
 91
      509
 93
      484
310
42135BD9195B1A5B99D0A409038333333333333E33F0000000000000F901074090290700405010000000000201990108421405064090741402480A1B40
1001
ACAD
1000
AcDbSavedByObjectVersion
1070
     0
  0
ACAD_PROXY_OBJECT
  5
D29E
102
{ACAD_REACTORS
330
D06A
102
}
330
D06A
100
AcDbZombieObject
 90
      499
 91
      509
 93
      444
310
42D3DD995C9A185B99D3D999915409028333333333333E3BF0000000000000FB010790141107004050150941D405064090741402480A0350
1001
ACAD
1000
AcDbSavedByObjectVersion
1070
     0
  0
ACAD_PROXY_OBJECT
  5
D074
102
{ACAD_REACTORS
330
D06A
102
}
330
D06A
100
AcDbZombieObject
 90
      499
 91
      509
 93
      420
310
425499585B1A5CDD1A58D08409028333333333333E3BF0000000000000FB01079019070040501508421405064090741402480A1B40
1001
ACAD
1000
AcDbSavedByObjectVersion
1070
     0
  0
ACAD_PROXY_OBJECT
  5
F22A
102
{ACAD_REACTORS
330
D06A
102
}
330
D06A
100
AcDbZombieObject
 90
      499
 91
      509
 93
      420
310
4194DA1859195911B40902404333333333333E33F0000000000000F9010740A41107004050150800405405064090840C02480A0B40
1001
ACAD
1000
AcDbSavedByObjectVersion
1070
     0
  0
ACAD_PROXY_OBJECT
  5
F229
102
{ACAD_REACTORS
330
D06A
102
}
330
D06A
100
AcDbZombieObject
 90
      499
 91
      509
 93
      516
310
4454DA18591959081DDA5D1A08195919D95CD1A40902404333333333333E33F0000000000000F901074090142907004050250800405405064090740C02480A0B40
1001
ACAD
1000
AcDbSavedByObjectVersion
1070
     0
  0
ACAD_PROXY_OBJECT
  5
F226
102
{ACAD_REACTORS
330
D06A
102
}
330
D06A
100
AcDbZombieObject
 90
      499
 91
      509
 93
      532
310
4394DA1859195CC81BD98811DC985E5174090240C333333333333E33F0000000000000F901079024090741D01000000000000111010841D405064090740C02480A0340
1001
ACAD
1000
AcDbSavedByObjectVersion
1070
     0
  0
ACAD_PROXY_OBJECT
  5
F227
102
{ACAD_REACTORS
330
D06A
102
}
330
D06A
100
AcDbZombieObject
 90
      499
 91
      509
 93
      476
310
41D4DAD95D18DA1E51840502408333333333333E33F0000000000000F901079024090741D01000000000000111010B41D405064090741802480A0340
1001
ACAD
1000
AcDbSavedByObjectVersion
1070
     0
  0
ACAD_PROXY_OBJECT
  5
D077
102
{ACAD_REACTORS
330
D06A
102
}
330
D06A
100
AcDbZombieObject
 90
      499
 91
      509
 93
      412
310
41D51A1A58DAD95B90D409028333333333333E3BF0000000000000FB010790141107004050150C41D405064090741402480A0350
1001
ACAD
1000
AcDbSavedByObjectVersion
1070
     0
  0
ACAD_PROXY_OBJECT
  5
F224
102
{ACAD_REACTORS
330
D06A
102
}
330
D06A
100
AcDbZombieObject
 90
      499
 91
      509
 93
      420
310
4255DA5C99599C985B595059028333333333333E33F0000000000000F90107901411070040501600405405064090740C02480A0340
1001
ACAD
1000
AcDbSavedByObjectVersion
1070
     0
  0
ACAD_PROXY_OBJECT
  5
F228
102
{ACAD_REACTORS
330
D06A
102
}
330
D06A
100
AcDbZombieObject
 90
      499
 91
      509
 93
      404
310
41560B54985E51940902404000000000000E03F0000000000000F9010740501907004050150841D405064090740C02480A1B40
1001
ACAD
1000
AcDbSavedByObjectVersion
1070
     0
  0
XRECORD
  5
10562
102
{ACAD_REACTORS
330
10561
102
}
330
10561
100
AcDbXrecord
340
18D
  0
XRECORD
  5
10563
102
{ACAD_REACTORS
330
10561
102
}
330
10561
100
AcDbXrecord
340
18C
  0
DICTIONARYVAR
  5
F285
102
{ACAD_REACTORS
330
37
102
}
330
37
100
DictionaryVariables
280
     0
  1
1:1
  0
DICTIONARYVAR
  5
D117
102
{ACAD_REACTORS
330
37
102
}
330
37
100
DictionaryVariables
280
     0
  1
Standard
  0
DICTIONARYVAR
  5
29E
102
{ACAD_REACTORS
330
37
102
}
330
37
100
DictionaryVariables
280
     0
  1
Standard
  0
DICTIONARYVAR
  5
38
102
{ACAD_REACTORS
330
37
102
}
330
37
100
DictionaryVariables
280
     0
  1
-1
  0
DICTIONARYVAR
  5
1CE
102
{ACAD_REACTORS
330
37
102
}
330
37
100
DictionaryVariables
280
     0
  1
2
  0
DICTIONARYVAR
  5
704E
102
{ACAD_REACTORS
330
37
102
}
330
37
100
DictionaryVariables
280
     0
  1
1
  0
DICTIONARYVAR
  5
D11A
102
{ACAD_REACTORS
330
37
102
}
330
37
100
DictionaryVariables
280
     0
  1
0
  0
DICTIONARYVAR
  5
7052
102
{ACAD_REACTORS
330
37
102
}
330
37
100
DictionaryVariables
280
     0
  1
8
  0
DICTIONARYVAR
  5
7051
102
{ACAD_REACTORS
330
37
102
}
330
37
100
DictionaryVariables
280
     0
  1
1
  0
DICTIONARYVAR
  5
F286
102
{ACAD_REACTORS
330
37
102
}
330
37
100
DictionaryVariables
280
     0
  1
0
  0
DICTIONARYVAR
  5
704F
102
{ACAD_REACTORS
330
37
102
}
330
37
100
DictionaryVariables
280
     0
  1
8
  0
DICTIONARYVAR
  5
7050
102
{ACAD_REACTORS
330
37
102
}
330
37
100
DictionaryVariables
280
     0
  1
2
  0
DICTIONARYVAR
  5
1CF
102
{ACAD_REACTORS
330
37
102
}
330
37
100
DictionaryVariables
280
     0
  1

  0
DICTIONARYVAR
  5
D119
102
{ACAD_REACTORS
330
37
102
}
330
37
100
DictionaryVariables
280
     0
  1
127
  0
DICTIONARYVAR
  5
F223
102
{ACAD_REACTORS
330
37
102
}
330
37
100
DictionaryVariables
280
     0
  1
2
  0
DICTIONARY
  5
106FF
330
D05A
100
AcDbDictionary
  3
ACAD_XREC_ROUNDTRIP
360
10700
1001
ACAD
1000
TREAT_AS_HARD
1070
     1
  0
DICTIONARY
  5
10701
330
D052
100
AcDbDictionary
  3
ACAD_XREC_ROUNDTRIP
360
10702
1001
ACAD
1000
TREAT_AS_HARD
1070
     1
  0
DICTIONARY
  5
10703
330
D062
100
AcDbDictionary
  3
ACAD_XREC_ROUNDTRIP
360
10704
1001
ACAD
1000
TREAT_AS_HARD
1070
     1
  0
XRECORD
  5
10700
102
{ACAD_REACTORS
330
106FF
102
}
330
106FF
100
AcDbXrecord
102
MATERIAL
148
0.0
149
0.0
149
0.0
 93
        0
 94
      127
282
     0
 72
     0
 77
     0
171
     0
175
     0
179
     0
273
     0
  0
XRECORD
  5
10702
102
{ACAD_REACTORS
330
10701
102
}
330
10701
100
AcDbXrecord
102
MATERIAL
148
0.0
149
0.0
149
0.0
 93
        0
 94
      127
282
     0
 72
     0
 77
     0
171
     0
175
     0
179
     0
273
     0
  0
XRECORD
  5
10704
102
{ACAD_REACTORS
330
10703
102
}
330
10703
100
AcDbXrecord
102
MATERIAL
148
0.0
149
0.0
149
0.0
 93
        0
 94
      127
282
     0
 72
     0
 77
     0
171
     0
175
     0
179
     0
273
     0
  0
ENDSEC
  0
EOF
