  0
SECTION
  2
HEADER
  9
$ACADVER
  1
AC1012
  9
$DWGCODEPAGE
  3
ansi_932
  9
$INSBASE
 10
0.0
 20
0.0
 30
0.0
  9
$EXTMIN
 10
-875.2999984517896
 20
-102.5336047617948
 30
0.0
  9
$EXTMAX
 10
94.55838168473034
 20
173.0284570476048
 30
0.0
  9
$LIMMIN
 10
0.0
 20
0.0
  9
$LIMMAX
 10
420.0
 20
297.0
  9
$ORTHOMODE
 70
     0
  9
$REGENMODE
 70
     1
  9
$FILLMODE
 70
     1
  9
$QTEXTMODE
 70
     0
  9
$MIRRTEXT
 70
     0
  9
$DRAGMODE
 70
     2
  9
$LTSCALE
 40
0.5
  9
$OSMODE
 70
  2175
  9
$ATTMODE
 70
     1
  9
$TEXTSIZE
 40
4.0
  9
$TRACEWID
 40
1.0
  9
$TEXTSTYLE
  7
STANDARD
  9
$CLAYER
  8
1TEXT
  9
$CELTYPE
  6
BYLAYER
  9
$CECOLOR
 62
   256
  9
$CELTSCALE
 40
1.0
  9
$DELOBJ
 70
     1
  9
$DISPSILH
 70
     0
  9
$DIMSCALE
 40
1.0
  9
$DIMASZ
 40
2.0
  9
$DIMEXO
 40
0.0
  9
$DIMDLI
 40
7.0
  9
$DIMRND
 40
0.0
  9
$DIMDLE
 40
0.0
  9
$DIMEXE
 40
1.0
  9
$DIMTP
 40
0.0
  9
$DIMTM
 40
0.0
  9
$DIMTXT
 40
3.5
  9
$DIMCEN
 40
0.0
  9
$DIMTSZ
 40
0.0
  9
$DIMTOL
 70
     0
  9
$DIMLIM
 70
     0
  9
$DIMTIH
 70
     0
  9
$DIMTOH
 70
     0
  9
$DIMSE1
 70
     0
  9
$DIMSE2
 70
     0
  9
$DIMTAD
 70
     1
  9
$DIMZIN
 70
     8
  9
$DIMBLK
  1

  9
$DIMASO
 70
     1
  9
$DIMSHO
 70
     1
  9
$DIMPOST
  1
 
  9
$DIMAPOST
  1

  9
$DIMALT
 70
     0
  9
$DIMALTD
 70
     2
  9
$DIMALTF
 40
25.4
  9
$DIMLFAC
 40
1.0
  9
$DIMTOFL
 70
     1
  9
$DIMTVP
 40
0.0
  9
$DIMTIX
 70
     0
  9
$DIMSOXD
 70
     0
  9
$DIMSAH
 70
     1
  9
$DIMBLK1
  1
OPEN30
  9
$DIMBLK2
  1
OPEN30
  9
$DIMSTYLE
  2
NEWX10
  9
$DIMCLRD
 70
   256
  9
$DIMCLRE
 70
   256
  9
$DIMCLRT
 70
   201
  9
$DIMTFAC
 40
0.7
  9
$DIMGAP
 40
0.7
  9
$DIMJUST
 70
     0
  9
$DIMSD1
 70
     0
  9
$DIMSD2
 70
     0
  9
$DIMTOLJ
 70
     1
  9
$DIMTZIN
 70
     8
  9
$DIMALTZ
 70
     0
  9
$DIMALTTZ
 70
     0
  9
$DIMFIT
 70
     2
  9
$DIMUPT
 70
     0
  9
$DIMUNIT
 70
     2
  9
$DIMDEC
 70
     2
  9
$DIMTDEC
 70
     4
  9
$DIMALTU
 70
     2
  9
$DIMALTTD
 70
     2
  9
$DIMTXSTY
  7
STANDARD
  9
$DIMAUNIT
 70
     0
  9
$LUNITS
 70
     2
  9
$LUPREC
 70
     4
  9
$SKETCHINC
 40
1.0
  9
$FILLETRAD
 40
0.0
  9
$AUNITS
 70
     0
  9
$AUPREC
 70
     2
  9
$MENU
  1
acad
  9
$ELEVATION
 40
0.0
  9
$PELEVATION
 40
0.0
  9
$THICKNESS
 40
0.0
  9
$LIMCHECK
 70
     0
  9
$CHAMFERA
 40
10.0
  9
$CHAMFERB
 40
10.0
  9
$CHAMFERC
 40
20.0
  9
$CHAMFERD
 40
0.0
  9
$SKPOLY
 70
     0
  9
$TDCREATE
 40
2451318.621352917
  9
$TDUPDATE
 40
2459111.58582287
  9
$TDINDWG
 40
0.6929456713
  9
$TDUSRTIMER
 40
0.6929456713
  9
$USRTIMER
 70
     1
  9
$ANGBASE
 50
0.0
  9
$ANGDIR
 70
     0
  9
$PDMODE
 70
     0
  9
$PDSIZE
 40
0.0
  9
$PLINEWID
 40
0.0
  9
$COORDS
 70
     2
  9
$SPLFRAME
 70
     0
  9
$SPLINETYPE
 70
     6
  9
$SPLINESEGS
 70
     8
  9
$ATTDIA
 70
     0
  9
$ATTREQ
 70
     1
  9
$HANDLING
 70
     1
  9
$HANDSEED
  5
10540
  9
$SURFTAB1
 70
     6
  9
$SURFTAB2
 70
     6
  9
$SURFTYPE
 70
     6
  9
$SURFU
 70
     6
  9
$SURFV
 70
     6
  9
$UCSNAME
  2

  9
$UCSORG
 10
0.0
 20
0.0
 30
0.0
  9
$UCSXDIR
 10
1.0
 20
0.0
 30
0.0
  9
$UCSYDIR
 10
0.0
 20
1.0
 30
0.0
  9
$PUCSNAME
  2

  9
$PUCSORG
 10
0.0
 20
0.0
 30
0.0
  9
$PUCSXDIR
 10
1.0
 20
0.0
 30
0.0
  9
$PUCSYDIR
 10
0.0
 20
1.0
 30
0.0
  9
$USERI1
 70
     0
  9
$USERI2
 70
     0
  9
$USERI3
 70
     0
  9
$USERI4
 70
     0
  9
$USERI5
 70
     0
  9
$USERR1
 40
0.0
  9
$USERR2
 40
0.0
  9
$USERR3
 40
0.0
  9
$USERR4
 40
0.0
  9
$USERR5
 40
0.0
  9
$WORLDVIEW
 70
     1
  9
$SHADEDGE
 70
     3
  9
$SHADEDIF
 70
    70
  9
$TILEMODE
 70
     1
  9
$MAXACTVP
 70
    48
  9
$PINSBASE
 10
0.0
 20
0.0
 30
0.0
  9
$PLIMCHECK
 70
     0
  9
$PEXTMIN
 10
1.000000000000000E+20
 20
1.000000000000000E+20
 30
1.000000000000000E+20
  9
$PEXTMAX
 10
-1.000000000000000E+20
 20
-1.000000000000000E+20
 30
-1.000000000000000E+20
  9
$PLIMMIN
 10
0.0
 20
0.0
  9
$PLIMMAX
 10
420.0
 20
297.0
  9
$UNITMODE
 70
     0
  9
$VISRETAIN
 70
     1
  9
$PLINEGEN
 70
     0
  9
$PSLTSCALE
 70
     1
  9
$TREEDEPTH
 70
  3020
  9
$PICKSTYLE
 70
     1
  9
$CMLSTYLE
  2
STANDARD
  9
$CMLJUST
 70
     0
  9
$CMLSCALE
 40
20.0
  9
$SAVEIMAGES
 70
     1
  0
ENDSEC
  0
SECTION
  2
CLASSES
  0
CLASS
  1
DICTIONARYVAR
  2
AcDbDictionaryVar
  3
ObjectDBX Classes
 90
        0
280
     0
281
     0
  0
CLASS
  1
IDBUFFER
  2
AcDbIdBuffer
  3
ObjectDBX Classes
 90
    32768
280
     0
281
     0
  0
CLASS
  1
LWPOLYLINE
  2
AcDbPolyline
  3
ObjectDBX Classes
 90
    32768
280
     0
281
     1
  0
CLASS
  1
ACDBDICTIONARYWDFLT
  2
AcDbDictionaryWithDefault
  3
ObjectDBX Classes
 90
    32768
280
     0
281
     0
  0
CLASS
  1
ACDBPLACEHOLDER
  2
AcDbPlaceHolder
  3
ObjectDBX Classes
 90
        0
280
     0
281
     0
  0
CLASS
  1
LAYOUT
  2
AcDbLayout
  3
ObjectDBX Classes
 90
        0
280
     0
281
     0
  0
CLASS
  1
TABLESTYLE
  2
AcDbTableStyle
  3
ObjectDBX Classes
 90
     4095
280
     0
281
     0
  0
CLASS
  1
SORTENTSTABLE
  2
AcDbSortentsTable
  3
ObjectDBX Classes
 90
    32768
280
     0
281
     0
  0
CLASS
  1
MATERIAL
  2
AcDbMaterial
  3
ObjectDBX Classes
 90
     1153
280
     0
281
     0
  0
CLASS
  1
VISUALSTYLE
  2
AcDbVisualStyle
  3
ObjectDBX Classes
 90
     4095
280
     0
281
     0
  0
CLASS
  1
SCALE
  2
AcDbScale
  3
ObjectDBX Classes
 90
     1153
280
     0
281
     0
  0
CLASS
  1
MLEADERSTYLE
  2
AcDbMLeaderStyle
  3
ACDB_MLEADERSTYLE_CLASS
 90
     4095
280
     0
281
     0
  0
CLASS
  1
CELLSTYLEMAP
  2
AcDbCellStyleMap
  3
ObjectDBX Classes
 90
     1152
280
     0
281
     0
  0
CLASS
  1
SUN
  2
AcDbSun
  3
SCENEOE
 90
     1153
280
     0
281
     0
  0
CLASS
  1
MULTILEADER
  2
AcDbMLeader
  3
ACDB_MLEADER_CLASS
 90
     1025
280
     0
281
     1
  0
CLASS
  1
DIMASSOC
  2
AcDbDimAssoc
  3
"AcDbDimAssoc|Product Desc:     AcDim ARX App For Dimension|Company:          Autodesk, Inc.|WEB Address:      www.autodesk.com"
 90
        0
280
     0
281
     0
  0
CLASS
  1
XRECORD
  2
AcDbXrecord
  3
ObjectDBX Classes
 90
    32768
280
     0
281
     0
  0
CLASS
  1
HATCH
  2
AcDbHatch
  3
ObjectDBX Classes
 90
    32768
280
     0
281
     1
  0
ENDSEC
  0
SECTION
  2
TABLES
  0
TABLE
  2
VPORT
  5
8
330
0
100
AcDbSymbolTable
 70
     1
  0
VPORT
  5
CFAB
330
8
100
AcDbSymbolTableRecord
100
AcDbViewportTableRecord
  2
*ACTIVE
 70
     0
 10
0.0
 20
0.0
 11
1.0
 21
1.0
 12
-390.3708083835297
 22
35.24742614290498
 13
0.0
 23
0.0
 14
10.0
 24
10.0
 15
10.0
 25
10.0
 16
0.0
 26
0.0
 36
1.0
 17
0.0
 27
0.0
 37
0.0
 40
577.5282809424009
 41
1.803066037735849
 42
50.0
 43
0.0
 44
0.0
 50
0.0
 51
0.0
 71
    16
 72
   100
 73
     1
 74
     1
 75
     0
 76
     0
 77
     0
 78
     0
  0
ENDTAB
  0
TABLE
  2
LTYPE
  5
5
330
0
100
AcDbSymbolTable
 70
     2
  0
LTYPE
  5
12
330
5
100
AcDbSymbolTableRecord
100
AcDbLinetypeTableRecord
  2
BYBLOCK
 70
     0
  3

 72
    65
 73
     0
 40
0.0
  0
LTYPE
  5
13
330
5
100
AcDbSymbolTableRecord
100
AcDbLinetypeTableRecord
  2
BYLAYER
 70
     0
  3

 72
    65
 73
     0
 40
0.0
  0
LTYPE
  5
14
330
5
100
AcDbSymbolTableRecord
100
AcDbLinetypeTableRecord
  2
CONTINUOUS
 70
     0
  3
Solid line
 72
    65
 73
     0
 40
0.0
  0
LTYPE
  5
A61B
330
5
100
AcDbSymbolTableRecord
100
AcDbLinetypeTableRecord
  2
CENTER2
 70
     0
  3
Center (.5x) ___ _ ___ _ ___ _ ___ _ ___ _ ___
 72
    65
 73
     4
 40
28.575
 49
19.05
 74
     0
 49
-3.175
 74
     0
 49
3.175
 74
     0
 49
-3.175
 74
     0
  0
ENDTAB
  0
TABLE
  2
LAYER
  5
2
102
{ACAD_XDICTIONARY
360
D16C
102
}
330
0
100
AcDbSymbolTable
 70
     5
  0
LAYER
  5
E
102
{ACAD_XDICTIONARY
360
D0B5
102
}
330
2
100
AcDbSymbolTableRecord
100
AcDbLayerTableRecord
  2
0
 70
     0
 62
     7
  6
CONTINUOUS
  0
LAYER
  5
29
102
{ACAD_XDICTIONARY
360
D0B7
102
}
330
2
100
AcDbSymbolTableRecord
100
AcDbLayerTableRecord
  2
1CENTER
 70
     0
 62
     7
  6
CENTER2
  0
LAYER
  5
31
102
{ACAD_XDICTIONARY
360
D0B9
102
}
330
2
100
AcDbSymbolTableRecord
100
AcDbLayerTableRecord
  2
1TEXT
 70
     0
 62
     7
  6
CONTINUOUS
  0
LAYER
  5
243
102
{ACAD_XDICTIONARY
360
D0BF
102
}
330
2
100
AcDbSymbolTableRecord
100
AcDbLayerTableRecord
  2
01
 70
     0
 62
     1
  6
CONTINUOUS
  0
LAYER
  5
24E
102
{ACAD_XDICTIONARY
360
D0C5
102
}
330
2
100
AcDbSymbolTableRecord
100
AcDbLayerTableRecord
  2
1DIM
 70
     0
 62
     7
  6
CONTINUOUS
  0
ENDTAB
  0
TABLE
  2
STYLE
  5
3
330
0
100
AcDbSymbolTable
 70
     1
  0
STYLE
  5
F
330
3
100
AcDbSymbolTableRecord
100
AcDbTextStyleTableRecord
  2
STANDARD
 70
     0
 40
0.0
 41
1.0
 50
0.0
 71
     0
 42
4.0
  3
txt.shx
  4
extfont.shx
  0
ENDTAB
  0
TABLE
  2
VIEW
  5
6
330
0
100
AcDbSymbolTable
 70
     0
  0
ENDTAB
  0
TABLE
  2
UCS
  5
7
330
0
100
AcDbSymbolTable
 70
     0
  0
ENDTAB
  0
TABLE
  2
APPID
  5
9
330
0
100
AcDbSymbolTable
 70
    16
  0
APPID
  5
10
330
9
100
AcDbSymbolTableRecord
100
AcDbRegAppTableRecord
  2
ACAD
 70
     0
  0
APPID
  5
21
330
9
100
AcDbSymbolTableRecord
100
AcDbRegAppTableRecord
  2
DRAWINGVARIABLESXDATA
 70
     0
  0
APPID
  5
64
330
9
100
AcDbSymbolTableRecord
100
AcDbRegAppTableRecord
  2
CONTENTTABDATA
 70
     0
  0
APPID
  5
65
330
9
100
AcDbSymbolTableRecord
100
AcDbRegAppTableRecord
  2
CONTENTCURRENTTAB
 70
     0
  0
APPID
  5
66
330
9
100
AcDbSymbolTableRecord
100
AcDbRegAppTableRecord
  2
CONTENTBLOCKDESCRIPTION
 70
     0
  0
APPID
  5
67
330
9
100
AcDbSymbolTableRecord
100
AcDbRegAppTableRecord
  2
CONTENTBLOCKICON
 70
     0
  0
APPID
  5
68
330
9
100
AcDbSymbolTableRecord
100
AcDbRegAppTableRecord
  2
CONTENTLONGBLOCKNAME
 70
     0
  0
APPID
  5
2AE
330
9
100
AcDbSymbolTableRecord
100
AcDbRegAppTableRecord
  2
ACAD_PSEXT
 70
     0
  0
APPID
  5
D09F
330
9
100
AcDbSymbolTableRecord
100
AcDbRegAppTableRecord
  2
ACAD_MLEADERVER
 70
     0
  0
APPID
  5
D7D9
330
9
100
AcDbSymbolTableRecord
100
AcDbRegAppTableRecord
  2
ACAD_EXEMPT_FROM_CAD_STAND
 70
     0
  0
APPID
  5
DB3E
330
9
100
AcDbSymbolTableRecord
100
AcDbRegAppTableRecord
  2
ACAECLAYERSTANDARD
 70
     0
  0
APPID
  5
F289
330
9
100
AcDbSymbolTableRecord
100
AcDbRegAppTableRecord
  2
ACADANNOTATIVE
 70
     0
  0
APPID
  5
F2A2
330
9
100
AcDbSymbolTableRecord
100
AcDbRegAppTableRecord
  2
ACDBBLOCKREPETAG
 70
     0
  0
APPID
  5
F2A3
330
9
100
AcDbSymbolTableRecord
100
AcDbRegAppTableRecord
  2
ACLAYERTOOLS
 70
     0
  0
APPID
  5
F2A4
330
9
100
AcDbSymbolTableRecord
100
AcDbRegAppTableRecord
  2
ACAD_NAV_VCDISPLAY
 70
     0
  0
APPID
  5
FE64
330
9
100
AcDbSymbolTableRecord
100
AcDbRegAppTableRecord
  2
ACAD_OBJECT_CHANGE_GUID
 70
     0
  0
ENDTAB
  0
TABLE
  2
DIMSTYLE
  5
A
330
0
100
AcDbSymbolTable
 70
     1
  0
DIMSTYLE
105
48
330
A
100
AcDbSymbolTableRecord
100
AcDbDimStyleTableRecord
  2
NEWX10
 70
     0
  3
 
  4

  5

  6
OPEN30
  7
OPEN30
 40
1.0
 41
2.0
 42
0.0
 43
7.0
 44
1.0
 45
0.0
 46
0.0
 47
0.0
 48
0.0
140
3.5
141
0.0
142
0.0
143
25.4
144
1.0
145
0.0
146
0.7
147
0.7
 71
     0
 72
     0
 73
     0
 74
     0
 75
     0
 76
     0
 77
     1
 78
     8
170
     0
171
     2
172
     1
173
     1
174
     0
175
     0
176
   256
177
   256
178
   201
179
     2
270
     2
271
     2
272
     4
273
     2
274
     2
340
F
275
     0
280
     0
281
     0
282
     0
283
     1
284
     8
285
     0
286
     0
287
     2
288
     0
  0
ENDTAB
  0
TABLE
  2
BLOCK_RECORD
  5
1
330
0
100
AcDbSymbolTable
 70
     9
  0
BLOCK_RECORD
  5
18
102
{ACAD_XDICTIONARY
360
88F
102
}
330
1
100
AcDbSymbolTableRecord
100
AcDbBlockTableRecord
  2
*MODEL_SPACE
  0
BLOCK_RECORD
  5
15
330
1
100
AcDbSymbolTableRecord
100
AcDbBlockTableRecord
  2
*PAPER_SPACE
  0
BLOCK_RECORD
  5
42
330
1
100
AcDbSymbolTableRecord
100
AcDbBlockTableRecord
  2
_OPEN30
  0
BLOCK_RECORD
  5
F2F3
330
1
100
AcDbSymbolTableRecord
100
AcDbBlockTableRecord
  2
A3WAKUKAWAJUN2017_HYOUDAI_
  0
BLOCK_RECORD
  5
FD9B
102
{ACAD_XDICTIONARY
360
FD9C
102
}
330
1
100
AcDbSymbolTableRecord
100
AcDbBlockTableRecord
  2
NOCIRCLE
1001
ACADANNOTATIVE
1000
AnnotativeData
1002
{
1070
     1
1070
     0
1002
}
  0
BLOCK_RECORD
  5
103A0
330
1
100
AcDbSymbolTableRecord
100
AcDbBlockTableRecord
  2
*X52
  0
BLOCK_RECORD
  5
103EE
330
1
100
AcDbSymbolTableRecord
100
AcDbBlockTableRecord
  2
*X53
  0
BLOCK_RECORD
  5
10440
330
1
100
AcDbSymbolTableRecord
100
AcDbBlockTableRecord
  2
*X54
  0
BLOCK_RECORD
  5
10491
330
1
100
AcDbSymbolTableRecord
100
AcDbBlockTableRecord
  2
*X55
  0
BLOCK_RECORD
  5
104CE
330
1
100
AcDbSymbolTableRecord
100
AcDbBlockTableRecord
  2
*X56
  0
BLOCK_RECORD
  5
1050E
330
1
100
AcDbSymbolTableRecord
100
AcDbBlockTableRecord
  2
*X57
  0
ENDTAB
  0
ENDSEC
  0
SECTION
  2
BLOCKS
  0
BLOCK
  5
19
330
18
100
AcDbEntity
  8
0
100
AcDbBlockBegin
  2
*MODEL_SPACE
 70
     0
 10
0.0
 20
0.0
 30
0.0
  3
*MODEL_SPACE
  1

  0
ENDBLK
  5
1A
330
18
100
AcDbEntity
  8
0
100
AcDbBlockEnd
  0
BLOCK
  5
16
330
15
100
AcDbEntity
 67
     1
  8
0
100
AcDbBlockBegin
  2
*PAPER_SPACE
 70
     0
 10
0.0
 20
0.0
 30
0.0
  3
*PAPER_SPACE
  1

  0
ENDBLK
  5
17
330
15
100
AcDbEntity
 67
     1
  8
0
100
AcDbBlockEnd
  0
BLOCK
  5
43
330
42
100
AcDbEntity
  8
0
100
AcDbBlockBegin
  2
_OPEN30
 70
     0
 10
0.0
 20
0.0
 30
0.0
  3
_OPEN30
  1

  0
LINE
  5
44
330
42
100
AcDbEntity
  8
0
  6
BYBLOCK
 62
     0
100
AcDbLine
 10
-1.0
 20
0.26794919
 30
0.0
 11
0.0
 21
0.0
 31
0.0
  0
LINE
  5
45
330
42
100
AcDbEntity
  8
0
  6
BYBLOCK
 62
     0
100
AcDbLine
 10
0.0
 20
0.0
 30
0.0
 11
-1.0
 21
-0.26794919
 31
0.0
  0
LINE
  5
46
330
42
100
AcDbEntity
  8
0
  6
BYBLOCK
 62
     0
100
AcDbLine
 10
0.0
 20
0.0
 30
0.0
 11
-1.0
 21
0.0
 31
0.0
  0
ENDBLK
  5
47
330
42
100
AcDbEntity
  8
0
100
AcDbBlockEnd
  0
BLOCK
  5
FA01
330
F2F3
100
AcDbEntity
  8
0
100
AcDbBlockBegin
  2
A3WAKUKAWAJUN2017_HYOUDAI_
 70
     0
 10
0.0
 20
0.0
 30
0.0
  3
A3WAKUKAWAJUN2017_HYOUDAI_
  1

  0
LINE
  5
F2F5
330
F2F3
100
AcDbEntity
  8
0
100
AcDbLine
 10
13.26299999998673
 20
-0.0001000000000317
 30
0.0
 11
9.236999999990758
 21
8.999899999990987
 31
0.0
1001
ACAD
1000
ASC_BOUNDS
1002
{
1070
    19
1005
F336
1002
}
  0
LINE
  5
F2F6
330
F2F3
100
AcDbEntity
  8
0
100
AcDbLine
 10
5.657999999994331
 20
0.9999999999989768
 30
0.0
 11
9.236999999990758
 21
8.999999999991019
 31
0.0
1001
ACAD
1000
ASC_BOUNDS
1002
{
1070
    19
1005
F336
1002
}
  0
LINE
  5
F2F7
330
F2F3
100
AcDbEntity
  8
0
100
AcDbLine
 10
18.59199999998134
 20
-0.2368999999997641
 30
0.0
 11
16.46099999998353
 21
5.432899999994561
 31
0.0
1001
ACAD
1000
ASC_BOUNDS
1002
{
1070
    19
1005
F337
1002
}
  0
LINE
  5
F2F8
330
F2F3
100
AcDbEntity
  8
0
100
AcDbLine
 10
18.59199999998134
 20
-0.2368999999997641
 30
0.0
 11
22.38199999997767
 21
8.763099999991255
 31
0.0
1001
ACAD
1000
ASC_BOUNDS
1002
{
1070
    19
1005
F337
1002
}
  0
LINE
  5
F2F9
330
F2F3
100
AcDbEntity
  8
0
100
AcDbLine
 10
14.32899999998563
 20
-0.2368999999997641
 30
0.0
 11
16.46099999998353
 21
5.432899999994561
 31
0.0
1001
ACAD
1000
ASC_BOUNDS
1002
{
1070
    19
1005
F337
1002
}
  0
LINE
  5
F2FA
330
F2F3
100
AcDbEntity
  8
0
100
AcDbLine
 10
14.32899999998563
 20
-0.2368999999997641
 30
0.0
 11
10.53899999998941
 21
8.763099999991255
 31
0.0
1001
ACAD
1000
ASC_BOUNDS
1002
{
1070
    19
1005
F337
1002
}
  0
LINE
  5
F2FB
330
F2F3
100
AcDbEntity
  8
0
100
AcDbLine
 10
19.53899999998043
 20
-0.0001000000000317
 30
0.0
 11
23.56599999997638
 21
8.999899999990987
 31
0.0
1001
ACAD
1000
ASC_BOUNDS
1002
{
1070
    19
1005
F338
1002
}
  0
LINE
  5
F2FC
330
F2F3
100
AcDbEntity
  8
0
100
AcDbLine
 10
26.97358892824991
 20
1.383099999991202
 30
0.0
 11
23.56599999997638
 21
8.999899999990987
 31
0.0
1001
ACAD
1000
ASC_BOUNDS
1002
{
1070
    19
1005
F338
1002
}
  0
LINE
  5
F2FD
330
F2F3
100
AcDbEntity
  8
0
100
AcDbLine
 10
5.657999999994331
 20
0.9999999999989768
 30
0.0
 11
3.181999999996833
 21
4.668599999995308
 31
0.0
1001
ACAD
1000
ASC_BOUNDS
1002
{
1070
    19
1005
F336
1002
}
  0
LINE
  5
F2FE
330
F2F3
100
AcDbEntity
  8
0
100
AcDbLine
 10
4.617999999995391
 20
-0.0001000000000317
 30
0.0
 11
1.420999999998571
 21
4.736799999995242
 31
0.0
1001
ACAD
1000
ASC_BOUNDS
1002
{
1070
    19
1005
F336
1002
}
  0
LINE
  5
F2FF
330
F2F3
100
AcDbEntity
  8
0
100
AcDbLine
 10
1.420999999998571
 20
8.763099999991255
 30
0.0
 11
1.420999999998571
 21
0.0
 31
0.0
1001
ACAD
1000
ASC_BOUNDS
1002
{
1070
    19
1005
F33B
1002
}
  0
LINE
  5
F300
330
F2F3
100
AcDbEntity
  8
0
100
AcDbLine
 10
0.0
 20
8.763099999991255
 30
0.0
 11
0.0
 21
0.0
 31
0.0
1001
ACAD
1000
ASC_BOUNDS
1002
{
1070
    19
1005
F33B
1002
}
  0
LINE
  5
F301
330
F2F3
100
AcDbEntity
  8
0
100
AcDbLine
 10
6.766999999993232
 20
-0.0001000000000317
 30
0.0
 11
7.826999999992154
 21
2.368399999997621
 31
0.0
1001
ACAD
1000
ASC_BOUNDS
1002
{
1070
    19
1005
F336
1002
}
  0
LINE
  5
F302
330
F2F3
100
AcDbEntity
  8
0
100
AcDbLine
 10
0.0
 20
0.0
 30
0.0
 11
1.420999999998571
 21
0.0
 31
0.0
1001
ACAD
1000
ASC_BOUNDS
1002
{
1070
    19
1005
F33B
1002
}
  0
LINE
  5
F303
330
F2F3
100
AcDbEntity
  8
0
100
AcDbLine
 10
4.617999999995391
 20
0.0
 30
0.0
 11
6.766999999993232
 21
0.0
 31
0.0
1001
ACAD
1000
ASC_BOUNDS
1002
{
1070
    19
1005
F336
1002
}
  0
LINE
  5
F304
330
F2F3
100
AcDbEntity
  8
0
100
AcDbLine
 10
11.70599999998831
 20
-0.0001000000000317
 30
0.0
 11
10.64699999998936
 21
2.368399999997621
 31
0.0
1001
ACAD
1000
ASC_BOUNDS
1002
{
1070
    19
1005
F336
1002
}
  0
LINE
  5
F305
330
F2F3
100
AcDbEntity
  8
0
100
AcDbLine
 10
7.826999999992154
 20
2.368399999997621
 30
0.0
 11
10.64699999998936
 21
2.368399999997621
 31
0.0
1001
ACAD
1000
ASC_BOUNDS
1002
{
1070
    19
1005
F336
1002
}
  0
LINE
  5
F306
330
F2F3
100
AcDbEntity
  8
0
100
AcDbLine
 10
11.70599999998831
 20
0.0
 30
0.0
 11
13.26299999998673
 21
0.0
 31
0.0
1001
ACAD
1000
ASC_BOUNDS
1002
{
1070
    19
1005
F336
1002
}
  0
LINE
  5
F307
330
F2F3
100
AcDbEntity
  8
0
100
AcDbLine
 10
22.15599999997789
 20
2.368399999997621
 30
0.0
 11
24.97599999997499
 21
2.368399999997621
 31
0.0
1001
ACAD
1000
ASC_BOUNDS
1002
{
1070
    19
1005
F338
1002
}
  0
LINE
  5
F308
330
F2F3
100
AcDbEntity
  8
0
100
AcDbLine
 10
19.53899999998043
 20
0.0
 30
0.0
 11
21.09599999997886
 21
0.0
 31
0.0
1001
ACAD
1000
ASC_BOUNDS
1002
{
1070
    19
1005
F338
1002
}
  0
LINE
  5
F309
330
F2F3
100
AcDbEntity
  8
0
100
AcDbLine
 10
21.09599999997886
 20
-0.0001000000000317
 30
0.0
 11
22.15599999997789
 21
2.368399999997621
 31
0.0
1001
ACAD
1000
ASC_BOUNDS
1002
{
1070
    19
1005
F338
1002
}
  0
LINE
  5
F30A
330
F2F3
100
AcDbEntity
  8
0
100
AcDbLine
 10
26.02015566812236
 20
0.0330999999912365
 30
0.0
 11
24.97599999997499
 21
2.368399999997621
 31
0.0
1001
ACAD
1000
ASC_BOUNDS
1002
{
1070
    19
1005
F338
1002
}
  0
LINE
  5
F30B
330
F2F3
100
AcDbEntity
  8
0
100
AcDbLine
 10
14.32399999998563
 20
3.315799999996671
 30
0.0
 11
16.46099999998353
 21
8.999899999990987
 31
0.0
1001
ACAD
1000
ASC_BOUNDS
1002
{
1070
    19
1005
F337
1002
}
  0
LINE
  5
F30C
330
F2F3
100
AcDbEntity
  8
0
100
AcDbLine
 10
6.432999999993513
 20
8.763099999991255
 30
0.0
 11
3.181999999996833
 21
4.668599999995308
 31
0.0
1001
ACAD
1000
ASC_BOUNDS
1002
{
1070
    19
1005
F336
1002
}
  0
LINE
  5
F30D
330
F2F3
100
AcDbEntity
  8
0
100
AcDbLine
 10
4.617999999995391
 20
8.763099999991255
 30
0.0
 11
1.420999999998571
 21
4.736799999995242
 31
0.0
1001
ACAD
1000
ASC_BOUNDS
1002
{
1070
    19
1005
F336
1002
}
  0
LINE
  5
F30E
330
F2F3
100
AcDbEntity
  8
0
100
AcDbLine
 10
0.0
 20
8.763099999991255
 30
0.0
 11
1.420999999998571
 21
8.763099999991255
 31
0.0
1001
ACAD
1000
ASC_BOUNDS
1002
{
1070
    19
1005
F33B
1002
}
  0
LINE
  5
F30F
330
F2F3
100
AcDbEntity
  8
0
100
AcDbLine
 10
4.617999999995391
 20
8.763099999991255
 30
0.0
 11
6.432999999993513
 21
8.763099999991255
 31
0.0
1001
ACAD
1000
ASC_BOUNDS
1002
{
1070
    19
1005
F336
1002
}
  0
LINE
  5
F310
330
F2F3
100
AcDbEntity
  8
0
100
AcDbLine
 10
14.32399999998563
 20
3.315799999996671
 30
0.0
 11
12.02999999998792
 21
8.763099999991255
 31
0.0
1001
ACAD
1000
ASC_BOUNDS
1002
{
1070
    19
1005
F337
1002
}
  0
LINE
  5
F311
330
F2F3
100
AcDbEntity
  8
0
100
AcDbLine
 10
10.06399999998996
 20
3.670999999996297
 30
0.0
 11
9.236999999990758
 21
5.5200999999945
 31
0.0
1001
ACAD
1000
ASC_BOUNDS
1002
{
1070
    19
1005
F336
1002
}
  0
LINE
  5
F312
330
F2F3
100
AcDbEntity
  8
0
100
AcDbLine
 10
8.409999999991555
 20
3.670999999996297
 30
0.0
 11
9.236999999990758
 21
5.5200999999945
 31
0.0
1001
ACAD
1000
ASC_BOUNDS
1002
{
1070
    19
1005
F336
1002
}
  0
LINE
  5
F313
330
F2F3
100
AcDbEntity
  8
0
100
AcDbLine
 10
8.409999999991555
 20
3.670999999996297
 30
0.0
 11
10.06399999998996
 21
3.670999999996297
 31
0.0
1001
ACAD
1000
ASC_BOUNDS
1002
{
1070
    19
1005
F336
1002
}
  0
LINE
  5
F314
330
F2F3
100
AcDbEntity
  8
0
100
AcDbLine
 10
10.53899999998941
 20
8.763099999991255
 30
0.0
 11
12.02999999998792
 21
8.763099999991255
 31
0.0
1001
ACAD
1000
ASC_BOUNDS
1002
{
1070
    19
1005
F337
1002
}
  0
LINE
  5
F315
330
F2F3
100
AcDbEntity
  8
0
100
AcDbLine
 10
22.7389999999773
 20
3.670999999996297
 30
0.0
 11
23.56599999997638
 21
5.5200999999945
 31
0.0
1001
ACAD
1000
ASC_BOUNDS
1002
{
1070
    19
1005
F338
1002
}
  0
LINE
  5
F316
330
F2F3
100
AcDbEntity
  8
0
100
AcDbLine
 10
22.7389999999773
 20
3.670999999996297
 30
0.0
 11
24.39299999997559
 21
3.670999999996297
 31
0.0
1001
ACAD
1000
ASC_BOUNDS
1002
{
1070
    19
1005
F338
1002
}
  0
LINE
  5
F317
330
F2F3
100
AcDbEntity
  8
0
100
AcDbLine
 10
18.59799999998143
 20
3.315799999996671
 30
0.0
 11
20.89099999997916
 21
8.763099999991255
 31
0.0
1001
ACAD
1000
ASC_BOUNDS
1002
{
1070
    19
1005
F337
1002
}
  0
LINE
  5
F318
330
F2F3
100
AcDbEntity
  8
0
100
AcDbLine
 10
18.59799999998143
 20
3.315799999996671
 30
0.0
 11
16.46099999998353
 21
8.999899999990987
 31
0.0
1001
ACAD
1000
ASC_BOUNDS
1002
{
1070
    19
1005
F337
1002
}
  0
LINE
  5
F319
330
F2F3
100
AcDbEntity
  8
0
100
AcDbLine
 10
20.89099999997916
 20
8.763099999991255
 30
0.0
 11
22.38199999997767
 21
8.763099999991255
 31
0.0
1001
ACAD
1000
ASC_BOUNDS
1002
{
1070
    19
1005
F337
1002
}
  0
LINE
  5
F31A
330
F2F3
100
AcDbEntity
  8
0
100
AcDbLine
 10
24.39299999997559
 20
3.670999999996297
 30
0.0
 11
23.56599999997638
 21
5.5200999999945
 31
0.0
1001
ACAD
1000
ASC_BOUNDS
1002
{
1070
    19
1005
F338
1002
}
  0
LINE
  5
F31B
330
F2F3
100
AcDbEntity
  8
0
100
AcDbLine
 10
44.99999999995498
 20
-0.2368999999997641
 30
0.0
 11
40.02599999995994
 21
5.341799999994635
 31
0.0
1001
ACAD
1000
ASC_BOUNDS
1002
{
1070
    19
1005
F33A
1002
}
  0
LINE
  5
F31C
330
F2F3
100
AcDbEntity
  8
0
100
AcDbLine
 10
40.02599999995994
 20
5.341799999994635
 30
0.0
 11
40.02599999995994
 21
0.0
 31
0.0
1001
ACAD
1000
ASC_BOUNDS
1002
{
1070
    19
1005
F33A
1002
}
  0
LINE
  5
F31D
330
F2F3
100
AcDbEntity
  8
0
100
AcDbLine
 10
38.60499999996136
 20
8.999999999991019
 30
0.0
 11
38.60499999996136
 21
0.0
 31
0.0
1001
ACAD
1000
ASC_BOUNDS
1002
{
1070
    19
1005
F33A
1002
}
  0
LINE
  5
F31E
330
F2F3
100
AcDbEntity
  8
0
100
AcDbLine
 10
44.99999999995498
 20
8.763099999991255
 30
0.0
 11
44.99999999995498
 21
-0.2368999999997641
 31
0.0
1001
ACAD
1000
ASC_BOUNDS
1002
{
1070
    19
1005
F33A
1002
}
  0
LINE
  5
F31F
330
F2F3
100
AcDbEntity
  8
0
100
AcDbLine
 10
38.60499999996136
 20
0.0
 30
0.0
 11
40.02599999995994
 21
0.0
 31
0.0
1001
ACAD
1000
ASC_BOUNDS
1002
{
1070
    19
1005
F33A
1002
}
  0
LINE
  5
F320
330
F2F3
100
AcDbEntity
  8
0
100
AcDbLine
 10
43.57899999995641
 20
3.421199999996588
 30
0.0
 11
38.60499999996136
 21
8.999899999990987
 31
0.0
1001
ACAD
1000
ASC_BOUNDS
1002
{
1070
    19
1005
F33A
1002
}
  0
LINE
  5
F321
330
F2F3
100
AcDbEntity
  8
0
100
AcDbLine
 10
43.57899999995641
 20
8.763099999991255
 30
0.0
 11
43.57899999995641
 21
3.421199999996588
 31
0.0
1001
ACAD
1000
ASC_BOUNDS
1002
{
1070
    19
1005
F33A
1002
}
  0
LINE
  5
F322
330
F2F3
100
AcDbEntity
  8
0
100
AcDbLine
 10
43.57899999995641
 20
8.763099999991255
 30
0.0
 11
44.99999999995498
 21
8.763099999991255
 31
0.0
1001
ACAD
1000
ASC_BOUNDS
1002
{
1070
    19
1005
F33A
1002
}
  0
LINE
  5
F323
330
F2F3
100
AcDbEntity
  8
0
100
AcDbLine
 10
37.67199999996831
 20
8.763099999991255
 30
0.0
 11
36.23199999996837
 21
8.763099999991255
 31
0.0
  0
LINE
  5
F324
330
F2F3
100
AcDbEntity
  8
0
100
AcDbLine
 10
31.64199999996833
 20
8.763099999991255
 30
0.0
 11
31.64199999996833
 21
2.481619422925121
 31
0.0
  0
LINE
  5
F325
330
F2F3
100
AcDbEntity
  8
0
100
AcDbLine
 10
37.67199999996831
 20
8.763099999991255
 30
0.0
 11
37.67199999996831
 21
2.481619422925121
 31
0.0
  0
LINE
  5
F326
330
F2F3
100
AcDbEntity
  8
0
100
AcDbLine
 10
36.23199999996837
 20
8.763099999991255
 30
0.0
 11
36.23199999996837
 21
2.481619422925064
 31
0.0
  0
LINE
  5
F327
330
F2F3
100
AcDbEntity
  8
0
100
AcDbLine
 10
33.08199999996839
 20
8.763099999991255
 30
0.0
 11
33.08199999996839
 21
2.481619422925121
 31
0.0
  0
ARC
  5
F328
330
F2F3
100
AcDbEntity
  8
0
100
AcDbCircle
 10
34.65699999996832
 20
3.183099999991214
 30
0.0
 40
3.420000000000007
100
AcDbArc
 50
240.0000000000255
 51
299.9999999999766
  0
ARC
  5
F329
330
F2F3
100
AcDbEntity
  8
0
100
AcDbCircle
 10
34.65699999996832
 20
3.183099999991214
 30
0.0
 40
1.97999999999999
100
AcDbArc
 50
240.000000000026
 51
299.9999999999703
  0
LINE
  5
F32A
330
F2F3
100
AcDbEntity
  8
0
100
AcDbLine
 10
33.08199999996828
 20
8.763099999991255
 30
0.0
 11
31.64199999996833
 21
8.763099999991255
 31
0.0
  0
ARC
  5
F32B
330
F2F3
100
AcDbEntity
  8
0
100
AcDbCircle
 10
35.06199999996829
 20
2.481619422925064
 30
0.0
 40
1.17
100
AcDbArc
 50
299.9999999999699
 51
0.0
  0
ARC
  5
F32C
330
F2F3
100
AcDbEntity
  8
0
100
AcDbCircle
 10
34.25199999996835
 20
2.481619422925121
 30
0.0
 40
1.17
100
AcDbArc
 50
180.0
 51
240.0000000000238
  0
ARC
  5
F32D
330
F2F3
100
AcDbEntity
  8
0
100
AcDbCircle
 10
35.06199999996841
 20
2.481619422925121
 30
0.0
 40
2.61
100
AcDbArc
 50
299.9999999999756
 51
0.0
  0
ARC
  5
F32E
330
F2F3
100
AcDbEntity
  8
0
100
AcDbCircle
 10
34.25199999996835
 20
2.481619422925121
 30
0.0
 40
2.61
100
AcDbArc
 50
180.0
 51
240.0000000000244
  0
LINE
  5
F32F
330
F2F3
100
AcDbEntity
  8
0
100
AcDbLine
 10
29.30199999996933
 20
8.763099999991255
 30
0.0
 11
30.74199999996927
 21
8.763099999991255
 31
0.0
1001
ACAD
1000
ASC_BOUNDS
1002
{
1070
    19
1005
F338
1002
}
  0
LINE
  5
F330
330
F2F3
100
AcDbEntity
  8
0
100
AcDbLine
 10
30.74199999996927
 20
8.763099999991255
 30
0.0
 11
30.74199999996927
 21
2.373099999991211
 31
0.0
1001
ACAD
1000
ASC_BOUNDS
1002
{
1070
    19
1005
F338
1002
}
  0
LINE
  5
F331
330
F2F3
100
AcDbEntity
  8
0
100
AcDbLine
 10
26.02015566812236
 20
0.0330999999912365
 30
0.0
 11
28.40199999996923
 21
0.0330999999912365
 31
0.0
1001
ACAD
1000
ASC_BOUNDS
1002
{
1070
    19
1005
F338
1002
}
  0
LINE
  5
F332
330
F2F3
100
AcDbEntity
  8
0
100
AcDbLine
 10
29.30199999996933
 20
8.763099999991255
 30
0.0
 11
29.30199999996933
 21
2.283099999991236
 31
0.0
1001
ACAD
1000
ASC_BOUNDS
1002
{
1070
    19
1005
F338
1002
}
  0
LINE
  5
F333
330
F2F3
100
AcDbEntity
  8
0
100
AcDbLine
 10
26.97358892824991
 20
1.383099999991202
 30
0.0
 11
28.40199999996923
 21
1.383099999991202
 31
0.0
1001
ACAD
1000
ASC_BOUNDS
1002
{
1070
    19
1005
F338
1002
}
  0
ARC
  5
F334
330
F2F3
100
AcDbEntity
  8
0
100
AcDbCircle
 10
28.40199999996923
 20
2.283099999991236
 30
0.0
 40
0.9
100
AcDbArc
 50
270.0
 51
0.0
1001
ACAD
1000
ASC_BOUNDS
1002
{
1070
    19
1005
F338
1002
}
  0
ARC
  5
F335
330
F2F3
100
AcDbEntity
  8
0
100
AcDbCircle
 10
28.40199999996923
 20
2.373099999991211
 30
0.0
 40
2.34
100
AcDbArc
 50
270.0
 51
0.0
1001
ACAD
1000
ASC_BOUNDS
1002
{
1070
    19
1005
F338
1002
}
  0
INSERT
  5
F336
330
F2F3
100
AcDbEntity
  8
0
100
AcDbBlockReference
  2
*X52
 10
0.0
 20
0.0
 30
0.0
1001
ACAD
1000
HATCH
1002
{
1070
    19
1000
ANSI37
1040
0.15
1040
0.0
1000
ASC_BOUNDS
1070
     2
1070
     2
1070
    12
1005
F2F5
1005
F2F6
1005
F2FD
1005
F30C
1005
F30F
1005
F30D
1005
F2FE
1005
F303
1005
F301
1005
F305
1005
F304
1005
F306
1070
     2
1070
     3
1005
F311
1005
F313
1005
F312
1000
ASC_SEEDPOINT
1011
3.614004224891801
1021
2.996669441146025
1031
0.0
1000
R14_HATCH_DATA
1000
F336
1011
1.0
1021
0.0
1031
0.0
1011
0.0
1021
1.0
1031
0.0
1011
0.0
1021
0.0
1031
1.0
1040
0.0
1010
0.0
1020
0.0
1030
1.0
1000
ANSI37
1070
     0
1070
     1
1071
        2
1071
        7
1070
     0
1070
     1
1071
       17
1040
13.26299999998673
1040
-0.0001000000000317
1040
9.236999999990758
1040
8.999899999990987
1040
9.236999999990758
1040
8.999999999991019
1040
5.657999999994331
1040
0.9999999999989768
1040
3.181999999996833
1040
4.668599999995308
1040
6.432999999993513
1040
8.763099999991255
1040
4.617999999995391
1040
8.763099999991255
1040
1.420999999998571
1040
4.736799999995242
1040
4.617999999995391
1040
-0.0001000000000317
1040
4.617999999995391
1040
0.0
1040
6.766999999993232
1040
0.0
1040
6.766999999993232
1040
-0.0001000000000317
1040
7.826999999992154
1040
2.368399999997621
1040
10.64699999998936
1040
2.368399999997621
1040
11.70599999998831
1040
-0.0001000000000317
1040
11.70599999998831
1040
0.0
1040
13.26299999998673
1040
0.0
1071
       12
1005
F2F5
1005
F2F6
1005
F2FD
1005
F30C
1005
F30F
1005
F30D
1005
F2FE
1005
F303
1005
F301
1005
F305
1005
F304
1005
F306
1071
       22
1070
     0
1070
     1
1071
        3
1040
9.236999999990758
1040
5.5200999999945
1040
10.06399999998996
1040
3.670999999996297
1040
8.409999999991555
1040
3.670999999996297
1071
        3
1005
F311
1005
F313
1005
F312
1070
     0
1070
     1
1040
0.0
1040
0.15
1070
     0
1070
     2
1040
0.7853981633974483
1040
49.29960901727088
1040
-10.17736998311392
1040
-0.3367596045400932
1040
0.3367596045400932
1070
     0
1040
2.356194490192345
1040
49.29960901727088
1040
-10.17736998311392
1040
-0.3367596045400932
1040
-0.3367596045400932
1070
     0
1040
0.0110235143455945
1071
        2
1040
3.614004224891801
1040
2.996669441146025
1040
0.0
1040
3.614004224891801
1040
2.996669441146025
1040
0.0
1002
}
  0
INSERT
  5
F337
330
F2F3
100
AcDbEntity
  8
0
100
AcDbBlockReference
  2
*X53
 10
0.0
 20
0.0
 30
0.0
1001
ACAD
1000
HATCH
1002
{
1070
    19
1000
ANSI37
1040
0.15
1040
0.0
1000
ASC_BOUNDS
1070
     1
1070
     2
1070
    10
1005
F2F7
1005
F2F8
1005
F319
1005
F317
1005
F318
1005
F30B
1005
F310
1005
F314
1005
F2FA
1005
F2F9
1000
ASC_SEEDPOINT
1011
14.73245321214324
1021
2.798246178283421
1031
0.0
1000
R14_HATCH_DATA
1000
F337
1011
1.0
1021
0.0
1031
0.0
1011
0.0
1021
1.0
1031
0.0
1011
0.0
1021
0.0
1031
1.0
1040
0.0
1010
0.0
1020
0.0
1030
1.0
1000
ANSI37
1070
     0
1070
     1
1071
        1
1071
        7
1070
     0
1070
     1
1071
       10
1040
16.46099999998353
1040
5.432899999994561
1040
18.59199999998134
1040
-0.2368999999997641
1040
22.38199999997767
1040
8.763099999991255
1040
20.89099999997916
1040
8.763099999991255
1040
18.59799999998143
1040
3.315799999996671
1040
16.46099999998353
1040
8.999899999990987
1040
14.32399999998563
1040
3.315799999996671
1040
12.02999999998792
1040
8.763099999991255
1040
10.53899999998941
1040
8.763099999991255
1040
14.32899999998563
1040
-0.2368999999997641
1071
       10
1005
F2F7
1005
F2F8
1005
F319
1005
F317
1005
F318
1005
F30B
1005
F310
1005
F314
1005
F2FA
1005
F2F9
1070
     0
1070
     1
1040
0.0
1040
0.15
1070
     0
1070
     2
1040
0.7853981633974483
1040
49.29960901727088
1040
-10.17736998311392
1040
-0.3367596045400932
1040
0.3367596045400932
1070
     0
1040
2.356194490192345
1040
49.29960901727088
1040
-10.17736998311392
1040
-0.3367596045400932
1040
-0.3367596045400932
1070
     0
1040
0.0110235143455945
1071
        1
1040
14.73245321214324
1040
2.798246178283421
1040
0.0
1002
}
  0
INSERT
  5
F338
330
F2F3
100
AcDbEntity
  8
0
100
AcDbBlockReference
  2
*X54
 10
0.0
 20
0.0
 30
0.0
1001
ACAD
1000
HATCH
1002
{
1070
    19
1000
ANSI37
1040
0.15
1040
0.0
1000
ASC_BOUNDS
1070
     2
1070
     2
1070
    13
1005
F2FB
1005
F308
1005
F309
1005
F307
1005
F30A
1005
F331
1005
F335
1005
F330
1005
F32F
1005
F332
1005
F334
1005
F333
1005
F2FC
1070
     2
1070
     3
1005
F315
1005
F31A
1005
F316
1000
ASC_SEEDPOINT
1011
21.97929957367762
1021
3.294304244259308
1031
0.0
1000
R14_HATCH_DATA
1000
F338
1011
1.0
1021
0.0
1031
0.0
1011
0.0
1021
1.0
1031
0.0
1011
0.0
1021
0.0
1031
1.0
1040
0.0
1010
0.0
1020
0.0
1030
1.0
1000
ANSI37
1070
     0
1070
     1
1071
        2
1071
        7
1070
     1
1070
     1
1071
       15
1040
23.56599999997638
1040
8.999899999990987
1040
0.0
1040
19.53899999998043
1040
-0.0001000000000317
1040
0.0
1040
19.53899999998043
1040
0.0
1040
0.0
1040
21.09599999997886
1040
0.0
1040
0.0
1040
21.09599999997886
1040
-0.0001000000000317
1040
0.0
1040
22.15599999997789
1040
2.368399999997621
1040
0.0
1040
24.97599999997499
1040
2.368399999997621
1040
0.0
1040
26.02015566812236
1040
0.0330999999912365
1040
0.0
1040
28.40199999996923
1040
0.0330999999912365
1040
0.414213562373095
1040
30.74199999996923
1040
2.373099999991211
1040
0.0
1040
30.74199999996927
1040
8.763099999991255
1040
0.0
1040
29.30199999996933
1040
8.763099999991255
1040
0.0
1040
29.30199999996933
1040
2.283099999991236
1040
-0.414213562373095
1040
28.40199999996923
1040
1.383099999991237
1040
0.0
1040
26.97358892824991
1040
1.383099999991202
1040
0.0
1071
       13
1005
F2FB
1005
F308
1005
F309
1005
F307
1005
F30A
1005
F331
1005
F335
1005
F330
1005
F32F
1005
F332
1005
F334
1005
F333
1005
F2FC
1071
       22
1070
     0
1070
     1
1071
        3
1040
22.7389999999773
1040
3.670999999996297
1040
23.56599999997638
1040
5.5200999999945
1040
24.39299999997559
1040
3.670999999996297
1071
        3
1005
F315
1005
F31A
1005
F316
1070
     0
1070
     1
1040
0.0
1040
0.15
1070
     0
1070
     2
1040
0.7853981633974483
1040
49.29960901727088
1040
-10.17736998311392
1040
-0.3367596045400932
1040
0.3367596045400932
1070
     0
1040
2.356194490192345
1040
49.29960901727088
1040
-10.17736998311392
1040
-0.3367596045400932
1040
-0.3367596045400932
1070
     0
1040
0.0110235143455945
1071
        2
1040
21.97929957367762
1040
3.294304244259308
1040
0.0
1040
21.97929957367762
1040
3.294304244259308
1040
0.0
1002
}
  0
INSERT
  5
F339
330
F2F3
100
AcDbEntity
  8
0
100
AcDbBlockReference
  2
*X55
 10
0.0
 20
0.0
 30
0.0
1001
ACAD
1000
HATCH
1002
{
1070
    19
1000
ANSI37
1040
0.15
1040
0.0
1000
R14_HATCH_DATA
1000
F339
1011
1.0
1021
0.0
1031
0.0
1011
0.0
1021
1.0
1031
0.0
1011
0.0
1021
0.0
1031
1.0
1040
0.0
1010
0.0
1020
0.0
1030
1.0
1000
ANSI37
1070
     0
1070
     1
1071
        1
1071
        7
1070
     1
1070
     1
1071
       12
1040
31.64199999996833
1040
2.481619422925121
1040
0.2679491924310942
1040
32.94699999997067
1040
0.2212931190493919
1040
0.2679491924301353
1040
36.36699999995983
1040
0.2212931190459813
1040
0.2679491924321411
1040
37.67199999996831
1040
2.481619422928361
1040
0.0
1040
37.67199999996831
1040
8.763099999991255
1040
0.0
1040
36.23199999996837
1040
8.763099999991255
1040
0.0
1040
36.23199999996837
1040
2.481619422925064
1040
-0.2679491924310291
1040
35.64699999996708
1040
1.468369700498386
1040
-0.267949192430519
1040
33.66699999997093
1040
1.468369700497703
1040
-0.267949192431809
1040
33.08199999996839
1040
2.481619422926997
1040
0.0
1040
33.08199999996839
1040
8.763099999991255
1040
0.0
1040
31.64199999996833
1040
8.763099999991255
1040
0.0
1071
        0
1070
     0
1070
     1
1040
0.0
1040
0.15
1070
     0
1070
     2
1040
0.7853981633974483
1040
49.29960901727088
1040
-10.17736998311392
1040
-0.3367596045400932
1040
0.3367596045400932
1070
     0
1040
2.356194490192345
1040
49.29960901727088
1040
-10.17736998311392
1040
-0.3367596045400932
1040
-0.3367596045400932
1070
     0
1040
0.0110235143455945
1071
        1
1040
32.30357378967278
1040
3.988785755459219
1040
0.0
1002
}
  0
INSERT
  5
F33A
330
F2F3
100
AcDbEntity
  8
0
100
AcDbBlockReference
  2
*X56
 10
0.0
 20
0.0
 30
0.0
1001
ACAD
1000
HATCH
1002
{
1070
    19
1000
ANSI37
1040
0.15
1040
0.0
1000
ASC_BOUNDS
1070
     1
1070
     2
1070
     8
1005
F31B
1005
F31E
1005
F322
1005
F321
1005
F320
1005
F31D
1005
F31F
1005
F31C
1000
ASC_SEEDPOINT
1011
39.74896370716704
1021
4.484843821435049
1031
0.0
1000
R14_HATCH_DATA
1000
F33A
1011
1.0
1021
0.0
1031
0.0
1011
0.0
1021
1.0
1031
0.0
1011
0.0
1021
0.0
1031
1.0
1040
0.0
1010
0.0
1020
0.0
1030
1.0
1000
ANSI37
1070
     0
1070
     1
1071
        1
1071
        7
1070
     0
1070
     1
1071
        9
1040
40.02599999995994
1040
5.341799999994635
1040
44.99999999995498
1040
-0.2368999999997641
1040
44.99999999995498
1040
8.763099999991255
1040
43.57899999995641
1040
8.763099999991255
1040
43.57899999995641
1040
3.421199999996588
1040
38.60499999996136
1040
8.999899999990987
1040
38.60499999996136
1040
8.999999999991019
1040
38.60499999996136
1040
0.0
1040
40.02599999995994
1040
0.0
1071
        8
1005
F31B
1005
F31E
1005
F322
1005
F321
1005
F320
1005
F31D
1005
F31F
1005
F31C
1070
     0
1070
     1
1040
0.0
1040
0.15
1070
     0
1070
     2
1040
0.7853981633974483
1040
49.29960901727088
1040
-10.17736998311392
1040
-0.3367596045400932
1040
0.3367596045400932
1070
     0
1040
2.356194490192345
1040
49.29960901727088
1040
-10.17736998311392
1040
-0.3367596045400932
1040
-0.3367596045400932
1070
     0
1040
0.0110235143455945
1071
        1
1040
39.74896370716704
1040
4.484843821435049
1040
0.0
1002
}
  0
INSERT
  5
F33B
330
F2F3
100
AcDbEntity
  8
0
100
AcDbBlockReference
  2
*X57
 10
0.0
 20
0.0
 30
0.0
1001
ACAD
1000
HATCH
1002
{
1070
    19
1000
ANSI37
1040
0.15
1040
0.0
1000
ASC_BOUNDS
1070
     1
1070
     2
1070
     4
1005
F2FF
1005
F30E
1005
F300
1005
F302
1000
ASC_SEEDPOINT
1011
1.079051535452663
1021
4.148538732891836
1031
0.0
1000
R14_HATCH_DATA
1000
F33B
1011
1.0
1021
0.0
1031
0.0
1011
0.0
1021
1.0
1031
0.0
1011
0.0
1021
0.0
1031
1.0
1040
0.0
1010
0.0
1020
0.0
1030
1.0
1000
ANSI37
1070
     0
1070
     1
1071
        1
1071
        7
1070
     0
1070
     1
1071
        4
1040
1.420999999998571
1040
0.0
1040
1.420999999998571
1040
8.763099999991255
1040
0.0
1040
8.763099999991255
1040
0.0
1040
0.0
1071
        4
1005
F2FF
1005
F30E
1005
F300
1005
F302
1070
     0
1070
     1
1040
0.0
1040
0.15
1070
     0
1070
     2
1040
0.7853981633974483
1040
49.29960901727088
1040
-10.17736998311392
1040
-0.3367596045400932
1040
0.3367596045400932
1070
     0
1040
2.356194490192345
1040
49.29960901727088
1040
-10.17736998311392
1040
-0.3367596045400932
1040
-0.3367596045400932
1070
     0
1040
0.0053004257112761
1071
        1
1040
1.079051535452663
1040
4.148538732891836
1040
0.0
1002
}
  0
ENDBLK
  5
FA02
330
F2F3
100
AcDbEntity
  8
0
100
AcDbBlockEnd
  0
BLOCK
  5
FE0F
330
FD9B
100
AcDbEntity
  8
0
100
AcDbBlockBegin
  2
NOCIRCLE
 70
     2
 10
0.0
 20
0.0
 30
0.0
  3
NOCIRCLE
  1

  0
CIRCLE
  5
FD9F
330
FD9B
100
AcDbEntity
  8
0
  6
BYBLOCK
 62
     0
100
AcDbCircle
 10
0.0
 20
0.0
 30
0.0
 40
4.2
  0
ATTDEF
  5
FDA0
330
FD9B
100
AcDbEntity
  8
1TEXT
100
AcDbText
 10
-1.904761904761876
 20
-2.0
 30
0.0
 40
4.0
  1
0
 72
     4
 11
0.0
 21
0.0
 31
0.0
100
AcDbAttributeDefinition
  3
NO.
  2
NO
 70
     0
  0
ENDBLK
  5
FE10
330
FD9B
100
AcDbEntity
  8
0
100
AcDbBlockEnd
  0
BLOCK
  5
1052E
330
103A0
100
AcDbEntity
  8
0
100
AcDbBlockBegin
  2
*X52
 70
     1
 10
0.0
 20
0.0
 30
0.0
  3
*X52
  1

  0
LINE
  5
103A1
330
103A0
100
AcDbEntity
  8
0
  6
CONTINUOUS
100
AcDbLine
 10
3.418023043697893
 20
7.251849696850613
 30
0.0
 11
4.929273346838536
 21
8.763099999991255
 31
0.0
  0
LINE
  5
103A2
330
103A0
100
AcDbEntity
  8
0
  6
CONTINUOUS
100
AcDbLine
 10
1.483656411257782
 20
4.643963855330318
 30
0.0
 11
5.60279255591872
 21
8.763099999991255
 31
0.0
  0
LINE
  5
103A3
330
103A0
100
AcDbEntity
  8
0
  6
CONTINUOUS
100
AcDbLine
 10
1.755053947328235
 20
4.241842182320584
 30
0.0
 11
6.276311764998907
 21
8.763099999991255
 31
0.0
  0
LINE
  5
103A4
330
103A0
100
AcDbEntity
  8
0
  6
CONTINUOUS
100
AcDbLine
 10
2.026451483398688
 20
3.839720509310849
 30
0.0
 11
4.441040904851878
 21
6.254309930764039
 31
0.0
  0
LINE
  5
103A5
330
103A0
100
AcDbEntity
  8
0
  6
CONTINUOUS
100
AcDbLine
 10
2.297849019469139
 20
3.437598836301114
 30
0.0
 11
3.321765168359338
 21
4.461514985191313
 31
0.0
  0
LINE
  5
103A6
330
103A0
100
AcDbEntity
  8
0
  6
CONTINUOUS
100
AcDbLine
 10
2.569246555539591
 20
3.03547716329138
 30
0.0
 11
3.593163397972743
 21
4.059394005724531
 31
0.0
  0
LINE
  5
103A7
330
103A0
100
AcDbEntity
  8
0
  6
CONTINUOUS
100
AcDbLine
 10
2.840644091610043
 20
2.633355490281646
 30
0.0
 11
3.864561627586149
 21
3.657273026257751
 31
0.0
  0
LINE
  5
103A8
330
103A0
100
AcDbEntity
  8
0
  6
CONTINUOUS
100
AcDbLine
 10
3.112041627680496
 20
2.231233817271911
 30
0.0
 11
4.135959857199554
 21
3.25515204679097
 31
0.0
  0
LINE
  5
103A9
330
103A0
100
AcDbEntity
  8
0
  6
CONTINUOUS
100
AcDbLine
 10
3.383439163750948
 20
1.829112144262177
 30
0.0
 11
4.40735808681296
 21
2.853031067324189
 31
0.0
  0
LINE
  5
103AA
330
103A0
100
AcDbEntity
  8
0
  6
CONTINUOUS
100
AcDbLine
 10
3.654836699821399
 20
1.426990471252442
 30
0.0
 11
4.678756316426365
 21
2.450910087857407
 31
0.0
  0
LINE
  5
103AB
330
103A0
100
AcDbEntity
  8
0
  6
CONTINUOUS
100
AcDbLine
 10
3.926234235891853
 20
1.024868798242709
 30
0.0
 11
4.95015454603977
 21
2.048789108390626
 31
0.0
  0
LINE
  5
103AC
330
103A0
100
AcDbEntity
  8
0
  6
CONTINUOUS
100
AcDbLine
 10
4.197631771962304
 20
0.6227471252329737
 30
0.0
 11
5.221552775653176
 21
1.646668128923846
 31
0.0
  0
LINE
  5
103AD
330
103A0
100
AcDbEntity
  8
0
  6
CONTINUOUS
100
AcDbLine
 10
8.715877546767851
 20
7.835069736359266
 30
0.0
 11
9.435953450375058
 21
8.555145639966472
 31
0.0
  0
LINE
  5
103AE
330
103A0
100
AcDbEntity
  8
0
  6
CONTINUOUS
100
AcDbLine
 10
8.170620868422267
 20
6.616293848933497
 30
0.0
 11
9.644120833743461
 21
8.08979381425469
 31
0.0
  0
LINE
  5
103AF
330
103A0
100
AcDbEntity
  8
0
  6
CONTINUOUS
100
AcDbLine
 10
7.625364190076684
 20
5.397517961507727
 30
0.0
 11
9.852288217111864
 21
7.624441988542907
 31
0.0
  0
LINE
  5
103B0
330
103A0
100
AcDbEntity
  8
0
  6
CONTINUOUS
100
AcDbLine
 10
7.080107511731101
 20
4.178742074081957
 30
0.0
 11
10.06045560048027
 21
7.159090162831124
 31
0.0
  0
LINE
  5
103B1
330
103A0
100
AcDbEntity
  8
0
  6
CONTINUOUS
100
AcDbLine
 10
6.534850833385518
 20
2.959966186656187
 30
0.0
 11
10.26862298384867
 21
6.693738337119342
 31
0.0
  0
LINE
  5
103B2
330
103A0
100
AcDbEntity
  8
0
  6
CONTINUOUS
100
AcDbLine
 10
4.469029308032756
 20
0.2206254522232385
 30
0.0
 11
5.492951005266582
 21
1.244547149457064
 31
0.0
  0
LINE
  5
103B3
330
103A0
100
AcDbEntity
  8
0
  6
CONTINUOUS
100
AcDbLine
 10
5.989594155039935
 20
1.741190299230417
 30
0.0
 11
8.806950407233131
 21
4.558546551423613
 31
0.0
  0
LINE
  5
103B4
330
103A0
100
AcDbEntity
  8
0
  6
CONTINUOUS
100
AcDbLine
 10
9.401251593263643
 20
5.152847737454126
 30
0.0
 11
10.47679036721708
 21
6.228386511407559
 31
0.0
  0
LINE
  5
103B5
330
103A0
100
AcDbEntity
  8
0
  6
CONTINUOUS
100
AcDbLine
 10
4.921837203428691
 20
-0.0000858614610131
 30
0.0
 11
8.592923064886001
 21
3.670999999996297
 31
0.0
  0
LINE
  5
103B6
330
103A0
100
AcDbEntity
  8
0
  6
CONTINUOUS
100
AcDbLine
 10
9.609390446785305
 20
4.6874673818956
 30
0.0
 11
10.68495775058548
 21
5.763034685695775
 31
0.0
  0
LINE
  5
103B7
330
103A0
100
AcDbEntity
  8
0
  6
CONTINUOUS
100
AcDbLine
 10
5.595387755019432
 20
-0.0000545189504582
 30
0.0
 11
7.716137258923768
 21
2.120694984953879
 31
0.0
  0
LINE
  5
103B8
330
103A0
100
AcDbEntity
  8
0
  6
CONTINUOUS
100
AcDbLine
 10
6.268938306610172
 20
-0.000023176439905
 30
0.0
 11
7.170485805526503
 21
0.9015243224764267
 31
0.0
  0
LINE
  5
103B9
330
103A0
100
AcDbEntity
  8
0
  6
CONTINUOUS
100
AcDbLine
 10
7.963842273967511
 20
2.368399999997621
 30
0.0
 11
9.266442273966188
 21
3.670999999996297
 31
0.0
  0
LINE
  5
103BA
330
103A0
100
AcDbEntity
  8
0
  6
CONTINUOUS
100
AcDbLine
 10
8.637361483047696
 20
2.368399999997621
 30
0.0
 11
9.939961483046375
 21
3.670999999996297
 31
0.0
  0
LINE
  5
103BB
330
103A0
100
AcDbEntity
  8
0
  6
CONTINUOUS
100
AcDbLine
 10
9.817529300306965
 20
4.222087026337075
 30
0.0
 11
10.89312513395388
 21
5.297682859983993
 31
0.0
  0
LINE
  5
103BC
330
103A0
100
AcDbEntity
  8
0
  6
CONTINUOUS
100
AcDbLine
 10
10.02566815382863
 20
3.756706670778549
 30
0.0
 11
11.10129251732229
 21
4.832331034272211
 31
0.0
  0
LINE
  5
103BD
330
103A0
100
AcDbEntity
  8
0
  6
CONTINUOUS
100
AcDbLine
 10
9.310880692127883
 20
2.368399999997621
 30
0.0
 11
11.30945990069069
 21
4.366979208560428
 31
0.0
  0
LINE
  5
103BE
330
103A0
100
AcDbEntity
  8
0
  6
CONTINUOUS
100
AcDbLine
 10
9.98439990120807
 20
2.36839999999762
 30
0.0
 11
11.5176272840591
 21
3.901627382848645
 31
0.0
  0
LINE
  5
103BF
330
103A0
100
AcDbEntity
  8
0
  6
CONTINUOUS
100
AcDbLine
 10
10.65037369446246
 20
2.36085458417182
 30
0.0
 11
11.7257946674275
 21
3.436275557136862
 31
0.0
  0
LINE
  5
103C0
330
103A0
100
AcDbEntity
  8
0
  6
CONTINUOUS
100
AcDbLine
 10
10.85847197087848
 20
1.895433651507656
 30
0.0
 11
11.9339620507959
 21
2.97092373142508
 31
0.0
  0
LINE
  5
103C1
330
103A0
100
AcDbEntity
  8
0
  6
CONTINUOUS
100
AcDbLine
 10
11.0665702472945
 20
1.430012718843491
 30
0.0
 11
12.14212943416431
 21
2.505571905713296
 31
0.0
  0
LINE
  5
103C2
330
103A0
100
AcDbEntity
  8
0
  6
CONTINUOUS
100
AcDbLine
 10
11.27466852371052
 20
0.9645917861793256
 30
0.0
 11
12.35029681753271
 21
2.040220080001513
 31
0.0
  0
LINE
  5
103C3
330
103A0
100
AcDbEntity
  8
0
  6
CONTINUOUS
100
AcDbLine
 10
11.48276680012654
 20
0.4991708535151611
 30
0.0
 11
12.55846420090111
 21
1.57486825428973
 31
0.0
  0
LINE
  5
103C4
330
103A0
100
AcDbEntity
  8
0
  6
CONTINUOUS
100
AcDbLine
 10
11.69086507654257
 20
0.0337499208509957
 30
0.0
 11
12.76663158426952
 21
1.109516428577947
 31
0.0
  0
LINE
  5
103C5
330
103A0
100
AcDbEntity
  8
0
  6
CONTINUOUS
100
AcDbLine
 10
12.33057447873954
 20
-0.0000598860322123
 30
0.0
 11
12.97479896763792
 21
0.6441646028661663
 31
0.0
  0
LINE
  5
103C6
330
103A0
100
AcDbEntity
  8
0
  6
CONTINUOUS
100
AcDbLine
 10
13.00413694809395
 20
-0.0000166257579952
 30
0.0
 11
13.18296635100632
 21
0.1788127771543824
 31
0.0
  0
LINE
  5
103C7
330
103A0
100
AcDbEntity
  8
0
  6
CONTINUOUS
100
AcDbLine
 10
4.772852165289667
 20
-0.000092794222212
 30
0.0
 11
4.296495091028902
 21
0.4762642800385528
 31
0.0
  0
LINE
  5
103C8
330
103A0
100
AcDbEntity
  8
0
  6
CONTINUOUS
100
AcDbLine
 10
5.446340034776103
 20
-0.0000614546284616
 30
0.0
 11
2.898195908335625
 21
2.548082671812017
 31
0.0
  0
LINE
  5
103C9
330
103A0
100
AcDbEntity
  8
0
  6
CONTINUOUS
100
AcDbLine
 10
6.119827904262539
 20
-0.0000301150347113
 30
0.0
 11
1.499896725642348
 21
4.61990106358548
 31
0.0
  0
LINE
  5
103CA
330
103A0
100
AcDbEntity
  8
0
  6
CONTINUOUS
100
AcDbLine
 10
6.775136745476159
 20
0.0181802528318542
 30
0.0
 11
5.699826040202669
 21
1.093490958105344
 31
0.0
  0
LINE
  5
103CB
330
103A0
100
AcDbEntity
  8
0
  6
CONTINUOUS
100
AcDbLine
 10
6.983376846288489
 20
0.4834593610997118
 30
0.0
 11
5.908008617934405
 21
1.558827589453796
 31
0.0
  0
LINE
  5
103CC
330
103A0
100
AcDbEntity
  8
0
  6
CONTINUOUS
100
AcDbLine
 10
5.377063484962296
 20
1.416253513345719
 30
0.0
 11
1.702276957014131
 21
5.091040041293883
 31
0.0
  0
LINE
  5
103CD
330
103A0
100
AcDbEntity
  8
0
  6
CONTINUOUS
100
AcDbLine
 10
3.978745891735324
 20
3.488090315652877
 30
0.0
 11
2.000373521109399
 21
5.466462686278803
 31
0.0
  0
LINE
  5
103CE
330
103A0
100
AcDbEntity
  8
0
  6
CONTINUOUS
100
AcDbLine
 10
7.191616947100819
 20
0.948738469367568
 30
0.0
 11
6.11619119566614
 21
2.024164220802247
 31
0.0
  0
LINE
  5
103CF
330
103A0
100
AcDbEntity
  8
0
  6
CONTINUOUS
100
AcDbLine
 10
7.399857047913149
 20
1.414017577635424
 30
0.0
 11
6.324373773397875
 21
2.489500852150698
 31
0.0
  0
LINE
  5
103D0
330
103A0
100
AcDbEntity
  8
0
  6
CONTINUOUS
100
AcDbLine
 10
7.608097148725479
 20
1.879296685903281
 30
0.0
 11
6.53255635112961
 21
2.95483748349915
 31
0.0
  0
LINE
  5
103D1
330
103A0
100
AcDbEntity
  8
0
  6
CONTINUOUS
100
AcDbLine
 10
7.816337249537808
 20
2.344575794171138
 30
0.0
 11
6.740738928861345
 21
3.420174114847601
 31
0.0
  0
LINE
  5
103D2
330
103A0
100
AcDbEntity
  8
0
  6
CONTINUOUS
100
AcDbLine
 10
3.310241080789734
 20
4.830114335678653
 30
0.0
 11
2.298470085204666
 21
5.84188533126372
 31
0.0
  0
LINE
  5
103D3
330
103A0
100
AcDbEntity
  8
0
  6
CONTINUOUS
100
AcDbLine
 10
3.60832983563551
 20
5.205544789913063
 30
0.0
 11
2.596566649299935
 21
6.217307976248638
 31
0.0
  0
LINE
  5
103D4
330
103A0
100
AcDbEntity
  8
0
  6
CONTINUOUS
100
AcDbLine
 10
3.906418590481286
 20
5.580975244147473
 30
0.0
 11
2.894663213395203
 21
6.592730621233557
 31
0.0
  0
LINE
  5
103D5
330
103A0
100
AcDbEntity
  8
0
  6
CONTINUOUS
100
AcDbLine
 10
4.204507345327062
 20
5.956405698381884
 30
0.0
 11
3.192759777490472
 21
6.968153266218474
 31
0.0
  0
LINE
  5
103D6
330
103A0
100
AcDbEntity
  8
0
  6
CONTINUOUS
100
AcDbLine
 10
8.466032252791512
 20
2.368399999997621
 30
0.0
 11
6.948921506593081
 21
3.885510746196053
 31
0.0
  0
LINE
  5
103D7
330
103A0
100
AcDbEntity
  8
0
  6
CONTINUOUS
100
AcDbLine
 10
9.139551461871699
 20
2.36839999999762
 30
0.0
 11
7.157104084324816
 21
4.350847377544504
 31
0.0
  0
LINE
  5
103D8
330
103A0
100
AcDbEntity
  8
0
  6
CONTINUOUS
100
AcDbLine
 10
4.502596100172839
 20
6.331836152616295
 30
0.0
 11
3.49085634158574
 21
7.343575911203393
 31
0.0
  0
LINE
  5
103D9
330
103A0
100
AcDbEntity
  8
0
  6
CONTINUOUS
100
AcDbLine
 10
4.800684855018615
 20
6.707266606850705
 30
0.0
 11
3.788952905681008
 21
7.718998556188312
 31
0.0
  0
LINE
  5
103DA
330
103A0
100
AcDbEntity
  8
0
  6
CONTINUOUS
100
AcDbLine
 10
12.18154012887317
 20
-0.0000694579236642
 30
0.0
 11
11.32140332908496
 21
0.8600673418645499
 31
0.0
  0
LINE
  5
103DB
330
103A0
100
AcDbEntity
  8
0
  6
CONTINUOUS
100
AcDbLine
 10
12.85501608323566
 20
-0.0000262032059659
 30
0.0
 11
10.77672456435345
 21
2.078265315676246
 31
0.0
  0
LINE
  5
103DC
330
103A0
100
AcDbEntity
  8
0
  6
CONTINUOUS
100
AcDbLine
 10
9.813070670951886
 20
2.36839999999762
 30
0.0
 11
8.51047067095321
 21
3.670999999996297
 31
0.0
  0
LINE
  5
103DD
330
103A0
100
AcDbEntity
  8
0
  6
CONTINUOUS
100
AcDbLine
 10
10.48658988003207
 20
2.36839999999762
 30
0.0
 11
9.183989880033396
 21
3.670999999996297
 31
0.0
  0
LINE
  5
103DE
330
103A0
100
AcDbEntity
  8
0
  6
CONTINUOUS
100
AcDbLine
 10
8.441048632286794
 20
3.740422038662712
 30
0.0
 11
7.365286662056551
 21
4.816184008892956
 31
0.0
  0
LINE
  5
103DF
330
103A0
100
AcDbEntity
  8
0
  6
CONTINUOUS
100
AcDbLine
 10
8.649187485808454
 20
4.205802394221237
 30
0.0
 11
7.573469239788285
 21
5.281520640241407
 31
0.0
  0
LINE
  5
103E0
330
103A0
100
AcDbEntity
  8
0
  6
CONTINUOUS
100
AcDbLine
 10
5.098773609864391
 20
7.082697061085115
 30
0.0
 11
4.087049469776277
 21
8.09442120117323
 31
0.0
  0
LINE
  5
103E1
330
103A0
100
AcDbEntity
  8
0
  6
CONTINUOUS
100
AcDbLine
 10
5.396862364710167
 20
7.458127515319526
 30
0.0
 11
4.385146033871544
 21
8.469843846158149
 31
0.0
  0
LINE
  5
103E2
330
103A0
100
AcDbEntity
  8
0
  6
CONTINUOUS
100
AcDbLine
 10
13.04801363231285
 20
0.4804954567970334
 30
0.0
 11
9.85750908911358
 21
3.670999999996297
 31
0.0
  0
LINE
  5
103E3
330
103A0
100
AcDbEntity
  8
0
  6
CONTINUOUS
100
AcDbLine
 10
8.857326339330116
 20
4.671182749779763
 30
0.0
 11
7.781651817520021
 21
5.746857271589858
 31
0.0
  0
LINE
  5
103E4
330
103A0
100
AcDbEntity
  8
0
  6
CONTINUOUS
100
AcDbLine
 10
5.694951119555943
 20
7.833557969553937
 30
0.0
 11
4.765409089118624
 21
8.763099999991255
 31
0.0
  0
LINE
  5
103E5
330
103A0
100
AcDbEntity
  8
0
  6
CONTINUOUS
100
AcDbLine
 10
12.50286117236978
 20
1.699167125820288
 30
0.0
 11
9.68611877250287
 21
4.515909525687196
 31
0.0
  0
LINE
  5
103E6
330
103A0
100
AcDbEntity
  8
0
  6
CONTINUOUS
100
AcDbLine
 10
9.065465192851777
 20
5.136563105338288
 30
0.0
 11
7.989834395251757
 21
6.21219390293831
 31
0.0
  0
LINE
  5
103E7
330
103A0
100
AcDbEntity
  8
0
  6
CONTINUOUS
100
AcDbLine
 10
5.993039874401719
 20
8.208988423788346
 30
0.0
 11
5.43892829819881
 21
8.763099999991255
 31
0.0
  0
LINE
  5
103E8
330
103A0
100
AcDbEntity
  8
0
  6
CONTINUOUS
100
AcDbLine
 10
11.95770871242671
 20
2.917838794843543
 30
0.0
 11
8.19801697298349
 21
6.677530534286761
 31
0.0
  0
LINE
  5
103E9
330
103A0
100
AcDbEntity
  8
0
  6
CONTINUOUS
100
AcDbLine
 10
6.291128629247495
 20
8.584418878022756
 30
0.0
 11
6.112447507278997
 21
8.763099999991255
 31
0.0
  0
LINE
  5
103EA
330
103A0
100
AcDbEntity
  8
0
  6
CONTINUOUS
100
AcDbLine
 10
11.41255625248364
 20
4.136510463866797
 30
0.0
 11
8.406199550715227
 21
7.142867165635211
 31
0.0
  0
LINE
  5
103EB
330
103A0
100
AcDbEntity
  8
0
  6
CONTINUOUS
100
AcDbLine
 10
10.86740379254057
 20
5.355182132890051
 30
0.0
 11
8.614382128446962
 21
7.608203796983664
 31
0.0
  0
LINE
  5
103EC
330
103A0
100
AcDbEntity
  8
0
  6
CONTINUOUS
100
AcDbLine
 10
10.3222513325975
 20
6.573853801913305
 30
0.0
 11
8.822564706178696
 21
8.073540428332114
 31
0.0
  0
LINE
  5
103ED
330
103A0
100
AcDbEntity
  8
0
  6
CONTINUOUS
100
AcDbLine
 10
9.777098872654436
 20
7.792525470936562
 30
0.0
 11
9.030747283910433
 21
8.538877059680566
 31
0.0
  0
ENDBLK
  5
1052F
330
103A0
100
AcDbEntity
  8
0
100
AcDbBlockEnd
  0
BLOCK
  5
10530
330
103EE
100
AcDbEntity
  8
0
100
AcDbBlockBegin
  2
*X53
 70
     1
 10
0.0
 20
0.0
 30
0.0
  3
*X53
  1

  0
LINE
  5
103EF
330
103EE
100
AcDbEntity
  8
0
  6
CONTINUOUS
100
AcDbLine
 10
10.67292308101235
 20
8.445076852443387
 30
0.0
 11
10.99094622856022
 21
8.763099999991255
 31
0.0
  0
LINE
  5
103F0
330
103EE
100
AcDbEntity
  8
0
  6
CONTINUOUS
100
AcDbLine
 10
10.87250383178748
 20
7.971138394138331
 30
0.0
 11
11.6644654376404
 21
8.763099999991255
 31
0.0
  0
LINE
  5
103F1
330
103EE
100
AcDbEntity
  8
0
  6
CONTINUOUS
100
AcDbLine
 10
11.07208458256261
 20
7.497199935833273
 30
0.0
 11
12.12126590876355
 21
8.546381262034211
 31
0.0
  0
LINE
  5
103F2
330
103EE
100
AcDbEntity
  8
0
  6
CONTINUOUS
100
AcDbLine
 10
11.27166533333774
 20
7.023261477528216
 30
0.0
 11
12.32085164573666
 21
8.072447789927136
 31
0.0
  0
LINE
  5
103F3
330
103EE
100
AcDbEntity
  8
0
  6
CONTINUOUS
100
AcDbLine
 10
11.47124608411287
 20
6.549323019223158
 30
0.0
 11
12.52043738270977
 21
7.59851431782006
 31
0.0
  0
LINE
  5
103F4
330
103EE
100
AcDbEntity
  8
0
  6
CONTINUOUS
100
AcDbLine
 10
11.670826834888
 20
6.075384560918101
 30
0.0
 11
12.72002311968288
 21
7.124580845712984
 31
0.0
  0
LINE
  5
103F5
330
103EE
100
AcDbEntity
  8
0
  6
CONTINUOUS
100
AcDbLine
 10
11.87040758566313
 20
5.601446102613043
 30
0.0
 11
12.91960885665599
 21
6.650647373605907
 31
0.0
  0
LINE
  5
103F6
330
103EE
100
AcDbEntity
  8
0
  6
CONTINUOUS
100
AcDbLine
 10
12.06998833643825
 20
5.127507644307986
 30
0.0
 11
13.1191945936291
 21
6.176713901498832
 31
0.0
  0
LINE
  5
103F7
330
103EE
100
AcDbEntity
  8
0
  6
CONTINUOUS
100
AcDbLine
 10
12.26956908721338
 20
4.65356918600293
 30
0.0
 11
13.31878033060221
 21
5.702780429391757
 31
0.0
  0
LINE
  5
103F8
330
103EE
100
AcDbEntity
  8
0
  6
CONTINUOUS
100
AcDbLine
 10
12.46914983798851
 20
4.179630727697873
 30
0.0
 11
13.51836606757532
 21
5.228846957284683
 31
0.0
  0
LINE
  5
103F9
330
103EE
100
AcDbEntity
  8
0
  6
CONTINUOUS
100
AcDbLine
 10
12.66873058876364
 20
3.705692269392816
 30
0.0
 11
13.71795180454843
 21
4.754913485177607
 31
0.0
  0
LINE
  5
103FA
330
103EE
100
AcDbEntity
  8
0
  6
CONTINUOUS
100
AcDbLine
 10
12.86831133953877
 20
3.231753811087759
 30
0.0
 11
13.91753754152154
 21
4.280980013070531
 31
0.0
  0
LINE
  5
103FB
330
103EE
100
AcDbEntity
  8
0
  6
CONTINUOUS
100
AcDbLine
 10
13.0678920903139
 20
2.757815352782702
 30
0.0
 11
14.11712327849465
 21
3.807046540963456
 31
0.0
  0
LINE
  5
103FC
330
103EE
100
AcDbEntity
  8
0
  6
CONTINUOUS
100
AcDbLine
 10
13.26747284108903
 20
2.283876894477644
 30
0.0
 11
14.31670901546777
 21
3.333113068856379
 31
0.0
  0
LINE
  5
103FD
330
103EE
100
AcDbEntity
  8
0
  6
CONTINUOUS
100
AcDbLine
 10
16.36767838827179
 20
8.751678487061342
 30
0.0
 11
16.50332410898388
 21
8.887324207773432
 31
0.0
  0
LINE
  5
103FE
330
103EE
100
AcDbEntity
  8
0
  6
CONTINUOUS
100
AcDbLine
 10
15.96190732182191
 20
7.67238821153127
 30
0.0
 11
16.68735328004734
 21
8.397834169756699
 31
0.0
  0
LINE
  5
103FF
330
103EE
100
AcDbEntity
  8
0
  6
CONTINUOUS
100
AcDbLine
 10
15.55613625537202
 20
6.593097936001196
 30
0.0
 11
16.87138245111079
 21
7.908344131739965
 31
0.0
  0
LINE
  5
10400
330
103EE
100
AcDbEntity
  8
0
  6
CONTINUOUS
100
AcDbLine
 10
15.15036518892213
 20
5.513807660471122
 30
0.0
 11
17.05541162217424
 21
7.418854093723231
 31
0.0
  0
LINE
  5
10401
330
103EE
100
AcDbEntity
  8
0
  6
CONTINUOUS
100
AcDbLine
 10
14.74459412247225
 20
4.434517384941048
 30
0.0
 11
17.2394407932377
 21
6.929364055706499
 31
0.0
  0
LINE
  5
10402
330
103EE
100
AcDbEntity
  8
0
  6
CONTINUOUS
100
AcDbLine
 10
14.33882305602236
 20
3.355227109410975
 30
0.0
 11
17.42346996430115
 21
6.439874017689766
 31
0.0
  0
LINE
  5
10403
330
103EE
100
AcDbEntity
  8
0
  6
CONTINUOUS
100
AcDbLine
 10
13.46705359186416
 20
1.809938436172586
 30
0.0
 11
16.0819338255367
 21
4.424818669845129
 31
0.0
  0
LINE
  5
10404
330
103EE
100
AcDbEntity
  8
0
  6
CONTINUOUS
100
AcDbLine
 10
16.63283254238972
 20
4.975717386698149
 30
0.0
 11
17.60749913536461
 21
5.950383979673033
 31
0.0
  0
LINE
  5
10405
330
103EE
100
AcDbEntity
  8
0
  6
CONTINUOUS
100
AcDbLine
 10
13.66663434263929
 20
1.335999977867529
 30
0.0
 11
15.67604797733754
 21
3.345413612565779
 31
0.0
  0
LINE
  5
10406
330
103EE
100
AcDbEntity
  8
0
  6
CONTINUOUS
100
AcDbLine
 10
13.86621509341442
 20
0.8620615195624723
 30
0.0
 11
15.27016212913838
 21
2.26600855528643
 31
0.0
  0
LINE
  5
10407
330
103EE
100
AcDbEntity
  8
0
  6
CONTINUOUS
100
AcDbLine
 10
16.81682257348267
 20
4.486188208710908
 30
0.0
 11
17.79152830642806
 21
5.460893941656299
 31
0.0
  0
LINE
  5
10408
330
103EE
100
AcDbEntity
  8
0
  6
CONTINUOUS
100
AcDbLine
 10
17.00081260457561
 20
3.996659030723667
 30
0.0
 11
17.97555747749151
 21
4.971403903639565
 31
0.0
  0
LINE
  5
10409
330
103EE
100
AcDbEntity
  8
0
  6
CONTINUOUS
100
AcDbLine
 10
20.74362343514722
 20
8.412989070375462
 30
0.0
 11
21.09373436476302
 21
8.763099999991256
 31
0.0
  0
LINE
  5
1040A
330
103EE
100
AcDbEntity
  8
0
  6
CONTINUOUS
100
AcDbLine
 10
20.25401257174777
 20
7.249858997895826
 30
0.0
 11
21.7672535738432
 21
8.763099999991255
 31
0.0
  0
LINE
  5
1040B
330
103EE
100
AcDbEntity
  8
0
  6
CONTINUOUS
100
AcDbLine
 10
14.06579584418955
 20
0.3881230612574149
 30
0.0
 11
14.86427628093921
 21
1.186603498007082
 31
0.0
  0
LINE
  5
1040C
330
103EE
100
AcDbEntity
  8
0
  6
CONTINUOUS
100
AcDbLine
 10
14.26537659496467
 20
-0.0858153970476412
 30
0.0
 11
14.45839043274005
 21
0.1071984407277329
 31
0.0
  0
LINE
  5
1040D
330
103EE
100
AcDbEntity
  8
0
  6
CONTINUOUS
100
AcDbLine
 10
17.18480263566856
 20
3.507129852736426
 30
0.0
 11
18.15958664855496
 21
4.481913865622833
 31
0.0
  0
LINE
  5
1040E
330
103EE
100
AcDbEntity
  8
0
  6
CONTINUOUS
100
AcDbLine
 10
17.3687926667615
 20
3.017600674749186
 30
0.0
 11
18.34361581961842
 21
3.9924238276061
 31
0.0
  0
LINE
  5
1040F
330
103EE
100
AcDbEntity
  8
0
  6
CONTINUOUS
100
AcDbLine
 10
19.76440170834832
 20
6.086728925416191
 30
0.0
 11
22.33924590259489
 21
8.661573119662755
 31
0.0
  0
LINE
  5
10410
330
103EE
100
AcDbEntity
  8
0
  6
CONTINUOUS
100
AcDbLine
 10
19.27479084494887
 20
4.923598852936555
 30
0.0
 11
21.84929622842713
 21
7.498104236414807
 31
0.0
  0
LINE
  5
10411
330
103EE
100
AcDbEntity
  8
0
  6
CONTINUOUS
100
AcDbLine
 10
17.55278269785445
 20
2.528071496761945
 30
0.0
 11
18.52764499068187
 21
3.502933789589366
 31
0.0
  0
LINE
  5
10412
330
103EE
100
AcDbEntity
  8
0
  6
CONTINUOUS
100
AcDbLine
 10
18.78517998154942
 20
3.760468780456919
 30
0.0
 11
21.35934655425936
 21
6.33463535316686
 31
0.0
  0
LINE
  5
10413
330
103EE
100
AcDbEntity
  8
0
  6
CONTINUOUS
100
AcDbLine
 10
17.73677272894739
 20
2.038542318774704
 30
0.0
 11
20.8693968800916
 21
5.171166469918914
 31
0.0
  0
LINE
  5
10414
330
103EE
100
AcDbEntity
  8
0
  6
CONTINUOUS
100
AcDbLine
 10
17.92076276004034
 20
1.549013140787464
 30
0.0
 11
20.37944720592384
 21
4.007697586670968
 31
0.0
  0
LINE
  5
10415
330
103EE
100
AcDbEntity
  8
0
  6
CONTINUOUS
100
AcDbLine
 10
18.10475279113329
 20
1.059483962800223
 30
0.0
 11
19.88949753175608
 21
2.84422870342302
 31
0.0
  0
LINE
  5
10416
330
103EE
100
AcDbEntity
  8
0
  6
CONTINUOUS
100
AcDbLine
 10
18.28874282222623
 20
0.5699547848129822
 30
0.0
 11
19.39954785758832
 21
1.680759820175074
 31
0.0
  0
LINE
  5
10417
330
103EE
100
AcDbEntity
  8
0
  6
CONTINUOUS
100
AcDbLine
 10
18.47273285331918
 20
0.0804256068257416
 30
0.0
 11
18.90959818342056
 21
0.517290936927127
 31
0.0
  0
LINE
  5
10418
330
103EE
100
AcDbEntity
  8
0
  6
CONTINUOUS
100
AcDbLine
 10
14.3590401358224
 20
-0.1570118376323384
 30
0.0
 11
14.24903296539946
 21
-0.0470046672093929
 31
0.0
  0
LINE
  5
10419
330
103EE
100
AcDbEntity
  8
0
  6
CONTINUOUS
100
AcDbLine
 10
14.54309291258661
 20
0.332454594683643
 30
0.0
 11
13.75908329123172
 21
1.116464216038529
 31
0.0
  0
LINE
  5
1041A
330
103EE
100
AcDbEntity
  8
0
  6
CONTINUOUS
100
AcDbLine
 10
14.72714568935081
 20
0.8219210269996244
 30
0.0
 11
13.26913361706399
 21
2.27993309928645
 31
0.0
  0
LINE
  5
1041B
330
103EE
100
AcDbEntity
  8
0
  6
CONTINUOUS
100
AcDbLine
 10
14.91119846611502
 20
1.311387459315606
 30
0.0
 11
12.77918394289625
 21
3.443401982534371
 31
0.0
  0
LINE
  5
1041C
330
103EE
100
AcDbEntity
  8
0
  6
CONTINUOUS
100
AcDbLine
 10
15.09525124287922
 20
1.800853891631587
 30
0.0
 11
12.28923426872852
 21
4.606870865782293
 31
0.0
  0
LINE
  5
1041D
330
103EE
100
AcDbEntity
  8
0
  6
CONTINUOUS
100
AcDbLine
 10
15.27930401964343
 20
2.290320323947569
 30
0.0
 11
11.79928459456078
 21
5.770339749030213
 31
0.0
  0
LINE
  5
1041E
330
103EE
100
AcDbEntity
  8
0
  6
CONTINUOUS
100
AcDbLine
 10
15.46335679640763
 20
2.77978675626355
 30
0.0
 11
14.48885470994921
 21
3.754288842721972
 31
0.0
  0
LINE
  5
1041F
330
103EE
100
AcDbEntity
  8
0
  6
CONTINUOUS
100
AcDbLine
 10
13.88507249233704
 20
4.358071060334137
 30
0.0
 11
11.30933492039305
 21
6.933808632278135
 31
0.0
  0
LINE
  5
10420
330
103EE
100
AcDbEntity
  8
0
  6
CONTINUOUS
100
AcDbLine
 10
18.75840522805855
 20
0.1582575336928151
 30
0.0
 11
18.25383727664818
 21
0.6628254851031863
 31
0.0
  0
LINE
  5
10421
330
103EE
100
AcDbEntity
  8
0
  6
CONTINUOUS
100
AcDbLine
 10
15.64740957317184
 20
3.269253188579531
 30
0.0
 11
14.67288388101266
 21
4.243778880738705
 31
0.0
  0
LINE
  5
10422
330
103EE
100
AcDbEntity
  8
0
  6
CONTINUOUS
100
AcDbLine
 10
13.39509276772158
 20
5.521569994029786
 30
0.0
 11
10.81938524622531
 21
8.097277515526056
 31
0.0
  0
LINE
  5
10423
330
103EE
100
AcDbEntity
  8
0
  6
CONTINUOUS
100
AcDbLine
 10
18.95798597883369
 20
0.6321959919978686
 30
0.0
 11
17.84825644852853
 21
1.741925522303024
 31
0.0
  0
LINE
  5
10424
330
103EE
100
AcDbEntity
  8
0
  6
CONTINUOUS
100
AcDbLine
 10
19.15756672960882
 20
1.106134450302922
 30
0.0
 11
17.44267562040888
 21
2.821025559502861
 31
0.0
  0
LINE
  5
10425
330
103EE
100
AcDbEntity
  8
0
  6
CONTINUOUS
100
AcDbLine
 10
15.83146234993604
 20
3.758719620895513
 30
0.0
 11
14.85691305207612
 21
4.733268918755439
 31
0.0
  0
LINE
  5
10426
330
103EE
100
AcDbEntity
  8
0
  6
CONTINUOUS
100
AcDbLine
 10
16.01551512670025
 20
4.248186053211494
 30
0.0
 11
15.04094222313957
 21
5.222758956772172
 31
0.0
  0
LINE
  5
10427
330
103EE
100
AcDbEntity
  8
0
  6
CONTINUOUS
100
AcDbLine
 10
12.90511304310612
 20
6.685068927725435
 30
0.0
 11
10.8270819708403
 21
8.763099999991255
 31
0.0
  0
LINE
  5
10428
330
103EE
100
AcDbEntity
  8
0
  6
CONTINUOUS
100
AcDbLine
 10
12.41513331849066
 20
7.848567861421083
 30
0.0
 11
11.50060117992049
 21
8.763099999991255
 31
0.0
  0
LINE
  5
10429
330
103EE
100
AcDbEntity
  8
0
  6
CONTINUOUS
100
AcDbLine
 10
19.35714748038395
 20
1.580072908607975
 30
0.0
 11
17.03709479228923
 21
3.900125596702697
 31
0.0
  0
LINE
  5
1042A
330
103EE
100
AcDbEntity
  8
0
  6
CONTINUOUS
100
AcDbLine
 10
19.55672823115909
 20
2.054011366913028
 30
0.0
 11
16.63151396416958
 21
4.979225633902534
 31
0.0
  0
LINE
  5
1042B
330
103EE
100
AcDbEntity
  8
0
  6
CONTINUOUS
100
AcDbLine
 10
16.19956790346445
 20
4.737652485527476
 30
0.0
 11
15.22497139420302
 21
5.712248994788904
 31
0.0
  0
LINE
  5
1042C
330
103EE
100
AcDbEntity
  8
0
  6
CONTINUOUS
100
AcDbLine
 10
16.38362068022866
 20
5.227118917843457
 30
0.0
 11
15.40900056526648
 21
6.201739032805637
 31
0.0
  0
LINE
  5
1042D
330
103EE
100
AcDbEntity
  8
0
  6
CONTINUOUS
100
AcDbLine
 10
19.75630898193422
 20
2.527949825218081
 30
0.0
 11
18.70774536448286
 21
3.576513442669441
 31
0.0
  0
LINE
  5
1042E
330
103EE
100
AcDbEntity
  8
0
  6
CONTINUOUS
100
AcDbLine
 10
19.95588973270936
 20
3.001888283523134
 30
0.0
 11
18.90726987211446
 21
4.050508144118028
 31
0.0
  0
LINE
  5
1042F
330
103EE
100
AcDbEntity
  8
0
  6
CONTINUOUS
100
AcDbLine
 10
20.15547048348449
 20
3.475826741828186
 30
0.0
 11
19.10679437974606
 21
4.524502845566614
 31
0.0
  0
LINE
  5
10430
330
103EE
100
AcDbEntity
  8
0
  6
CONTINUOUS
100
AcDbLine
 10
20.35505123425962
 20
3.94976520013324
 30
0.0
 11
19.30631888737766
 21
4.998497547015201
 31
0.0
  0
LINE
  5
10431
330
103EE
100
AcDbEntity
  8
0
  6
CONTINUOUS
100
AcDbLine
 10
20.55463198503475
 20
4.423703658438292
 30
0.0
 11
19.50584339500926
 21
5.472492248463787
 31
0.0
  0
LINE
  5
10432
330
103EE
100
AcDbEntity
  8
0
  6
CONTINUOUS
100
AcDbLine
 10
18.37481191085755
 20
3.909446896294752
 30
0.0
 11
15.59302973632993
 21
6.691229070822371
 31
0.0
  0
LINE
  5
10433
330
103EE
100
AcDbEntity
  8
0
  6
CONTINUOUS
100
AcDbLine
 10
17.96904084440766
 20
4.988737171824825
 30
0.0
 11
15.77705890739338
 21
7.180719108839104
 31
0.0
  0
LINE
  5
10434
330
103EE
100
AcDbEntity
  8
0
  6
CONTINUOUS
100
AcDbLine
 10
17.56326977795777
 20
6.068027447354899
 30
0.0
 11
15.96108807845684
 21
7.670209146855838
 31
0.0
  0
LINE
  5
10435
330
103EE
100
AcDbEntity
  8
0
  6
CONTINUOUS
100
AcDbLine
 10
17.15749871150789
 20
7.147317722884972
 30
0.0
 11
16.14511724952029
 21
8.15969918487257
 31
0.0
  0
LINE
  5
10436
330
103EE
100
AcDbEntity
  8
0
  6
CONTINUOUS
100
AcDbLine
 10
16.751727645058
 20
8.226607998415046
 30
0.0
 11
16.32914642058374
 21
8.649189222889303
 31
0.0
  0
LINE
  5
10437
330
103EE
100
AcDbEntity
  8
0
  6
CONTINUOUS
100
AcDbLine
 10
20.75421273580989
 20
4.897642116743345
 30
0.0
 11
19.70536790264086
 21
5.946486949912374
 31
0.0
  0
LINE
  5
10438
330
103EE
100
AcDbEntity
  8
0
  6
CONTINUOUS
100
AcDbLine
 10
20.95379348658502
 20
5.371580575048398
 30
0.0
 11
19.90489241027246
 21
6.42048165136096
 31
0.0
  0
LINE
  5
10439
330
103EE
100
AcDbEntity
  8
0
  6
CONTINUOUS
100
AcDbLine
 10
21.15337423736015
 20
5.845519033353452
 30
0.0
 11
20.10441691790406
 21
6.894476352809547
 31
0.0
  0
LINE
  5
1043A
330
103EE
100
AcDbEntity
  8
0
  6
CONTINUOUS
100
AcDbLine
 10
21.35295498813529
 20
6.319457491658505
 30
0.0
 11
20.30394142553566
 21
7.368471054258134
 31
0.0
  0
LINE
  5
1043B
330
103EE
100
AcDbEntity
  8
0
  6
CONTINUOUS
100
AcDbLine
 10
21.55253573891042
 20
6.793395949963558
 30
0.0
 11
20.50346593316726
 21
7.842465755706721
 31
0.0
  0
LINE
  5
1043C
330
103EE
100
AcDbEntity
  8
0
  6
CONTINUOUS
100
AcDbLine
 10
21.75211648968556
 20
7.267334408268612
 30
0.0
 11
20.70299044079886
 21
8.316460457155308
 31
0.0
  0
LINE
  5
1043D
330
103EE
100
AcDbEntity
  8
0
  6
CONTINUOUS
100
AcDbLine
 10
21.95169724046069
 20
7.741272866573663
 30
0.0
 11
20.9298701070431
 21
8.763099999991256
 31
0.0
  0
LINE
  5
1043E
330
103EE
100
AcDbEntity
  8
0
  6
CONTINUOUS
100
AcDbLine
 10
22.15127799123582
 20
8.215211324878716
 30
0.0
 11
21.60338931612328
 21
8.763099999991256
 31
0.0
  0
LINE
  5
1043F
330
103EE
100
AcDbEntity
  8
0
  6
CONTINUOUS
100
AcDbLine
 10
22.35085874201096
 20
8.689149783183769
 30
0.0
 11
22.27690852520347
 21
8.763099999991255
 31
0.0
  0
ENDBLK
  5
10531
330
103EE
100
AcDbEntity
  8
0
100
AcDbBlockEnd
  0
BLOCK
  5
10532
330
10440
100
AcDbEntity
  8
0
100
AcDbBlockBegin
  2
*X54
 70
     1
 10
0.0
 20
0.0
 30
0.0
  3
*X54
  1

  0
LINE
  5
10441
330
10440
100
AcDbEntity
  8
0
  6
CONTINUOUS
100
AcDbLine
 10
23.19462913593892
 20
8.169917934846424
 30
0.0
 11
23.70775465517246
 21
8.683043454079957
 31
0.0
  0
LINE
  5
10442
330
10440
100
AcDbEntity
  8
0
  6
CONTINUOUS
100
AcDbLine
 10
22.64923161835078
 20
6.951001208178088
 30
0.0
 11
23.9159364069932
 21
8.217705996820516
 31
0.0
  0
LINE
  5
10443
330
10440
100
AcDbEntity
  8
0
  6
CONTINUOUS
100
AcDbLine
 10
22.10383410076263
 20
5.732084481509751
 30
0.0
 11
24.12411815881395
 21
7.752368539561078
 31
0.0
  0
LINE
  5
10444
330
10440
100
AcDbEntity
  8
0
  6
CONTINUOUS
100
AcDbLine
 10
21.55843658317447
 20
4.513167754841414
 30
0.0
 11
24.3322999106347
 21
7.287031082301639
 31
0.0
  0
LINE
  5
10445
330
10440
100
AcDbEntity
  8
0
  6
CONTINUOUS
100
AcDbLine
 10
21.01303906558632
 20
3.294251028173077
 30
0.0
 11
24.54048166245544
 21
6.821693625042199
 31
0.0
  0
LINE
  5
10446
330
10440
100
AcDbEntity
  8
0
  6
CONTINUOUS
100
AcDbLine
 10
20.46764154799817
 20
2.075334301504738
 30
0.0
 11
23.28571549467848
 21
4.89340824818505
 31
0.0
  0
LINE
  5
10447
330
10440
100
AcDbEntity
  8
0
  6
CONTINUOUS
100
AcDbLine
 10
19.92224403041002
 20
0.8564175748364002
 30
0.0
 11
22.74075865492779
 21
3.674932199354171
 31
0.0
  0
LINE
  5
10448
330
10440
100
AcDbEntity
  8
0
  6
CONTINUOUS
100
AcDbLine
 10
23.67305085490148
 20
5.280743608408048
 30
0.0
 11
24.74866341427619
 21
6.356356167782759
 31
0.0
  0
LINE
  5
10449
330
10440
100
AcDbEntity
  8
0
  6
CONTINUOUS
100
AcDbLine
 10
23.88118970842314
 20
4.815363252849522
 30
0.0
 11
24.95684516609694
 21
5.89101871052332
 31
0.0
  0
LINE
  5
1044A
330
10440
100
AcDbEntity
  8
0
  6
CONTINUOUS
100
AcDbLine
 10
19.73925852647308
 20
-0.0000871381807288
 30
0.0
 11
23.4103456646501
 21
3.670999999996297
 31
0.0
  0
LINE
  5
1044B
330
10440
100
AcDbEntity
  8
0
  6
CONTINUOUS
100
AcDbLine
 10
24.0893285619448
 20
4.349982897290997
 30
0.0
 11
25.16502691791769
 21
5.42568125326388
 31
0.0
  0
LINE
  5
1044C
330
10440
100
AcDbEntity
  8
0
  6
CONTINUOUS
100
AcDbLine
 10
20.41282099582748
 20
-0.0000438779065108
 30
0.0
 11
21.64944178675636
 21
1.236576913022366
 31
0.0
  0
LINE
  5
1044D
330
10440
100
AcDbEntity
  8
0
  6
CONTINUOUS
100
AcDbLine
 10
22.78126487373161
 20
2.36839999999762
 30
0.0
 11
24.08386487373029
 21
3.670999999996297
 31
0.0
  0
LINE
  5
1044E
330
10440
100
AcDbEntity
  8
0
  6
CONTINUOUS
100
AcDbLine
 10
24.29746741546646
 20
3.884602541732471
 30
0.0
 11
25.37320866973843
 21
4.960343796004441
 31
0.0
  0
LINE
  5
1044F
330
10440
100
AcDbEntity
  8
0
  6
CONTINUOUS
100
AcDbLine
 10
21.08638346518189
 20
-0.0000006176322938
 30
0.0
 11
21.10379033335899
 21
0.0174062505448083
 31
0.0
  0
LINE
  5
10450
330
10440
100
AcDbEntity
  8
0
  6
CONTINUOUS
100
AcDbLine
 10
23.4547840828118
 20
2.36839999999762
 30
0.0
 11
25.58139042155918
 21
4.495006338745002
 31
0.0
  0
LINE
  5
10451
330
10440
100
AcDbEntity
  8
0
  6
CONTINUOUS
100
AcDbLine
 10
29.30199999996933
 20
8.215615917155148
 30
0.0
 11
29.84948408280543
 21
8.763099999991255
 31
0.0
  0
LINE
  5
10452
330
10440
100
AcDbEntity
  8
0
  6
CONTINUOUS
100
AcDbLine
 10
24.12830329189199
 20
2.36839999999762
 30
0.0
 11
25.78957217337993
 21
4.029668881485562
 31
0.0
  0
LINE
  5
10453
330
10440
100
AcDbEntity
  8
0
  6
CONTINUOUS
100
AcDbLine
 10
29.30199999996933
 20
7.54209670807496
 30
0.0
 11
30.52300329188562
 21
8.763099999991255
 31
0.0
  0
LINE
  5
10454
330
10440
100
AcDbEntity
  8
0
  6
CONTINUOUS
100
AcDbLine
 10
24.80182250097217
 20
2.36839999999762
 30
0.0
 11
25.99775392520067
 21
3.564331424226122
 31
0.0
  0
LINE
  5
10455
330
10440
100
AcDbEntity
  8
0
  6
CONTINUOUS
100
AcDbLine
 10
29.30199999996933
 20
6.868577498994774
 30
0.0
 11
30.74199999996926
 21
8.308577498994712
 31
0.0
  0
LINE
  5
10456
330
10440
100
AcDbEntity
  8
0
  6
CONTINUOUS
100
AcDbLine
 10
25.13028238392013
 20
2.023340673865392
 30
0.0
 11
26.20593567702142
 21
3.098993966966683
 31
0.0
  0
LINE
  5
10457
330
10440
100
AcDbEntity
  8
0
  6
CONTINUOUS
100
AcDbLine
 10
25.33838066033617
 20
1.557919741201244
 30
0.0
 11
26.41411742884217
 21
2.633656509707244
 31
0.0
  0
LINE
  5
10458
330
10440
100
AcDbEntity
  8
0
  6
CONTINUOUS
100
AcDbLine
 10
25.54647893675221
 20
1.092498808537098
 30
0.0
 11
26.62229918066291
 21
2.168319052447804
 31
0.0
  0
LINE
  5
10459
330
10440
100
AcDbEntity
  8
0
  6
CONTINUOUS
100
AcDbLine
 10
25.75457721316825
 20
0.62707787587295
 30
0.0
 11
26.83048093248366
 21
1.702981595188365
 31
0.0
  0
LINE
  5
1045A
330
10440
100
AcDbEntity
  8
0
  6
CONTINUOUS
100
AcDbLine
 10
29.30199999996933
 20
6.195058289914587
 30
0.0
 11
30.74199999996926
 21
7.635058289914522
 31
0.0
  0
LINE
  5
1045B
330
10440
100
AcDbEntity
  8
0
  6
CONTINUOUS
100
AcDbLine
 10
29.30199999996933
 20
5.521539080834401
 30
0.0
 11
30.74199999996926
 21
6.961539080834331
 31
0.0
  0
LINE
  5
1045C
330
10440
100
AcDbEntity
  8
0
  6
CONTINUOUS
100
AcDbLine
 10
29.30199999996933
 20
4.848019871754214
 30
0.0
 11
30.74199999996925
 21
6.288019871754143
 31
0.0
  0
LINE
  5
1045D
330
10440
100
AcDbEntity
  8
0
  6
CONTINUOUS
100
AcDbLine
 10
29.30199999996933
 20
4.174500662674028
 30
0.0
 11
30.74199999996925
 21
5.614500662673953
 31
0.0
  0
LINE
  5
1045E
330
10440
100
AcDbEntity
  8
0
  6
CONTINUOUS
100
AcDbLine
 10
25.96267548958429
 20
0.1616569432088024
 30
0.0
 11
27.18411854636669
 21
1.383099999991207
 31
0.0
  0
LINE
  5
1045F
330
10440
100
AcDbEntity
  8
0
  6
CONTINUOUS
100
AcDbLine
 10
29.30199999996933
 20
3.500981453593841
 30
0.0
 11
30.74199999996925
 21
4.940981453593762
 31
0.0
  0
LINE
  5
10460
330
10440
100
AcDbEntity
  8
0
  6
CONTINUOUS
100
AcDbLine
 10
26.50763775544691
 20
0.0330999999912356
 30
0.0
 11
27.85763775544689
 21
1.383099999991223
 31
0.0
  0
LINE
  5
10461
330
10440
100
AcDbEntity
  8
0
  6
CONTINUOUS
100
AcDbLine
 10
29.30199999996933
 20
2.827462244513656
 30
0.0
 11
30.74199999996925
 21
4.267462244513574
 31
0.0
  0
LINE
  5
10462
330
10440
100
AcDbEntity
  8
0
  6
CONTINUOUS
100
AcDbLine
 10
27.18115696452709
 20
0.0330999999912356
 30
0.0
 11
28.55073879889363
 21
1.402681834357775
 31
0.0
  0
LINE
  5
10463
330
10440
100
AcDbEntity
  8
0
  6
CONTINUOUS
100
AcDbLine
 10
29.28241816560272
 20
2.134361201066866
 30
0.0
 11
30.74199999996924
 21
3.593943035433383
 31
0.0
  0
LINE
  5
10464
330
10440
100
AcDbEntity
  8
0
  6
CONTINUOUS
100
AcDbLine
 10
27.85467617360728
 20
0.0330999999912356
 30
0.0
 11
30.74199999996924
 21
2.920423826353195
 31
0.0
  0
LINE
  5
10465
330
10440
100
AcDbEntity
  8
0
  6
CONTINUOUS
100
AcDbLine
 10
28.53897559587887
 20
0.0438802131826428
 30
0.0
 11
30.73121978677781
 21
2.236124404081585
 31
0.0
  0
LINE
  5
10466
330
10440
100
AcDbEntity
  8
0
  6
CONTINUOUS
100
AcDbLine
 10
29.45140055588722
 20
0.2827859641107988
 30
0.0
 11
30.49231403584965
 21
1.323699444073236
 31
0.0
  0
LINE
  5
10467
330
10440
100
AcDbEntity
  8
0
  6
CONTINUOUS
100
AcDbLine
 10
19.59027867740337
 20
-0.0000967065718083
 30
0.0
 11
19.55485265190471
 21
0.035329318926844
 31
0.0
  0
LINE
  5
10468
330
10440
100
AcDbEntity
  8
0
  6
CONTINUOUS
100
AcDbLine
 10
20.26375463176586
 20
-0.0000534518541091
 30
0.0
 11
19.76305575737534
 21
0.5006454225364014
 31
0.0
  0
LINE
  5
10469
330
10440
100
AcDbEntity
  8
0
  6
CONTINUOUS
100
AcDbLine
 10
20.93723058612834
 20
-0.0000101971364099
 30
0.0
 11
19.97125886284597
 21
0.965961526145958
 31
0.0
  0
LINE
  5
1046A
330
10440
100
AcDbEntity
  8
0
  6
CONTINUOUS
100
AcDbLine
 10
21.25514828313686
 20
0.355591314935257
 30
0.0
 11
20.1794619683166
 21
1.431277629755512
 31
0.0
  0
LINE
  5
1046B
330
10440
100
AcDbEntity
  8
0
  6
CONTINUOUS
100
AcDbLine
 10
21.46338838394921
 20
0.8208704232030986
 30
0.0
 11
20.38766507378723
 21
1.896593733365069
 31
0.0
  0
LINE
  5
1046C
330
10440
100
AcDbEntity
  8
0
  6
CONTINUOUS
100
AcDbLine
 10
21.67162848476155
 20
1.28614953147094
 30
0.0
 11
20.59586817925786
 21
2.361909836974626
 31
0.0
  0
LINE
  5
1046D
330
10440
100
AcDbEntity
  8
0
  6
CONTINUOUS
100
AcDbLine
 10
21.8798685855739
 20
1.751428639738782
 30
0.0
 11
20.80407128472849
 21
2.827225940584183
 31
0.0
  0
LINE
  5
1046E
330
10440
100
AcDbEntity
  8
0
  6
CONTINUOUS
100
AcDbLine
 10
22.08810868638624
 20
2.216707748006623
 30
0.0
 11
21.01227439019912
 21
3.292542044193739
 31
0.0
  0
LINE
  5
1046F
330
10440
100
AcDbEntity
  8
0
  6
CONTINUOUS
100
AcDbLine
 10
22.60993564347543
 20
2.36839999999762
 30
0.0
 11
21.22047749566975
 21
3.757858147803296
 31
0.0
  0
LINE
  5
10470
330
10440
100
AcDbEntity
  8
0
  6
CONTINUOUS
100
AcDbLine
 10
23.28345485255561
 20
2.36839999999762
 30
0.0
 11
21.42868060114038
 21
4.223174251412853
 31
0.0
  0
LINE
  5
10471
330
10440
100
AcDbEntity
  8
0
  6
CONTINUOUS
100
AcDbLine
 10
26.29227406164219
 20
0.0330999999912356
 30
0.0
 11
25.80009199592872
 21
0.5252820657046957
 31
0.0
  0
LINE
  5
10472
330
10440
100
AcDbEntity
  8
0
  6
CONTINUOUS
100
AcDbLine
 10
23.9569740616358
 20
2.36839999999762
 30
0.0
 11
21.63688370661101
 21
4.688490355022409
 31
0.0
  0
LINE
  5
10473
330
10440
100
AcDbEntity
  8
0
  6
CONTINUOUS
100
AcDbLine
 10
26.96579327072237
 20
0.0330999999912356
 30
0.0
 11
25.2554132311971
 21
1.743480039516508
 31
0.0
  0
LINE
  5
10474
330
10440
100
AcDbEntity
  8
0
  6
CONTINUOUS
100
AcDbLine
 10
24.63049327071599
 20
2.36839999999762
 30
0.0
 11
23.32789327071731
 21
3.670999999996297
 31
0.0
  0
LINE
  5
10475
330
10440
100
AcDbEntity
  8
0
  6
CONTINUOUS
100
AcDbLine
 10
22.92098674744635
 20
4.077906523267254
 30
0.0
 11
21.84508681208164
 21
5.153806458631966
 31
0.0
  0
LINE
  5
10476
330
10440
100
AcDbEntity
  8
0
  6
CONTINUOUS
100
AcDbLine
 10
27.63931247980256
 20
0.0330999999912356
 30
0.0
 11
24.0014124797975
 21
3.670999999996297
 31
0.0
  0
LINE
  5
10477
330
10440
100
AcDbEntity
  8
0
  6
CONTINUOUS
100
AcDbLine
 10
23.129125600968
 20
4.5432868788258
 30
0.0
 11
22.05328991755227
 21
5.619122562241522
 31
0.0
  0
LINE
  5
10478
330
10440
100
AcDbEntity
  8
0
  6
CONTINUOUS
100
AcDbLine
 10
28.31283168888275
 20
0.0330999999912356
 30
0.0
 11
24.16488385994816
 21
4.181047828925828
 31
0.0
  0
LINE
  5
10479
330
10440
100
AcDbEntity
  8
0
  6
CONTINUOUS
100
AcDbLine
 10
23.33726445448964
 20
5.008667234384345
 30
0.0
 11
22.2614930230229
 21
6.084438665851079
 31
0.0
  0
LINE
  5
1047A
330
10440
100
AcDbEntity
  8
0
  6
CONTINUOUS
100
AcDbLine
 10
28.92085740005492
 20
0.0985934978992438
 30
0.0
 11
27.63635089796295
 21
1.383099999991217
 31
0.0
  0
LINE
  5
1047B
330
10440
100
AcDbEntity
  8
0
  6
CONTINUOUS
100
AcDbLine
 10
26.43704649509776
 20
2.582404402856405
 30
0.0
 11
23.61992702019732
 21
5.399523877756844
 31
0.0
  0
LINE
  5
1047C
330
10440
100
AcDbEntity
  8
0
  6
CONTINUOUS
100
AcDbLine
 10
23.54540330801128
 20
5.47404758994289
 30
0.0
 11
22.46969612849353
 21
6.549754769460635
 31
0.0
  0
LINE
  5
1047D
330
10440
100
AcDbEntity
  8
0
  6
CONTINUOUS
100
AcDbLine
 10
29.42225615078443
 20
0.2707139562499279
 30
0.0
 11
28.30987010704312
 21
1.383099999991234
 31
0.0
  0
LINE
  5
1047E
330
10440
100
AcDbEntity
  8
0
  6
CONTINUOUS
100
AcDbLine
 10
25.89179548232307
 20
3.801174624711282
 30
0.0
 11
22.67789923396416
 21
7.015070873070191
 31
0.0
  0
LINE
  5
1047F
330
10440
100
AcDbEntity
  8
0
  6
CONTINUOUS
100
AcDbLine
 10
29.83624534690007
 20
0.5302439692144705
 30
0.0
 11
28.85811781497101
 21
1.508371501143527
 31
0.0
  0
LINE
  5
10480
330
10440
100
AcDbEntity
  8
0
  6
CONTINUOUS
100
AcDbLine
 10
25.34654446954838
 20
5.01994484656616
 30
0.0
 11
22.88610233943479
 21
7.480386976679748
 31
0.0
  0
LINE
  5
10481
330
10440
100
AcDbEntity
  8
0
  6
CONTINUOUS
100
AcDbLine
 10
30.17865975401872
 20
0.8613487711760022
 30
0.0
 11
29.18888744090175
 21
1.851121084292977
 31
0.0
  0
LINE
  5
10482
330
10440
100
AcDbEntity
  8
0
  6
CONTINUOUS
100
AcDbLine
 10
24.80129345677369
 20
6.238715068421037
 30
0.0
 11
23.09430544490542
 21
7.945703080289305
 31
0.0
  0
LINE
  5
10483
330
10440
100
AcDbEntity
  8
0
  6
CONTINUOUS
100
AcDbLine
 10
30.45496647202376
 20
1.258561262251155
 30
0.0
 11
29.30199999996933
 21
2.411527734305588
 31
0.0
  0
LINE
  5
10484
330
10440
100
AcDbEntity
  8
0
  6
CONTINUOUS
100
AcDbLine
 10
24.256042443999
 20
7.457485290275915
 30
0.0
 11
23.30250855037605
 21
8.411019183898862
 31
0.0
  0
LINE
  5
10485
330
10440
100
AcDbEntity
  8
0
  6
CONTINUOUS
100
AcDbLine
 10
30.64868582078271
 20
1.738361122572387
 30
0.0
 11
29.30199999996933
 21
3.085046943385775
 31
0.0
  0
LINE
  5
10486
330
10440
100
AcDbEntity
  8
0
  6
CONTINUOUS
100
AcDbLine
 10
23.71079143122431
 20
8.676255512130794
 30
0.0
 11
23.51071165584668
 21
8.876335287508416
 31
0.0
  0
LINE
  5
10487
330
10440
100
AcDbEntity
  8
0
  6
CONTINUOUS
100
AcDbLine
 10
30.73802122914428
 20
2.322544923291007
 30
0.0
 11
29.30199999996933
 21
3.758566152465961
 31
0.0
  0
LINE
  5
10488
330
10440
100
AcDbEntity
  8
0
  6
CONTINUOUS
100
AcDbLine
 10
30.74199999996924
 20
2.992085361546236
 30
0.0
 11
29.30199999996933
 21
4.432085361546148
 31
0.0
  0
LINE
  5
10489
330
10440
100
AcDbEntity
  8
0
  6
CONTINUOUS
100
AcDbLine
 10
30.74199999996924
 20
3.665604570626419
 30
0.0
 11
29.30199999996933
 21
5.105604570626333
 31
0.0
  0
LINE
  5
1048A
330
10440
100
AcDbEntity
  8
0
  6
CONTINUOUS
100
AcDbLine
 10
30.74199999996925
 20
4.339123779706602
 30
0.0
 11
29.30199999996933
 21
5.77912377970652
 31
0.0
  0
LINE
  5
1048B
330
10440
100
AcDbEntity
  8
0
  6
CONTINUOUS
100
AcDbLine
 10
30.74199999996925
 20
5.012642988786785
 30
0.0
 11
29.30199999996933
 21
6.452642988786707
 31
0.0
  0
LINE
  5
1048C
330
10440
100
AcDbEntity
  8
0
  6
CONTINUOUS
100
AcDbLine
 10
30.74199999996925
 20
5.68616219786697
 30
0.0
 11
29.30199999996933
 21
7.126162197866894
 31
0.0
  0
LINE
  5
1048D
330
10440
100
AcDbEntity
  8
0
  6
CONTINUOUS
100
AcDbLine
 10
30.74199999996925
 20
6.359681406947153
 30
0.0
 11
29.30199999996933
 21
7.799681406947081
 31
0.0
  0
LINE
  5
1048E
330
10440
100
AcDbEntity
  8
0
  6
CONTINUOUS
100
AcDbLine
 10
30.74199999996926
 20
7.033200616027337
 30
0.0
 11
29.30199999996933
 21
8.473200616027269
 31
0.0
  0
LINE
  5
1048F
330
10440
100
AcDbEntity
  8
0
  6
CONTINUOUS
100
AcDbLine
 10
30.74199999996926
 20
7.706719825107518
 30
0.0
 11
29.68561982508552
 21
8.763099999991255
 31
0.0
  0
LINE
  5
10490
330
10440
100
AcDbEntity
  8
0
  6
CONTINUOUS
100
AcDbLine
 10
30.74199999996926
 20
8.380239034187703
 30
0.0
 11
30.35913903416571
 21
8.763099999991255
 31
0.0
  0
ENDBLK
  5
10533
330
10440
100
AcDbEntity
  8
0
100
AcDbBlockEnd
  0
BLOCK
  5
10534
330
10491
100
AcDbEntity
  8
0
100
AcDbBlockBegin
  2
*X55
 70
     1
 10
0.0
 20
0.0
 30
0.0
  3
*X55
  1

  0
LINE
  5
10492
330
10491
100
AcDbEntity
  8
0
  6
CONTINUOUS
100
AcDbLine
 10
31.64199999996833
 20
8.535058289913598
 30
0.0
 11
31.87004171004599
 21
8.763099999991255
 31
0.0
  0
LINE
  5
10493
330
10491
100
AcDbEntity
  8
0
  6
CONTINUOUS
100
AcDbLine
 10
31.64199999996833
 20
7.861539080833412
 30
0.0
 11
32.54356091912618
 21
8.763099999991255
 31
0.0
  0
LINE
  5
10494
330
10491
100
AcDbEntity
  8
0
  6
CONTINUOUS
100
AcDbLine
 10
31.64199999996833
 20
7.188019871753226
 30
0.0
 11
33.08199999996839
 21
8.628019871753281
 31
0.0
  0
LINE
  5
10495
330
10491
100
AcDbEntity
  8
0
  6
CONTINUOUS
100
AcDbLine
 10
31.64199999996833
 20
6.51450066267304
 30
0.0
 11
33.08199999996839
 21
7.954500662673095
 31
0.0
  0
LINE
  5
10496
330
10491
100
AcDbEntity
  8
0
  6
CONTINUOUS
100
AcDbLine
 10
31.64199999996833
 20
5.840981453592853
 30
0.0
 11
33.08199999996839
 21
7.280981453592908
 31
0.0
  0
LINE
  5
10497
330
10491
100
AcDbEntity
  8
0
  6
CONTINUOUS
100
AcDbLine
 10
31.64199999996833
 20
5.167462244512667
 30
0.0
 11
33.08199999996839
 21
6.607462244512721
 31
0.0
  0
LINE
  5
10498
330
10491
100
AcDbEntity
  8
0
  6
CONTINUOUS
100
AcDbLine
 10
31.64199999996833
 20
4.493943035432481
 30
0.0
 11
33.08199999996839
 21
5.933943035432535
 31
0.0
  0
LINE
  5
10499
330
10491
100
AcDbEntity
  8
0
  6
CONTINUOUS
100
AcDbLine
 10
31.64199999996833
 20
3.820423826352293
 30
0.0
 11
33.08199999996839
 21
5.260423826352348
 31
0.0
  0
LINE
  5
1049A
330
10491
100
AcDbEntity
  8
0
  6
CONTINUOUS
100
AcDbLine
 10
31.64199999996833
 20
3.146904617272106
 30
0.0
 11
33.08199999996839
 21
4.586904617272161
 31
0.0
  0
LINE
  5
1049B
330
10491
100
AcDbEntity
  8
0
  6
CONTINUOUS
100
AcDbLine
 10
36.23199999996837
 20
8.410423826352325
 30
0.0
 11
36.5846761736073
 21
8.763099999991255
 31
0.0
  0
LINE
  5
1049C
330
10491
100
AcDbEntity
  8
0
  6
CONTINUOUS
100
AcDbLine
 10
36.23199999996837
 20
7.73690461727214
 30
0.0
 11
37.25819538268748
 21
8.763099999991255
 31
0.0
  0
LINE
  5
1049D
330
10491
100
AcDbEntity
  8
0
  6
CONTINUOUS
100
AcDbLine
 10
31.64257403601376
 20
2.473959444237348
 30
0.0
 11
33.08199999996839
 21
3.913385408191974
 31
0.0
  0
LINE
  5
1049E
330
10491
100
AcDbEntity
  8
0
  6
CONTINUOUS
100
AcDbLine
 10
36.23199999996837
 20
7.063385408191953
 30
0.0
 11
37.67199999996831
 21
8.503385408191894
 31
0.0
  0
LINE
  5
1049F
330
10491
100
AcDbEntity
  8
0
  6
CONTINUOUS
100
AcDbLine
 10
31.72013636841932
 20
1.87800256756272
 30
0.0
 11
33.08199999996839
 21
3.239866199111788
 31
0.0
  0
LINE
  5
104A0
330
10491
100
AcDbEntity
  8
0
  6
CONTINUOUS
100
AcDbLine
 10
36.23199999996837
 20
6.389866199111767
 30
0.0
 11
37.67199999996831
 21
7.829866199111708
 31
0.0
  0
LINE
  5
104A1
330
10491
100
AcDbEntity
  8
0
  6
CONTINUOUS
100
AcDbLine
 10
31.89042734314753
 20
1.374774333210744
 30
0.0
 11
33.08199999996839
 21
2.566346990031601
 31
0.0
  0
LINE
  5
104A2
330
10491
100
AcDbEntity
  8
0
  6
CONTINUOUS
100
AcDbLine
 10
36.23199999996837
 20
5.71634699003158
 30
0.0
 11
37.67199999996831
 21
7.156346990031521
 31
0.0
  0
LINE
  5
104A3
330
10491
100
AcDbEntity
  8
0
  6
CONTINUOUS
100
AcDbLine
 10
32.14210568064475
 20
0.952933461627778
 30
0.0
 11
33.18745552475986
 21
1.998283305742888
 31
0.0
  0
LINE
  5
104A4
330
10491
100
AcDbEntity
  8
0
  6
CONTINUOUS
100
AcDbLine
 10
36.23199999996837
 20
5.042827780951393
 30
0.0
 11
37.67199999996831
 21
6.482827780951334
 31
0.0
  0
LINE
  5
104A5
330
10491
100
AcDbEntity
  8
0
  6
CONTINUOUS
100
AcDbLine
 10
32.45820639400955
 20
0.5955149659123915
 30
0.0
 11
33.47242681921943
 21
1.60973539112227
 31
0.0
  0
LINE
  5
104A6
330
10491
100
AcDbEntity
  8
0
  6
CONTINUOUS
100
AcDbLine
 10
36.23199999996837
 20
4.369308571871207
 30
0.0
 11
37.67199999996831
 21
5.809308571871147
 31
0.0
  0
LINE
  5
104A7
330
10491
100
AcDbEntity
  8
0
  6
CONTINUOUS
100
AcDbLine
 10
32.83432456621412
 20
0.2981139290367771
 30
0.0
 11
33.89722476612215
 21
1.361014128944803
 31
0.0
  0
LINE
  5
104A8
330
10491
100
AcDbEntity
  8
0
  6
CONTINUOUS
100
AcDbLine
 10
36.23199999996837
 20
3.69578936279102
 30
0.0
 11
37.67199999996831
 21
5.135789362790962
 31
0.0
  0
LINE
  5
104A9
330
10491
100
AcDbEntity
  8
0
  6
CONTINUOUS
100
AcDbLine
 10
33.2711633111245
 20
0.0614334648669672
 30
0.0
 11
34.43247338014423
 21
1.222743533886696
 31
0.0
  0
LINE
  5
104AA
330
10491
100
AcDbEntity
  8
0
  6
CONTINUOUS
100
AcDbLine
 10
36.23199999996837
 20
3.022270153710834
 30
0.0
 11
37.67199999996831
 21
4.462270153710775
 31
0.0
  0
LINE
  5
104AB
330
10491
100
AcDbEntity
  8
0
  6
CONTINUOUS
100
AcDbLine
 10
33.76515245874577
 20
-0.1180965965919523
 30
0.0
 11
35.1587445516215
 21
1.27549549628378
 31
0.0
  0
LINE
  5
104AC
330
10491
100
AcDbEntity
  8
0
  6
CONTINUOUS
100
AcDbLine
 10
36.21639478609585
 20
2.333145730758136
 30
0.0
 11
37.67199999996831
 21
3.788750944630588
 31
0.0
  0
LINE
  5
104AD
330
10491
100
AcDbEntity
  8
0
  6
CONTINUOUS
100
AcDbLine
 10
34.34060583368432
 20
-0.2161624307335863
 30
0.0
 11
37.67199999996831
 21
3.115231735550401
 31
0.0
  0
LINE
  5
104AE
330
10491
100
AcDbEntity
  8
0
  6
CONTINUOUS
100
AcDbLine
 10
35.01698193613905
 20
-0.2133055373590427
 30
0.0
 11
37.66876712070525
 21
2.438479647207154
 31
0.0
  0
LINE
  5
104AF
330
10491
100
AcDbEntity
  8
0
  6
CONTINUOUS
100
AcDbLine
 10
35.90743367693304
 20
0.0036269943547609
 30
0.0
 11
37.51723902192366
 21
1.613432339345381
 31
0.0
  0
LINE
  5
104B0
330
10491
100
AcDbEntity
  8
0
  6
CONTINUOUS
100
AcDbLine
 10
32.55309425579761
 20
0.5074718966376706
 30
0.0
 11
32.27784730925847
 21
0.7827188431768102
 31
0.0
  0
LINE
  5
104B1
330
10491
100
AcDbEntity
  8
0
  6
CONTINUOUS
100
AcDbLine
 10
33.87496468909684
 20
-0.1408793275813673
 30
0.0
 11
31.67993083278052
 21
2.054154528734943
 31
0.0
  0
LINE
  5
104B2
330
10491
100
AcDbEntity
  8
0
  6
CONTINUOUS
100
AcDbLine
 10
34.64362813207632
 20
-0.2360235614806649
 30
0.0
 11
31.64199999996833
 21
2.765604570627322
 31
0.0
  0
LINE
  5
104B3
330
10491
100
AcDbEntity
  8
0
  6
CONTINUOUS
100
AcDbLine
 10
35.25801106796118
 20
-0.1768872882853429
 30
0.0
 11
31.64199999996833
 21
3.439123779707508
 31
0.0
  0
LINE
  5
104B4
330
10491
100
AcDbEntity
  8
0
  6
CONTINUOUS
100
AcDbLine
 10
35.79065650332146
 20
-0.0360135145654361
 30
0.0
 11
34.54143210838231
 21
1.213210880373721
 31
0.0
  0
LINE
  5
104B5
330
10491
100
AcDbEntity
  8
0
  6
CONTINUOUS
100
AcDbLine
 10
33.08199999996839
 20
2.67264298878764
 30
0.0
 11
31.64199999996833
 21
4.112642988787695
 31
0.0
  0
LINE
  5
104B6
330
10491
100
AcDbEntity
  8
0
  6
CONTINUOUS
100
AcDbLine
 10
36.25975597779143
 20
0.1684062200447833
 30
0.0
 11
35.15395110240023
 21
1.274211095435983
 31
0.0
  0
LINE
  5
104B7
330
10491
100
AcDbEntity
  8
0
  6
CONTINUOUS
100
AcDbLine
 10
33.08199999996839
 20
3.346162197867826
 30
0.0
 11
31.64199999996833
 21
4.786162197867881
 31
0.0
  0
LINE
  5
104B8
330
10491
100
AcDbEntity
  8
0
  6
CONTINUOUS
100
AcDbLine
 10
36.67226329638774
 20
0.4294181105286579
 30
0.0
 11
35.63766478748767
 21
1.464016619428737
 31
0.0
  0
LINE
  5
104B9
330
10491
100
AcDbEntity
  8
0
  6
CONTINUOUS
100
AcDbLine
 10
33.08199999996839
 20
4.019681406948012
 30
0.0
 11
31.64199999996833
 21
5.459681406948068
 31
0.0
  0
LINE
  5
104BA
330
10491
100
AcDbEntity
  8
0
  6
CONTINUOUS
100
AcDbLine
 10
37.01677749710036
 20
0.7584231188962329
 30
0.0
 11
35.99563422741351
 21
1.779566388583076
 31
0.0
  0
LINE
  5
104BB
330
10491
100
AcDbEntity
  8
0
  6
CONTINUOUS
100
AcDbLine
 10
33.08199999996839
 20
4.693200616028199
 30
0.0
 11
31.64199999996833
 21
6.133200616028255
 31
0.0
  0
LINE
  5
104BC
330
10491
100
AcDbEntity
  8
0
  6
CONTINUOUS
100
AcDbLine
 10
37.29859977568887
 20
1.1501200493879
 30
0.0
 11
36.20680593341555
 21
2.241913891661226
 31
0.0
  0
LINE
  5
104BD
330
10491
100
AcDbEntity
  8
0
  6
CONTINUOUS
100
AcDbLine
 10
33.08199999996839
 20
5.366719825108386
 30
0.0
 11
31.64199999996833
 21
6.80671982510844
 31
0.0
  0
LINE
  5
104BE
330
10491
100
AcDbEntity
  8
0
  6
CONTINUOUS
100
AcDbLine
 10
37.5148623517228
 20
1.607376682434161
 30
0.0
 11
36.23199999996837
 21
2.890239034188594
 31
0.0
  0
LINE
  5
104BF
330
10491
100
AcDbEntity
  8
0
  6
CONTINUOUS
100
AcDbLine
 10
33.08199999996839
 20
6.040239034188573
 30
0.0
 11
31.64199999996833
 21
7.480239034188627
 31
0.0
  0
LINE
  5
104C0
330
10491
100
AcDbEntity
  8
0
  6
CONTINUOUS
100
AcDbLine
 10
37.64705163358367
 20
2.148706609653477
 30
0.0
 11
36.23199999996837
 21
3.56375824326878
 31
0.0
  0
LINE
  5
104C1
330
10491
100
AcDbEntity
  8
0
  6
CONTINUOUS
100
AcDbLine
 10
33.08199999996839
 20
6.713758243268758
 30
0.0
 11
31.64199999996833
 21
8.153758243268815
 31
0.0
  0
LINE
  5
104C2
330
10491
100
AcDbEntity
  8
0
  6
CONTINUOUS
100
AcDbLine
 10
37.67199999996831
 20
2.797277452349026
 30
0.0
 11
36.23199999996837
 21
4.237277452348967
 31
0.0
  0
LINE
  5
104C3
330
10491
100
AcDbEntity
  8
0
  6
CONTINUOUS
100
AcDbLine
 10
37.67199999996831
 20
3.470796661429213
 30
0.0
 11
36.23199999996837
 21
4.910796661429154
 31
0.0
  0
LINE
  5
104C4
330
10491
100
AcDbEntity
  8
0
  6
CONTINUOUS
100
AcDbLine
 10
37.67199999996831
 20
4.144315870509399
 30
0.0
 11
36.23199999996837
 21
5.58431587050934
 31
0.0
  0
LINE
  5
104C5
330
10491
100
AcDbEntity
  8
0
  6
CONTINUOUS
100
AcDbLine
 10
33.08199999996839
 20
7.387277452348945
 30
0.0
 11
31.70617745232608
 21
8.763099999991255
 31
0.0
  0
LINE
  5
104C6
330
10491
100
AcDbEntity
  8
0
  6
CONTINUOUS
100
AcDbLine
 10
33.08199999996839
 20
8.060796661429132
 30
0.0
 11
32.37969666140626
 21
8.763099999991255
 31
0.0
  0
LINE
  5
104C7
330
10491
100
AcDbEntity
  8
0
  6
CONTINUOUS
100
AcDbLine
 10
33.08199999996839
 20
8.734315870509318
 30
0.0
 11
33.05321587048645
 21
8.763099999991255
 31
0.0
  0
LINE
  5
104C8
330
10491
100
AcDbEntity
  8
0
  6
CONTINUOUS
100
AcDbLine
 10
37.67199999996831
 20
4.817835079589585
 30
0.0
 11
36.23199999996837
 21
6.257835079589526
 31
0.0
  0
LINE
  5
104C9
330
10491
100
AcDbEntity
  8
0
  6
CONTINUOUS
100
AcDbLine
 10
37.67199999996831
 20
5.491354288669771
 30
0.0
 11
36.23199999996837
 21
6.931354288669713
 31
0.0
  0
LINE
  5
104CA
330
10491
100
AcDbEntity
  8
0
  6
CONTINUOUS
100
AcDbLine
 10
37.67199999996831
 20
6.164873497749958
 30
0.0
 11
36.23199999996837
 21
7.6048734977499
 31
0.0
  0
LINE
  5
104CB
330
10491
100
AcDbEntity
  8
0
  6
CONTINUOUS
100
AcDbLine
 10
37.67199999996831
 20
6.838392706830144
 30
0.0
 11
36.23199999996837
 21
8.278392706830086
 31
0.0
  0
LINE
  5
104CC
330
10491
100
AcDbEntity
  8
0
  6
CONTINUOUS
100
AcDbLine
 10
37.67199999996831
 20
7.511911915910332
 30
0.0
 11
36.42081191588738
 21
8.763099999991255
 31
0.0
  0
LINE
  5
104CD
330
10491
100
AcDbEntity
  8
0
  6
CONTINUOUS
100
AcDbLine
 10
37.67199999996831
 20
8.185431124990519
 30
0.0
 11
37.09433112496757
 21
8.763099999991255
 31
0.0
  0
ENDBLK
  5
10535
330
10491
100
AcDbEntity
  8
0
100
AcDbBlockEnd
  0
BLOCK
  5
10536
330
104CE
100
AcDbEntity
  8
0
100
AcDbBlockBegin
  2
*X56
 70
     1
 10
0.0
 20
0.0
 30
0.0
  3
*X56
  1

  0
LINE
  5
104CF
330
104CE
100
AcDbEntity
  8
0
  6
CONTINUOUS
100
AcDbLine
 10
38.60499999996136
 20
8.762866199104765
 30
0.0
 11
38.71672554182345
 21
8.874591740966855
 31
0.0
  0
LINE
  5
104D0
330
104CE
100
AcDbEntity
  8
0
  6
CONTINUOUS
100
AcDbLine
 10
38.60499999996136
 20
8.089346990024577
 30
0.0
 11
39.03418785440363
 21
8.518534844466847
 31
0.0
  0
LINE
  5
104D1
330
104CE
100
AcDbEntity
  8
0
  6
CONTINUOUS
100
AcDbLine
 10
38.60499999996136
 20
7.41582778094439
 30
0.0
 11
39.35165016698382
 21
8.16247794796684
 31
0.0
  0
LINE
  5
104D2
330
104CE
100
AcDbEntity
  8
0
  6
CONTINUOUS
100
AcDbLine
 10
38.60499999996136
 20
6.742308571864204
 30
0.0
 11
39.66911247956399
 21
7.806421051466834
 31
0.0
  0
LINE
  5
104D3
330
104CE
100
AcDbEntity
  8
0
  6
CONTINUOUS
100
AcDbLine
 10
38.60499999996136
 20
6.068789362784018
 30
0.0
 11
39.98657479214418
 21
7.450364154966827
 31
0.0
  0
LINE
  5
104D4
330
104CE
100
AcDbEntity
  8
0
  6
CONTINUOUS
100
AcDbLine
 10
38.60499999996136
 20
5.395270153703832
 30
0.0
 11
40.30403710472435
 21
7.09430725846682
 31
0.0
  0
LINE
  5
104D5
330
104CE
100
AcDbEntity
  8
0
  6
CONTINUOUS
100
AcDbLine
 10
38.60499999996136
 20
4.721750944623645
 30
0.0
 11
40.62149941730453
 21
6.738250361966813
 31
0.0
  0
LINE
  5
104D6
330
104CE
100
AcDbEntity
  8
0
  6
CONTINUOUS
100
AcDbLine
 10
38.60499999996136
 20
4.048231735543458
 30
0.0
 11
40.93896172988471
 21
6.382193465466806
 31
0.0
  0
LINE
  5
104D7
330
104CE
100
AcDbEntity
  8
0
  6
CONTINUOUS
100
AcDbLine
 10
38.60499999996136
 20
3.374712526463272
 30
0.0
 11
40.02599999995994
 21
4.795712526461843
 31
0.0
  0
LINE
  5
104D8
330
104CE
100
AcDbEntity
  8
0
  6
CONTINUOUS
100
AcDbLine
 10
38.60499999996136
 20
2.701193317383085
 30
0.0
 11
40.02599999995994
 21
4.122193317381657
 31
0.0
  0
LINE
  5
104D9
330
104CE
100
AcDbEntity
  8
0
  6
CONTINUOUS
100
AcDbLine
 10
40.28339754687704
 20
5.053110073378947
 30
0.0
 11
41.25642404246489
 21
6.026136568966799
 31
0.0
  0
LINE
  5
104DA
330
104CE
100
AcDbEntity
  8
0
  6
CONTINUOUS
100
AcDbLine
 10
40.60085985945722
 20
4.697053176878939
 30
0.0
 11
41.57388635504507
 21
5.670079672466793
 31
0.0
  0
LINE
  5
104DB
330
104CE
100
AcDbEntity
  8
0
  6
CONTINUOUS
100
AcDbLine
 10
43.57899999995641
 20
8.348712526458318
 30
0.0
 11
43.99338747348935
 21
8.763099999991255
 31
0.0
  0
LINE
  5
104DC
330
104CE
100
AcDbEntity
  8
0
  6
CONTINUOUS
100
AcDbLine
 10
43.57899999995641
 20
7.675193317378131
 30
0.0
 11
44.66690668256953
 21
8.763099999991255
 31
0.0
  0
LINE
  5
104DD
330
104CE
100
AcDbEntity
  8
0
  6
CONTINUOUS
100
AcDbLine
 10
38.60499999996136
 20
2.027674108302898
 30
0.0
 11
40.02599999995994
 21
3.44867410830147
 31
0.0
  0
LINE
  5
104DE
330
104CE
100
AcDbEntity
  8
0
  6
CONTINUOUS
100
AcDbLine
 10
38.60499999996136
 20
1.354154899222712
 30
0.0
 11
40.02599999995994
 21
2.775154899221284
 31
0.0
  0
LINE
  5
104DF
330
104CE
100
AcDbEntity
  8
0
  6
CONTINUOUS
100
AcDbLine
 10
38.60499999996136
 20
0.6806356901425255
 30
0.0
 11
40.02599999995994
 21
2.101635690141098
 31
0.0
  0
LINE
  5
104E0
330
104CE
100
AcDbEntity
  8
0
  6
CONTINUOUS
100
AcDbLine
 10
38.60499999996136
 20
0.0071164810623383
 30
0.0
 11
40.02599999995994
 21
1.428116481060911
 31
0.0
  0
LINE
  5
104E1
330
104CE
100
AcDbEntity
  8
0
  6
CONTINUOUS
100
AcDbLine
 10
40.9183221720374
 20
4.340996280378933
 30
0.0
 11
41.89134866762525
 21
5.314022775966786
 31
0.0
  0
LINE
  5
104E2
330
104CE
100
AcDbEntity
  8
0
  6
CONTINUOUS
100
AcDbLine
 10
41.23578448461758
 20
3.984939383878926
 30
0.0
 11
42.20881098020543
 21
4.957965879466778
 31
0.0
  0
LINE
  5
104E3
330
104CE
100
AcDbEntity
  8
0
  6
CONTINUOUS
100
AcDbLine
 10
41.55324679719776
 20
3.628882487378919
 30
0.0
 11
42.52627329278561
 21
4.601908982966772
 31
0.0
  0
LINE
  5
104E4
330
104CE
100
AcDbEntity
  8
0
  6
CONTINUOUS
100
AcDbLine
 10
41.87070910977793
 20
3.272825590878912
 30
0.0
 11
42.84373560536579
 21
4.245852086466765
 31
0.0
  0
LINE
  5
104E5
330
104CE
100
AcDbEntity
  8
0
  6
CONTINUOUS
100
AcDbLine
 10
43.57899999995641
 20
7.001674108297943
 30
0.0
 11
44.99999999995498
 21
8.422674108296516
 31
0.0
  0
LINE
  5
104E6
330
104CE
100
AcDbEntity
  8
0
  6
CONTINUOUS
100
AcDbLine
 10
43.57899999995641
 20
6.328154899217758
 30
0.0
 11
44.99999999995498
 21
7.749154899216329
 31
0.0
  0
LINE
  5
104E7
330
104CE
100
AcDbEntity
  8
0
  6
CONTINUOUS
100
AcDbLine
 10
43.57899999995641
 20
5.654635690137571
 30
0.0
 11
44.99999999995498
 21
7.075635690136142
 31
0.0
  0
LINE
  5
104E8
330
104CE
100
AcDbEntity
  8
0
  6
CONTINUOUS
100
AcDbLine
 10
43.57899999995641
 20
4.981116481057384
 30
0.0
 11
44.99999999995498
 21
6.402116481055955
 31
0.0
  0
LINE
  5
104E9
330
104CE
100
AcDbEntity
  8
0
  6
CONTINUOUS
100
AcDbLine
 10
39.27140272797921
 20
-0.0000000000000009
 30
0.0
 11
40.02599999995994
 21
0.7545972719807246
 31
0.0
  0
LINE
  5
104EA
330
104CE
100
AcDbEntity
  8
0
  6
CONTINUOUS
100
AcDbLine
 10
39.9449219370594
 20
-0.0000000000000009
 30
0.0
 11
40.02599999995994
 21
0.0810780629005379
 31
0.0
  0
LINE
  5
104EB
330
104CE
100
AcDbEntity
  8
0
  6
CONTINUOUS
100
AcDbLine
 10
42.18817142235812
 20
2.916768694378905
 30
0.0
 11
43.16119791794597
 21
3.889795189966758
 31
0.0
  0
LINE
  5
104EC
330
104CE
100
AcDbEntity
  8
0
  6
CONTINUOUS
100
AcDbLine
 10
42.50563373493829
 20
2.560711797878898
 30
0.0
 11
43.47866023052615
 21
3.533738293466751
 31
0.0
  0
LINE
  5
104ED
330
104CE
100
AcDbEntity
  8
0
  6
CONTINUOUS
100
AcDbLine
 10
43.57899999995641
 20
4.307597271977198
 30
0.0
 11
44.99999999995498
 21
5.728597271975769
 31
0.0
  0
LINE
  5
104EE
330
104CE
100
AcDbEntity
  8
0
  6
CONTINUOUS
100
AcDbLine
 10
43.57899999995641
 20
3.634078062897011
 30
0.0
 11
44.99999999995498
 21
5.055078062895582
 31
0.0
  0
LINE
  5
104EF
330
104CE
100
AcDbEntity
  8
0
  6
CONTINUOUS
100
AcDbLine
 10
42.82309604751848
 20
2.204654901378891
 30
0.0
 11
44.99999999995498
 21
4.381558853815395
 31
0.0
  0
LINE
  5
104F0
330
104CE
100
AcDbEntity
  8
0
  6
CONTINUOUS
100
AcDbLine
 10
43.14055836009865
 20
1.848598004878885
 30
0.0
 11
44.99999999995498
 21
3.70803964473521
 31
0.0
  0
LINE
  5
104F1
330
104CE
100
AcDbEntity
  8
0
  6
CONTINUOUS
100
AcDbLine
 10
43.45802067267883
 20
1.492541108378878
 30
0.0
 11
44.99999999995498
 21
3.034520435655023
 31
0.0
  0
LINE
  5
104F2
330
104CE
100
AcDbEntity
  8
0
  6
CONTINUOUS
100
AcDbLine
 10
43.77548298525902
 20
1.136484211878871
 30
0.0
 11
44.99999999995498
 21
2.361001226574837
 31
0.0
  0
LINE
  5
104F3
330
104CE
100
AcDbEntity
  8
0
  6
CONTINUOUS
100
AcDbLine
 10
44.09294529783919
 20
0.7804273153788639
 30
0.0
 11
44.99999999995498
 21
1.687482017494649
 31
0.0
  0
LINE
  5
104F4
330
104CE
100
AcDbEntity
  8
0
  6
CONTINUOUS
100
AcDbLine
 10
44.41040761041938
 20
0.4243704188788566
 30
0.0
 11
44.99999999995498
 21
1.013962808414463
 31
0.0
  0
LINE
  5
104F5
330
104CE
100
AcDbEntity
  8
0
  6
CONTINUOUS
100
AcDbLine
 10
44.72786992299955
 20
0.0683135223788494
 30
0.0
 11
44.99999999995498
 21
0.340443599334276
 31
0.0
  0
LINE
  5
104F6
330
104CE
100
AcDbEntity
  8
0
  6
CONTINUOUS
100
AcDbLine
 10
39.12223903415696
 20
-0.0000000000000009
 30
0.0
 11
38.60499999996136
 21
0.5172390341955961
 31
0.0
  0
LINE
  5
104F7
330
104CE
100
AcDbEntity
  8
0
  6
CONTINUOUS
100
AcDbLine
 10
39.79575824323715
 20
-0.0000000000000009
 30
0.0
 11
38.60499999996136
 21
1.190758243275783
 31
0.0
  0
LINE
  5
104F8
330
104CE
100
AcDbEntity
  8
0
  6
CONTINUOUS
100
AcDbLine
 10
40.02599999995994
 20
0.443277452357397
 30
0.0
 11
38.60499999996136
 21
1.864277452355969
 31
0.0
  0
LINE
  5
104F9
330
104CE
100
AcDbEntity
  8
0
  6
CONTINUOUS
100
AcDbLine
 10
40.02599999995994
 20
1.116796661437583
 30
0.0
 11
38.60499999996136
 21
2.537796661436155
 31
0.0
  0
LINE
  5
104FA
330
104CE
100
AcDbEntity
  8
0
  6
CONTINUOUS
100
AcDbLine
 10
40.02599999995994
 20
1.79031587051777
 30
0.0
 11
38.60499999996136
 21
3.211315870516341
 31
0.0
  0
LINE
  5
104FB
330
104CE
100
AcDbEntity
  8
0
  6
CONTINUOUS
100
AcDbLine
 10
40.02599999995994
 20
2.463835079597956
 30
0.0
 11
38.60499999996136
 21
3.884835079596527
 31
0.0
  0
LINE
  5
104FC
330
104CE
100
AcDbEntity
  8
0
  6
CONTINUOUS
100
AcDbLine
 10
40.02599999995994
 20
3.137354288678143
 30
0.0
 11
38.60499999996136
 21
4.558354288676714
 31
0.0
  0
LINE
  5
104FD
330
104CE
100
AcDbEntity
  8
0
  6
CONTINUOUS
100
AcDbLine
 10
40.02599999995994
 20
3.810873497758329
 30
0.0
 11
38.60499999996136
 21
5.2318734977569
 31
0.0
  0
LINE
  5
104FE
330
104CE
100
AcDbEntity
  8
0
  6
CONTINUOUS
100
AcDbLine
 10
40.02599999995994
 20
4.484392706838515
 30
0.0
 11
38.60499999996136
 21
5.905392706837086
 31
0.0
  0
LINE
  5
104FF
330
104CE
100
AcDbEntity
  8
0
  6
CONTINUOUS
100
AcDbLine
 10
44.99999999995498
 20
0.183911915923658
 30
0.0
 11
41.53858364506288
 21
3.64532827081576
 31
0.0
  0
LINE
  5
10500
330
104CE
100
AcDbEntity
  8
0
  6
CONTINUOUS
100
AcDbLine
 10
40.02599999995994
 20
5.157911915918703
 30
0.0
 11
38.60499999996136
 21
6.578911915917274
 31
0.0
  0
LINE
  5
10501
330
104CE
100
AcDbEntity
  8
0
  6
CONTINUOUS
100
AcDbLine
 10
44.99999999995498
 20
0.8574311250038447
 30
0.0
 11
38.60499999996136
 21
7.25243112499746
 31
0.0
  0
LINE
  5
10502
330
104CE
100
AcDbEntity
  8
0
  6
CONTINUOUS
100
AcDbLine
 10
44.99999999995498
 20
1.530950334084031
 30
0.0
 11
38.60499999996136
 21
7.925950334077647
 31
0.0
  0
LINE
  5
10503
330
104CE
100
AcDbEntity
  8
0
  6
CONTINUOUS
100
AcDbLine
 10
44.99999999995498
 20
2.204469543164218
 30
0.0
 11
43.57899999995641
 21
3.625469543162789
 31
0.0
  0
LINE
  5
10504
330
104CE
100
AcDbEntity
  8
0
  6
CONTINUOUS
100
AcDbLine
 10
41.89876730984767
 20
5.305702233271528
 30
0.0
 11
38.60499999996136
 21
8.599469543157834
 31
0.0
  0
LINE
  5
10505
330
104CE
100
AcDbEntity
  8
0
  6
CONTINUOUS
100
AcDbLine
 10
44.99999999995498
 20
2.877988752244405
 30
0.0
 11
43.57899999995641
 21
4.298988752242975
 31
0.0
  0
LINE
  5
10506
330
104CE
100
AcDbEntity
  8
0
  6
CONTINUOUS
100
AcDbLine
 10
44.99999999995498
 20
3.551507961324591
 30
0.0
 11
43.57899999995641
 21
4.972507961323163
 31
0.0
  0
LINE
  5
10507
330
104CE
100
AcDbEntity
  8
0
  6
CONTINUOUS
100
AcDbLine
 10
44.99999999995498
 20
4.225027170404777
 30
0.0
 11
43.57899999995641
 21
5.646027170403348
 31
0.0
  0
LINE
  5
10508
330
104CE
100
AcDbEntity
  8
0
  6
CONTINUOUS
100
AcDbLine
 10
44.99999999995498
 20
4.898546379484964
 30
0.0
 11
43.57899999995641
 21
6.319546379483535
 31
0.0
  0
LINE
  5
10509
330
104CE
100
AcDbEntity
  8
0
  6
CONTINUOUS
100
AcDbLine
 10
44.99999999995498
 20
5.572065588565151
 30
0.0
 11
43.57899999995641
 21
6.993065588563722
 31
0.0
  0
LINE
  5
1050A
330
104CE
100
AcDbEntity
  8
0
  6
CONTINUOUS
100
AcDbLine
 10
44.99999999995498
 20
6.245584797645336
 30
0.0
 11
43.57899999995641
 21
7.666584797643908
 31
0.0
  0
LINE
  5
1050B
330
104CE
100
AcDbEntity
  8
0
  6
CONTINUOUS
100
AcDbLine
 10
44.99999999995498
 20
6.919104006725522
 30
0.0
 11
43.57899999995641
 21
8.340104006724093
 31
0.0
  0
LINE
  5
1050C
330
104CE
100
AcDbEntity
  8
0
  6
CONTINUOUS
100
AcDbLine
 10
44.99999999995498
 20
7.592623215805709
 30
0.0
 11
43.82952321576943
 21
8.763099999991255
 31
0.0
  0
LINE
  5
1050D
330
104CE
100
AcDbEntity
  8
0
  6
CONTINUOUS
100
AcDbLine
 10
44.99999999995498
 20
8.266142424885896
 30
0.0
 11
44.50304242484962
 21
8.763099999991255
 31
0.0
  0
ENDBLK
  5
10537
330
104CE
100
AcDbEntity
  8
0
100
AcDbBlockEnd
  0
BLOCK
  5
10538
330
1050E
100
AcDbEntity
  8
0
100
AcDbBlockBegin
  2
*X57
 70
     1
 10
0.0
 20
0.0
 30
0.0
  3
*X57
  1

  0
LINE
  5
1050F
330
1050E
100
AcDbEntity
  8
0
  6
CONTINUOUS
100
AcDbLine
 10
0.0
 20
8.548461116714023
 30
0.0
 11
0.2146388832772324
 21
8.763099999991255
 31
0.0
  0
LINE
  5
10510
330
1050E
100
AcDbEntity
  8
0
  6
CONTINUOUS
100
AcDbLine
 10
-0.0000000000000002
 20
7.874941907633837
 30
0.0
 11
0.8881580923574184
 21
8.763099999991255
 31
0.0
  0
LINE
  5
10511
330
1050E
100
AcDbEntity
  8
0
  6
CONTINUOUS
100
AcDbLine
 10
0.0
 20
7.20142269855365
 30
0.0
 11
1.420999999998572
 21
8.622422698552223
 31
0.0
  0
LINE
  5
10512
330
1050E
100
AcDbEntity
  8
0
  6
CONTINUOUS
100
AcDbLine
 10
-0.0000000000000001
 20
6.527903489473465
 30
0.0
 11
1.420999999998571
 21
7.948903489472036
 31
0.0
  0
LINE
  5
10513
330
1050E
100
AcDbEntity
  8
0
  6
CONTINUOUS
100
AcDbLine
 10
-0.0000000000000002
 20
5.854384280393278
 30
0.0
 11
1.420999999998571
 21
7.275384280391849
 31
0.0
  0
LINE
  5
10514
330
1050E
100
AcDbEntity
  8
0
  6
CONTINUOUS
100
AcDbLine
 10
-0.0000000000000002
 20
5.180865071313091
 30
0.0
 11
1.420999999998571
 21
6.601865071311663
 31
0.0
  0
LINE
  5
10515
330
1050E
100
AcDbEntity
  8
0
  6
CONTINUOUS
100
AcDbLine
 10
0.0
 20
4.507345862232905
 30
0.0
 11
1.420999999998571
 21
5.928345862231477
 31
0.0
  0
LINE
  5
10516
330
1050E
100
AcDbEntity
  8
0
  6
CONTINUOUS
100
AcDbLine
 10
-0.0000000000000003
 20
3.833826653152718
 30
0.0
 11
1.420999999998571
 21
5.25482665315129
 31
0.0
  0
LINE
  5
10517
330
1050E
100
AcDbEntity
  8
0
  6
CONTINUOUS
100
AcDbLine
 10
-0.0000000000000002
 20
3.160307444072532
 30
0.0
 11
1.420999999998571
 21
4.581307444071103
 31
0.0
  0
LINE
  5
10518
330
1050E
100
AcDbEntity
  8
0
  6
CONTINUOUS
100
AcDbLine
 10
-0.0000000000000001
 20
2.486788234992345
 30
0.0
 11
1.420999999998571
 21
3.907788234990917
 31
0.0
  0
LINE
  5
10519
330
1050E
100
AcDbEntity
  8
0
  6
CONTINUOUS
100
AcDbLine
 10
-0.0000000000000006
 20
1.813269025912159
 30
0.0
 11
1.420999999998571
 21
3.234269025910731
 31
0.0
  0
LINE
  5
1051A
330
1050E
100
AcDbEntity
  8
0
  6
CONTINUOUS
100
AcDbLine
 10
0.0
 20
1.139749816831973
 30
0.0
 11
1.420999999998571
 21
2.560749816830544
 31
0.0
  0
LINE
  5
1051B
330
1050E
100
AcDbEntity
  8
0
  6
CONTINUOUS
100
AcDbLine
 10
0.0000000000000002
 20
0.466230607751787
 30
0.0
 11
1.420999999998571
 21
1.887230607750358
 31
0.0
  0
LINE
  5
1051C
330
1050E
100
AcDbEntity
  8
0
  6
CONTINUOUS
100
AcDbLine
 10
0.2072886013284003
 20
-0.0000000000000009
 30
0.0
 11
1.420999999998571
 21
1.213711398670171
 31
0.0
  0
LINE
  5
1051D
330
1050E
100
AcDbEntity
  8
0
  6
CONTINUOUS
100
AcDbLine
 10
0.8808078104085864
 20
-0.0000000000000009
 30
0.0
 11
1.420999999998571
 21
0.5401921895899839
 31
0.0
  0
LINE
  5
1051E
330
1050E
100
AcDbEntity
  8
0
  6
CONTINUOUS
100
AcDbLine
 10
0.0581249075061505
 20
-0.0000000000000009
 30
0.0
 11
-0.0000000000000002
 21
0.0581249075061496
 31
0.0
  0
LINE
  5
1051F
330
1050E
100
AcDbEntity
  8
0
  6
CONTINUOUS
100
AcDbLine
 10
0.7316441165863372
 20
-0.0000000000000009
 30
0.0
 11
-0.0000000000000002
 21
0.7316441165863363
 31
0.0
  0
LINE
  5
10520
330
1050E
100
AcDbEntity
  8
0
  6
CONTINUOUS
100
AcDbLine
 10
1.405163325666523
 20
-0.0000000000000009
 30
0.0
 11
-0.0000000000000002
 21
1.405163325666523
 31
0.0
  0
LINE
  5
10521
330
1050E
100
AcDbEntity
  8
0
  6
CONTINUOUS
100
AcDbLine
 10
1.420999999998572
 20
0.6576825347481381
 30
0.0
 11
-0.0000000000000001
 21
2.07868253474671
 31
0.0
  0
LINE
  5
10522
330
1050E
100
AcDbEntity
  8
0
  6
CONTINUOUS
100
AcDbLine
 10
1.420999999998571
 20
1.331201743828324
 30
0.0
 11
-0.0000000000000001
 21
2.752201743826896
 31
0.0
  0
LINE
  5
10523
330
1050E
100
AcDbEntity
  8
0
  6
CONTINUOUS
100
AcDbLine
 10
1.420999999998571
 20
2.004720952908511
 30
0.0
 11
-0.0000000000000002
 21
3.425720952907082
 31
0.0
  0
LINE
  5
10524
330
1050E
100
AcDbEntity
  8
0
  6
CONTINUOUS
100
AcDbLine
 10
1.420999999998571
 20
2.678240161988697
 30
0.0
 11
-0.0000000000000001
 21
4.099240161987269
 31
0.0
  0
LINE
  5
10525
330
1050E
100
AcDbEntity
  8
0
  6
CONTINUOUS
100
AcDbLine
 10
1.420999999998572
 20
3.351759371068884
 30
0.0
 11
0.0
 21
4.772759371067455
 31
0.0
  0
LINE
  5
10526
330
1050E
100
AcDbEntity
  8
0
  6
CONTINUOUS
100
AcDbLine
 10
1.420999999998571
 20
4.02527858014907
 30
0.0
 11
-0.0000000000000003
 21
5.446278580147642
 31
0.0
  0
LINE
  5
10527
330
1050E
100
AcDbEntity
  8
0
  6
CONTINUOUS
100
AcDbLine
 10
1.420999999998571
 20
4.698797789229257
 30
0.0
 11
0.0
 21
6.119797789227828
 31
0.0
  0
LINE
  5
10528
330
1050E
100
AcDbEntity
  8
0
  6
CONTINUOUS
100
AcDbLine
 10
1.420999999998571
 20
5.372316998309444
 30
0.0
 11
-0.0000000000000001
 21
6.793316998308015
 31
0.0
  0
LINE
  5
10529
330
1050E
100
AcDbEntity
  8
0
  6
CONTINUOUS
100
AcDbLine
 10
1.420999999998572
 20
6.045836207389629
 30
0.0
 11
-0.0000000000000004
 21
7.466836207388202
 31
0.0
  0
LINE
  5
1052A
330
1050E
100
AcDbEntity
  8
0
  6
CONTINUOUS
100
AcDbLine
 10
1.420999999998571
 20
6.719355416469816
 30
0.0
 11
0.0
 21
8.140355416468388
 31
0.0
  0
LINE
  5
1052B
330
1050E
100
AcDbEntity
  8
0
  6
CONTINUOUS
100
AcDbLine
 10
1.420999999998571
 20
7.392874625550003
 30
0.0
 11
0.0507746255573185
 21
8.763099999991255
 31
0.0
  0
LINE
  5
1052C
330
1050E
100
AcDbEntity
  8
0
  6
CONTINUOUS
100
AcDbLine
 10
1.420999999998571
 20
8.06639383463019
 30
0.0
 11
0.7242938346375052
 21
8.763099999991255
 31
0.0
  0
LINE
  5
1052D
330
1050E
100
AcDbEntity
  8
0
  6
CONTINUOUS
100
AcDbLine
 10
1.420999999998571
 20
8.739913043710375
 30
0.0
 11
1.397813043717691
 21
8.763099999991255
 31
0.0
  0
ENDBLK
  5
10539
330
1050E
100
AcDbEntity
  8
0
100
AcDbBlockEnd
  0
ENDSEC
  0
SECTION
  2
ENTITIES
  0
LINE
  5
E401
330
18
100
AcDbEntity
  8
1CENTER
100
AcDbLine
 10
61.5
 20
10.00000000000847
 30
0.0
 11
61.5
 21
-1.99999999999153
 31
0.0
  0
TEXT
  5
FC3A
330
18
100
AcDbEntity
  8
1TEXT
100
AcDbText
 10
-235.3753855464862
 20
165.0062348253825
 30
0.0
 40
8.0
  1
PC-465-XX850
100
AcDbText
  0
LINE
  5
FC3B
330
18
100
AcDbEntity
  8
1DIM
100
AcDbLine
 10
-234.1451412148922
 20
133.7906362121567
 30
0.0
 11
-234.1451412148922
 21
154.7906362121567
 31
0.0
  0
LINE
  5
FC45
330
18
100
AcDbEntity
  8
1CENTER
100
AcDbLine
 10
0.0000015482455638
 20
96.9999791135408
 30
0.0
 11
0.0000015482455638
 21
102.9999791135408
 31
0.0
  0
LINE
  5
FC46
330
18
100
AcDbEntity
  8
1CENTER
100
AcDbLine
 10
-2.999998451754436
 20
99.9999791135408
 30
0.0
 11
3.000001548245564
 21
99.9999791135408
 31
0.0
  0
LINE
  5
FC4F
330
18
100
AcDbEntity
  8
1CENTER
100
AcDbLine
 10
0.0000015482455638
 20
9.99999811354087
 30
0.0
 11
0.0000015482455638
 21
-2.000001886459129
 31
0.0
  0
TEXT
  5
FC52
330
18
100
AcDbEntity
  8
1TEXT
100
AcDbText
 10
-197.6784745482259
 20
149.2906362121567
 30
0.0
 40
4.0
  1
表面処理：握り
 72
     1
 11
-181.7451412148925
 21
149.2906362121567
 31
0.0
100
AcDbText
  0
TEXT
  5
FC53
330
18
100
AcDbEntity
  8
1TEXT
100
AcDbText
 10
-196.6251412148925
 20
142.4553475526323
 30
0.0
 40
4.0
  1
ブラストブラック
 41
0.8
 72
     1
 11
-181.7451412148925
 21
142.4553475526323
 31
0.0
100
AcDbText
  0
LINE
  5
FC54
330
18
100
AcDbEntity
  8
1DIM
100
AcDbLine
 10
-234.1451412148922
 20
154.7906362121567
 30
0.0
 11
-129.1451412148922
 21
154.7906362121567
 31
0.0
  0
LINE
  5
FC55
330
18
100
AcDbEntity
  8
1DIM
100
AcDbLine
 10
-234.1451412148922
 20
140.7906362121567
 30
0.0
 11
-129.1451412148922
 21
140.7906362121567
 31
0.0
  0
LINE
  5
FC56
330
18
100
AcDbEntity
  8
1DIM
100
AcDbLine
 10
-234.1451412148922
 20
147.7906362121567
 30
0.0
 11
-129.1451412148922
 21
147.7906362121567
 31
0.0
  0
LINE
  5
FC57
330
18
100
AcDbEntity
  8
1DIM
100
AcDbLine
 10
-234.1451412148922
 20
133.7906362121567
 30
0.0
 11
-129.1451412148922
 21
133.7906362121567
 31
0.0
  0
LINE
  5
FC58
330
18
100
AcDbEntity
  8
1DIM
100
AcDbLine
 10
-234.1451412148922
 20
133.7906362121567
 30
0.0
 11
-129.1451412148922
 21
133.7906362121567
 31
0.0
  0
LINE
  5
FC59
330
18
100
AcDbEntity
  8
1DIM
100
AcDbLine
 10
-164.1451412148922
 20
154.7906362121567
 30
0.0
 11
-164.1451412148922
 21
133.7906362121567
 31
0.0
  0
TEXT
  5
FC5A
330
18
100
AcDbEntity
  8
1TEXT
100
AcDbText
 10
-162.6201412148916
 20
142.0762792285073
 30
0.0
 40
4.0
  1
PC-465-K003850
 41
0.6
 72
     1
 11
-146.7451412148916
 21
142.0762792285073
 31
0.0
100
AcDbText
  0
TEXT
  5
FC5B
330
18
100
AcDbEntity
  8
1TEXT
100
AcDbText
 10
-153.6118078815592
 20
149.2906362121567
 30
0.0
 40
4.0
  1
コード
 72
     1
 11
-146.7451412148925
 21
149.2906362121567
 31
0.0
100
AcDbText
  0
LINE
  5
FC5C
330
18
100
AcDbEntity
  8
1DIM
100
AcDbLine
 10
-199.1451412148922
 20
133.7906362121567
 30
0.0
 11
-199.1451412148922
 21
154.7906362121567
 31
0.0
  0
LINE
  5
FC5D
330
18
100
AcDbEntity
  8
1DIM
100
AcDbLine
 10
-129.1451412148922
 20
133.7906362121567
 30
0.0
 11
-129.1451412148922
 21
154.7906362121567
 31
0.0
  0
TEXT
  5
FC5E
330
18
100
AcDbEntity
  8
1TEXT
100
AcDbText
 10
-197.3851412148925
 20
135.4553475526323
 30
0.0
 40
4.0
  1
ステンカラーヘアライン
 41
0.6
 72
     1
 11
-181.7451412148925
 21
135.4553475526323
 31
0.0
100
AcDbText
  0
TEXT
  5
FC5F
330
18
100
AcDbEntity
  8
1TEXT
100
AcDbText
 10
-162.9326412148916
 20
135.0762792285073
 30
0.0
 40
4.0
  1
PC-465-ZC850
 41
0.7
 72
     1
 11
-146.7451412148916
 21
135.0762792285073
 31
0.0
100
AcDbText
  0
TEXT
  5
FC60
330
18
100
AcDbEntity
  8
1TEXT
100
AcDbText
 10
-233.2118078815592
 20
149.2906362121567
 30
0.0
 40
4.0
  1
表面処理：脚部
 72
     1
 11
-216.7451412148925
 21
149.2906362121567
 31
0.0
100
AcDbText
  0
TEXT
  5
FC61
330
18
100
AcDbEntity
  8
1TEXT
100
AcDbText
 10
-233.0118078815592
 20
142.4553475526323
 30
0.0
 40
4.0
  1
マットブラック
 72
     1
 11
-216.7451412148925
 21
142.4553475526323
 31
0.0
100
AcDbText
  0
TEXT
  5
FC62
330
18
100
AcDbEntity
  8
1TEXT
100
AcDbText
 10
-226.2118078815592
 20
135.4553475526323
 30
0.0
 40
4.0
  1
クローム
 72
     1
 11
-216.7451412148925
 21
135.4553475526323
 31
0.0
100
AcDbText
  0
LINE
  5
FC65
330
18
100
AcDbEntity
  8
01
100
AcDbLine
 10
72.79999999999995
 20
33.99999999999751
 30
0.0
 11
72.79999999999995
 21
30.30000000000189
 31
0.0
  0
LINE
  5
FC66
330
18
100
AcDbEntity
  8
01
100
AcDbLine
 10
50.19999999999993
 20
33.99999999999751
 30
0.0
 11
50.19999999999993
 21
30.30000000000189
 31
0.0
  0
LINE
  5
FC67
330
18
100
AcDbEntity
  8
01
100
AcDbLine
 10
51.5
 20
-0.0000000000024993
 30
0.0
 11
50.19999999999993
 21
-0.0000000000024993
 31
0.0
  0
LINE
  5
FC68
330
18
100
AcDbEntity
  8
01
100
AcDbLine
 10
72.79999999999995
 20
-0.0000000000024993
 30
0.0
 11
71.5
 21
-0.0000000000024993
 31
0.0
  0
LINE
  5
FC69
330
18
100
AcDbEntity
  8
01
100
AcDbLine
 10
51.5
 20
35.29999999999757
 30
0.0
 11
71.5
 21
35.29999999999757
 31
0.0
  0
LINE
  5
FC6A
330
18
100
AcDbEntity
  8
01
100
AcDbLine
 10
71.5
 20
-0.0000000000024993
 30
0.0
 11
51.5
 21
-0.0000000000024993
 31
0.0
  0
LINE
  5
FC6B
330
18
100
AcDbEntity
  8
01
100
AcDbLine
 10
50.19999999999993
 20
-0.0000000000024993
 30
0.0
 11
50.19999999999993
 21
30.30000000000189
 31
0.0
  0
LINE
  5
FC6C
330
18
100
AcDbEntity
  8
01
100
AcDbLine
 10
72.79999999999995
 20
-0.0000000000024993
 30
0.0
 11
72.79999999999995
 21
30.30000000000189
 31
0.0
  0
LINE
  5
FC6D
330
18
100
AcDbEntity
  8
01
100
AcDbLine
 10
4.300001548250236
 20
111.2999791135408
 30
0.0
 11
-14.69999845175408
 21
111.2999791135408
 31
0.0
  0
LINE
  5
FC6E
330
18
100
AcDbEntity
  8
01
100
AcDbLine
 10
4.300001548250236
 20
88.69997911354086
 30
0.0
 11
-14.69999845175408
 21
88.69997911354086
 31
0.0
  0
LINE
  5
FC6F
330
18
100
AcDbEntity
  8
01
100
AcDbLine
 10
9.300001548245916
 20
89.99997911354082
 30
0.0
 11
9.300001548245916
 21
109.9999791135408
 31
0.0
  0
LINE
  5
FC70
330
18
100
AcDbEntity
  8
01
100
AcDbLine
 10
4.300001548250236
 20
88.69997911354086
 30
0.0
 11
8.000001548245848
 21
88.69997911354086
 31
0.0
  0
LINE
  5
FC71
330
18
100
AcDbEntity
  8
01
100
AcDbLine
 10
4.300001548250236
 20
111.2999791135408
 30
0.0
 11
8.000001548245848
 21
111.2999791135408
 31
0.0
  0
ARC
  5
FC72
330
18
100
AcDbEntity
  8
01
100
AcDbCircle
 10
-14.69999845484853
 20
110.9999791163203
 30
0.0
 40
0.2999999969053495
100
AcDbArc
 50
173.0875262543761
 51
176.5827359834847
  0
LINE
  5
FC73
330
18
100
AcDbEntity
  8
01
100
AcDbLine
 10
-14.99999845175415
 20
89.99997911326263
 30
0.0
 11
-14.99999845175415
 21
109.999979113819
 31
0.0
  0
LINE
  5
FC74
330
18
100
AcDbEntity
  8
01
100
AcDbLine
 10
-14.99999845175404
 20
110.8564597591221
 30
0.0
 11
-14.99999845175404
 21
110.8724851294736
 31
0.0
  0
LINE
  5
FC75
330
18
100
AcDbEntity
  8
01
100
AcDbLine
 10
-14.99999845175415
 20
110.8805142328272
 30
0.0
 11
-14.99999845175415
 21
110.9275905190719
 31
0.0
  0
LINE
  5
FC76
330
18
100
AcDbEntity
  8
01
100
AcDbLine
 10
-14.99999845175404
 20
110.9401917119767
 30
0.0
 11
-14.99999845175404
 21
110.9494985344028
 31
0.0
  0
LINE
  5
FC77
330
18
100
AcDbEntity
  8
01
100
AcDbLine
 10
-14.99999845175404
 20
110.9557507009605
 30
0.0
 11
-14.99999845175404
 21
110.9590127960001
 31
0.0
  0
LINE
  5
FC78
330
18
100
AcDbEntity
  8
01
100
AcDbLine
 10
-14.99999845175404
 20
110.9690571761236
 30
0.0
 11
-14.99999845175404
 21
110.9872810229724
 31
0.0
  0
LINE
  5
FC79
330
18
100
AcDbEntity
  8
01
100
AcDbLine
 10
-14.99999845175415
 20
110.9960928777351
 30
0.0
 11
-14.99999845175415
 21
110.9991579288209
 31
0.0
  0
LINE
  5
FC7A
330
18
100
AcDbEntity
  8
01
100
AcDbLine
 10
-14.99999845175415
 20
110.9991579288209
 30
0.0
 11
-14.99999845175415
 21
110.9998517086943
 31
0.0
  0
LINE
  5
FC7B
330
18
100
AcDbEntity
  8
01
100
AcDbLine
 10
-14.99999845175415
 20
110.9998517086943
 30
0.0
 11
-14.99999845175415
 21
110.9999865469312
 31
0.0
  0
LINE
  5
FC7C
330
18
100
AcDbEntity
  8
01
100
AcDbLine
 10
-14.99999845175415
 20
110.9999865469312
 30
0.0
 11
-14.99999845175415
 21
110.9999980533793
 31
0.0
  0
LINE
  5
FC7D
330
18
100
AcDbEntity
  8
01
100
AcDbLine
 10
-14.99999845175415
 20
110.9999980533793
 30
0.0
 11
-14.99999845175415
 21
111.0000004688771
 31
0.0
  0
LINE
  5
FC7E
330
18
100
AcDbEntity
  8
01
100
AcDbLine
 10
-14.99999845175415
 20
111.0000004688771
 30
0.0
 11
-14.99999845175415
 21
111.0000006574642
 31
0.0
  0
LINE
  5
FC7F
330
18
100
AcDbEntity
  8
01
100
AcDbLine
 10
-14.99999845175415
 20
111.0000006574642
 30
0.0
 11
-14.99999845175415
 21
110.9999791163078
 31
0.0
  0
LINE
  5
FC80
330
18
100
AcDbEntity
  8
01
100
AcDbLine
 10
-14.99999845175404
 20
89.1434984679595
 30
0.0
 11
-14.99999845175404
 21
89.12747309760813
 31
0.0
  0
LINE
  5
FC81
330
18
100
AcDbEntity
  8
01
100
AcDbLine
 10
-14.99999845175404
 20
89.11944465989883
 30
0.0
 11
-14.99999845175404
 21
89.07236770800968
 31
0.0
  0
LINE
  5
FC82
330
18
100
AcDbEntity
  8
01
100
AcDbLine
 10
-14.99999845175404
 20
89.05976651510493
 30
0.0
 11
-14.99999845175404
 21
89.05045969267873
 31
0.0
  0
LINE
  5
FC83
330
18
100
AcDbEntity
  8
01
100
AcDbLine
 10
-14.99999845175415
 20
89.04420752612113
 30
0.0
 11
-14.99999845175415
 21
89.04094543108148
 31
0.0
  0
LINE
  5
FC84
330
18
100
AcDbEntity
  8
01
100
AcDbLine
 10
-14.99999845175415
 20
89.03090105095795
 30
0.0
 11
-14.99999845175415
 21
89.01267720410921
 31
0.0
  0
LINE
  5
FC85
330
18
100
AcDbEntity
  8
01
100
AcDbLine
 10
-14.99999845175415
 20
89.0038653493465
 30
0.0
 11
-14.99999845175415
 21
89.00080029826064
 31
0.0
  0
LINE
  5
FC86
330
18
100
AcDbEntity
  8
01
100
AcDbLine
 10
-14.99999845175415
 20
89.00080029826064
 30
0.0
 11
-14.99999845175415
 21
89.00010651838717
 31
0.0
  0
LINE
  5
FC87
330
18
100
AcDbEntity
  8
01
100
AcDbLine
 10
-14.99999845175415
 20
89.00010651838717
 30
0.0
 11
-14.99999845175415
 21
88.99997168015047
 31
0.0
  0
LINE
  5
FC88
330
18
100
AcDbEntity
  8
01
100
AcDbLine
 10
-14.99999845175415
 20
88.99997168015047
 30
0.0
 11
-14.99999845175415
 21
88.99996017370235
 31
0.0
  0
LINE
  5
FC89
330
18
100
AcDbEntity
  8
01
100
AcDbLine
 10
-14.99999845175415
 20
88.99996017370235
 30
0.0
 11
-14.99999845175415
 21
88.99995775820459
 31
0.0
  0
LINE
  5
FC8A
330
18
100
AcDbEntity
  8
01
100
AcDbLine
 10
-14.99999845175415
 20
88.99995775820459
 30
0.0
 11
-14.99999845175415
 21
88.99995756961734
 31
0.0
  0
LINE
  5
FC8B
330
18
100
AcDbEntity
  8
01
100
AcDbLine
 10
-14.99999845175415
 20
88.99995756961734
 30
0.0
 11
-14.99999845175415
 21
88.9999791107738
 31
0.0
  0
LINE
  5
FC8C
330
18
100
AcDbEntity
  8
01
100
AcDbLine
 10
-14.99999845175415
 20
109.9999791140972
 30
0.0
 11
-14.99999845175404
 21
110.8564597591233
 31
0.0
  0
LINE
  5
FC8D
330
18
100
AcDbEntity
  8
01
100
AcDbLine
 10
-14.99999845175415
 20
110.8724851294728
 30
0.0
 11
-14.99999845175415
 21
110.8805142328299
 31
0.0
  0
LINE
  5
FC8E
330
18
100
AcDbEntity
  8
01
100
AcDbLine
 10
-14.99999845175415
 20
110.9275905190677
 30
0.0
 11
-14.99999845175404
 21
110.9401917120141
 31
0.0
  0
LINE
  5
FC8F
330
18
100
AcDbEntity
  8
01
100
AcDbLine
 10
-14.99999845175404
 20
110.9494985343511
 30
0.0
 11
-14.99999845175404
 21
110.9557507010592
 31
0.0
  0
LINE
  5
FC90
330
18
100
AcDbEntity
  8
01
100
AcDbLine
 10
-14.99999845175415
 20
110.9590127959888
 30
0.0
 11
-14.99999845175415
 21
110.9690571764105
 31
0.0
  0
LINE
  5
FC91
330
18
100
AcDbEntity
  8
01
100
AcDbLine
 10
-14.99999845175404
 20
110.9872810234185
 30
0.0
 11
-14.99999845175415
 21
110.9960928778512
 31
0.0
  0
ARC
  5
FC92
330
18
100
AcDbEntity
  8
01
100
AcDbCircle
 10
-14.69999518981052
 20
111.0000041051674
 30
0.0
 40
0.3000032619611788
100
AcDbArc
 50
90.00062297855652
 51
180.0006212330138
  0
LINE
  5
FC93
330
18
100
AcDbEntity
  8
01
100
AcDbLine
 10
-14.99999845175415
 20
89.99997911298443
 30
0.0
 11
-14.99999845175404
 21
89.14349846795837
 31
0.0
  0
LINE
  5
FC94
330
18
100
AcDbEntity
  8
01
100
AcDbLine
 10
-14.99999845175404
 20
89.12747309760881
 30
0.0
 11
-14.99999845175404
 21
89.11944466000138
 31
0.0
  0
LINE
  5
FC95
330
18
100
AcDbEntity
  8
01
100
AcDbLine
 10
-14.99999845175404
 20
89.07236770801377
 30
0.0
 11
-14.99999845175404
 21
89.05976651506741
 31
0.0
  0
LINE
  5
FC96
330
18
100
AcDbEntity
  8
01
100
AcDbLine
 10
-14.99999845175415
 20
89.05045969273057
 30
0.0
 11
-14.99999845175404
 21
89.04420752602245
 31
0.0
  0
LINE
  5
FC97
330
18
100
AcDbEntity
  8
01
100
AcDbLine
 10
-14.99999845175415
 20
89.04094543109285
 30
0.0
 11
-14.99999845175415
 21
89.03090105067112
 31
0.0
  0
LINE
  5
FC98
330
18
100
AcDbEntity
  8
01
100
AcDbLine
 10
-14.99999845175415
 20
89.0126772036631
 30
0.0
 11
-14.99999845175415
 21
89.00386534923042
 31
0.0
  0
ARC
  5
FC99
330
18
100
AcDbEntity
  8
01
100
AcDbCircle
 10
-14.69999519668482
 20
88.99995411504007
 30
0.0
 40
0.3000032550869866
100
AcDbArc
 50
179.9993774541347
 51
269.9993783343099
  0
ARC
  5
FC9A
330
18
100
AcDbEntity
  8
01
100
AcDbCircle
 10
8.000001548245848
 20
109.9999791135408
 30
0.0
 40
1.3
100
AcDbArc
 50
0.0
 51
90.0
  0
ARC
  5
FC9B
330
18
100
AcDbEntity
  8
01
100
AcDbCircle
 10
8.000001548245848
 20
89.99997911354082
 30
0.0
 40
1.3
100
AcDbArc
 50
270.0
 51
0.0
  0
ARC
  5
FC9C
330
18
100
AcDbEntity
  8
01
100
AcDbCircle
 10
71.5
 20
33.99999999999751
 30
0.0
 40
1.3
100
AcDbArc
 50
0.0
 51
90.0
  0
ARC
  5
FC9D
330
18
100
AcDbEntity
  8
01
100
AcDbCircle
 10
51.5
 20
33.99999999999751
 30
0.0
 40
1.3
100
AcDbArc
 50
90.0
 51
180.0
  0
ARC
  5
FC9E
330
18
100
AcDbEntity
  8
01
100
AcDbCircle
 10
-43.749998451772
 20
19.50002311921271
 30
0.0
 40
0.5
100
AcDbArc
 50
90.0
 51
90.0
  0
LINE
  5
FC9F
330
18
100
AcDbEntity
  8
01
100
AcDbLine
 10
-70.499998451772
 20
20.00002311921289
 30
0.0
 11
-49.499998451772
 21
20.00002311921273
 31
0.0
  0
LINE
  5
FCA0
330
18
100
AcDbEntity
  8
01
100
AcDbLine
 10
-14.99999845175427
 20
20.00002311921249
 30
0.0
 11
-834.9999984517897
 21
20.00002311921832
 31
0.0
  0
LINE
  5
FCA1
330
18
100
AcDbEntity
  8
01
100
AcDbLine
 10
-14.99999845177194
 20
35.00002311921248
 30
0.0
 11
-834.9999984517895
 21
35.00002311921831
 31
0.0
  0
ARC
  5
FCA2
330
18
100
AcDbEntity
  8
01
100
AcDbCircle
 10
-835.3000016996764
 20
35.00002311921243
 30
0.0
 40
0.3000032479046291
100
AcDbArc
 50
359.9993777019445
 51
89.99937970599458
  0
ARC
  5
FCA3
330
18
100
AcDbEntity
  8
01
100
AcDbCircle
 10
-835.3000044905091
 20
19.99995181832266
 30
0.0
 40
0.3000060387802676
100
AcDbArc
 50
270.0011532872454
 51
0.0011531915599285
  0
LINE
  5
FCA4
330
18
100
AcDbEntity
  8
01
100
AcDbLine
 10
-834.9999984517897
 20
20.00002311921245
 30
0.0
 11
-834.9999984517895
 21
35.00002311921243
 31
0.0
  0
LINE
  5
FCA5
330
18
100
AcDbEntity
  8
01
100
AcDbLine
 10
-854.2999984517894
 20
35.29999811353177
 30
0.0
 11
-835.2999984517894
 21
35.29999811353163
 31
0.0
  0
LINE
  5
FCA6
330
18
100
AcDbEntity
  8
01
100
AcDbLine
 10
-841.5959789017245
 20
19.69999811353177
 30
0.0
 11
-835.2999984517896
 21
19.69999811353172
 31
0.0
  0
LINE
  5
FCA7
330
18
100
AcDbEntity
  8
01
100
AcDbLine
 10
-857.9999984517897
 20
-0.0000018864681568
 30
0.0
 11
-859.2999984517896
 21
-0.0000018864681568
 31
0.0
  0
LINE
  5
FCA8
330
18
100
AcDbEntity
  8
01
100
AcDbLine
 10
-859.2999984517896
 20
-0.0000018864681568
 30
0.0
 11
-859.2999984517894
 21
30.2999981135318
 31
0.0
  0
LINE
  5
FCA9
330
18
100
AcDbEntity
  8
01
100
AcDbLine
 10
-856.125749612449
 20
-0.000001886468171
 30
0.0
 11
-856.7609339920602
 21
-0.000001886468171
 31
0.0
  0
LINE
  5
FCAA
330
18
100
AcDbEntity
  8
01
100
AcDbLine
 10
-843.6999984517897
 20
-0.0000018864682563
 30
0.0
 11
-844.3648140721782
 21
-0.0000018864682563
 31
0.0
  0
ARC
  5
FCAB
330
18
100
AcDbEntity
  8
01
100
AcDbCircle
 10
-841.578344493073
 20
17.57834415518466
 30
0.0
 40
2.121654650726992
100
AcDbArc
 50
90.47622680877932
 51
179.5237858521366
  0
ARC
  5
FCAC
330
18
100
AcDbEntity
  8
01
100
AcDbCircle
 10
-854.0775671062461
 20
30.07756676798833
 30
0.0
 40
2.684374323655809
100
AcDbArc
 50
88.43021994954316
 51
181.5697800504589
  0
LINE
  5
FCAD
330
18
100
AcDbEntity
  8
01
100
AcDbLine
 10
-834.9999984517895
 20
32.76093365380224
 30
0.0
 11
-854.0040302745299
 21
32.76093365380238
 31
0.0
  0
LINE
  5
FCAE
330
18
100
AcDbEntity
  8
01
100
AcDbLine
 10
-856.7609339920602
 20
-0.000001886468171
 30
0.0
 11
-856.76093399206
 21
30.00402993627205
 31
0.0
  0
LINE
  5
FCAF
330
18
100
AcDbEntity
  8
01
100
AcDbLine
 10
-844.3648140721782
 20
-0.0000018864682563
 30
0.0
 11
-856.125749612449
 21
-0.000001886468171
 31
0.0
  0
LINE
  5
FCB0
330
18
100
AcDbEntity
  8
01
100
AcDbLine
 10
-843.6999984517895
 20
17.5782787756129
 30
0.0
 11
-843.6999984517897
 21
-0.0000018864682563
 31
0.0
  0
LINE
  5
FCB1
330
18
100
AcDbEntity
  8
01
100
AcDbLine
 10
-856.7609339920602
 20
-0.000001886468171
 30
0.0
 11
-857.9999984517897
 21
-0.0000018864681568
 31
0.0
  0
ARC
  5
FCB2
330
18
100
AcDbEntity
  8
01
100
AcDbCircle
 10
-854.3004277453515
 20
30.30042740709375
 30
0.0
 40
4.999570731448183
100
AcDbArc
 50
89.99335146943582
 51
180.0066485305617
  0
ARC
  5
FCB3
330
18
100
AcDbEntity
  8
01
100
AcDbCircle
 10
-14.69999520386727
 20
35.00002311921256
 30
0.0
 40
0.3000032479046291
100
AcDbArc
 50
90.00062029400542
 51
180.0006222980555
  0
ARC
  5
FCB4
330
18
100
AcDbEntity
  8
01
100
AcDbCircle
 10
-14.69999241303469
 20
19.99995181832279
 30
0.0
 40
0.3000060387802676
100
AcDbArc
 50
179.9988468084401
 51
269.9988467127221
  0
LINE
  5
FCB5
330
18
100
AcDbEntity
  8
01
100
AcDbLine
 10
-14.99999845175421
 20
20.00002311921258
 30
0.0
 11
-14.99999845175421
 21
35.00002311921256
 31
0.0
  0
LINE
  5
FCB6
330
18
100
AcDbEntity
  8
01
100
AcDbLine
 10
4.300001548245746
 20
35.29999811353166
 30
0.0
 11
-14.69999845175425
 21
35.29999811353176
 31
0.0
  0
LINE
  5
FCB7
330
18
100
AcDbEntity
  8
01
100
AcDbLine
 10
-8.404018001819338
 20
19.69999811353181
 30
0.0
 11
-14.69999845175431
 21
19.69999811353185
 31
0.0
  0
LINE
  5
FCB8
330
18
100
AcDbEntity
  8
01
100
AcDbLine
 10
8.00000154824562
 20
-0.0000018864683238
 30
0.0
 11
9.300001548245575
 21
-0.0000018864683238
 31
0.0
  0
LINE
  5
FCB9
330
18
100
AcDbEntity
  8
01
100
AcDbLine
 10
9.300001548245575
 20
-0.0000018864683238
 30
0.0
 11
9.300001548245746
 21
30.29999811353164
 31
0.0
  0
LINE
  5
FCBA
330
18
100
AcDbEntity
  8
01
100
AcDbLine
 10
6.125752708904827
 20
-0.0000018864683096
 30
0.0
 11
6.760937088516187
 21
-0.0000018864683096
 31
0.0
  0
LINE
  5
FCBB
330
18
100
AcDbEntity
  8
01
100
AcDbLine
 10
-6.299998451754448
 20
-0.0000018864682385
 30
0.0
 11
-5.635182831365853
 21
-0.0000018864682527
 31
0.0
  0
ARC
  5
FCBC
330
18
100
AcDbEntity
  8
01
100
AcDbCircle
 10
-8.421652410470813
 20
17.5783441551847
 30
0.0
 40
2.121654650726992
100
AcDbArc
 50
0.4762141478625951
 51
89.52377319122067
  0
ARC
  5
FCBD
330
18
100
AcDbEntity
  8
01
100
AcDbCircle
 10
4.077570202702304
 20
30.07756676798822
 30
0.0
 40
2.684374323655809
100
AcDbArc
 50
358.4302199495404
 51
91.56978005045441
  0
LINE
  5
FCBE
330
18
100
AcDbEntity
  8
01
100
AcDbLine
 10
-14.99999845175421
 20
32.76093365380238
 30
0.0
 11
4.004033370986235
 21
32.76093365380228
 31
0.0
  0
LINE
  5
FCBF
330
18
100
AcDbEntity
  8
01
100
AcDbLine
 10
6.760937088516187
 20
-0.0000018864683096
 30
0.0
 11
6.760937088516357
 21
30.00402993627191
 31
0.0
  0
LINE
  5
FCC0
330
18
100
AcDbEntity
  8
01
100
AcDbLine
 10
-5.635182831365853
 20
-0.0000018864682527
 30
0.0
 11
6.125752708904827
 21
-0.0000018864683096
 31
0.0
  0
LINE
  5
FCC1
330
18
100
AcDbEntity
  8
01
100
AcDbLine
 10
-6.299998451754391
 20
17.57827877561292
 30
0.0
 11
-6.299998451754448
 21
-0.0000018864682385
 31
0.0
  0
LINE
  5
FCC2
330
18
100
AcDbEntity
  8
01
100
AcDbLine
 10
6.760937088516187
 20
-0.0000018864683096
 30
0.0
 11
8.00000154824562
 21
-0.0000018864683238
 31
0.0
  0
ARC
  5
FCC3
330
18
100
AcDbEntity
  8
01
100
AcDbCircle
 10
4.300430841807724
 20
30.30042740709363
 30
0.0
 40
4.999570731448183
100
AcDbArc
 50
359.9933514694376
 51
90.00664853056287
  0
LINE
  5
FCC4
330
18
100
AcDbEntity
  8
01
100
AcDbLine
 10
-854.299998451794
 20
111.2999791135402
 30
0.0
 11
-835.2999984517896
 21
111.2999791135402
 31
0.0
  0
LINE
  5
FCC5
330
18
100
AcDbEntity
  8
01
100
AcDbLine
 10
-854.299998451794
 20
88.69997911354028
 30
0.0
 11
-835.2999984517896
 21
88.69997911354028
 31
0.0
  0
LINE
  5
FCC6
330
18
100
AcDbEntity
  8
01
100
AcDbLine
 10
-859.2999984517896
 20
89.99997911354023
 30
0.0
 11
-859.2999984517896
 21
109.9999791135402
 31
0.0
  0
LINE
  5
FCC7
330
18
100
AcDbEntity
  8
01
100
AcDbLine
 10
-854.299998451794
 20
88.69997911354028
 30
0.0
 11
-857.9999984517895
 21
88.69997911354028
 31
0.0
  0
LINE
  5
FCC8
330
18
100
AcDbEntity
  8
01
100
AcDbLine
 10
-854.299998451794
 20
111.2999791135402
 30
0.0
 11
-857.9999984517895
 21
111.2999791135402
 31
0.0
  0
ARC
  5
FCC9
330
18
100
AcDbEntity
  8
01
100
AcDbCircle
 10
-835.2999984486951
 20
110.9999791163198
 30
0.0
 40
0.2999999969053495
100
AcDbArc
 50
3.417264016515344
 51
6.912473745623922
  0
LINE
  5
FCCA
330
18
100
AcDbEntity
  8
01
100
AcDbLine
 10
-834.9999984517895
 20
89.99997911326204
 30
0.0
 11
-834.9999984517895
 21
109.9999791138184
 31
0.0
  0
LINE
  5
FCCB
330
18
100
AcDbEntity
  8
01
100
AcDbLine
 10
-834.9999984517897
 20
110.8564597591215
 30
0.0
 11
-834.9999984517897
 21
110.872485129473
 31
0.0
  0
LINE
  5
FCCC
330
18
100
AcDbEntity
  8
01
100
AcDbLine
 10
-834.9999984517895
 20
110.8805142328266
 30
0.0
 11
-834.9999984517895
 21
110.9275905190714
 31
0.0
  0
LINE
  5
FCCD
330
18
100
AcDbEntity
  8
01
100
AcDbLine
 10
-834.9999984517897
 20
110.9401917119761
 30
0.0
 11
-834.9999984517897
 21
110.9494985344022
 31
0.0
  0
LINE
  5
FCCE
330
18
100
AcDbEntity
  8
01
100
AcDbLine
 10
-834.9999984517897
 20
110.9557507009599
 30
0.0
 11
-834.9999984517897
 21
110.9590127959996
 31
0.0
  0
LINE
  5
FCCF
330
18
100
AcDbEntity
  8
01
100
AcDbLine
 10
-834.9999984517897
 20
110.969057176123
 30
0.0
 11
-834.9999984517897
 21
110.9872810229718
 31
0.0
  0
LINE
  5
FCD0
330
18
100
AcDbEntity
  8
01
100
AcDbLine
 10
-834.9999984517895
 20
110.9960928777345
 30
0.0
 11
-834.9999984517895
 21
110.9991579288203
 31
0.0
  0
LINE
  5
FCD1
330
18
100
AcDbEntity
  8
01
100
AcDbLine
 10
-834.9999984517895
 20
110.9991579288203
 30
0.0
 11
-834.9999984517895
 21
110.9998517086938
 31
0.0
  0
LINE
  5
FCD2
330
18
100
AcDbEntity
  8
01
100
AcDbLine
 10
-834.9999984517895
 20
110.9998517086938
 30
0.0
 11
-834.9999984517895
 21
110.9999865469306
 31
0.0
  0
LINE
  5
FCD3
330
18
100
AcDbEntity
  8
01
100
AcDbLine
 10
-834.9999984517895
 20
110.9999865469306
 30
0.0
 11
-834.9999984517895
 21
110.9999980533787
 31
0.0
  0
LINE
  5
FCD4
330
18
100
AcDbEntity
  8
01
100
AcDbLine
 10
-834.9999984517895
 20
110.9999980533787
 30
0.0
 11
-834.9999984517895
 21
111.0000004688766
 31
0.0
  0
LINE
  5
FCD5
330
18
100
AcDbEntity
  8
01
100
AcDbLine
 10
-834.9999984517895
 20
111.0000004688766
 30
0.0
 11
-834.9999984517895
 21
111.0000006574636
 31
0.0
  0
LINE
  5
FCD6
330
18
100
AcDbEntity
  8
01
100
AcDbLine
 10
-834.9999984517895
 20
111.0000006574636
 30
0.0
 11
-834.9999984517895
 21
110.9999791163072
 31
0.0
  0
LINE
  5
FCD7
330
18
100
AcDbEntity
  8
01
100
AcDbLine
 10
-834.9999984517897
 20
89.14349846795892
 30
0.0
 11
-834.9999984517897
 21
89.12747309760755
 31
0.0
  0
LINE
  5
FCD8
330
18
100
AcDbEntity
  8
01
100
AcDbLine
 10
-834.9999984517897
 20
89.11944465989825
 30
0.0
 11
-834.9999984517897
 21
89.0723677080091
 31
0.0
  0
LINE
  5
FCD9
330
18
100
AcDbEntity
  8
01
100
AcDbLine
 10
-834.9999984517897
 20
89.05976651510434
 30
0.0
 11
-834.9999984517897
 21
89.05045969267815
 31
0.0
  0
LINE
  5
FCDA
330
18
100
AcDbEntity
  8
01
100
AcDbLine
 10
-834.9999984517895
 20
89.04420752612054
 30
0.0
 11
-834.9999984517895
 21
89.0409454310809
 31
0.0
  0
LINE
  5
FCDB
330
18
100
AcDbEntity
  8
01
100
AcDbLine
 10
-834.9999984517895
 20
89.03090105095737
 30
0.0
 11
-834.9999984517895
 21
89.01267720410863
 31
0.0
  0
LINE
  5
FCDC
330
18
100
AcDbEntity
  8
01
100
AcDbLine
 10
-834.9999984517895
 20
89.00386534934592
 30
0.0
 11
-834.9999984517895
 21
89.00080029826006
 31
0.0
  0
LINE
  5
FCDD
330
18
100
AcDbEntity
  8
01
100
AcDbLine
 10
-834.9999984517895
 20
89.00080029826006
 30
0.0
 11
-834.9999984517895
 21
89.00010651838659
 31
0.0
  0
LINE
  5
FCDE
330
18
100
AcDbEntity
  8
01
100
AcDbLine
 10
-834.9999984517895
 20
89.00010651838659
 30
0.0
 11
-834.9999984517895
 21
88.99997168014988
 31
0.0
  0
LINE
  5
FCDF
330
18
100
AcDbEntity
  8
01
100
AcDbLine
 10
-834.9999984517895
 20
88.99997168014988
 30
0.0
 11
-834.9999984517895
 21
88.99996017370177
 31
0.0
  0
LINE
  5
FCE0
330
18
100
AcDbEntity
  8
01
100
AcDbLine
 10
-834.9999984517895
 20
88.99996017370177
 30
0.0
 11
-834.9999984517895
 21
88.999957758204
 31
0.0
  0
LINE
  5
FCE1
330
18
100
AcDbEntity
  8
01
100
AcDbLine
 10
-834.9999984517895
 20
88.999957758204
 30
0.0
 11
-834.9999984517895
 21
88.99995756961675
 31
0.0
  0
LINE
  5
FCE2
330
18
100
AcDbEntity
  8
01
100
AcDbLine
 10
-834.9999984517895
 20
88.99995756961675
 30
0.0
 11
-834.9999984517895
 21
88.99997911077321
 31
0.0
  0
LINE
  5
FCE3
330
18
100
AcDbEntity
  8
01
100
AcDbLine
 10
-834.9999984517895
 20
109.9999791140966
 30
0.0
 11
-834.9999984517897
 21
110.8564597591227
 31
0.0
  0
LINE
  5
FCE4
330
18
100
AcDbEntity
  8
01
100
AcDbLine
 10
-834.9999984517895
 20
110.8724851294722
 30
0.0
 11
-834.9999984517895
 21
110.8805142328293
 31
0.0
  0
LINE
  5
FCE5
330
18
100
AcDbEntity
  8
01
100
AcDbLine
 10
-834.9999984517895
 20
110.9275905190672
 30
0.0
 11
-834.9999984517897
 21
110.9401917120135
 31
0.0
  0
LINE
  5
FCE6
330
18
100
AcDbEntity
  8
01
100
AcDbLine
 10
-834.9999984517897
 20
110.9494985343505
 30
0.0
 11
-834.9999984517897
 21
110.9557507010586
 31
0.0
  0
LINE
  5
FCE7
330
18
100
AcDbEntity
  8
01
100
AcDbLine
 10
-834.9999984517895
 20
110.9590127959882
 30
0.0
 11
-834.9999984517895
 21
110.9690571764099
 31
0.0
  0
LINE
  5
FCE8
330
18
100
AcDbEntity
  8
01
100
AcDbLine
 10
-834.9999984517897
 20
110.9872810234179
 30
0.0
 11
-834.9999984517895
 21
110.9960928778506
 31
0.0
  0
ARC
  5
FCE9
330
18
100
AcDbEntity
  8
01
100
AcDbCircle
 10
-835.3000017137331
 20
111.0000041051668
 30
0.0
 40
0.3000032619611788
100
AcDbArc
 50
359.9993787669862
 51
89.99937702146521
  0
LINE
  5
FCEA
330
18
100
AcDbEntity
  8
01
100
AcDbLine
 10
-834.9999984517895
 20
89.99997911298385
 30
0.0
 11
-834.9999984517897
 21
89.14349846795778
 31
0.0
  0
LINE
  5
FCEB
330
18
100
AcDbEntity
  8
01
100
AcDbLine
 10
-834.9999984517897
 20
89.12747309760823
 30
0.0
 11
-834.9999984517897
 21
89.1194446600008
 31
0.0
  0
LINE
  5
FCEC
330
18
100
AcDbEntity
  8
01
100
AcDbLine
 10
-834.9999984517897
 20
89.07236770801319
 30
0.0
 11
-834.9999984517897
 21
89.05976651506683
 31
0.0
  0
LINE
  5
FCED
330
18
100
AcDbEntity
  8
01
100
AcDbLine
 10
-834.9999984517895
 20
89.05045969272999
 30
0.0
 11
-834.9999984517897
 21
89.04420752602186
 31
0.0
  0
LINE
  5
FCEE
330
18
100
AcDbEntity
  8
01
100
AcDbLine
 10
-834.9999984517895
 20
89.04094543109227
 30
0.0
 11
-834.9999984517895
 21
89.03090105067054
 31
0.0
  0
LINE
  5
FCEF
330
18
100
AcDbEntity
  8
01
100
AcDbLine
 10
-834.9999984517895
 20
89.01267720366252
 30
0.0
 11
-834.9999984517895
 21
89.00386534922984
 31
0.0
  0
ARC
  5
FCF0
330
18
100
AcDbEntity
  8
01
100
AcDbCircle
 10
-835.3000017068589
 20
88.99995411503949
 30
0.0
 40
0.3000032550869866
100
AcDbArc
 50
270.0006216656901
 51
0.0006225458653464
  0
ARC
  5
FCF1
330
18
100
AcDbEntity
  8
01
100
AcDbCircle
 10
-857.9999984517895
 20
109.9999791135402
 30
0.0
 40
1.3
100
AcDbArc
 50
90.0
 51
180.0
  0
ARC
  5
FCF2
330
18
100
AcDbEntity
  8
01
100
AcDbCircle
 10
-857.9999984517895
 20
89.99997911354023
 30
0.0
 40
1.3
100
AcDbArc
 50
180.0
 51
270.0
  0
LINE
  5
FCF3
330
18
100
AcDbEntity
  8
01
100
AcDbLine
 10
-14.99999845175415
 20
110.9999791135408
 30
0.0
 11
-834.9999984517892
 21
110.9999791135408
 31
0.0
  0
LINE
  5
FCF4
330
18
100
AcDbEntity
  8
01
100
AcDbLine
 10
-14.99999845175415
 20
88.99997911354086
 30
0.0
 11
-834.9999984517895
 21
88.99997911354086
 31
0.0
  0
LINE
  5
FCF5
330
18
100
AcDbEntity
  8
1CENTER
100
AcDbLine
 10
-849.9999984517543
 20
96.99997911354019
 30
0.0
 11
-849.9999984517543
 21
102.9999791135402
 31
0.0
  0
LINE
  5
FCF6
330
18
100
AcDbEntity
  8
1CENTER
100
AcDbLine
 10
-852.9999984517543
 20
99.99997911354019
 30
0.0
 11
-846.9999984517543
 21
99.99997911354019
 31
0.0
  0
LINE
  5
FCF7
330
18
100
AcDbEntity
  8
1CENTER
100
AcDbLine
 10
-849.9999984517543
 20
9.999998113540256
 30
0.0
 11
-849.9999984517543
 21
-2.000001886459744
 31
0.0
  0
LINE
  5
FCF8
330
18
100
AcDbEntity
  8
01
100
AcDbLine
 10
-834.9999984517895
 20
32.76093365380224
 30
0.0
 11
-14.99999845175421
 21
32.76093365380238
 31
0.0
  0
LINE
  5
FE17
330
18
100
AcDbEntity
  8
01
100
AcDbLine
 10
-414.4999984517719
 20
20.00002311921594
 30
0.0
 11
-414.4999984517719
 21
0.000023119215939
 31
0.0
  0
LINE
  5
FE18
330
18
100
AcDbEntity
  8
01
100
AcDbLine
 10
-414.4999984517719
 20
0.000023119215939
 30
0.0
 11
-435.4999984517719
 21
0.000023119215939
 31
0.0
  0
LINE
  5
FE26
330
18
100
AcDbEntity
  8
01
100
AcDbLine
 10
-435.4999984517719
 20
20.00002311921594
 30
0.0
 11
-435.4999984517719
 21
0.000023119215939
 31
0.0
  0
LINE
  5
FE58
330
18
100
AcDbEntity
  8
1CENTER
100
AcDbLine
 10
-424.9999984517718
 20
9.99999811354087
 30
0.0
 11
-424.9999984517718
 21
-2.000001886459129
 31
0.0
  0
LINE
  5
102DA
330
18
100
AcDbEntity
  8
01
100
AcDbLine
 10
-849.9999984517543
 20
-2.000001886459744
 30
0.0
 11
-849.9999984517543
 21
-74.21000084133253
 31
0.0
1001
ACAD
1000
DSTYLE
1002
{
1070
    45
1040
0.5
1070
    40
1040
4.0
1002
}
  0
LINE
  5
102DB
330
18
100
AcDbEntity
  8
01
100
AcDbLine
 10
-424.9999984517719
 20
0.000023119215939
 30
0.0
 11
-424.9999984517719
 21
-74.21000084133253
 31
0.0
1001
ACAD
1000
DSTYLE
1002
{
1070
    45
1040
0.5
1070
    40
1040
4.0
1002
}
  0
LINE
  5
102DC
330
18
100
AcDbEntity
  8
01
100
AcDbLine
 10
-841.9999984517543
 20
-70.21000084133253
 30
0.0
 11
-432.9999984517719
 21
-70.21000084133253
 31
0.0
1001
ACAD
1000
DSTYLE
1002
{
1070
    45
1040
0.5
1070
    40
1040
4.0
1002
}
  0
LINE
  5
102E0
330
18
100
AcDbEntity
  8
01
100
AcDbLine
 10
-859.2999984517896
 20
99.99997911354104
 30
0.0
 11
-859.2999984517896
 21
61.12607469803544
 31
0.0
1001
ACAD
1000
DSTYLE
1002
{
1070
    45
1040
0.5
1070
    40
1040
4.0
1002
}
  0
LINE
  5
102E1
330
18
100
AcDbEntity
  8
01
100
AcDbLine
 10
9.300001548245916
 20
99.9999791135408
 30
0.0
 11
9.300001548245916
 21
61.12607469803544
 31
0.0
1001
ACAD
1000
DSTYLE
1002
{
1070
    45
1040
0.5
1070
    40
1040
4.0
1002
}
  0
LINE
  5
102E2
330
18
100
AcDbEntity
  8
01
100
AcDbLine
 10
-851.2999984517896
 20
65.12607469803544
 30
0.0
 11
1.300001548245916
 21
65.12607469803544
 31
0.0
1001
ACAD
1000
DSTYLE
1002
{
1070
    45
1040
0.5
1070
    40
1040
4.0
1002
}
  0
LINE
  5
102E6
330
18
100
AcDbEntity
  8
01
100
AcDbLine
 10
-843.6999984517897
 20
-0.0000018864682563
 30
0.0
 11
-843.6999984517897
 21
-48.04325080810005
 31
0.0
1001
ACAD
1000
DSTYLE
1002
{
1070
    45
1040
0.5
1070
    40
1040
4.0
1002
}
  0
LINE
  5
102E7
330
18
100
AcDbEntity
  8
01
100
AcDbLine
 10
-6.499998451754436
 20
-0.0000018864586746
 30
0.0
 11
-6.499998451754436
 21
-48.04325080810005
 31
0.0
1001
ACAD
1000
DSTYLE
1002
{
1070
    45
1040
0.5
1070
    40
1040
4.0
1002
}
  0
LINE
  5
102E8
330
18
100
AcDbEntity
  8
01
100
AcDbLine
 10
-835.6999984517897
 20
-44.04325080810005
 30
0.0
 11
-14.49999845175444
 21
-44.04325080810005
 31
0.0
1001
ACAD
1000
DSTYLE
1002
{
1070
    45
1040
0.5
1070
    40
1040
4.0
1002
}
  0
LINE
  5
102EC
330
18
100
AcDbEntity
  8
01
100
AcDbLine
 10
0.0000015482455638
 20
-2.000001886459129
 30
0.0
 11
0.0000015482455638
 21
-102.5336047617948
 31
0.0
1001
ACAD
1000
DSTYLE
1002
{
1070
    45
1040
0.5
1070
    40
1040
4.0
1002
}
  0
LINE
  5
102ED
330
18
100
AcDbEntity
  8
01
100
AcDbLine
 10
9.300001548245575
 20
-0.0000018864683238
 30
0.0
 11
9.300001548245575
 21
-102.5336047617948
 31
0.0
1001
ACAD
1000
DSTYLE
1002
{
1070
    45
1040
0.5
1070
    40
1040
4.0
1002
}
  0
LINE
  5
102EE
330
18
100
AcDbEntity
  8
01
100
AcDbLine
 10
0.0000015482455638
 20
-98.53360476179485
 30
0.0
 11
-50.93333178508776
 21
-98.53360476179485
 31
0.0
1001
ACAD
1000
DSTYLE
1002
{
1070
    45
1040
0.5
1070
    40
1040
4.0
1002
}
  0
LINE
  5
102EF
330
18
100
AcDbEntity
  8
01
100
AcDbLine
 10
0.0000015482455638
 20
-98.53360476179485
 30
0.0
 11
9.300001548245575
 21
-98.53360476179485
 31
0.0
1001
ACAD
1000
DSTYLE
1002
{
1070
    45
1040
0.5
1070
    40
1040
4.0
1002
}
  0
LINE
  5
102F0
330
18
100
AcDbEntity
  8
01
100
AcDbLine
 10
-7.999998451754436
 20
-98.53360476179485
 30
0.0
 11
-15.99999845175444
 21
-98.53360476179485
 31
0.0
1001
ACAD
1000
DSTYLE
1002
{
1070
    45
1040
0.5
1070
    40
1040
4.0
1002
}
  0
LINE
  5
102F1
330
18
100
AcDbEntity
  8
01
100
AcDbLine
 10
17.30000154824558
 20
-98.53360476179485
 30
0.0
 11
25.30000154824558
 21
-98.53360476179485
 31
0.0
1001
ACAD
1000
DSTYLE
1002
{
1070
    45
1040
0.5
1070
    40
1040
4.0
1002
}
  0
LINE
  5
102F5
330
18
100
AcDbEntity
  8
01
100
AcDbLine
 10
-849.9999984517543
 20
-2.000001886459744
 30
0.0
 11
-849.9999984517543
 21
-102.0494660949731
 31
0.0
1001
ACAD
1000
DSTYLE
1002
{
1070
    45
1040
0.5
1070
    40
1040
4.0
1002
}
  0
LINE
  5
102F6
330
18
100
AcDbEntity
  8
01
100
AcDbLine
 10
-859.2999984517896
 20
-0.0000018864681568
 30
0.0
 11
-859.2999984517896
 21
-102.0494660949731
 31
0.0
1001
ACAD
1000
DSTYLE
1002
{
1070
    45
1040
0.5
1070
    40
1040
4.0
1002
}
  0
LINE
  5
102F7
330
18
100
AcDbEntity
  8
01
100
AcDbLine
 10
-849.9999984517543
 20
-98.04946609497307
 30
0.0
 11
-799.0666651184212
 21
-98.04946609497307
 31
0.0
1001
ACAD
1000
DSTYLE
1002
{
1070
    45
1040
0.5
1070
    40
1040
4.0
1002
}
  0
LINE
  5
102F8
330
18
100
AcDbEntity
  8
01
100
AcDbLine
 10
-849.9999984517543
 20
-98.04946609497307
 30
0.0
 11
-859.2999984517896
 21
-98.04946609497307
 31
0.0
1001
ACAD
1000
DSTYLE
1002
{
1070
    45
1040
0.5
1070
    40
1040
4.0
1002
}
  0
LINE
  5
102F9
330
18
100
AcDbEntity
  8
01
100
AcDbLine
 10
-841.9999984517543
 20
-98.04946609497307
 30
0.0
 11
-833.9999984517543
 21
-98.04946609497307
 31
0.0
1001
ACAD
1000
DSTYLE
1002
{
1070
    45
1040
0.5
1070
    40
1040
4.0
1002
}
  0
LINE
  5
102FA
330
18
100
AcDbEntity
  8
01
100
AcDbLine
 10
-867.2999984517896
 20
-98.04946609497307
 30
0.0
 11
-875.2999984517896
 21
-98.04946609497307
 31
0.0
1001
ACAD
1000
DSTYLE
1002
{
1070
    45
1040
0.5
1070
    40
1040
4.0
1002
}
  0
LINE
  5
102FE
330
18
100
AcDbEntity
  8
01
100
AcDbLine
 10
-424.9999984517718
 20
-2.000001886459128
 30
0.0
 11
-424.9999984517718
 21
-74.21000084133253
 31
0.0
1001
ACAD
1000
DSTYLE
1002
{
1070
    45
1040
0.5
1070
    40
1040
4.0
1002
}
  0
LINE
  5
102FF
330
18
100
AcDbEntity
  8
01
100
AcDbLine
 10
0.0000015482455638
 20
-2.000001886459131
 30
0.0
 11
0.0000015482455638
 21
-74.21000084133253
 31
0.0
1001
ACAD
1000
DSTYLE
1002
{
1070
    45
1040
0.5
1070
    40
1040
4.0
1002
}
  0
LINE
  5
10300
330
18
100
AcDbEntity
  8
01
100
AcDbLine
 10
-416.9999984517718
 20
-70.21000084133253
 30
0.0
 11
-7.999998451754435
 21
-70.21000084133253
 31
0.0
1001
ACAD
1000
DSTYLE
1002
{
1070
    45
1040
0.5
1070
    40
1040
4.0
1002
}
  0
LINE
  5
10304
330
18
100
AcDbEntity
  8
01
100
AcDbLine
 10
-435.4999984517719
 20
0.000023119215939
 30
0.0
 11
-435.4999984517719
 21
-22.14597674016735
 31
0.0
1001
ACAD
1000
DSTYLE
1002
{
1070
    45
1040
0.5
1070
    40
1040
4.0
1002
}
  0
LINE
  5
10305
330
18
100
AcDbEntity
  8
01
100
AcDbLine
 10
-414.4999984517719
 20
0.000023119215939
 30
0.0
 11
-414.4999984517719
 21
-22.14597674016735
 31
0.0
1001
ACAD
1000
DSTYLE
1002
{
1070
    45
1040
0.5
1070
    40
1040
4.0
1002
}
  0
LINE
  5
10306
330
18
100
AcDbEntity
  8
01
100
AcDbLine
 10
-414.4999984517719
 20
-18.14597674016735
 30
0.0
 11
-360.0202638636366
 21
-18.14597674016735
 31
0.0
1001
ACAD
1000
DSTYLE
1002
{
1070
    45
1040
0.5
1070
    40
1040
4.0
1002
}
  0
LINE
  5
10307
330
18
100
AcDbEntity
  8
01
100
AcDbLine
 10
-435.4999984517719
 20
-18.14597674016735
 30
0.0
 11
-414.4999984517719
 21
-18.14597674016735
 31
0.0
1001
ACAD
1000
DSTYLE
1002
{
1070
    45
1040
0.5
1070
    40
1040
4.0
1002
}
  0
LINE
  5
10308
330
18
100
AcDbEntity
  8
01
100
AcDbLine
 10
-443.4999984517719
 20
-18.14597674016735
 30
0.0
 11
-451.4999984517719
 21
-18.14597674016735
 31
0.0
1001
ACAD
1000
DSTYLE
1002
{
1070
    45
1040
0.5
1070
    40
1040
4.0
1002
}
  0
LINE
  5
10309
330
18
100
AcDbEntity
  8
01
100
AcDbLine
 10
-406.4999984517719
 20
-18.14597674016735
 30
0.0
 11
-398.4999984517719
 21
-18.14597674016735
 31
0.0
1001
ACAD
1000
DSTYLE
1002
{
1070
    45
1040
0.5
1070
    40
1040
4.0
1002
}
  0
LINE
  5
1030D
330
18
100
AcDbEntity
  8
01
  6
BYBLOCK
100
AcDbLine
 10
-841.9999984517543
 20
-72.35359436133253
 30
0.0
 11
-849.9999984517543
 21
-70.21000084133253
 31
0.0
  0
LINE
  5
1030E
330
18
100
AcDbEntity
  8
01
  6
BYBLOCK
100
AcDbLine
 10
-849.9999984517543
 20
-70.21000084133253
 30
0.0
 11
-841.9999984517543
 21
-68.06640732133253
 31
0.0
  0
LINE
  5
1030F
330
18
100
AcDbEntity
  8
01
  6
BYBLOCK
100
AcDbLine
 10
-849.9999984517543
 20
-70.21000084133253
 30
0.0
 11
-841.9999984517543
 21
-70.21000084133253
 31
0.0
  0
LINE
  5
10310
330
18
100
AcDbEntity
  8
01
  6
BYBLOCK
100
AcDbLine
 10
-432.9999984517719
 20
-68.06640732133253
 30
0.0
 11
-424.9999984517719
 21
-70.21000084133253
 31
0.0
  0
LINE
  5
10311
330
18
100
AcDbEntity
  8
01
  6
BYBLOCK
100
AcDbLine
 10
-424.9999984517719
 20
-70.21000084133253
 30
0.0
 11
-432.9999984517719
 21
-72.35359436133253
 31
0.0
  0
LINE
  5
10312
330
18
100
AcDbEntity
  8
01
  6
BYBLOCK
100
AcDbLine
 10
-424.9999984517719
 20
-70.21000084133253
 30
0.0
 11
-432.9999984517719
 21
-70.21000084133253
 31
0.0
  0
TEXT
  5
10313
330
18
100
AcDbEntity
  8
01
  6
CONTINUOUS
100
AcDbText
 10
-663.1666651184297
 20
-67.41000084133253
 30
0.0
 40
14.0
  1
P425
100
AcDbText
1001
ACAD
1000
DSTYLE
1002
{
1070
    45
1040
0.5
1070
    40
1040
4.0
1002
}
  0
LINE
  5
10314
330
18
100
AcDbEntity
  8
01
  6
BYBLOCK
100
AcDbLine
 10
-851.2999984517896
 20
62.98248117803544
 30
0.0
 11
-859.2999984517896
 21
65.12607469803544
 31
0.0
  0
LINE
  5
10315
330
18
100
AcDbEntity
  8
01
  6
BYBLOCK
100
AcDbLine
 10
-859.2999984517896
 20
65.12607469803544
 30
0.0
 11
-851.2999984517896
 21
67.26966821803543
 31
0.0
  0
LINE
  5
10316
330
18
100
AcDbEntity
  8
01
  6
BYBLOCK
100
AcDbLine
 10
-859.2999984517896
 20
65.12607469803544
 30
0.0
 11
-851.2999984517896
 21
65.12607469803544
 31
0.0
  0
LINE
  5
10317
330
18
100
AcDbEntity
  8
01
  6
BYBLOCK
100
AcDbLine
 10
1.300001548245916
 20
67.26966821803543
 30
0.0
 11
9.300001548245916
 21
65.12607469803544
 31
0.0
  0
LINE
  5
10318
330
18
100
AcDbEntity
  8
01
  6
BYBLOCK
100
AcDbLine
 10
9.300001548245916
 20
65.12607469803544
 30
0.0
 11
1.300001548245916
 21
62.98248117803544
 31
0.0
  0
LINE
  5
10319
330
18
100
AcDbEntity
  8
01
  6
BYBLOCK
100
AcDbLine
 10
9.300001548245916
 20
65.12607469803544
 30
0.0
 11
1.300001548245916
 21
65.12607469803544
 31
0.0
  0
TEXT
  5
1031A
330
18
100
AcDbEntity
  8
01
  6
CONTINUOUS
100
AcDbText
 10
-453.0486095628829
 20
67.92607469803544
 30
0.0
 40
14.0
  1
868.5
100
AcDbText
1001
ACAD
1000
DSTYLE
1002
{
1070
    45
1040
0.5
1070
    40
1040
4.0
1002
}
  0
LINE
  5
1031B
330
18
100
AcDbEntity
  8
01
  6
BYBLOCK
100
AcDbLine
 10
-835.6999984517897
 20
-46.18684432810005
 30
0.0
 11
-843.6999984517897
 21
-44.04325080810005
 31
0.0
  0
LINE
  5
1031C
330
18
100
AcDbEntity
  8
01
  6
BYBLOCK
100
AcDbLine
 10
-843.6999984517897
 20
-44.04325080810005
 30
0.0
 11
-835.6999984517897
 21
-41.89965728810005
 31
0.0
  0
LINE
  5
1031D
330
18
100
AcDbEntity
  8
01
  6
BYBLOCK
100
AcDbLine
 10
-843.6999984517897
 20
-44.04325080810005
 30
0.0
 11
-835.6999984517897
 21
-44.04325080810005
 31
0.0
  0
LINE
  5
1031E
330
18
100
AcDbEntity
  8
01
  6
BYBLOCK
100
AcDbLine
 10
-14.49999845175444
 20
-41.89965728810004
 30
0.0
 11
-6.499998451754436
 21
-44.04325080810005
 31
0.0
  0
LINE
  5
1031F
330
18
100
AcDbEntity
  8
01
  6
BYBLOCK
100
AcDbLine
 10
-6.499998451754436
 20
-44.04325080810005
 30
0.0
 11
-14.49999845175444
 21
-46.18684432810005
 31
0.0
  0
LINE
  5
10320
330
18
100
AcDbEntity
  8
01
  6
BYBLOCK
100
AcDbLine
 10
-6.499998451754436
 20
-44.04325080810005
 30
0.0
 11
-14.49999845175444
 21
-44.04325080810005
 31
0.0
  0
TEXT
  5
10321
330
18
100
AcDbEntity
  8
01
  6
CONTINUOUS
100
AcDbText
 10
-396.9756878252863
 20
-41.24325080810004
 30
0.0
 40
14.0
  1
837
100
AcDbText
1001
ACAD
1000
DSTYLE
1002
{
1070
    45
1040
0.5
1070
    40
1040
4.0
1002
}
  0
LINE
  5
10322
330
18
100
AcDbEntity
  8
01
  6
BYBLOCK
100
AcDbLine
 10
-7.999998451754436
 20
-96.39001124179485
 30
0.0
 11
0.0000015482455638
 21
-98.53360476179485
 31
0.0
  0
LINE
  5
10323
330
18
100
AcDbEntity
  8
01
  6
BYBLOCK
100
AcDbLine
 10
0.0000015482455638
 20
-98.53360476179485
 30
0.0
 11
-7.999998451754436
 21
-100.6771982817948
 31
0.0
  0
LINE
  5
10324
330
18
100
AcDbEntity
  8
01
  6
BYBLOCK
100
AcDbLine
 10
0.0000015482455638
 20
-98.53360476179485
 30
0.0
 11
-7.999998451754436
 21
-98.53360476179485
 31
0.0
  0
LINE
  5
10325
330
18
100
AcDbEntity
  8
01
  6
BYBLOCK
100
AcDbLine
 10
17.30000154824558
 20
-100.6771982817948
 30
0.0
 11
9.300001548245575
 21
-98.53360476179485
 31
0.0
  0
LINE
  5
10326
330
18
100
AcDbEntity
  8
01
  6
BYBLOCK
100
AcDbLine
 10
9.300001548245575
 20
-98.53360476179485
 30
0.0
 11
17.30000154824558
 21
-96.39001124179485
 31
0.0
  0
LINE
  5
10327
330
18
100
AcDbEntity
  8
01
  6
BYBLOCK
100
AcDbLine
 10
9.300001548245575
 20
-98.53360476179485
 30
0.0
 11
17.30000154824558
 21
-98.53360476179485
 31
0.0
  0
TEXT
  5
10328
330
18
100
AcDbEntity
  8
01
  6
CONTINUOUS
100
AcDbText
 10
-47.47314659990258
 20
-95.73360476179485
 30
0.0
 40
14.0
  1
9.5
100
AcDbText
1001
ACAD
1000
DSTYLE
1002
{
1070
    45
1040
0.5
1070
    40
1040
4.0
1002
}
  0
LINE
  5
10329
330
18
100
AcDbEntity
  8
01
  6
BYBLOCK
100
AcDbLine
 10
-841.9999984517543
 20
-100.1930596149731
 30
0.0
 11
-849.9999984517543
 21
-98.04946609497307
 31
0.0
  0
LINE
  5
1032A
330
18
100
AcDbEntity
  8
01
  6
BYBLOCK
100
AcDbLine
 10
-849.9999984517543
 20
-98.04946609497307
 30
0.0
 11
-841.9999984517543
 21
-95.90587257497307
 31
0.0
  0
LINE
  5
1032B
330
18
100
AcDbEntity
  8
01
  6
BYBLOCK
100
AcDbLine
 10
-849.9999984517543
 20
-98.04946609497307
 30
0.0
 11
-841.9999984517543
 21
-98.04946609497307
 31
0.0
  0
LINE
  5
1032C
330
18
100
AcDbEntity
  8
01
  6
BYBLOCK
100
AcDbLine
 10
-867.2999984517896
 20
-95.90587257497307
 30
0.0
 11
-859.2999984517896
 21
-98.04946609497307
 31
0.0
  0
LINE
  5
1032D
330
18
100
AcDbEntity
  8
01
  6
BYBLOCK
100
AcDbLine
 10
-859.2999984517896
 20
-98.04946609497307
 30
0.0
 11
-867.2999984517896
 21
-100.1930596149731
 31
0.0
  0
LINE
  5
1032E
330
18
100
AcDbEntity
  8
01
  6
BYBLOCK
100
AcDbLine
 10
-859.2999984517896
 20
-98.04946609497307
 30
0.0
 11
-867.2999984517896
 21
-98.04946609497307
 31
0.0
  0
TEXT
  5
1032F
330
18
100
AcDbEntity
  8
01
  6
CONTINUOUS
100
AcDbText
 10
-830.5398132665692
 20
-95.24946609497307
 30
0.0
 40
14.0
  1
9.5
100
AcDbText
1001
ACAD
1000
DSTYLE
1002
{
1070
    45
1040
0.5
1070
    40
1040
4.0
1002
}
  0
LINE
  5
10330
330
18
100
AcDbEntity
  8
01
  6
BYBLOCK
100
AcDbLine
 10
-416.9999984517718
 20
-72.35359436133253
 30
0.0
 11
-424.9999984517718
 21
-70.21000084133253
 31
0.0
  0
LINE
  5
10331
330
18
100
AcDbEntity
  8
01
  6
BYBLOCK
100
AcDbLine
 10
-424.9999984517718
 20
-70.21000084133253
 30
0.0
 11
-416.9999984517718
 21
-68.06640732133253
 31
0.0
  0
LINE
  5
10332
330
18
100
AcDbEntity
  8
01
  6
BYBLOCK
100
AcDbLine
 10
-424.9999984517718
 20
-70.21000084133253
 30
0.0
 11
-416.9999984517718
 21
-70.21000084133253
 31
0.0
  0
LINE
  5
10333
330
18
100
AcDbEntity
  8
01
  6
BYBLOCK
100
AcDbLine
 10
-7.999998451754436
 20
-68.06640732133253
 30
0.0
 11
0.0000015482455638
 21
-70.21000084133253
 31
0.0
  0
LINE
  5
10334
330
18
100
AcDbEntity
  8
01
  6
BYBLOCK
100
AcDbLine
 10
0.0000015482455638
 20
-70.21000084133253
 30
0.0
 11
-7.999998451754436
 21
-72.35359436133253
 31
0.0
  0
LINE
  5
10335
330
18
100
AcDbEntity
  8
01
  6
BYBLOCK
100
AcDbLine
 10
0.0000015482455638
 20
-70.21000084133253
 30
0.0
 11
-7.999998451754436
 21
-70.21000084133253
 31
0.0
  0
TEXT
  5
10336
330
18
100
AcDbEntity
  8
01
  6
CONTINUOUS
100
AcDbText
 10
-238.1666651184298
 20
-67.41000084133253
 30
0.0
 40
14.0
  1
P425
100
AcDbText
1001
ACAD
1000
DSTYLE
1002
{
1070
    45
1040
0.5
1070
    40
1040
4.0
1002
}
  0
LINE
  5
10337
330
18
100
AcDbEntity
  8
01
  6
BYBLOCK
100
AcDbLine
 10
-443.4999984517719
 20
-16.00238322016735
 30
0.0
 11
-435.4999984517719
 21
-18.14597674016735
 31
0.0
  0
LINE
  5
10338
330
18
100
AcDbEntity
  8
01
  6
BYBLOCK
100
AcDbLine
 10
-435.4999984517719
 20
-18.14597674016735
 30
0.0
 11
-443.4999984517719
 21
-20.28957026016735
 31
0.0
  0
LINE
  5
10339
330
18
100
AcDbEntity
  8
01
  6
BYBLOCK
100
AcDbLine
 10
-435.4999984517719
 20
-18.14597674016735
 30
0.0
 11
-443.4999984517719
 21
-18.14597674016735
 31
0.0
  0
LINE
  5
1033A
330
18
100
AcDbEntity
  8
01
  6
BYBLOCK
100
AcDbLine
 10
-406.4999984517719
 20
-20.28957026016735
 30
0.0
 11
-414.4999984517719
 21
-18.14597674016735
 31
0.0
  0
LINE
  5
1033B
330
18
100
AcDbEntity
  8
01
  6
BYBLOCK
100
AcDbLine
 10
-414.4999984517719
 20
-18.14597674016735
 30
0.0
 11
-406.4999984517719
 21
-16.00238322016735
 31
0.0
  0
LINE
  5
1033C
330
18
100
AcDbEntity
  8
01
  6
BYBLOCK
100
AcDbLine
 10
-414.4999984517719
 20
-18.14597674016735
 30
0.0
 11
-406.4999984517719
 21
-18.14597674016735
 31
0.0
  0
TEXT
  5
1033D
330
18
100
AcDbEntity
  8
01
  6
CONTINUOUS
100
AcDbText
 10
-381.4869305303033
 20
-15.34597674016735
 30
0.0
 40
14.0
  1
21
100
AcDbText
1001
ACAD
1000
DSTYLE
1002
{
1070
    45
1040
0.5
1070
    40
1040
4.0
1002
}
  0
LINE
  5
1033E
330
18
100
AcDbEntity
  8
1DIM
100
AcDbLine
 10
8.000001548245848
 20
88.69997911354086
 30
0.0
 11
37.50000154824556
 21
88.69997911354086
 31
0.0
1001
ACAD
1000
DSTYLE
1002
{
1070
    45
1040
0.5
1002
}
  0
LINE
  5
1033F
330
18
100
AcDbEntity
  8
1DIM
100
AcDbLine
 10
8.000001548245848
 20
111.2999791135408
 30
0.0
 11
37.50000154824556
 21
111.2999791135408
 31
0.0
1001
ACAD
1000
DSTYLE
1002
{
1070
    45
1040
0.5
1002
}
  0
LINE
  5
10340
330
18
100
AcDbEntity
  8
1DIM
100
AcDbLine
 10
36.50000154824556
 20
90.69997911354086
 30
0.0
 11
36.50000154824556
 21
109.2999791135408
 31
0.0
1001
ACAD
1000
DSTYLE
1002
{
1070
    45
1040
0.5
1002
}
  0
LINE
  5
10344
330
18
100
AcDbEntity
  8
1DIM
100
AcDbLine
 10
6.500001548245564
 20
-0.0000018864591294
 30
0.0
 11
37.50000154824556
 21
-0.0000018864591313
 31
0.0
1001
ACAD
1000
DSTYLE
1002
{
1070
    45
1040
0.5
1002
}
  0
LINE
  5
10345
330
18
100
AcDbEntity
  8
1DIM
100
AcDbLine
 10
4.299850697877106
 20
35.29999810488222
 30
0.0
 11
37.50000154824556
 21
35.29999810488222
 31
0.0
1001
ACAD
1000
DSTYLE
1002
{
1070
    45
1040
0.5
1002
}
  0
LINE
  5
10346
330
18
100
AcDbEntity
  8
1DIM
100
AcDbLine
 10
36.50000154824556
 20
1.999998113540869
 30
0.0
 11
36.50000154824556
 21
33.29999810488222
 31
0.0
1001
ACAD
1000
DSTYLE
1002
{
1070
    45
1040
0.5
1002
}
  0
LINE
  5
1034A
330
18
100
AcDbEntity
  8
1DIM
100
AcDbLine
 10
6.500001548245564
 20
-0.0000018864591294
 30
0.0
 11
27.50000154824556
 21
-0.0000018864591306
 31
0.0
1001
ACAD
1000
DSTYLE
1002
{
1070
    45
1040
0.5
1002
}
  0
LINE
  5
1034B
330
18
100
AcDbEntity
  8
1DIM
100
AcDbLine
 10
-14.99999845181497
 20
19.99995181832279
 30
0.0
 11
27.50000154824556
 21
19.99995181832279
 31
0.0
1001
ACAD
1000
DSTYLE
1002
{
1070
    45
1040
0.5
1002
}
  0
LINE
  5
1034C
330
18
100
AcDbEntity
  8
1DIM
100
AcDbLine
 10
26.50000154824556
 20
1.999998113540869
 30
0.0
 11
26.50000154824556
 21
17.99995181832279
 31
0.0
1001
ACAD
1000
DSTYLE
1002
{
1070
    45
1040
0.5
1002
}
  0
TEXT
  5
10350
330
18
100
AcDbEntity
  8
1TEXT
  6
CONTINUOUS
100
AcDbText
 10
-47.61051598472135
 20
55.7168098762464
 30
0.0
 40
3.5
  1
材質：アルミ
100
AcDbText
1001
ACADANNOTATIVE
1000
AnnotativeData
1002
{
1070
     1
1070
     0
1002
}
  0
TEXT
  5
10351
330
18
100
AcDbEntity
  8
1TEXT
  6
CONTINUOUS
100
AcDbText
 10
-47.49384931805468
 20
49.88347654291307
 30
0.0
 40
3.5
  1
仕上げ：各種仕上げ
100
AcDbText
1001
ACADANNOTATIVE
1000
AnnotativeData
1002
{
1070
     1
1070
     0
1002
}
  0
SOLID
  5
10352
330
18
100
AcDbEntity
  8
1DIM
100
AcDbTrace
 10
-55.47016292450648
 20
36.14584688161412
 30
0.0
 11
-56.58301146399322
 21
34.45094887899763
 31
0.0
 12
-56.08001354911111
 22
36.41515462400892
 32
0.0
 13
-56.08001354911111
 23
36.41515462400892
 33
0.0
1001
ACAD
1000
DSTYLE
1002
{
1070
    45
1040
0.5
1002
}
  0
LINE
  5
10353
330
18
100
AcDbEntity
  8
1DIM
100
AcDbLine
 10
-55.7750882368088
 20
36.28050075281152
 30
0.0
 11
-50.07718265138801
 21
49.18347654291306
 31
0.0
1001
ACAD
1000
DSTYLE
1002
{
1070
    45
1040
0.5
1002
}
  0
LINE
  5
10354
330
18
100
AcDbEntity
  8
1DIM
100
AcDbLine
 10
-50.07718265138801
 20
49.18347654291306
 30
0.0
 11
-10.39384931805468
 21
49.18347654291306
 31
0.0
1001
ACAD
1000
DSTYLE
1002
{
1070
    45
1040
0.5
1002
}
  0
LINE
  5
10355
330
18
100
AcDbEntity
  8
1DIM
100
AcDbLine
 10
-49.99999845178075
 20
35.00002311921273
 30
0.0
 11
-67.73751338933374
 21
35.00002311921273
 31
0.0
1001
ACAD
1000
DSTYLE
1002
{
1070
    45
1040
0.5
1002
}
  0
LINE
  5
10356
330
18
100
AcDbEntity
  8
1DIM
100
AcDbLine
 10
-49.999998451772
 20
20.00002311921275
 30
0.0
 11
-67.73751338933374
 21
20.00002311921275
 31
0.0
1001
ACAD
1000
DSTYLE
1002
{
1070
    45
1040
0.5
1002
}
  0
LINE
  5
10357
330
18
100
AcDbEntity
  8
1DIM
100
AcDbLine
 10
-66.73751338933374
 20
35.00002311921273
 30
0.0
 11
-66.73751338933374
 21
43.5666897858794
 31
0.0
1001
ACAD
1000
DSTYLE
1002
{
1070
    45
1040
0.5
1002
}
  0
LINE
  5
10358
330
18
100
AcDbEntity
  8
1DIM
100
AcDbLine
 10
-66.73751338933374
 20
33.00002311921273
 30
0.0
 11
-66.73751338933374
 21
22.00002311921275
 31
0.0
1001
ACAD
1000
DSTYLE
1002
{
1070
    45
1040
0.5
1002
}
  0
TEXT
  5
1035C
330
18
100
AcDbEntity
  8
1DIM
  6
CONTINUOUS
100
AcDbText
 10
77.39171501806368
 20
-20.00000188645868
 30
0.0
 40
3.5
  1
M4-10
100
AcDbText
  0
SOLID
  5
1035D
330
18
100
AcDbEntity
  8
1DIM
100
AcDbTrace
 10
62.29374821141135
 20
-1.865763888599446
 30
0.0
 11
61.5
 21
-0.0000000000024993
 31
0.0
 12
62.85595551520434
 22
-1.507479934163499
 32
0.0
 13
62.85595551520434
 23
-1.507479934163499
 33
0.0
1001
ACAD
1000
DSTYLE
1002
{
1070
    45
1040
0.5
1002
}
  0
LINE
  5
1035E
330
18
100
AcDbEntity
  8
1DIM
100
AcDbLine
 10
62.57485186330784
 20
-1.686621911381472
 30
0.0
 11
74.69171501806368
 21
-20.70000188645868
 31
0.0
1001
ACAD
1000
DSTYLE
1002
{
1070
    45
1040
0.5
1002
}
  0
LINE
  5
1035F
330
18
100
AcDbEntity
  8
1DIM
100
AcDbLine
 10
74.69171501806368
 20
-20.70000188645868
 30
0.0
 11
94.55838168473034
 21
-20.70000188645868
 31
0.0
1001
ACAD
1000
DSTYLE
1002
{
1070
    45
1040
0.5
1002
}
  0
TEXT
  5
10360
330
18
100
AcDbEntity
  8
1TEXT
  6
CONTINUOUS
100
AcDbText
 10
7.456880808742214
 20
55.7168098762464
 30
0.0
 40
3.5
  1
材質：亜鉛ダイキャスト
100
AcDbText
1001
ACADANNOTATIVE
1000
AnnotativeData
1002
{
1070
     1
1070
     0
1002
}
  0
TEXT
  5
10361
330
18
100
AcDbEntity
  8
1TEXT
  6
CONTINUOUS
100
AcDbText
 10
7.573547475408881
 20
49.88347654291307
 30
0.0
 40
3.5
  1
仕上げ：各種仕上げ
100
AcDbText
1001
ACADANNOTATIVE
1000
AnnotativeData
1002
{
1070
     1
1070
     0
1002
}
  0
SOLID
  5
10362
330
18
100
AcDbEntity
  8
1DIM
100
AcDbTrace
 10
0.823243225910709
 20
16.95835569180577
 30
0.0
 11
0.2163030885919852
 21
15.02374079968314
 31
0.0
 12
0.1629929832050614
 22
17.0506273637944
 32
0.0
 13
0.1629929832050614
 23
17.0506273637944
 33
0.0
1001
ACAD
1000
DSTYLE
1002
{
1070
    45
1040
0.5
1002
}
  0
LINE
  5
10363
330
18
100
AcDbEntity
  8
1DIM
100
AcDbLine
 10
0.4931181045578843
 20
17.00449152780008
 30
0.0
 11
4.990214142075547
 21
49.18347654291306
 31
0.0
1001
ACAD
1000
DSTYLE
1002
{
1070
    45
1040
0.5
1002
}
  0
LINE
  5
10364
330
18
100
AcDbEntity
  8
1DIM
100
AcDbLine
 10
4.990214142075547
 20
49.18347654291306
 30
0.0
 11
52.25688080874222
 21
49.18347654291306
 31
0.0
1001
ACAD
1000
DSTYLE
1002
{
1070
    45
1040
0.5
1002
}
  0
LINE
  5
10365
330
18
100
AcDbEntity
  8
1DIM
100
AcDbLine
 10
8.000001548245848
 20
111.2999791135408
 30
0.0
 11
27.50000154824556
 21
111.2999791135408
 31
0.0
1001
ACAD
1000
DSTYLE
1002
{
1070
    45
1040
0.5
1002
}
  0
LINE
  5
10366
330
18
100
AcDbEntity
  8
1DIM
100
AcDbLine
 10
3.000001548245564
 20
99.9999791135408
 30
0.0
 11
27.50000154824556
 21
99.9999791135408
 31
0.0
1001
ACAD
1000
DSTYLE
1002
{
1070
    45
1040
0.5
1002
}
  0
LINE
  5
10367
330
18
100
AcDbEntity
  8
1DIM
100
AcDbLine
 10
26.50000154824556
 20
111.2999791135408
 30
0.0
 11
26.50000154824556
 21
124.8666457802075
 31
0.0
1001
ACAD
1000
DSTYLE
1002
{
1070
    45
1040
0.5
1002
}
  0
LINE
  5
10368
330
18
100
AcDbEntity
  8
1DIM
100
AcDbLine
 10
26.50000154824556
 20
109.2999791135408
 30
0.0
 11
26.50000154824556
 21
101.9999791135408
 31
0.0
1001
ACAD
1000
DSTYLE
1002
{
1070
    45
1040
0.5
1002
}
  0
LINE
  5
1036C
330
18
100
AcDbEntity
  8
1DIM
100
AcDbLine
 10
50.19999999999993
 20
-0.0000000000024993
 30
0.0
 11
50.19999999999993
 21
-21.00000188645868
 31
0.0
1001
ACAD
1000
DSTYLE
1002
{
1070
    45
1040
0.5
1002
}
  0
LINE
  5
1036D
330
18
100
AcDbEntity
  8
1DIM
100
AcDbLine
 10
72.79999999999995
 20
-0.0000018864673148
 30
0.0
 11
72.79999999999995
 21
-21.00000188645868
 31
0.0
1001
ACAD
1000
DSTYLE
1002
{
1070
    45
1040
0.5
1002
}
  0
LINE
  5
1036E
330
18
100
AcDbEntity
  8
1DIM
100
AcDbLine
 10
52.19999999999993
 20
-20.00000188645868
 30
0.0
 11
70.79999999999995
 21
-20.00000188645868
 31
0.0
1001
ACAD
1000
DSTYLE
1002
{
1070
    45
1040
0.5
1002
}
  0
LINE
  5
10372
330
18
100
AcDbEntity
  8
0
  6
BYBLOCK
100
AcDbLine
 10
37.03589992824556
 20
90.69997911354086
 30
0.0
 11
36.50000154824556
 21
88.69997911354086
 31
0.0
  0
LINE
  5
10373
330
18
100
AcDbEntity
  8
0
  6
BYBLOCK
100
AcDbLine
 10
36.50000154824556
 20
88.69997911354086
 30
0.0
 11
35.96410316824556
 21
90.69997911354086
 31
0.0
  0
LINE
  5
10374
330
18
100
AcDbEntity
  8
0
  6
BYBLOCK
100
AcDbLine
 10
36.50000154824556
 20
88.69997911354086
 30
0.0
 11
36.50000154824556
 21
90.69997911354086
 31
0.0
  0
LINE
  5
10375
330
18
100
AcDbEntity
  8
0
  6
BYBLOCK
100
AcDbLine
 10
35.96410316824556
 20
109.2999791135408
 30
0.0
 11
36.50000154824556
 21
111.2999791135408
 31
0.0
  0
LINE
  5
10376
330
18
100
AcDbEntity
  8
0
  6
BYBLOCK
100
AcDbLine
 10
36.50000154824556
 20
111.2999791135408
 30
0.0
 11
37.03589992824556
 21
109.2999791135408
 31
0.0
  0
LINE
  5
10377
330
18
100
AcDbEntity
  8
0
  6
BYBLOCK
100
AcDbLine
 10
36.50000154824556
 20
111.2999791135408
 30
0.0
 11
36.50000154824556
 21
109.2999791135408
 31
0.0
  0
TEXT
  5
10378
330
18
100
AcDbEntity
  8
1DIM
  6
CONTINUOUS
100
AcDbText
 10
35.80000154824556
 20
94.74997911354083
 30
0.0
 40
3.5
  1
22.5
 50
90.0
100
AcDbText
1001
ACAD
1000
DSTYLE
1002
{
1070
    45
1040
0.5
1002
}
  0
LINE
  5
10379
330
18
100
AcDbEntity
  8
0
  6
BYBLOCK
100
AcDbLine
 10
37.03589992824556
 20
1.999998113540869
 30
0.0
 11
36.50000154824556
 21
-0.0000018864591312
 31
0.0
  0
LINE
  5
1037A
330
18
100
AcDbEntity
  8
0
  6
BYBLOCK
100
AcDbLine
 10
36.50000154824556
 20
-0.0000018864591312
 30
0.0
 11
35.96410316824556
 21
1.999998113540869
 31
0.0
  0
LINE
  5
1037B
330
18
100
AcDbEntity
  8
0
  6
BYBLOCK
100
AcDbLine
 10
36.50000154824556
 20
-0.0000018864591312
 30
0.0
 11
36.50000154824556
 21
1.999998113540869
 31
0.0
  0
LINE
  5
1037C
330
18
100
AcDbEntity
  8
0
  6
BYBLOCK
100
AcDbLine
 10
35.96410316824556
 20
33.29999810488222
 30
0.0
 11
36.50000154824556
 21
35.29999810488222
 31
0.0
  0
LINE
  5
1037D
330
18
100
AcDbEntity
  8
0
  6
BYBLOCK
100
AcDbLine
 10
36.50000154824556
 20
35.29999810488222
 30
0.0
 11
37.03589992824556
 21
33.29999810488222
 31
0.0
  0
LINE
  5
1037E
330
18
100
AcDbEntity
  8
0
  6
BYBLOCK
100
AcDbLine
 10
36.50000154824556
 20
35.29999810488222
 30
0.0
 11
36.50000154824556
 21
33.29999810488222
 31
0.0
  0
TEXT
  5
1037F
330
18
100
AcDbEntity
  8
1DIM
  6
CONTINUOUS
100
AcDbText
 10
35.80000154824556
 20
12.38784533143377
 30
0.0
 40
3.5
  1
35.5
 50
90.0
100
AcDbText
1001
ACAD
1000
DSTYLE
1002
{
1070
    45
1040
0.5
1002
}
  0
LINE
  5
10380
330
18
100
AcDbEntity
  8
0
  6
BYBLOCK
100
AcDbLine
 10
27.03589992824556
 20
1.999998113540869
 30
0.0
 11
26.50000154824556
 21
-0.0000018864591306
 31
0.0
  0
LINE
  5
10381
330
18
100
AcDbEntity
  8
0
  6
BYBLOCK
100
AcDbLine
 10
26.50000154824556
 20
-0.0000018864591306
 30
0.0
 11
25.96410316824556
 21
1.999998113540869
 31
0.0
  0
LINE
  5
10382
330
18
100
AcDbEntity
  8
0
  6
BYBLOCK
100
AcDbLine
 10
26.50000154824556
 20
-0.0000018864591306
 30
0.0
 11
26.50000154824556
 21
1.999998113540869
 31
0.0
  0
LINE
  5
10383
330
18
100
AcDbEntity
  8
0
  6
BYBLOCK
100
AcDbLine
 10
25.96410316824556
 20
17.99995181832279
 30
0.0
 11
26.50000154824556
 21
19.99995181832279
 31
0.0
  0
LINE
  5
10384
330
18
100
AcDbEntity
  8
0
  6
BYBLOCK
100
AcDbLine
 10
26.50000154824556
 20
19.99995181832279
 30
0.0
 11
27.03589992824556
 21
17.99995181832279
 31
0.0
  0
LINE
  5
10385
330
18
100
AcDbEntity
  8
0
  6
BYBLOCK
100
AcDbLine
 10
26.50000154824556
 20
19.99995181832279
 30
0.0
 11
26.50000154824556
 21
17.99995181832279
 31
0.0
  0
TEXT
  5
10386
330
18
100
AcDbEntity
  8
1DIM
  6
CONTINUOUS
100
AcDbText
 10
25.80000154824557
 20
7.302058299265161
 30
0.0
 40
3.5
  1
20
 50
90.0
100
AcDbText
1001
ACAD
1000
DSTYLE
1002
{
1070
    45
1040
0.5
1002
}
  0
LINE
  5
10387
330
18
100
AcDbEntity
  8
0
  6
BYBLOCK
100
AcDbLine
 10
-67.27341176933375
 20
33.00002311921273
 30
0.0
 11
-66.73751338933374
 21
35.00002311921273
 31
0.0
  0
LINE
  5
10388
330
18
100
AcDbEntity
  8
0
  6
BYBLOCK
100
AcDbLine
 10
-66.73751338933374
 20
35.00002311921273
 30
0.0
 11
-66.20161500933374
 21
33.00002311921273
 31
0.0
  0
LINE
  5
10389
330
18
100
AcDbEntity
  8
0
  6
BYBLOCK
100
AcDbLine
 10
-66.73751338933374
 20
35.00002311921273
 30
0.0
 11
-66.73751338933374
 21
33.00002311921273
 31
0.0
  0
LINE
  5
1038A
330
18
100
AcDbEntity
  8
0
  6
BYBLOCK
100
AcDbLine
 10
-66.20161500933374
 20
22.00002311921275
 30
0.0
 11
-66.73751338933374
 21
20.00002311921275
 31
0.0
  0
LINE
  5
1038B
330
18
100
AcDbEntity
  8
0
  6
BYBLOCK
100
AcDbLine
 10
-66.73751338933374
 20
20.00002311921275
 30
0.0
 11
-67.27341176933375
 21
22.00002311921275
 31
0.0
  0
LINE
  5
1038C
330
18
100
AcDbEntity
  8
0
  6
BYBLOCK
100
AcDbLine
 10
-66.73751338933374
 20
20.00002311921275
 30
0.0
 11
-66.73751338933374
 21
22.00002311921275
 31
0.0
  0
TEXT
  5
1038D
330
18
100
AcDbEntity
  8
1DIM
  6
CONTINUOUS
100
AcDbText
 10
-67.43751338933374
 20
37.95002311921274
 30
0.0
 40
3.5
  1
15
 50
90.0
100
AcDbText
1001
ACAD
1000
DSTYLE
1002
{
1070
    45
1040
0.5
1002
}
  0
LINE
  5
1038E
330
18
100
AcDbEntity
  8
0
  6
BYBLOCK
100
AcDbLine
 10
25.96410316824556
 20
109.2999791135408
 30
0.0
 11
26.50000154824556
 21
111.2999791135408
 31
0.0
  0
LINE
  5
1038F
330
18
100
AcDbEntity
  8
0
  6
BYBLOCK
100
AcDbLine
 10
26.50000154824556
 20
111.2999791135408
 30
0.0
 11
27.03589992824556
 21
109.2999791135408
 31
0.0
  0
LINE
  5
10390
330
18
100
AcDbEntity
  8
0
  6
BYBLOCK
100
AcDbLine
 10
26.50000154824556
 20
111.2999791135408
 30
0.0
 11
26.50000154824556
 21
109.2999791135408
 31
0.0
  0
LINE
  5
10391
330
18
100
AcDbEntity
  8
0
  6
BYBLOCK
100
AcDbLine
 10
27.03589992824556
 20
101.9999791135408
 30
0.0
 11
26.50000154824556
 21
99.9999791135408
 31
0.0
  0
LINE
  5
10392
330
18
100
AcDbEntity
  8
0
  6
BYBLOCK
100
AcDbLine
 10
26.50000154824556
 20
99.9999791135408
 30
0.0
 11
25.96410316824556
 21
101.9999791135408
 31
0.0
  0
LINE
  5
10393
330
18
100
AcDbEntity
  8
0
  6
BYBLOCK
100
AcDbLine
 10
26.50000154824556
 20
99.9999791135408
 30
0.0
 11
26.50000154824556
 21
101.9999791135408
 31
0.0
  0
TEXT
  5
10394
330
18
100
AcDbEntity
  8
1DIM
  6
CONTINUOUS
100
AcDbText
 10
25.80000154824559
 20
114.9999791135408
 30
0.0
 40
3.5
  1
11.5
 50
90.0
100
AcDbText
1001
ACAD
1000
DSTYLE
1002
{
1070
    45
1040
0.5
1002
}
  0
LINE
  5
10395
330
18
100
AcDbEntity
  8
0
  6
BYBLOCK
100
AcDbLine
 10
52.19999999999993
 20
-20.53590026645868
 30
0.0
 11
50.19999999999993
 21
-20.00000188645868
 31
0.0
  0
LINE
  5
10396
330
18
100
AcDbEntity
  8
0
  6
BYBLOCK
100
AcDbLine
 10
50.19999999999993
 20
-20.00000188645868
 30
0.0
 11
52.19999999999993
 21
-19.46410350645868
 31
0.0
  0
LINE
  5
10397
330
18
100
AcDbEntity
  8
0
  6
BYBLOCK
100
AcDbLine
 10
50.19999999999993
 20
-20.00000188645868
 30
0.0
 11
52.19999999999993
 21
-20.00000188645868
 31
0.0
  0
LINE
  5
10398
330
18
100
AcDbEntity
  8
0
  6
BYBLOCK
100
AcDbLine
 10
70.79999999999995
 20
-19.46410350645868
 30
0.0
 11
72.79999999999995
 21
-20.00000188645868
 31
0.0
  0
LINE
  5
10399
330
18
100
AcDbEntity
  8
0
  6
BYBLOCK
100
AcDbLine
 10
72.79999999999995
 20
-20.00000188645868
 30
0.0
 11
70.79999999999995
 21
-20.53590026645868
 31
0.0
  0
LINE
  5
1039A
330
18
100
AcDbEntity
  8
0
  6
BYBLOCK
100
AcDbLine
 10
72.79999999999995
 20
-20.00000188645868
 30
0.0
 11
70.79999999999995
 21
-20.00000188645868
 31
0.0
  0
TEXT
  5
1039B
330
18
100
AcDbEntity
  8
1DIM
  6
CONTINUOUS
100
AcDbText
 10
56.24999999999994
 20
-19.30000188645868
 30
0.0
 40
3.5
  1
22.5
100
AcDbText
1001
ACAD
1000
DSTYLE
1002
{
1070
    45
1040
0.5
1002
}
  0
VIEWPORT
  5
57
330
15
100
AcDbEntity
 67
     1
  8
0
100
AcDbViewport
 68
     1
 10
0.0
 20
0.0
 30
0.0
 40
535.5106132075472
 41
297.0
 68
     1
 69
     1
1001
ACAD
1000
MVIEW
1002
{
1070
    16
1010
0.0
1020
0.0
1030
0.0
1010
0.0
1020
0.0
1030
1.0
1040
0.0
1040
297.0
1040
-4.171999999925333
1040
12.83903210976956
1040
50.0
1040
0.0
1040
0.0
1070
    16
1070
   100
1070
     0
1070
     1
1070
     0
1070
     0
1070
     0
1070
     0
1040
0.0
1040
0.0
1040
0.0
1040
10.0
1040
10.0
1040
10.0
1040
10.0
1070
     0
1002
{
1002
}
1002
}
  0
ENDSEC
  0
SECTION
  2
OBJECTS
  0
DICTIONARY
  5
C
330
0
100
AcDbDictionary
  3
ACAD_COLOR
350
18D
  3
ACAD_GROUP
350
D
  3
ACAD_LAYOUT
350
18E
  3
ACAD_MATERIAL
350
18C
  3
ACAD_MLEADERSTYLE
350
D09D
  3
ACAD_MLINESTYLE
350
1B
  3
ACAD_PLOTSETTINGS
350
18F
  3
ACAD_SCALELIST
350
D07B
  3
ACAD_VISUALSTYLE
350
D06A
  3
ACDBHEADERROUNDTRIPXREC
350
1039C
  3
ACDBVARIABLEDICTIONARY
350
37
  3
CONTENTDICTIONARY
350
D8
  3
DRAWINGVARIABLESDICT
350
20
  3
DWGPROPS
350
1039F
1001
ACAD
1000
TREAT_AS_HARD
1070
     0
  0
DICTIONARY
  5
D16C
330
2
100
AcDbDictionary
  3
ACAD_LAYERSTATES
360
D16D
1001
ACAD
1000
TREAT_AS_HARD
1070
     1
  0
DICTIONARY
  5
D0B5
330
E
100
AcDbDictionary
  3
ADSK_XREC_LAYER_RECONCILED
360
D0B6
1001
ACAD
1000
TREAT_AS_HARD
1070
     1
  0
DICTIONARY
  5
D0B7
330
29
100
AcDbDictionary
  3
ADSK_XREC_LAYER_RECONCILED
360
D0B8
1001
ACAD
1000
TREAT_AS_HARD
1070
     1
  0
DICTIONARY
  5
D0B9
330
31
100
AcDbDictionary
  3
ADSK_XREC_LAYER_RECONCILED
360
D0BA
1001
ACAD
1000
TREAT_AS_HARD
1070
     1
  0
DICTIONARY
  5
D0BF
330
243
100
AcDbDictionary
  3
ADSK_XREC_LAYER_RECONCILED
360
D0C0
1001
ACAD
1000
TREAT_AS_HARD
1070
     1
  0
DICTIONARY
  5
D0C5
330
24E
100
AcDbDictionary
  3
ADSK_XREC_LAYER_RECONCILED
360
D0C6
1001
ACAD
1000
TREAT_AS_HARD
1070
     1
  0
DICTIONARY
  5
88F
330
18
100
AcDbDictionary
  3
ACAD_SORTENTS
360
890
1001
ACAD
1000
TREAT_AS_HARD
1070
     1
  0
DICTIONARY
  5
FD9C
330
FD9B
100
AcDbDictionary
  3
ACAD_SORTENTS
360
FD9D
1001
ACAD
1000
TREAT_AS_HARD
1070
     1
  0
DICTIONARY
  5
18D
102
{ACAD_REACTORS
330
C
102
}
330
C
100
AcDbDictionary
1001
ACAD
1000
TREAT_AS_HARD
1070
     0
  0
DICTIONARY
  5
D
102
{ACAD_REACTORS
330
C
102
}
330
C
100
AcDbDictionary
1001
ACAD
1000
TREAT_AS_HARD
1070
     0
  0
DICTIONARY
  5
18E
102
{ACAD_REACTORS
330
C
102
}
330
C
100
AcDbDictionary
1001
ACAD
1000
TREAT_AS_HARD
1070
     0
  0
DICTIONARY
  5
18C
102
{ACAD_REACTORS
330
C
102
}
330
C
100
AcDbDictionary
  3
BYBLOCK
350
D05A
  3
BYLAYER
350
D052
  3
GLOBAL
350
D062
1001
ACAD
1000
TREAT_AS_HARD
1070
     0
  0
DICTIONARY
  5
D09D
102
{ACAD_REACTORS
330
C
102
}
330
C
100
AcDbDictionary
  3
BALLOONS05
350
FD9A
  3
STANDARD
350
D09E
1001
ACAD
1000
TREAT_AS_HARD
1070
     0
  0
DICTIONARY
  5
1B
102
{ACAD_REACTORS
330
C
102
}
330
C
100
AcDbDictionary
  3
STANDARD
350
1C
1001
ACAD
1000
TREAT_AS_HARD
1070
     0
  0
DICTIONARY
  5
18F
102
{ACAD_REACTORS
330
C
102
}
330
C
100
AcDbDictionary
1001
ACAD
1000
TREAT_AS_HARD
1070
     0
  0
DICTIONARY
  5
D07B
102
{ACAD_REACTORS
330
C
102
}
330
C
100
AcDbDictionary
  3
A0
350
D07C
  3
A1
350
D07D
  3
A2
350
D07E
  3
A3
350
D07F
  3
A4
350
D080
  3
A5
350
D081
  3
A6
350
D082
  3
A7
350
D083
  3
A8
350
D084
  3
A9
350
D085
  3
B0
350
D086
  3
B1
350
D087
  3
B2
350
D088
  3
B3
350
D089
  3
B4
350
D08A
  3
B5
350
D08B
  3
B6
350
D08C
  3
B7
350
D08D
  3
B8
350
D08E
  3
B9
350
D08F
  3
C0
350
D090
  3
C1
350
D091
  3
C2
350
D092
  3
C3
350
D093
  3
C4
350
D094
  3
C5
350
D095
  3
C6
350
D096
  3
C7
350
D097
  3
C8
350
D098
  3
C9
350
D099
  3
D0
350
D09A
  3
D1
350
D09B
  3
D2
350
D09C
1001
ACAD
1000
TREAT_AS_HARD
1070
     0
  0
DICTIONARY
  5
D06A
102
{ACAD_REACTORS
330
C
102
}
330
C
100
AcDbDictionary
  3
2DWIREFRAME
350
D070
  3
3D_HIDDEN
350
D072
  3
3DWIREFRAME
350
D071
  3
BASIC
350
D06F
  3
BRIGHTEN
350
D076
  3
COLORCHANGE
350
D07A
  3
CONCEPTUAL
350
D073
  3
DIM
350
D075
  3
EDGECOLOROFF
350
D29F
  3
FACEPATTERN
350
D079
  3
FLAT
350
D06B
  3
FLATWITHEDGES
350
D06C
  3
GOURAUD
350
D06D
  3
GOURAUDWITHEDGES
350
D06E
  3
HIDDEN
350
F225
  3
JITTEROFF
350
D29D
  3
LINEPATTERN
350
D078
  3
MODELING
350
F22B
  3
OVERHANGOFF
350
D29E
  3
REALISTIC
350
D074
  3
SHADED
350
F22A
  3
SHADED_WITH_EDGES
350
F229
  3
SHADES_OF_GRAY
350
F226
  3
SKETCHY
350
F227
  3
THICKEN
350
D077
  3
WIREFRAME
350
F224
  3
X-RAY
350
F228
1001
ACAD
1000
TREAT_AS_HARD
1070
     0
  0
DICTIONARY
  5
1039C
102
{ACAD_REACTORS
330
C
102
}
330
C
100
AcDbDictionary
  3
COLORDICT
350
1039D
  3
MATERIALDICT
350
1039E
1001
ACAD
1000
TREAT_AS_HARD
1070
     0
  0
DICTIONARY
  5
37
102
{ACAD_REACTORS
330
C
102
}
330
C
100
AcDbDictionary
  3
CANNOSCALE
350
F285
  3
CMLEADERSTYLE
350
D117
  3
CTABLESTYLE
350
29E
  3
DIMADEC
350
38
  3
DIMASSOC
350
1CE
  3
HIDETEXT
350
704E
  3
INDEXCTL
350
D11A
  3
INTERSECTIONCOLOR
350
7052
  3
INTERSECTIONDISPLAY
350
7051
  3
MSLTSCALE
350
F286
  3
OBSCOLOR
350
704F
  3
OBSLTYPE
350
7050
  3
PROJECTNAME
350
1CF
  3
SORTENTS
350
D119
  3
XCLIPFRAME
350
F223
1001
ACAD
1000
TREAT_AS_HARD
1070
     0
  0
DICTIONARY
  5
D8
102
{ACAD_REACTORS
330
C
102
}
330
C
100
AcDbDictionary
1001
ACAD
1000
TREAT_AS_HARD
1070
     0
  0
DICTIONARY
  5
20
102
{ACAD_REACTORS
330
C
102
}
330
C
100
AcDbDictionary
1001
DRAWINGVARIABLESXDATA
1000
POLARANG
1000
0.261799387799149410000000
1000
POLARMODE
1000
1
1000
POLARSTYLE
1000
1
1001
ACAD
1000
TREAT_AS_HARD
1070
     0
  0
XRECORD
  5
1039F
102
{ACAD_REACTORS
330
C
102
}
330
C
100
AcDbXrecord
  1
DWGPROPS COOKIE
  2

  3

  4

  6

  7

  8
3684
  9

300
=
301
=
302
=
303
=
304
=
305
=
306
=
307
=
308
=
309
=
 40
0.0
 41
2451318.246352917
 42
2459111.21082287
  1

 90
        0
  0
DICTIONARY
  5
D16D
102
{ACAD_REACTORS
330
D16C
102
}
330
D16C
100
AcDbDictionary
1001
ACAD
1000
TREAT_AS_HARD
1070
     0
  0
ACAD_PROXY_OBJECT
  5
D0B6
102
{ACAD_REACTORS
330
D0B5
102
}
330
D0B5
100
AcDbZombieObject
 90
      499
 91
      516
 93
       34
310
40C8804040
  0
ACAD_PROXY_OBJECT
  5
D0B8
102
{ACAD_REACTORS
330
D0B7
102
}
330
D0B7
100
AcDbZombieObject
 90
      499
 91
      516
 93
       34
310
40C8804040
  0
ACAD_PROXY_OBJECT
  5
D0BA
102
{ACAD_REACTORS
330
D0B9
102
}
330
D0B9
100
AcDbZombieObject
 90
      499
 91
      516
 93
       34
310
40C8804040
  0
ACAD_PROXY_OBJECT
  5
D0C0
102
{ACAD_REACTORS
330
D0BF
102
}
330
D0BF
100
AcDbZombieObject
 90
      499
 91
      516
 93
       34
310
40C8804040
  0
ACAD_PROXY_OBJECT
  5
D0C6
102
{ACAD_REACTORS
330
D0C5
102
}
330
D0C5
100
AcDbZombieObject
 90
      499
 91
      516
 93
       34
310
40C8804040
  0
SORTENTSTABLE
  5
890
102
{ACAD_REACTORS
330
88F
102
}
330
88F
100
AcDbSortentsTable
330
18
331
0
  5
C618
331
0
  5
FC65
331
0
  5
FC66
331
0
  5
FC67
331
FC45
  5
FCC2
331
FC46
  5
FCC3
331
0
  5
FC91
331
0
  5
FC92
331
0
  5
FC93
331
0
  5
FC94
331
0
  5
FC95
331
FC4F
  5
FCDB
331
0
  5
FC97
331
0
  5
FC98
331
FC52
  5
FCE4
331
FC53
  5
FCE5
331
FC54
  5
FCE6
331
FC55
  5
FCE7
331
FC56
  5
FCE8
331
FC57
  5
FCE9
331
FC58
  5
FCEA
331
FC59
  5
FCEB
331
FC5A
  5
FCEC
331
FC5B
  5
FCED
331
FC5C
  5
FCEE
331
FC5D
  5
FCEF
331
FC5E
  5
FCF0
331
FC5F
  5
FCF1
331
FC60
  5
FCF2
331
FC61
  5
FCF3
331
FC62
  5
FCF4
331
0
  5
FCAA
331
0
  5
FCAB
331
FC65
  5
102E7
331
FC66
  5
102E8
331
FC67
  5
102E9
331
FC68
  5
102EA
331
FC69
  5
102EB
331
FC6A
  5
102EC
331
FC6B
  5
102ED
331
FC6C
  5
102EE
331
FC6D
  5
102EF
331
FC6E
  5
102F0
331
FC6F
  5
102F1
331
FC70
  5
102F2
331
FC71
  5
102F3
331
FC72
  5
102F4
331
FC73
  5
102F5
331
FC74
  5
102F6
331
FC75
  5
102F7
331
FC76
  5
102F8
331
FC77
  5
102F9
331
FC78
  5
102FA
331
FC79
  5
102FB
331
FC7A
  5
102FC
331
FC7B
  5
102FD
331
FC7C
  5
102FE
331
FC7D
  5
102FF
331
FC7E
  5
10300
331
FC7F
  5
10304
331
FC80
  5
10305
331
FC81
  5
10306
331
FC82
  5
10307
331
FC83
  5
10308
331
FC84
  5
10309
331
FC85
  5
1030D
331
FC86
  5
1030E
331
FC87
  5
1030F
331
FC88
  5
10310
331
FC89
  5
10311
331
FC8A
  5
10312
331
FC8B
  5
10313
331
FC8C
  5
10314
331
FC8D
  5
10315
331
FC8E
  5
10316
331
FC8F
  5
10317
331
FC90
  5
10318
331
FC91
  5
10319
331
FC92
  5
1031A
331
FC93
  5
1031B
331
FC94
  5
1031C
331
FC95
  5
1031D
331
FC96
  5
1031E
331
FC97
  5
1031F
331
FC98
  5
10320
331
FC99
  5
10321
331
FC9A
  5
10322
331
FC9B
  5
10323
331
FC9C
  5
10324
331
FC9D
  5
10325
331
FC9E
  5
10326
331
FC9F
  5
10327
331
FCA0
  5
10328
331
FCA1
  5
10329
331
FCA2
  5
1032A
331
FCA3
  5
1032B
331
FCA4
  5
1032C
331
FCA5
  5
1032D
331
FCA6
  5
1032E
331
FCA7
  5
1032F
331
FCA8
  5
10330
331
FCA9
  5
10331
331
FCAA
  5
10332
331
FCAB
  5
10333
331
FCAC
  5
10334
331
FCAD
  5
10335
331
FCAE
  5
10336
331
FCAF
  5
10337
331
FCB0
  5
10338
331
FCB1
  5
10339
331
FCB2
  5
1033A
331
FCB3
  5
1033B
331
FCB4
  5
1033C
331
FCB5
  5
1033D
331
FCB6
  5
1033E
331
FCB7
  5
1033F
331
FCB8
  5
10340
331
FCB9
  5
10341
331
FCBA
  5
10342
331
FCBB
  5
10343
331
FCBC
  5
10344
331
FCBD
  5
10345
331
FCBE
  5
10346
331
FCBF
  5
10347
331
FCC0
  5
10348
331
FCC1
  5
10349
331
FCC2
  5
1034A
331
FCC3
  5
1034B
331
FCC4
  5
1034C
331
FCC5
  5
1034D
331
FCC6
  5
1034E
331
FCC7
  5
1034F
331
FCC8
  5
10350
331
FCC9
  5
10351
331
FCCA
  5
10352
331
FCCB
  5
10353
331
FCCC
  5
10354
331
FCCD
  5
10355
331
FCCE
  5
10356
331
FCCF
  5
10357
331
FCD0
  5
10358
331
FCD1
  5
10359
331
FCD2
  5
1035A
331
FCD3
  5
1035B
331
FCD4
  5
1035C
331
FCD5
  5
1035D
331
FCD6
  5
1035E
331
FCD7
  5
1035F
331
FCD8
  5
10360
331
FCD9
  5
10361
331
FCDA
  5
10362
331
FCDB
  5
10363
331
FCDC
  5
10364
331
FCDD
  5
10365
331
FCDE
  5
10366
331
FCDF
  5
10367
331
FCE0
  5
10368
331
FCE1
  5
10369
331
FCE2
  5
1036A
331
FCE3
  5
1036B
331
FCE4
  5
1036C
331
FCE5
  5
1036D
331
FCE6
  5
1036E
331
FCE7
  5
1036F
331
FCE8
  5
10370
331
FCE9
  5
10371
331
FCEA
  5
10372
331
FCEB
  5
10373
331
FCEC
  5
10374
331
FCED
  5
10375
331
FCEE
  5
10376
331
FCEF
  5
10377
331
FCF0
  5
10378
331
FCF1
  5
10379
331
FCF2
  5
1037A
331
FCF3
  5
1037B
331
FCF4
  5
1037C
331
FCF5
  5
1037D
331
FCF6
  5
1037E
331
FCF7
  5
1037F
331
FCF8
  5
10380
331
FE17
  5
10381
331
FE18
  5
10382
331
FE26
  5
10383
331
FE58
  5
10384
331
102DA
  5
FC3E
331
102DB
  5
FC3F
331
102DC
  5
FC40
331
0
  5
FC45
331
0
  5
FC46
331
0
  5
FC47
331
102E0
  5
FC55
331
102E1
  5
FC56
331
102E2
  5
FC5A
331
0
  5
FC4E
331
0
  5
FC4F
331
0
  5
FC50
331
102E6
  5
FC99
331
102E7
  5
FC9A
331
102E8
  5
FC9B
331
0
  5
FC57
331
0
  5
FC58
331
0
  5
FC59
331
102EC
  5
FCA3
331
102ED
  5
FCA4
331
102EE
  5
FCA5
331
102EF
  5
FCA6
331
102F0
  5
FCA7
331
102F1
  5
FCA8
331
0
  5
FC60
331
0
  5
FC61
331
0
  5
FC62
331
102F5
  5
FCB2
331
102F6
  5
FCB3
331
102F7
  5
FCB4
331
102F8
  5
FCB8
331
102F9
  5
FCB9
331
102FA
  5
FCBA
331
0
  5
FC69
331
0
  5
FC6A
331
0
  5
FC6B
331
102FE
  5
10385
331
102FF
  5
10386
331
10300
  5
10387
331
10304
  5
1038F
331
10305
  5
10390
331
10306
  5
10391
331
10307
  5
10392
331
10308
  5
10393
331
10309
  5
10394
331
1030D
  5
FC4B
331
1030E
  5
FC4C
331
1030F
  5
FC4D
331
10310
  5
FC51
331
10311
  5
FC52
331
10312
  5
FC53
331
10313
  5
FC54
331
10314
  5
FC5B
331
10315
  5
FC5C
331
10316
  5
FC5D
331
10317
  5
FC5E
331
10318
  5
FC5F
331
10319
  5
FC63
331
1031A
  5
FC64
331
1031B
  5
FC9C
331
1031C
  5
FC9D
331
1031D
  5
FC9E
331
1031E
  5
FC9F
331
1031F
  5
FCA0
331
10320
  5
FCA1
331
10321
  5
FCA2
331
10322
  5
FCA9
331
10323
  5
FCAC
331
10324
  5
FCAD
331
10325
  5
FCAE
331
10326
  5
FCAF
331
10327
  5
FCB0
331
10328
  5
FCB1
331
10329
  5
FCBB
331
1032A
  5
FCBC
331
1032B
  5
FCBD
331
1032C
  5
FCBE
331
1032D
  5
FCBF
331
1032E
  5
FCC0
331
1032F
  5
FCC1
331
10330
  5
10388
331
10331
  5
10389
331
10332
  5
1038A
331
10333
  5
1038B
331
10334
  5
1038C
331
10335
  5
1038D
331
10336
  5
1038E
331
10337
  5
10395
331
10338
  5
10396
331
10339
  5
10397
331
1033A
  5
10398
331
1033B
  5
10399
331
1033C
  5
1039A
331
1033D
  5
1039B
331
1033E
  5
FC68
331
1033F
  5
FC6C
331
10340
  5
FC6D
331
0
  5
FC6E
331
0
  5
FC6F
331
0
  5
FC70
331
10344
  5
FC7E
331
10345
  5
FC7F
331
10346
  5
FC80
331
0
  5
FC74
331
0
  5
FC75
331
0
  5
FC76
331
1034A
  5
FC88
331
1034B
  5
FC89
331
1034C
  5
FC8A
331
0
  5
FC7A
331
0
  5
FC7B
331
0
  5
FC7C
331
10350
  5
FCC4
331
10351
  5
FCC5
331
10352
  5
FCC6
331
10353
  5
FCC7
331
10354
  5
FCC8
331
10355
  5
FCC9
331
10356
  5
FCCA
331
10357
  5
FCCB
331
10358
  5
FCCC
331
0
  5
FCB5
331
0
  5
FCB6
331
0
  5
FCB7
331
1035C
  5
FCD4
331
1035D
  5
FCD5
331
1035E
  5
FCD6
331
1035F
  5
FCDA
331
10360
  5
FCDC
331
10361
  5
FCE0
331
10362
  5
FCE1
331
10363
  5
FCE2
331
10364
  5
FCE3
331
10365
  5
FCF5
331
10366
  5
FCF6
331
10367
  5
FCF7
331
10368
  5
FCF8
331
0
  5
FCD7
331
0
  5
FCD8
331
0
  5
FCD9
331
1036C
  5
102DD
331
1036D
  5
102DE
331
1036E
  5
102DF
331
0
  5
FCDD
331
0
  5
FCDE
331
0
  5
FCDF
331
10372
  5
FC71
331
10373
  5
FC72
331
10374
  5
FC73
331
10375
  5
FC77
331
10376
  5
FC78
331
10377
  5
FC79
331
10378
  5
FC7D
331
10379
  5
FC81
331
1037A
  5
FC82
331
1037B
  5
FC83
331
1037C
  5
FC84
331
1037D
  5
FC85
331
1037E
  5
FC86
331
1037F
  5
FC87
331
10380
  5
FC8B
331
10381
  5
FC8C
331
10382
  5
FC8D
331
10383
  5
FC8E
331
10384
  5
FC8F
331
10385
  5
FC90
331
10386
  5
FC96
331
10387
  5
FCCD
331
10388
  5
FCCE
331
10389
  5
FCCF
331
1038A
  5
FCD0
331
1038B
  5
FCD1
331
1038C
  5
FCD2
331
1038D
  5
FCD3
331
1038E
  5
FE17
331
1038F
  5
FE18
331
10390
  5
FE26
331
10391
  5
FE58
331
10392
  5
102DA
331
10393
  5
102DB
331
10394
  5
102DC
331
10395
  5
102E0
331
10396
  5
102E1
331
10397
  5
102E2
331
10398
  5
102E3
331
10399
  5
102E4
331
1039A
  5
102E5
331
1039B
  5
102E6
  0
SORTENTSTABLE
  5
FD9D
102
{ACAD_REACTORS
330
FD9C
102
}
330
FD9C
100
AcDbSortentsTable
330
FD9B
331
FD9F
  5
FDA0
331
FDA0
  5
FD9F
  0
MATERIAL
  5
D05A
102
{ACAD_REACTORS
330
18C
102
}
102
{ACAD_XDICTIONARY
360
1053A
102
}
330
18C
100
AcDbMaterial
  1
BYBLOCK
 72
     0
 73
     2
 43
0.0208333333333333
 43
0.0
 43
0.0
 43
0.0
 43
0.0
 43
0.0208333333333333
 43
0.0
 43
0.0
 43
0.0
 43
0.0
 43
1.0
 43
0.0
 43
0.0
 43
0.0
 43
0.0
 43
1.0
 77
     0
 78
     2
 47
0.0208333333333333
 47
0.0
 47
0.0
 47
0.0
 47
0.0
 47
0.0208333333333333
 47
0.0
 47
0.0
 47
0.0
 47
0.0
 47
1.0
 47
0.0
 47
0.0
 47
0.0
 47
0.0
 47
1.0
171
     0
172
     2
 49
0.0208333333333333
 49
0.0
 49
0.0
 49
0.0
 49
0.0
 49
0.0208333333333333
 49
0.0
 49
0.0
 49
0.0
 49
0.0
 49
1.0
 49
0.0
 49
0.0
 49
0.0
 49
0.0
 49
1.0
175
     0
176
     2
142
0.0208333333333333
142
0.0
142
0.0
142
0.0
142
0.0
142
0.0208333333333333
142
0.0
142
0.0
142
0.0
142
0.0
142
1.0
142
0.0
142
0.0
142
0.0
142
0.0
142
1.0
179
     0
270
     2
144
0.0208333333333333
144
0.0
144
0.0
144
0.0
144
0.0
144
0.0208333333333333
144
0.0
144
0.0
144
0.0
144
0.0
144
1.0
144
0.0
144
0.0
144
0.0
144
0.0
144
1.0
274
     2
147
0.0208333333333333
147
0.0
147
0.0
147
0.0
147
0.0
147
0.0208333333333333
147
0.0
147
0.0
147
0.0
147
0.0
147
1.0
147
0.0
147
0.0
147
0.0
147
0.0
147
1.0
  0
MATERIAL
  5
D052
102
{ACAD_REACTORS
330
18C
102
}
102
{ACAD_XDICTIONARY
360
1053C
102
}
330
18C
100
AcDbMaterial
  1
BYLAYER
 72
     0
 73
     2
 43
0.0208333333333333
 43
0.0
 43
0.0
 43
0.0
 43
0.0
 43
0.0208333333333333
 43
0.0
 43
0.0
 43
0.0
 43
0.0
 43
1.0
 43
0.0
 43
0.0
 43
0.0
 43
0.0
 43
1.0
 77
     0
 78
     2
 47
0.0208333333333333
 47
0.0
 47
0.0
 47
0.0
 47
0.0
 47
0.0208333333333333
 47
0.0
 47
0.0
 47
0.0
 47
0.0
 47
1.0
 47
0.0
 47
0.0
 47
0.0
 47
0.0
 47
1.0
171
     0
172
     2
 49
0.0208333333333333
 49
0.0
 49
0.0
 49
0.0
 49
0.0
 49
0.0208333333333333
 49
0.0
 49
0.0
 49
0.0
 49
0.0
 49
1.0
 49
0.0
 49
0.0
 49
0.0
 49
0.0
 49
1.0
175
     0
176
     2
142
0.0208333333333333
142
0.0
142
0.0
142
0.0
142
0.0
142
0.0208333333333333
142
0.0
142
0.0
142
0.0
142
0.0
142
1.0
142
0.0
142
0.0
142
0.0
142
0.0
142
1.0
179
     0
270
     2
144
0.0208333333333333
144
0.0
144
0.0
144
0.0
144
0.0
144
0.0208333333333333
144
0.0
144
0.0
144
0.0
144
0.0
144
1.0
144
0.0
144
0.0
144
0.0
144
0.0
144
1.0
274
     2
147
0.0208333333333333
147
0.0
147
0.0
147
0.0
147
0.0
147
0.0208333333333333
147
0.0
147
0.0
147
0.0
147
0.0
147
1.0
147
0.0
147
0.0
147
0.0
147
0.0
147
1.0
  0
MATERIAL
  5
D062
102
{ACAD_REACTORS
330
18C
102
}
102
{ACAD_XDICTIONARY
360
1053E
102
}
330
18C
100
AcDbMaterial
  1
GLOBAL
 72
     0
 73
     2
 43
0.0208333333333333
 43
0.0
 43
0.0
 43
0.0
 43
0.0
 43
0.0208333333333333
 43
0.0
 43
0.0
 43
0.0
 43
0.0
 43
1.0
 43
0.0
 43
0.0
 43
0.0
 43
0.0
 43
1.0
 77
     0
 78
     2
 47
0.0208333333333333
 47
0.0
 47
0.0
 47
0.0
 47
0.0
 47
0.0208333333333333
 47
0.0
 47
0.0
 47
0.0
 47
0.0
 47
1.0
 47
0.0
 47
0.0
 47
0.0
 47
0.0
 47
1.0
171
     0
172
     2
 49
0.0208333333333333
 49
0.0
 49
0.0
 49
0.0
 49
0.0
 49
0.0208333333333333
 49
0.0
 49
0.0
 49
0.0
 49
0.0
 49
1.0
 49
0.0
 49
0.0
 49
0.0
 49
0.0
 49
1.0
175
     0
176
     2
142
0.0208333333333333
142
0.0
142
0.0
142
0.0
142
0.0
142
0.0208333333333333
142
0.0
142
0.0
142
0.0
142
0.0
142
1.0
142
0.0
142
0.0
142
0.0
142
0.0
142
1.0
179
     0
270
     2
144
0.0208333333333333
144
0.0
144
0.0
144
0.0
144
0.0
144
0.0208333333333333
144
0.0
144
0.0
144
0.0
144
0.0
144
1.0
144
0.0
144
0.0
144
0.0
144
0.0
144
1.0
274
     2
147
0.0208333333333333
147
0.0
147
0.0
147
0.0
147
0.0
147
0.0208333333333333
147
0.0
147
0.0
147
0.0
147
0.0
147
1.0
147
0.0
147
0.0
147
0.0
147
0.0
147
1.0
  0
ACAD_PROXY_OBJECT
  5
FD9A
102
{ACAD_REACTORS
330
D09D
102
}
330
D09D
100
AcDbZombieObject
 90
      499
 91
      511
 93
      610
310
40501902A4063FBFFFFFE0000000000000020000000000000020408000000000000004090140501A000000000000041000000000000000410257501000000000000380FC000000000000039000
340
12
340
42
340
F
340
FD9B
 94
        0
1001
ACAD_MLEADERVER
1070
     2
  0
ACAD_PROXY_OBJECT
  5
D09E
102
{ACAD_REACTORS
330
D09D
102
}
330
D09D
100
AcDbZombieObject
 90
      499
 91
      511
 93
      610
310
40901902A4063FBFFFFFE000000000000002040AD7A3703D0AD73F4214DD185B99185C990000000000000104090141901A00000000000004100000000000000041025764000000000000300FC0
340
12
340
0
340
F
340
0
 94
        0
1001
ACAD_MLEADERVER
1070
     2
  0
MLINESTYLE
  5
1C
102
{ACAD_REACTORS
330
1B
102
}
330
1B
100
AcDbMlineStyle
  2
STANDARD
 70
     0
  3

 62
   256
 51
90.0
 52
90.0
 71
     2
 49
0.5
 62
   256
  6
BYLAYER
 49
-0.5
 62
   256
  6
BYLAYER
  0
ACAD_PROXY_OBJECT
  5
D07C
102
{ACAD_REACTORS
330
D07B
102
}
330
D07B
100
AcDbZombieObject
 90
      499
 91
      510
 93
       41
310
903313A31580
  0
ACAD_PROXY_OBJECT
  5
D07D
102
{ACAD_REACTORS
330
D07B
102
}
330
D07B
100
AcDbZombieObject
 90
      499
 91
      510
 93
      105
310
903313A324000000000000004000
  0
ACAD_PROXY_OBJECT
  5
D07E
102
{ACAD_REACTORS
330
D07B
102
}
330
D07B
100
AcDbZombieObject
 90
      499
 91
      510
 93
      105
310
903313A344000000000000104000
  0
ACAD_PROXY_OBJECT
  5
D07F
102
{ACAD_REACTORS
330
D07B
102
}
330
D07B
100
AcDbZombieObject
 90
      499
 91
      510
 93
      105
310
903313A354000000000000144000
  0
ACAD_PROXY_OBJECT
  5
D080
102
{ACAD_REACTORS
330
D07B
102
}
330
D07B
100
AcDbZombieObject
 90
      499
 91
      510
 93
      105
310
903313A384000000000000204000
  0
ACAD_PROXY_OBJECT
  5
D081
102
{ACAD_REACTORS
330
D07B
102
}
330
D07B
100
AcDbZombieObject
 90
      499
 91
      510
 93
      113
310
904313A31304000000000000244000
  0
ACAD_PROXY_OBJECT
  5
D082
102
{ACAD_REACTORS
330
D07B
102
}
330
D07B
100
AcDbZombieObject
 90
      499
 91
      510
 93
      113
310
904313A31364000000000000304000
  0
ACAD_PROXY_OBJECT
  5
D083
102
{ACAD_REACTORS
330
D07B
102
}
330
D07B
100
AcDbZombieObject
 90
      499
 91
      510
 93
      113
310
904313A32304000000000000344000
  0
ACAD_PROXY_OBJECT
  5
D084
102
{ACAD_REACTORS
330
D07B
102
}
330
D07B
100
AcDbZombieObject
 90
      499
 91
      510
 93
      113
310
904313A333040000000000003E4000
  0
ACAD_PROXY_OBJECT
  5
D085
102
{ACAD_REACTORS
330
D07B
102
}
330
D07B
100
AcDbZombieObject
 90
      499
 91
      510
 93
      113
310
904313A34304000000000000444000
  0
ACAD_PROXY_OBJECT
  5
D086
102
{ACAD_REACTORS
330
D07B
102
}
330
D07B
100
AcDbZombieObject
 90
      499
 91
      510
 93
      113
310
904313A35304000000000000494000
  0
ACAD_PROXY_OBJECT
  5
D087
102
{ACAD_REACTORS
330
D07B
102
}
330
D07B
100
AcDbZombieObject
 90
      499
 91
      510
 93
      121
310
905313A3130304000000000000594000
  0
ACAD_PROXY_OBJECT
  5
D088
102
{ACAD_REACTORS
330
D07B
102
}
330
D07B
100
AcDbZombieObject
 90
      499
 91
      510
 93
      105
310
903323A310000000000000010100
  0
ACAD_PROXY_OBJECT
  5
D089
102
{ACAD_REACTORS
330
D07B
102
}
330
D07B
100
AcDbZombieObject
 90
      499
 91
      510
 93
      105
310
903343A310000000000000410100
  0
ACAD_PROXY_OBJECT
  5
D08A
102
{ACAD_REACTORS
330
D07B
102
}
330
D07B
100
AcDbZombieObject
 90
      499
 91
      510
 93
      105
310
903383A310000000000000810100
  0
ACAD_PROXY_OBJECT
  5
D08B
102
{ACAD_REACTORS
330
D07B
102
}
330
D07B
100
AcDbZombieObject
 90
      499
 91
      510
 93
      113
310
90431303A310000000000000910100
  0
ACAD_PROXY_OBJECT
  5
D08C
102
{ACAD_REACTORS
330
D07B
102
}
330
D07B
100
AcDbZombieObject
 90
      499
 91
      510
 93
      121
310
9053130303A310000000000001650100
  0
ACAD_PROXY_OBJECT
  5
D08D
102
{ACAD_REACTORS
330
D07B
102
}
330
D07B
100
AcDbZombieObject
 90
      499
 91
      510
 93
      257
310
90E312F31323822203D2031272D3022000000000000200FC000000000000284000
  0
ACAD_PROXY_OBJECT
  5
D08E
102
{ACAD_REACTORS
330
D07B
102
}
330
D07B
100
AcDbZombieObject
 90
      499
 91
      510
 93
      249
310
90D312F363422203D2031272D3022000000000000240FC000000000000284000
  0
ACAD_PROXY_OBJECT
  5
D08F
102
{ACAD_REACTORS
330
D07B
102
}
330
D07B
100
AcDbZombieObject
 90
      499
 91
      510
 93
      249
310
90D312F333222203D2031272D3022000000000000280FC000000000000284000
  0
ACAD_PROXY_OBJECT
  5
D090
102
{ACAD_REACTORS
330
D07B
102
}
330
D07B
100
AcDbZombieObject
 90
      499
 91
      510
 93
      249
310
90D312F313622203D2031272D30220000000000002C0FC000000000000284000
  0
ACAD_PROXY_OBJECT
  5
D091
102
{ACAD_REACTORS
330
D07B
102
}
330
D07B
100
AcDbZombieObject
 90
      499
 91
      510
 93
      249
310
90D332F333222203D2031272D30220000000000002E0FC000000000000284000
  0
ACAD_PROXY_OBJECT
  5
D092
102
{ACAD_REACTORS
330
D07B
102
}
330
D07B
100
AcDbZombieObject
 90
      499
 91
      510
 93
      241
310
90C312F3822203D2031272D3022000000000000300FC000000000000284000
  0
ACAD_PROXY_OBJECT
  5
D093
102
{ACAD_REACTORS
330
D07B
102
}
330
D07B
100
AcDbZombieObject
 90
      499
 91
      510
 93
      249
310
90D332F313622203D2031272D3022000000000000320FC000000000000284000
  0
ACAD_PROXY_OBJECT
  5
D094
102
{ACAD_REACTORS
330
D07B
102
}
330
D07B
100
AcDbZombieObject
 90
      499
 91
      510
 93
      241
310
90C312F3422203D2031272D3022000000000000340FC000000000000284000
  0
ACAD_PROXY_OBJECT
  5
D095
102
{ACAD_REACTORS
330
D07B
102
}
330
D07B
100
AcDbZombieObject
 90
      499
 91
      510
 93
      241
310
90C332F3822203D2031272D3022000000000000360FC000000000000284000
  0
ACAD_PROXY_OBJECT
  5
D096
102
{ACAD_REACTORS
330
D07B
102
}
330
D07B
100
AcDbZombieObject
 90
      499
 91
      510
 93
      241
310
90C312F3222203D2031272D3022000000000000380FC000000000000284000
  0
ACAD_PROXY_OBJECT
  5
D097
102
{ACAD_REACTORS
330
D07B
102
}
330
D07B
100
AcDbZombieObject
 90
      499
 91
      510
 93
      241
310
90C332F3422203D2031272D30220000000000003A0FC000000000000284000
  0
ACAD_PROXY_OBJECT
  5
D098
102
{ACAD_REACTORS
330
D07B
102
}
330
D07B
100
AcDbZombieObject
 90
      499
 91
      510
 93
      161
310
90A3122203D2031272D30224000000000000284000
  0
ACAD_PROXY_OBJECT
  5
D099
102
{ACAD_REACTORS
330
D07B
102
}
330
D07B
100
AcDbZombieObject
 90
      499
 91
      510
 93
      257
310
90E312D312F3222203D2031272D30220000000000003E0FC000000000000284000
  0
ACAD_PROXY_OBJECT
  5
D09A
102
{ACAD_REACTORS
330
D07B
102
}
330
D07B
100
AcDbZombieObject
 90
      499
 91
      510
 93
      225
310
90A3322203D2031272D302200000000000002100000000000000284000
  0
ACAD_PROXY_OBJECT
  5
D09B
102
{ACAD_REACTORS
330
D07B
102
}
330
D07B
100
AcDbZombieObject
 90
      499
 91
      510
 93
      225
310
90A3622203D2031272D302200000000000006100000000000000284000
  0
ACAD_PROXY_OBJECT
  5
D09C
102
{ACAD_REACTORS
330
D07B
102
}
330
D07B
100
AcDbZombieObject
 90
      499
 91
      510
 93
      249
310
90D31272D3022203D2031272D30220000000000000A100000000000000284000
  0
ACAD_PROXY_OBJECT
  5
D070
102
{ACAD_REACTORS
330
D06A
102
}
330
D06A
100
AcDbZombieObject
 90
      499
 91
      509
 93
      436
310
42CC9915DA5C99599C985B595049028333333333333E3BF0000000000000FB0107901411070040501600405405064090741402480A0340
1001
ACAD
1000
AcDbSavedByObjectVersion
1070
     0
  0
ACAD_PROXY_OBJECT
  5
D072
102
{ACAD_REACTORS
330
D06A
102
}
330
D06A
100
AcDbZombieObject
 90
      499
 91
      509
 93
      500
310
424CD108121A5919195B90640502408333333333333E3BF0000000000000FB01079024090700405020000000000001110200405405064090740C02480A0340
1001
ACAD
1000
AcDbSavedByObjectVersion
1070
     0
  0
ACAD_PROXY_OBJECT
  5
D071
102
{ACAD_REACTORS
330
D06A
102
}
330
D06A
100
AcDbZombieObject
 90
      499
 91
      509
 93
      436
310
42CCD915DA5C99599C985B595059028333333333333E3BF0000000000000FB0107901411070040501600405405064090741402480A0340
1001
ACAD
1000
AcDbSavedByObjectVersion
1070
     0
  0
ACAD_PROXY_OBJECT
  5
D06F
102
{ACAD_REACTORS
330
D06A
102
}
330
D06A
100
AcDbZombieObject
 90
      499
 91
      509
 93
      388
310
4150985CDA58D07406404333333333333E3BF0000000000000FB0107A41107004050150841D405064090741402480A0350
1001
ACAD
1000
AcDbSavedByObjectVersion
1070
     0
  0
ACAD_PROXY_OBJECT
  5
D076
102
{ACAD_REACTORS
330
D06A
102
}
330
D06A
100
AcDbZombieObject
 90
      499
 91
      509
 93
      428
310
42109C9A59DA1D195B90C409028333333333333E3BF0000000000000FB010790141107004050150841D405064090741402480A029950
1001
ACAD
1000
AcDbSavedByObjectVersion
1070
     0
  0
ACAD_PROXY_OBJECT
  5
D07A
102
{ACAD_REACTORS
330
D06A
102
}
330
D06A
100
AcDbZombieObject
 90
      499
 91
      509
 93
      452
310
42D0DBDB1BDC90DA185B99D95104090240C333333333333E3BF0000000000000FB0108901411070040501508421405064090741402480A0350
1001
ACAD
1000
AcDbSavedByObjectVersion
1070
     0
  0
ACAD_PROXY_OBJECT
  5
D073
102
{ACAD_REACTORS
330
D06A
102
}
330
D06A
100
AcDbZombieObject
 90
      499
 91
      509
 93
      500
310
4290DBDB98D95C1D1D585B10940D028333333333333E3BF0000000000000FB0107902409070040501000000000000111010841D405064090740C02480A0340
1001
ACAD
1000
AcDbSavedByObjectVersion
1070
     0
  0
ACAD_PROXY_OBJECT
  5
D075
102
{ACAD_REACTORS
330
D06A
102
}
330
D06A
100
AcDbZombieObject
 90
      499
 91
      509
 93
      412
310
40D11A5B50B409028333333333333E3BF0000000000000FB010790141107004050150841D405064090741402480A02677FFFFFD0
1001
ACAD
1000
AcDbSavedByObjectVersion
1070
     0
  0
ACAD_PROXY_OBJECT
  5
D29F
102
{ACAD_REACTORS
330
D06A
102
}
330
D06A
100
AcDbZombieObject
 90
      499
 91
      509
 93
      452
310
43115919D950DBDB1BDC93D999916409028333333333333E3BF0000000000000FB010790141107004050150841D405064090741402480A0350
1001
ACAD
1000
AcDbSavedByObjectVersion
1070
     0
  0
ACAD_PROXY_OBJECT
  5
D079
102
{ACAD_REACTORS
330
D06A
102
}
330
D06A
100
AcDbZombieObject
 90
      499
 91
      509
 93
      444
310
42D19858D95C185D1D195C9B90F409028333333333333E3BF0000000000000FB010790141107004050150841D405064090741402480A0350
1001
ACAD
1000
AcDbSavedByObjectVersion
1070
     0
  0
ACAD_PROXY_OBJECT
  5
D06B
102
{ACAD_REACTORS
330
D06A
102
}
330
D06A
100
AcDbZombieObject
 90
      499
 91
      509
 93
      388
310
41119B185D240901404333333333333E3BF0000000000000F9010740A41107004050150841D405064090741402480A1B50
1001
ACAD
1000
AcDbSavedByObjectVersion
1070
     0
  0
ACAD_PROXY_OBJECT
  5
D06C
102
{ACAD_REACTORS
330
D06A
102
}
330
D06A
100
AcDbZombieObject
 90
      499
 91
      509
 93
      476
310
43519B185D15DA5D1A115919D95CD0140901404333333333333E3BF0000000000000F9010740901411070040501600405405064090741402480A1B50
1001
ACAD
1000
AcDbSavedByObjectVersion
1070
     0
  0
ACAD_PROXY_OBJECT
  5
D06D
102
{ACAD_REACTORS
330
D06A
102
}
330
D06A
100
AcDbZombieObject
 90
      499
 91
      509
 93
      412
310
41D1DBDD5C985D5910240902404333333333333E3BF0000000000000F9010740A411070040501641D405064090741402480A1B50
1001
ACAD
1000
AcDbSavedByObjectVersion
1070
     0
  0
ACAD_PROXY_OBJECT
  5
D06E
102
{ACAD_REACTORS
330
D06A
102
}
330
D06A
100
AcDbZombieObject
 90
      499
 91
      509
 93
      500
310
4411DBDD5C985D5915DA5D1A115919D95CD0340902404333333333333E3BF0000000000000F9010740901411070040501600405405064090741402480A1B50
1001
ACAD
1000
AcDbSavedByObjectVersion
1070
     0
  0
ACAD_PROXY_OBJECT
  5
F225
102
{ACAD_REACTORS
330
D06A
102
}
330
D06A
100
AcDbZombieObject
 90
      499
 91
      509
 93
      476
310
41921A5919195B90640502408333333333333E33F0000000000000F901079024090700405020000000000001110200405405064090740C02480A0340
1001
ACAD
1000
AcDbSavedByObjectVersion
1070
     0
  0
ACAD_PROXY_OBJECT
  5
D29D
102
{ACAD_REACTORS
330
D06A
102
}
330
D06A
100
AcDbZombieObject
 90
      499
 91
      509
 93
      428
310
42529A5D1D195C93D999914409028333333333333E3BF0000000000000FB010790141107004050150A41D405064090741402480A0350
1001
ACAD
1000
AcDbSavedByObjectVersion
1070
     0
  0
ACAD_PROXY_OBJECT
  5
D078
102
{ACAD_REACTORS
330
D06A
102
}
330
D06A
100
AcDbZombieObject
 90
      499
 91
      509
 93
      444
310
42D31A5B995C185D1D195C9B90E409028333333333333E3BF0000000000000FB010790141107004050750841D405064090741402483A0350
1001
ACAD
1000
AcDbSavedByObjectVersion
1070
     0
  0
ACAD_PROXY_OBJECT
  5
F22B
102
{ACAD_REACTORS
330
D06A
102
}
330
D06A
100
AcDbZombieObject
 90
      499
 91
      509
 93
      484
310
42135BD9195B1A5B99D0A409038333333333333E33F0000000000000F901074090290700405010000000000201990108421405064090741402480A1B40
1001
ACAD
1000
AcDbSavedByObjectVersion
1070
     0
  0
ACAD_PROXY_OBJECT
  5
D29E
102
{ACAD_REACTORS
330
D06A
102
}
330
D06A
100
AcDbZombieObject
 90
      499
 91
      509
 93
      444
310
42D3DD995C9A185B99D3D999915409028333333333333E3BF0000000000000FB010790141107004050150941D405064090741402480A0350
1001
ACAD
1000
AcDbSavedByObjectVersion
1070
     0
  0
ACAD_PROXY_OBJECT
  5
D074
102
{ACAD_REACTORS
330
D06A
102
}
330
D06A
100
AcDbZombieObject
 90
      499
 91
      509
 93
      420
310
425499585B1A5CDD1A58D08409028333333333333E3BF0000000000000FB01079019070040501508421405064090741402480A1B40
1001
ACAD
1000
AcDbSavedByObjectVersion
1070
     0
  0
ACAD_PROXY_OBJECT
  5
F22A
102
{ACAD_REACTORS
330
D06A
102
}
330
D06A
100
AcDbZombieObject
 90
      499
 91
      509
 93
      420
310
4194DA1859195911B40902404333333333333E33F0000000000000F9010740A41107004050150800405405064090840C02480A0B40
1001
ACAD
1000
AcDbSavedByObjectVersion
1070
     0
  0
ACAD_PROXY_OBJECT
  5
F229
102
{ACAD_REACTORS
330
D06A
102
}
330
D06A
100
AcDbZombieObject
 90
      499
 91
      509
 93
      516
310
4454DA18591959081DDA5D1A08195919D95CD1A40902404333333333333E33F0000000000000F901074090142907004050250800405405064090740C02480A0B40
1001
ACAD
1000
AcDbSavedByObjectVersion
1070
     0
  0
ACAD_PROXY_OBJECT
  5
F226
102
{ACAD_REACTORS
330
D06A
102
}
330
D06A
100
AcDbZombieObject
 90
      499
 91
      509
 93
      532
310
4394DA1859195CC81BD98811DC985E5174090240C333333333333E33F0000000000000F901079024090741D01000000000000111010841D405064090740C02480A0340
1001
ACAD
1000
AcDbSavedByObjectVersion
1070
     0
  0
ACAD_PROXY_OBJECT
  5
F227
102
{ACAD_REACTORS
330
D06A
102
}
330
D06A
100
AcDbZombieObject
 90
      499
 91
      509
 93
      476
310
41D4DAD95D18DA1E51840502408333333333333E33F0000000000000F901079024090741D01000000000000111010B41D405064090741802480A0340
1001
ACAD
1000
AcDbSavedByObjectVersion
1070
     0
  0
ACAD_PROXY_OBJECT
  5
D077
102
{ACAD_REACTORS
330
D06A
102
}
330
D06A
100
AcDbZombieObject
 90
      499
 91
      509
 93
      412
310
41D51A1A58DAD95B90D409028333333333333E3BF0000000000000FB010790141107004050150C41D405064090741402480A0350
1001
ACAD
1000
AcDbSavedByObjectVersion
1070
     0
  0
ACAD_PROXY_OBJECT
  5
F224
102
{ACAD_REACTORS
330
D06A
102
}
330
D06A
100
AcDbZombieObject
 90
      499
 91
      509
 93
      420
310
4255DA5C99599C985B595059028333333333333E33F0000000000000F90107901411070040501600405405064090740C02480A0340
1001
ACAD
1000
AcDbSavedByObjectVersion
1070
     0
  0
ACAD_PROXY_OBJECT
  5
F228
102
{ACAD_REACTORS
330
D06A
102
}
330
D06A
100
AcDbZombieObject
 90
      499
 91
      509
 93
      404
310
41560B54985E51940902404000000000000E03F0000000000000F9010740501907004050150841D405064090740C02480A1B40
1001
ACAD
1000
AcDbSavedByObjectVersion
1070
     0
  0
XRECORD
  5
1039D
102
{ACAD_REACTORS
330
1039C
102
}
330
1039C
100
AcDbXrecord
340
18D
  0
XRECORD
  5
1039E
102
{ACAD_REACTORS
330
1039C
102
}
330
1039C
100
AcDbXrecord
340
18C
  0
DICTIONARYVAR
  5
F285
102
{ACAD_REACTORS
330
37
102
}
330
37
100
DictionaryVariables
280
     0
  1
1:1
  0
DICTIONARYVAR
  5
D117
102
{ACAD_REACTORS
330
37
102
}
330
37
100
DictionaryVariables
280
     0
  1
Standard
  0
DICTIONARYVAR
  5
29E
102
{ACAD_REACTORS
330
37
102
}
330
37
100
DictionaryVariables
280
     0
  1
Standard
  0
DICTIONARYVAR
  5
38
102
{ACAD_REACTORS
330
37
102
}
330
37
100
DictionaryVariables
280
     0
  1
-1
  0
DICTIONARYVAR
  5
1CE
102
{ACAD_REACTORS
330
37
102
}
330
37
100
DictionaryVariables
280
     0
  1
2
  0
DICTIONARYVAR
  5
704E
102
{ACAD_REACTORS
330
37
102
}
330
37
100
DictionaryVariables
280
     0
  1
1
  0
DICTIONARYVAR
  5
D11A
102
{ACAD_REACTORS
330
37
102
}
330
37
100
DictionaryVariables
280
     0
  1
0
  0
DICTIONARYVAR
  5
7052
102
{ACAD_REACTORS
330
37
102
}
330
37
100
DictionaryVariables
280
     0
  1
8
  0
DICTIONARYVAR
  5
7051
102
{ACAD_REACTORS
330
37
102
}
330
37
100
DictionaryVariables
280
     0
  1
1
  0
DICTIONARYVAR
  5
F286
102
{ACAD_REACTORS
330
37
102
}
330
37
100
DictionaryVariables
280
     0
  1
0
  0
DICTIONARYVAR
  5
704F
102
{ACAD_REACTORS
330
37
102
}
330
37
100
DictionaryVariables
280
     0
  1
8
  0
DICTIONARYVAR
  5
7050
102
{ACAD_REACTORS
330
37
102
}
330
37
100
DictionaryVariables
280
     0
  1
2
  0
DICTIONARYVAR
  5
1CF
102
{ACAD_REACTORS
330
37
102
}
330
37
100
DictionaryVariables
280
     0
  1

  0
DICTIONARYVAR
  5
D119
102
{ACAD_REACTORS
330
37
102
}
330
37
100
DictionaryVariables
280
     0
  1
127
  0
DICTIONARYVAR
  5
F223
102
{ACAD_REACTORS
330
37
102
}
330
37
100
DictionaryVariables
280
     0
  1
2
  0
DICTIONARY
  5
1053A
330
D05A
100
AcDbDictionary
  3
ACAD_XREC_ROUNDTRIP
360
1053B
1001
ACAD
1000
TREAT_AS_HARD
1070
     1
  0
DICTIONARY
  5
1053C
330
D052
100
AcDbDictionary
  3
ACAD_XREC_ROUNDTRIP
360
1053D
1001
ACAD
1000
TREAT_AS_HARD
1070
     1
  0
DICTIONARY
  5
1053E
330
D062
100
AcDbDictionary
  3
ACAD_XREC_ROUNDTRIP
360
1053F
1001
ACAD
1000
TREAT_AS_HARD
1070
     1
  0
XRECORD
  5
1053B
102
{ACAD_REACTORS
330
1053A
102
}
330
1053A
100
AcDbXrecord
102
MATERIAL
148
0.0
149
0.0
149
0.0
 93
        0
 94
      127
282
     0
 72
     0
 77
     0
171
     0
175
     0
179
     0
273
     0
  0
XRECORD
  5
1053D
102
{ACAD_REACTORS
330
1053C
102
}
330
1053C
100
AcDbXrecord
102
MATERIAL
148
0.0
149
0.0
149
0.0
 93
        0
 94
      127
282
     0
 72
     0
 77
     0
171
     0
175
     0
179
     0
273
     0
  0
XRECORD
  5
1053F
102
{ACAD_REACTORS
330
1053E
102
}
330
1053E
100
AcDbXrecord
102
MATERIAL
148
0.0
149
0.0
149
0.0
 93
        0
 94
      127
282
     0
 72
     0
 77
     0
171
     0
175
     0
179
     0
273
     0
  0
ENDSEC
  0
EOF
