  0
SECTION
  2
HEADER
  9
$ACADVER
  1
AC1009
  9
$INSBASE
 10
0.0
 20
0.0
 30
0.0
  9
$EXTMIN
 10
86.685810188531832
 20
-1647.9776519632701
 30
0.0
  9
$EXTMAX
 10
186.322596719221
 20
-1429.9776709632699
 30
0.0
  9
$LIMMIN
 10
0.0
 20
0.0
  9
$LIMMAX
 10
420.0
 20
297.0
  9
$ORTHOMODE
 70
     0
  9
$REGENMODE
 70
     1
  9
$FILLMODE
 70
     1
  9
$QTEXTMODE
 70
     0
  9
$MIRRTEXT
 70
     1
  9
$DRAGMODE
 70
     2
  9
$LTSCALE
 40
0.5
  9
$OSMODE
 70
  2175
  9
$ATTMODE
 70
     1
  9
$TEXTSIZE
 40
4.0
  9
$TRACEWID
 40
1.0
  9
$TEXTSTYLE
  7
STANDARD
  9
$CLAYER
  8
1TEXT
  9
$CELTYPE
  6
BYLAYER
  9
$CECOLOR
 62
   256
  9
$DIMSCALE
 40
1.0
  9
$DIMASZ
 40
2.0
  9
$DIMEXO
 40
0.0
  9
$DIMDLI
 40
7.0
  9
$DIMRND
 40
0.0
  9
$DIMDLE
 40
0.0
  9
$DIMEXE
 40
1.0
  9
$DIMTP
 40
0.0
  9
$DIMTM
 40
0.0
  9
$DIMTXT
 40
3.5
  9
$DIMCEN
 40
0.0
  9
$DIMTSZ
 40
0.0
  9
$DIMTOL
 70
     0
  9
$DIMLIM
 70
     0
  9
$DIMTIH
 70
     0
  9
$DIMTOH
 70
     0
  9
$DIMSE1
 70
     0
  9
$DIMSE2
 70
     0
  9
$DIMTAD
 70
     1
  9
$DIMZIN
 70
     8
  9
$DIMBLK
  1

  9
$DIMASO
 70
     1
  9
$DIMSHO
 70
     1
  9
$DIMPOST
  1
 
  9
$DIMAPOST
  1

  9
$DIMALT
 70
     0
  9
$DIMALTD
 70
     2
  9
$DIMALTF
 40
25.399999999999999
  9
$DIMLFAC
 40
1.0
  9
$DIMTOFL
 70
     1
  9
$DIMTVP
 40
0.0
  9
$DIMTIX
 70
     0
  9
$DIMSOXD
 70
     0
  9
$DIMSAH
 70
     1
  9
$DIMBLK1
  1
OPEN30
  9
$DIMBLK2
  1
OPEN30
  9
$DIMSTYLE
  2
NEWX10
  9
$DIMCLRD
 70
   256
  9
$DIMCLRE
 70
   256
  9
$DIMCLRT
 70
   201
  9
$DIMTFAC
 40
0.7
  9
$DIMGAP
 40
0.7
  9
$LUNITS
 70
     2
  9
$LUPREC
 70
     4
  9
$SKETCHINC
 40
1.0
  9
$FILLETRAD
 40
0.0
  9
$AUNITS
 70
     0
  9
$AUPREC
 70
     2
  9
$MENU
  1
acad
  9
$ELEVATION
 40
0.0
  9
$PELEVATION
 40
0.0
  9
$THICKNESS
 40
0.0
  9
$LIMCHECK
 70
     0
  9
$BLIPMODE
 70
     0
  9
$CHAMFERA
 40
10.0
  9
$CHAMFERB
 40
10.0
  9
$SKPOLY
 70
     0
  9
$TDCREATE
 40
2453033.7326634838
  9
$TDUPDATE
 40
2454995.4041950582
  9
$TDINDWG
 40
0.2266149421
  9
$TDUSRTIMER
 40
0.2266149421
  9
$USRTIMER
 70
     1
  9
$ANGBASE
 50
0.0
  9
$ANGDIR
 70
     0
  9
$PDMODE
 70
     0
  9
$PDSIZE
 40
0.0
  9
$PLINEWID
 40
0.0
  9
$COORDS
 70
     2
  9
$SPLFRAME
 70
     0
  9
$SPLINETYPE
 70
     6
  9
$SPLINESEGS
 70
     8
  9
$ATTDIA
 70
     0
  9
$ATTREQ
 70
     1
  9
$HANDLING
 70
     1
  9
$HANDSEED
  5
878D
  9
$SURFTAB1
 70
     6
  9
$SURFTAB2
 70
     6
  9
$SURFTYPE
 70
     6
  9
$SURFU
 70
     6
  9
$SURFV
 70
     6
  9
$UCSNAME
  2

  9
$UCSORG
 10
0.0
 20
0.0
 30
0.0
  9
$UCSXDIR
 10
1.0
 20
0.0
 30
0.0
  9
$UCSYDIR
 10
0.0
 20
1.0
 30
0.0
  9
$PUCSNAME
  2

  9
$PUCSORG
 10
0.0
 20
0.0
 30
0.0
  9
$PUCSXDIR
 10
1.0
 20
0.0
 30
0.0
  9
$PUCSYDIR
 10
0.0
 20
1.0
 30
0.0
  9
$USERI1
 70
     0
  9
$USERI2
 70
     0
  9
$USERI3
 70
     0
  9
$USERI4
 70
     0
  9
$USERI5
 70
     0
  9
$USERR1
 40
0.0
  9
$USERR2
 40
0.0
  9
$USERR3
 40
0.0
  9
$USERR4
 40
0.0
  9
$USERR5
 40
0.0
  9
$WORLDVIEW
 70
     1
  9
$SHADEDGE
 70
     3
  9
$SHADEDIF
 70
    70
  9
$TILEMODE
 70
     1
  9
$MAXACTVP
 70
    48
  9
$PLIMCHECK
 70
     0
  9
$PEXTMIN
 10
1.0000000000000000E+020
 20
1.0000000000000000E+020
 30
1.0000000000000000E+020
  9
$PEXTMAX
 10
-1.0000000000000000E+020
 20
-1.0000000000000000E+020
 30
-1.0000000000000000E+020
  9
$PLIMMIN
 10
0.0
 20
0.0
  9
$PLIMMAX
 10
420.0
 20
297.0
  9
$UNITMODE
 70
     0
  9
$VISRETAIN
 70
     1
  9
$PLINEGEN
 70
     0
  9
$PSLTSCALE
 70
     1
  0
ENDSEC
  0
SECTION
  2
TABLES
  0
TABLE
  2
VPORT
 70
     1
  0
VPORT
  2
*ACTIVE
 70
     0
 10
0.0
 20
0.0
 11
1.0
 21
1.0
 12
136.50833219116129
 22
-1538.9703407669399
 13
0.0
 23
0.0
 14
10.0
 24
10.0
 15
10.0
 25
10.0
 16
0.0
 26
0.0
 36
1.0
 17
0.0
 27
0.0
 37
0.0
 40
231.3491452744864
 41
1.4123581336696089
 42
50.0
 43
0.0
 44
0.0
 50
0.0
 51
0.0
 71
     0
 72
   100
 73
     1
 74
     1
 75
     0
 76
     0
 77
     0
 78
     0
  0
ENDTAB
  0
TABLE
  2
LTYPE
 70
    12
  0
LTYPE
  2
CONTINUOUS
 70
     0
  3
Solid line
 72
    65
 73
     0
 40
0.0
  0
LTYPE
  2
XREF1|CENTER2
 70
    48
  3
Center (.5x) ___ _ ___ _ ___ _ ___ _ ___ _ ___
 72
    65
 73
     4
 40
28.574999999999999
 49
19.050000000000001
 49
-3.1749999999999989
 49
3.1749999999999989
 49
-3.1749999999999989
  0
LTYPE
  2
A3WAKUDAKE|CENTER2
 70
    48
  3
Center (.5x) ___ _ ___ _ ___ _ ___ _ ___ _ ___
 72
    65
 73
     4
 40
28.574999999999999
 49
19.050000000000001
 49
-3.1749999999999989
 49
3.1749999999999989
 49
-3.1749999999999989
  0
ENDTAB
  0
TABLE
  2
LAYER
 70
    36
  0
LAYER
  2
0
 70
     0
 62
     7
  6
CONTINUOUS
  0
LAYER
  2
1TEXT
 70
     0
 62
     7
  6
CONTINUOUS
  0
LAYER
  2
XREF1|1CENTER
 70
    48
 62
     7
  6
XREF1|CENTER2
  0
LAYER
  2
A3WAKUDAKE|THICK
 70
    48
 62
     7
  6
CONTINUOUS
  0
LAYER
  2
A3WAKUDAKE|POINT
 70
    48
 62
     7
  6
CONTINUOUS
  0
LAYER
  2
A3WAKUDAKE|1CENTER
 70
    48
 62
     7
  6
A3WAKUDAKE|CENTER2
  0
LAYER
  2
A3WAKUDAKE|0-6
 70
    48
 62
     7
  6
CONTINUOUS
  0
LAYER
  2
A3WAKUDAKE|1DIM
 70
    48
 62
     7
  6
CONTINUOUS
  0
LAYER
  2
01
 70
     0
 62
     1
  6
CONTINUOUS
  0
ENDTAB
  0
TABLE
  2
STYLE
 70
     4
  0
STYLE
  2
STANDARD
 70
     0
 40
0.0
 41
1.0
 50
0.0
 71
     0
 42
4.0
  3
romans.shx
  4
extfont2.shx
  0
ENDTAB
  0
TABLE
  2
VIEW
 70
     0
  0
ENDTAB
  0
TABLE
  2
UCS
 70
     0
  0
ENDTAB
  0
TABLE
  2
APPID
 70
    10
  0
APPID
  2
ACAD
 70
     0
  0
APPID
  2
DRAWINGVARIABLESXDATA
 70
     0
  0
APPID
  2
CONTENTTABDATA
 70
     0
  0
APPID
  2
CONTENTCURRENTTAB
 70
     0
  0
APPID
  2
CONTENTBLOCKDESCRIPTION
 70
     0
  0
APPID
  2
CONTENTBLOCKICON
 70
     0
  0
APPID
  2
CONTENTLONGBLOCKNAME
 70
     0
  0
APPID
  2
ACAD_PSEXT
 70
     0
  0
APPID
  2
ACAD_DSTYLE_DIMTEXT_FILL
 70
     0
  0
APPID
  2
ACAD_MLEADERVER
 70
     0
  0
ENDTAB
  0
TABLE
  2
DIMSTYLE
 70
     5
  0
DIMSTYLE
  2
NEWX10
 70
     0
  3
 
  4

  5

  6
OPEN30
  7
OPEN30
 40
1.0
 41
2.0
 42
0.0
 43
7.0
 44
1.0
 45
0.0
 46
0.0
 47
0.0
 48
0.0
140
3.5
141
0.0
142
0.0
143
25.399999999999999
144
1.0
145
0.0
146
0.7
147
0.7
 71
     0
 72
     0
 73
     0
 74
     0
 75
     0
 76
     0
 77
     1
 78
     8
170
     0
171
     2
172
     1
173
     1
174
     0
175
     0
176
   256
177
   256
178
   201
  0
ENDTAB
  0
ENDSEC
  0
SECTION
  2
BLOCKS
  0
BLOCK
  8
0
  2
$MODEL_SPACE
 70
     0
 10
0.0
 20
0.0
 30
0.0
  3
$MODEL_SPACE
  1

  0
ENDBLK
  5
1A
  8
0
  0
BLOCK
 67
     1
  8
0
  2
$PAPER_SPACE
 70
     0
 10
0.0
 20
0.0
 30
0.0
  3
$PAPER_SPACE
  1

  0
ENDBLK
  5
17
 67
     1
  8
0
  0
BLOCK
  8
0
  2
_OPEN30
 70
     0
 10
0.0
 20
0.0
 30
0.0
  3
_OPEN30
  1

  0
LINE
  5
44
  8
0
  6
BYBLOCK
 62
     0
 10
-1.0
 20
0.26794919
 30
0.0
 11
0.0
 21
0.0
 31
0.0
  0
LINE
  5
45
  8
0
  6
BYBLOCK
 62
     0
 10
0.0
 20
0.0
 30
0.0
 11
-1.0
 21
-0.26794919
 31
0.0
  0
LINE
  5
46
  8
0
  6
BYBLOCK
 62
     0
 10
0.0
 20
0.0
 30
0.0
 11
-1.0
 21
0.0
 31
0.0
  0
ENDBLK
  5
47
  8
0
  0
BLOCK
  8
0
  2
XREF1
 70
    36
 10
0.0
 20
0.0
 30
0.0
  3
XREF1
  1
D:\ACLT\FORMAT\KAWAJUN(9)図面用.dwg
  0
ENDBLK
  5
5D
  8
0
  0
BLOCK
  8
0
  2
A3WAKUDAKE
 70
    36
 10
0.0
 20
0.0
 30
0.0
  3
A3WAKUDAKE
  1
D:\ACLT\FORMAT\A3WAKUdake.dwg
  0
ENDBLK
  5
6DC
  8
0
  0
BLOCK
  8
0
  2
*U9
 70
     1
 10
0.0
 20
0.0
 30
0.0
  3
*U9
  1

  0
TEXT
  5
86F9
  8
1TEXT
 62
   201
 10
148.3524768551982
 20
-1582.033812974887
 30
0.0
 40
3.5
  1
12.5
  0
ENDBLK
  5
86FB
  8
0
  0
BLOCK
  8
0
  2
*U10
 70
     1
 10
0.0
 20
0.0
 30
0.0
  3
*U10
  1

  0
TEXT
  5
86FD
  8
1TEXT
 62
   201
 10
132.9858101885321
 20
-1553.3109852966029
 30
0.0
 40
3.5
  1
20
 50
90.0
  0
ENDBLK
  5
86FF
  8
0
  0
BLOCK
  8
0
  2
*U11
 70
     1
 10
0.0
 20
0.0
 30
0.0
  3
*U11
  1

  0
TEXT
  5
8701
  8
1TEXT
 62
   201
 10
122.985810188532
 20
-1556.4943186299349
 30
0.0
 40
3.5
  1
14
 50
90.0
  0
ENDBLK
  5
8703
  8
0
  0
BLOCK
  8
0
  2
*U12
 70
     1
 10
0.0
 20
0.0
 30
0.0
  3
*U12
  1

  0
TEXT
  5
8705
  8
1TEXT
 62
   201
 10
132.9858101885321
 20
-1485.011004296603
 30
0.0
 40
3.5
  1
φ17
 50
90.0
  0
ENDBLK
  5
8707
  8
0
  0
ENDSEC
  0
SECTION
  2
ENTITIES
  0
LINE
  5
83F0
  8
01
 10
102.6858101885318
 20
-1483.4776709632699
 30
0.0
 11
87.685810188531832
 21
-1483.4776709632699
 31
0.0
  0
CIRCLE
  5
83F1
  8
01
 10
95.185810188531832
 20
-1479.4776709632699
 30
0.0
 40
8.5
  0
LINE
  5
83F3
  8
01
 10
103.6858101885318
 20
-1544.2776519632689
 30
0.0
 11
103.6858101885318
 21
-1559.9776519632701
 31
0.0
  0
LINE
  5
83F4
  8
01
 10
86.685810188531832
 20
-1542.4776519632701
 30
0.0
 11
103.6858101885318
 21
-1542.4776519632701
 31
0.0
  0
LINE
  5
83F5
  8
01
 10
86.685810188531832
 20
-1541.4776519632701
 30
0.0
 11
103.6858101885318
 21
-1541.4776519632701
 31
0.0
  0
LINE
  5
83F6
  8
01
 10
86.685810188531832
 20
-1544.2776519632689
 30
0.0
 11
103.6858101885318
 21
-1544.2776519632689
 31
0.0
  0
LINE
  5
83F7
  8
01
 10
86.685810188531832
 20
-1543.27765196327
 30
0.0
 11
103.6858101885318
 21
-1543.27765196327
 31
0.0
  0
LINE
  5
83F8
  8
01
 10
103.1858101885318
 20
-1539.9776519632701
 30
0.0
 11
87.185810188531846
 21
-1539.9776519632701
 31
0.0
  0
LINE
  5
83F9
  8
01
 10
87.185810188531846
 20
-1541.4776519632701
 30
0.0
 11
87.185810188531846
 21
-1542.4776519632701
 31
0.0
  0
ARC
  5
83FA
  8
01
 10
87.185810188531846
 20
-1540.4776519632701
 30
0.0
 40
0.5
 50
90.0
 51
180.0
  0
LINE
  5
83FB
  8
01
 10
86.685810188531832
 20
-1540.4776519632701
 30
0.0
 11
86.685810188531832
 21
-1541.4776519632701
 31
0.0
  0
LINE
  5
83FC
  8
01
 10
86.685810188531832
 20
-1559.9776519632701
 30
0.0
 11
86.685810188531832
 21
-1544.2776519632689
 31
0.0
  0
LINE
  5
83FD
  8
01
 10
86.685810188531832
 20
-1542.4776519632701
 30
0.0
 11
86.685810188531832
 21
-1543.27765196327
 31
0.0
  0
LINE
  5
83FE
  8
01
 10
87.185810188531846
 20
-1543.27765196327
 30
0.0
 11
87.185810188531846
 21
-1544.2776519632689
 31
0.0
  0
LINE
  5
83FF
  8
01
 10
103.1858101885318
 20
-1541.4776519632701
 30
0.0
 11
103.1858101885318
 21
-1542.4776519632701
 31
0.0
  0
ARC
  5
8400
  8
01
 10
103.1858101885318
 20
-1540.4776519632701
 30
0.0
 40
0.5
 50
0.0
 51
90.0
  0
LINE
  5
8401
  8
01
 10
103.6858101885318
 20
-1540.4776519632701
 30
0.0
 11
103.6858101885318
 21
-1541.4776519632701
 31
0.0
  0
LINE
  5
8402
  8
01
 10
103.1858101885318
 20
-1543.27765196327
 30
0.0
 11
103.1858101885318
 21
-1544.2776519632689
 31
0.0
  0
LINE
  5
8403
  8
01
 10
103.6858101885318
 20
-1542.4776519632701
 30
0.0
 11
103.6858101885318
 21
-1543.27765196327
 31
0.0
  0
LINE
  5
8404
  8
01
 10
86.685810188531832
 20
-1559.9776519632701
 30
0.0
 11
103.6858101885318
 21
-1559.9776519632701
 31
0.0
  0
LINE
  5
8405
  8
01
 10
102.6858101885318
 20
-1553.810916990305
 30
0.0
 11
102.6858101885318
 21
-1559.9776519632701
 31
0.0
  0
LINE
  5
8406
  8
01
 10
87.685810188531832
 20
-1553.810916990305
 30
0.0
 11
87.685810188531832
 21
-1559.9776519632701
 31
0.0
  0
ARC
  5
8407
  8
01
 10
138.58581018853141
 20
-1553.810916990305
 30
0.0
 40
9.5999999999999996
 50
0.0
 51
57.910048743751979
  0
LINE
  5
8408
  8
01
 10
160.6858101885316
 20
-1544.2776519632689
 30
0.0
 11
160.6858101885316
 21
-1559.9776519632701
 31
0.0
  0
LINE
  5
8409
  8
01
 10
143.6858101885316
 20
-1542.4776519632701
 30
0.0
 11
160.6858101885316
 21
-1542.4776519632701
 31
0.0
  0
LINE
  5
840A
  8
01
 10
143.6858101885316
 20
-1541.4776519632701
 30
0.0
 11
160.6858101885316
 21
-1541.4776519632701
 31
0.0
  0
LINE
  5
840B
  8
01
 10
143.6858101885316
 20
-1544.2776519632689
 30
0.0
 11
160.6858101885316
 21
-1544.2776519632689
 31
0.0
  0
LINE
  5
840C
  8
01
 10
143.6858101885316
 20
-1543.27765196327
 30
0.0
 11
160.6858101885316
 21
-1543.27765196327
 31
0.0
  0
LINE
  5
840D
  8
01
 10
160.1858101885316
 20
-1539.9776519632701
 30
0.0
 11
144.1858101885316
 21
-1539.9776519632701
 31
0.0
  0
LINE
  5
840E
  8
01
 10
144.1858101885316
 20
-1541.4776519632701
 30
0.0
 11
144.1858101885316
 21
-1542.4776519632701
 31
0.0
  0
ARC
  5
840F
  8
01
 10
144.1858101885316
 20
-1540.4776519632701
 30
0.0
 40
0.5
 50
90.0
 51
180.0
  0
LINE
  5
8410
  8
01
 10
143.6858101885316
 20
-1540.4776519632701
 30
0.0
 11
143.6858101885316
 21
-1541.4776519632701
 31
0.0
  0
ARC
  5
8411
  8
01
 10
144.1858101885316
 20
-1545.405561554632
 30
0.0
 40
0.5
 50
180.0
 51
236.32678458814479
  0
LINE
  5
8412
  8
01
 10
143.6858101885316
 20
-1545.6776519632599
 30
0.0
 11
143.6858101885316
 21
-1544.2776519632689
 31
0.0
  0
LINE
  5
8413
  8
01
 10
143.6858101885316
 20
-1542.4776519632701
 30
0.0
 11
143.6858101885316
 21
-1543.27765196327
 31
0.0
  0
LINE
  5
8414
  8
01
 10
144.1858101885316
 20
-1543.27765196327
 30
0.0
 11
144.1858101885316
 21
-1544.2776519632689
 31
0.0
  0
LINE
  5
8415
  8
01
 10
160.1858101885316
 20
-1541.4776519632701
 30
0.0
 11
160.1858101885316
 21
-1542.4776519632701
 31
0.0
  0
ARC
  5
8416
  8
01
 10
160.1858101885316
 20
-1540.4776519632701
 30
0.0
 40
0.5
 50
0.0
 51
90.0
  0
LINE
  5
8417
  8
01
 10
160.6858101885316
 20
-1540.4776519632701
 30
0.0
 11
160.6858101885316
 21
-1541.4776519632701
 31
0.0
  0
LINE
  5
8418
  8
01
 10
160.1858101885316
 20
-1543.27765196327
 30
0.0
 11
160.1858101885316
 21
-1544.2776519632689
 31
0.0
  0
LINE
  5
8419
  8
01
 10
160.6858101885316
 20
-1542.4776519632701
 30
0.0
 11
160.6858101885316
 21
-1543.27765196327
 31
0.0
  0
LINE
  5
841A
  8
01
 10
148.1858101885316
 20
-1559.9776519632701
 30
0.0
 11
160.6858101885316
 21
-1559.9776519632701
 31
0.0
  0
LINE
  5
841B
  8
01
 10
148.1858101885316
 20
-1553.810916990305
 30
0.0
 11
148.1858101885316
 21
-1559.9776519632701
 31
0.0
  0
POLYLINE
  5
841C
  8
01
 10
102.68581018853183
 20
-1553.810916990305
 30
0.0
 66
     1
 70
     8
  0
VERTEX
  8
01
  5
870B
 10
102.686
 20
-1553.81
 30
0.000000
  70
    32
  0
VERTEX
  8
01
  5
870C
 10
102.684
 20
-1553.61
 30
0.000000
  70
    32
  0
VERTEX
  8
01
  5
870D
 10
102.677
 20
-1553.41
 30
0.000000
  70
    32
  0
VERTEX
  8
01
  5
870E
 10
102.665
 20
-1553.21
 30
0.000000
  70
    32
  0
VERTEX
  8
01
  5
870F
 10
102.650
 20
-1553.01
 30
0.000000
  70
    32
  0
VERTEX
  8
01
  5
8710
 10
102.629
 20
-1552.82
 30
0.000000
  70
    32
  0
VERTEX
  8
01
  5
8711
 10
102.605
 20
-1552.62
 30
0.000000
  70
    32
  0
VERTEX
  8
01
  5
8712
 10
102.575
 20
-1552.42
 30
0.000000
  70
    32
  0
VERTEX
  8
01
  5
8713
 10
102.542
 20
-1552.22
 30
0.000000
  70
    32
  0
VERTEX
  8
01
  5
8714
 10
102.504
 20
-1552.03
 30
0.000000
  70
    32
  0
VERTEX
  8
01
  5
8715
 10
102.461
 20
-1551.83
 30
0.000000
  70
    32
  0
VERTEX
  8
01
  5
8716
 10
102.414
 20
-1551.64
 30
0.000000
  70
    32
  0
VERTEX
  8
01
  5
8717
 10
102.363
 20
-1551.45
 30
0.000000
  70
    32
  0
VERTEX
  8
01
  5
8718
 10
102.307
 20
-1551.26
 30
0.000000
  70
    32
  0
VERTEX
  8
01
  5
8719
 10
102.247
 20
-1551.07
 30
0.000000
  70
    32
  0
VERTEX
  8
01
  5
871A
 10
102.183
 20
-1550.88
 30
0.000000
  70
    32
  0
VERTEX
  8
01
  5
871B
 10
102.115
 20
-1550.70
 30
0.000000
  70
    32
  0
VERTEX
  8
01
  5
871C
 10
102.042
 20
-1550.51
 30
0.000000
  70
    32
  0
VERTEX
  8
01
  5
871D
 10
101.966
 20
-1550.33
 30
0.000000
  70
    32
  0
VERTEX
  8
01
  5
871E
 10
101.885
 20
-1550.15
 30
0.000000
  70
    32
  0
VERTEX
  8
01
  5
871F
 10
101.800
 20
-1549.98
 30
0.000000
  70
    32
  0
VERTEX
  8
01
  5
8720
 10
101.711
 20
-1549.80
 30
0.000000
  70
    32
  0
VERTEX
  8
01
  5
8721
 10
101.619
 20
-1549.63
 30
0.000000
  70
    32
  0
VERTEX
  8
01
  5
8722
 10
101.522
 20
-1549.46
 30
0.000000
  70
    32
  0
VERTEX
  8
01
  5
8723
 10
101.422
 20
-1549.29
 30
0.000000
  70
    32
  0
VERTEX
  8
01
  5
8724
 10
101.318
 20
-1549.13
 30
0.000000
  70
    32
  0
VERTEX
  8
01
  5
8725
 10
101.210
 20
-1548.97
 30
0.000000
  70
    32
  0
VERTEX
  8
01
  5
8726
 10
101.098
 20
-1548.81
 30
0.000000
  70
    32
  0
VERTEX
  8
01
  5
8727
 10
100.983
 20
-1548.65
 30
0.000000
  70
    32
  0
VERTEX
  8
01
  5
8728
 10
100.865
 20
-1548.50
 30
0.000000
  70
    32
  0
VERTEX
  8
01
  5
8729
 10
100.743
 20
-1548.35
 30
0.000000
  70
    32
  0
VERTEX
  8
01
  5
872A
 10
100.618
 20
-1548.20
 30
0.000000
  70
    32
  0
VERTEX
  8
01
  5
872B
 10
100.489
 20
-1548.06
 30
0.000000
  70
    32
  0
VERTEX
  8
01
  5
872C
 10
100.357
 20
-1547.92
 30
0.000000
  70
    32
  0
VERTEX
  8
01
  5
872D
 10
100.223
 20
-1547.78
 30
0.000000
  70
    32
  0
VERTEX
  8
01
  5
872E
 10
100.085
 20
-1547.65
 30
0.000000
  70
    32
  0
VERTEX
  8
01
  5
872F
 10
99.9438
 20
-1547.52
 30
0.000000
  70
    32
  0
VERTEX
  8
01
  5
8730
 10
99.8000
 20
-1547.40
 30
0.000000
  70
    32
  0
VERTEX
  8
01
  5
8731
 10
99.6536
 20
-1547.28
 30
0.000000
  70
    32
  0
VERTEX
  8
01
  5
8732
 10
99.5044
 20
-1547.16
 30
0.000000
  70
    32
  0
VERTEX
  8
01
  5
8733
 10
99.3526
 20
-1547.05
 30
0.000000
  70
    32
  0
VERTEX
  8
01
  5
8734
 10
99.1983
 20
-1546.94
 30
0.000000
  70
    32
  0
VERTEX
  8
01
  5
8735
 10
99.0416
 20
-1546.83
 30
0.000000
  70
    32
  0
VERTEX
  8
01
  5
8736
 10
98.8825
 20
-1546.73
 30
0.000000
  70
    32
  0
VERTEX
  8
01
  5
8737
 10
98.7213
 20
-1546.64
 30
0.000000
  70
    32
  0
VERTEX
  8
01
  5
8738
 10
98.5579
 20
-1546.55
 30
0.000000
  70
    32
  0
VERTEX
  8
01
  5
8739
 10
98.3925
 20
-1546.46
 30
0.000000
  70
    32
  0
VERTEX
  8
01
  5
873A
 10
98.2251
 20
-1546.38
 30
0.000000
  70
    32
  0
VERTEX
  8
01
  5
873B
 10
98.0559
 20
-1546.30
 30
0.000000
  70
    32
  0
VERTEX
  8
01
  5
873C
 10
97.8850
 20
-1546.22
 30
0.000000
  70
    32
  0
VERTEX
  8
01
  5
873D
 10
97.7125
 20
-1546.15
 30
0.000000
  70
    32
  0
VERTEX
  8
01
  5
873E
 10
97.5384
 20
-1546.09
 30
0.000000
  70
    32
  0
VERTEX
  8
01
  5
873F
 10
97.3629
 20
-1546.03
 30
0.000000
  70
    32
  0
VERTEX
  8
01
  5
8740
 10
97.1862
 20
-1545.97
 30
0.000000
  70
    32
  0
VERTEX
  8
01
  5
8741
 10
97.0082
 20
-1545.92
 30
0.000000
  70
    32
  0
VERTEX
  8
01
  5
8742
 10
96.8291
 20
-1545.88
 30
0.000000
  70
    32
  0
VERTEX
  8
01
  5
8743
 10
96.6490
 20
-1545.83
 30
0.000000
  70
    32
  0
VERTEX
  8
01
  5
8744
 10
96.4680
 20
-1545.80
 30
0.000000
  70
    32
  0
VERTEX
  8
01
  5
8745
 10
96.2863
 20
-1545.77
 30
0.000000
  70
    32
  0
VERTEX
  8
01
  5
8746
 10
96.1039
 20
-1545.74
 30
0.000000
  70
    32
  0
VERTEX
  8
01
  5
8747
 10
95.9209
 20
-1545.72
 30
0.000000
  70
    32
  0
VERTEX
  8
01
  5
8748
 10
95.7375
 20
-1545.70
 30
0.000000
  70
    32
  0
VERTEX
  8
01
  5
8749
 10
95.5538
 20
-1545.69
 30
0.000000
  70
    32
  0
VERTEX
  8
01
  5
874A
 10
95.3699
 20
-1545.68
 30
0.000000
  70
    32
  0
VERTEX
  8
01
  5
874B
 10
95.1858
 20
-1545.68
 30
0.000000
  70
    32
  0
VERTEX
  8
01
  5
874C
 10
95.0018
 20
-1545.68
 30
0.000000
  70
    32
  0
VERTEX
  8
01
  5
874D
 10
94.8178
 20
-1545.69
 30
0.000000
  70
    32
  0
VERTEX
  8
01
  5
874E
 10
94.6341
 20
-1545.70
 30
0.000000
  70
    32
  0
VERTEX
  8
01
  5
874F
 10
94.4507
 20
-1545.72
 30
0.000000
  70
    32
  0
VERTEX
  8
01
  5
8750
 10
94.2677
 20
-1545.74
 30
0.000000
  70
    32
  0
VERTEX
  8
01
  5
8751
 10
94.0853
 20
-1545.77
 30
0.000000
  70
    32
  0
VERTEX
  8
01
  5
8752
 10
93.9036
 20
-1545.80
 30
0.000000
  70
    32
  0
VERTEX
  8
01
  5
8753
 10
93.7226
 20
-1545.83
 30
0.000000
  70
    32
  0
VERTEX
  8
01
  5
8754
 10
93.5426
 20
-1545.88
 30
0.000000
  70
    32
  0
VERTEX
  8
01
  5
8755
 10
93.3635
 20
-1545.92
 30
0.000000
  70
    32
  0
VERTEX
  8
01
  5
8756
 10
93.1855
 20
-1545.97
 30
0.000000
  70
    32
  0
VERTEX
  8
01
  5
8757
 10
93.0087
 20
-1546.03
 30
0.000000
  70
    32
  0
VERTEX
  8
01
  5
8758
 10
92.8332
 20
-1546.09
 30
0.000000
  70
    32
  0
VERTEX
  8
01
  5
8759
 10
92.6591
 20
-1546.15
 30
0.000000
  70
    32
  0
VERTEX
  8
01
  5
875A
 10
92.4866
 20
-1546.22
 30
0.000000
  70
    32
  0
VERTEX
  8
01
  5
875B
 10
92.3157
 20
-1546.30
 30
0.000000
  70
    32
  0
VERTEX
  8
01
  5
875C
 10
92.1465
 20
-1546.38
 30
0.000000
  70
    32
  0
VERTEX
  8
01
  5
875D
 10
91.9791
 20
-1546.46
 30
0.000000
  70
    32
  0
VERTEX
  8
01
  5
875E
 10
91.8137
 20
-1546.55
 30
0.000000
  70
    32
  0
VERTEX
  8
01
  5
875F
 10
91.6503
 20
-1546.64
 30
0.000000
  70
    32
  0
VERTEX
  8
01
  5
8760
 10
91.4891
 20
-1546.73
 30
0.000000
  70
    32
  0
VERTEX
  8
01
  5
8761
 10
91.3300
 20
-1546.83
 30
0.000000
  70
    32
  0
VERTEX
  8
01
  5
8762
 10
91.1733
 20
-1546.94
 30
0.000000
  70
    32
  0
VERTEX
  8
01
  5
8763
 10
91.0190
 20
-1547.05
 30
0.000000
  70
    32
  0
VERTEX
  8
01
  5
8764
 10
90.8672
 20
-1547.16
 30
0.000000
  70
    32
  0
VERTEX
  8
01
  5
8765
 10
90.7181
 20
-1547.28
 30
0.000000
  70
    32
  0
VERTEX
  8
01
  5
8766
 10
90.5716
 20
-1547.40
 30
0.000000
  70
    32
  0
VERTEX
  8
01
  5
8767
 10
90.4279
 20
-1547.52
 30
0.000000
  70
    32
  0
VERTEX
  8
01
  5
8768
 10
90.2870
 20
-1547.65
 30
0.000000
  70
    32
  0
VERTEX
  8
01
  5
8769
 10
90.1491
 20
-1547.78
 30
0.000000
  70
    32
  0
VERTEX
  8
01
  5
876A
 10
90.0143
 20
-1547.92
 30
0.000000
  70
    32
  0
VERTEX
  8
01
  5
876B
 10
89.8825
 20
-1548.06
 30
0.000000
  70
    32
  0
VERTEX
  8
01
  5
876C
 10
89.7540
 20
-1548.20
 30
0.000000
  70
    32
  0
VERTEX
  8
01
  5
876D
 10
89.6287
 20
-1548.35
 30
0.000000
  70
    32
  0
VERTEX
  8
01
  5
876E
 10
89.5067
 20
-1548.50
 30
0.000000
  70
    32
  0
VERTEX
  8
01
  5
876F
 10
89.3882
 20
-1548.65
 30
0.000000
  70
    32
  0
VERTEX
  8
01
  5
8770
 10
89.2732
 20
-1548.81
 30
0.000000
  70
    32
  0
VERTEX
  8
01
  5
8771
 10
89.1618
 20
-1548.97
 30
0.000000
  70
    32
  0
VERTEX
  8
01
  5
8772
 10
89.0539
 20
-1549.13
 30
0.000000
  70
    32
  0
VERTEX
  8
01
  5
8773
 10
88.9498
 20
-1549.29
 30
0.000000
  70
    32
  0
VERTEX
  8
01
  5
8774
 10
88.8494
 20
-1549.46
 30
0.000000
  70
    32
  0
VERTEX
  8
01
  5
8775
 10
88.7528
 20
-1549.63
 30
0.000000
  70
    32
  0
VERTEX
  8
01
  5
8776
 10
88.6602
 20
-1549.80
 30
0.000000
  70
    32
  0
VERTEX
  8
01
  5
8777
 10
88.5714
 20
-1549.98
 30
0.000000
  70
    32
  0
VERTEX
  8
01
  5
8778
 10
88.4866
 20
-1550.15
 30
0.000000
  70
    32
  0
VERTEX
  8
01
  5
8779
 10
88.4059
 20
-1550.33
 30
0.000000
  70
    32
  0
VERTEX
  8
01
  5
877A
 10
88.3292
 20
-1550.51
 30
0.000000
  70
    32
  0
VERTEX
  8
01
  5
877B
 10
88.2567
 20
-1550.70
 30
0.000000
  70
    32
  0
VERTEX
  8
01
  5
877C
 10
88.1884
 20
-1550.88
 30
0.000000
  70
    32
  0
VERTEX
  8
01
  5
877D
 10
88.1242
 20
-1551.07
 30
0.000000
  70
    32
  0
VERTEX
  8
01
  5
877E
 10
88.0643
 20
-1551.26
 30
0.000000
  70
    32
  0
VERTEX
  8
01
  5
877F
 10
88.0088
 20
-1551.45
 30
0.000000
  70
    32
  0
VERTEX
  8
01
  5
8780
 10
87.9575
 20
-1551.64
 30
0.000000
  70
    32
  0
VERTEX
  8
01
  5
8781
 10
87.9106
 20
-1551.83
 30
0.000000
  70
    32
  0
VERTEX
  8
01
  5
8782
 10
87.8680
 20
-1552.03
 30
0.000000
  70
    32
  0
VERTEX
  8
01
  5
8783
 10
87.8299
 20
-1552.22
 30
0.000000
  70
    32
  0
VERTEX
  8
01
  5
8784
 10
87.7962
 20
-1552.42
 30
0.000000
  70
    32
  0
VERTEX
  8
01
  5
8785
 10
87.7670
 20
-1552.62
 30
0.000000
  70
    32
  0
VERTEX
  8
01
  5
8786
 10
87.7422
 20
-1552.82
 30
0.000000
  70
    32
  0
VERTEX
  8
01
  5
8787
 10
87.7219
 20
-1553.01
 30
0.000000
  70
    32
  0
VERTEX
  8
01
  5
8788
 10
87.7061
 20
-1553.21
 30
0.000000
  70
    32
  0
VERTEX
  8
01
  5
8789
 10
87.6948
 20
-1553.41
 30
0.000000
  70
    32
  0
VERTEX
  8
01
  5
878A
 10
87.6881
 20
-1553.61
 30
0.000000
  70
    32
  0
VERTEX
  8
01
  5
878B
 10
87.6858
 20
-1553.81
 30
0.000000
  70
    32
  0
SEQEND
  8
01
  5
878C
  0
TEXT
  5
841D
  8
01
 10
96.497127018291295
 20
-1616.2116243769481
 30
0.0
 40
4.0
  1
材質：亜鉛ダイキャスト
 72
     1
 11
122.3637936849579
 21
-1616.2116243769481
 31
0.0
  0
LINE
  5
841E
  8
01
 10
96.685810188531605
 20
-1647.9776519632701
 30
0.0
 11
166.6858101885316
 21
-1647.9776519632701
 31
0.0
  0
TEXT
  5
8420
  8
01
 10
102.619143521865
 20
-1625.4776519632701
 30
0.0
 40
4.0
  1
表面処理：
 72
     1
 11
114.0858101885317
 21
-1625.4776519632701
 31
0.0
  0
TEXT
  5
8421
  8
01
 10
105.019143521865
 20
-1639.3129406227949
 30
0.0
 40
4.0
  1
クローム
 72
     1
 11
114.0858101885317
 21
-1639.3129406227949
 31
0.0
  0
TEXT
  5
8422
  8
01
 10
102.619143521865
 20
-1632.455546983254
 30
0.0
 40
4.0
  1
本金メッキ
 72
     1
 11
114.0858101885317
 21
-1632.455546983254
 31
0.0
  0
LINE
  5
8423
  8
01
 10
96.685810188531605
 20
-1619.9776519632701
 30
0.0
 11
166.6858101885316
 21
-1619.9776519632701
 31
0.0
  0
LINE
  5
8424
  8
01
 10
96.685810188531605
 20
-1633.9776519632701
 30
0.0
 11
166.6858101885316
 21
-1633.9776519632701
 31
0.0
  0
LINE
  5
8425
  8
01
 10
96.685810188531605
 20
-1626.9776519632701
 30
0.0
 11
166.6858101885316
 21
-1626.9776519632701
 31
0.0
  0
LINE
  5
8426
  8
01
 10
96.685810188531605
 20
-1640.9776519632701
 30
0.0
 11
166.6858101885316
 21
-1640.9776519632701
 31
0.0
  0
LINE
  5
8427
  8
01
 10
96.685810188531605
 20
-1640.9776519632701
 30
0.0
 11
166.6858101885316
 21
-1640.9776519632701
 31
0.0
  0
LINE
  5
8428
  8
01
 10
131.6858101885316
 20
-1619.9776519632701
 30
0.0
 11
131.6858101885316
 21
-1647.9776519632701
 31
0.0
  0
TEXT
  5
8429
  8
01
 10
133.4667625694845
 20
-1639.692008946919
 30
0.0
 40
4.0
  1
PK802XCS
 72
     1
 11
149.08581018853209
 21
-1639.692008946919
 31
0.0
  0
TEXT
  5
842B
  8
01
 10
133.4667625694845
 20
-1632.6920089469199
 30
0.0
 40
4.0
  1
PK802XGS
 72
     1
 11
149.08581018853209
 21
-1632.6920089469199
 31
0.0
  0
TEXT
  5
842C
  8
01
 10
142.41914352186501
 20
-1625.4776519632701
 30
0.0
 40
4.0
  1
コード
 72
     1
 11
149.0858101885317
 21
-1625.4776519632701
 31
0.0
  0
TEXT
  5
842E
  8
01
 10
97.819143521865044
 20
-1646.288565574841
 30
0.0
 40
4.0
  1
サテンニッケル
 72
     1
 11
114.0858101885317
 21
-1646.288565574841
 31
0.0
  0
TEXT
  5
842F
  8
01
 10
133.3715244742464
 20
-1646.6920089469199
 30
0.0
 40
4.0
  1
PK802XNS
 72
     1
 11
149.08581018853209
 21
-1646.6920089469199
 31
0.0
  0
LINE
  5
8430
  8
01
 10
96.685810188531605
 20
-1647.9776519632701
 30
0.0
 11
96.685810188531605
 21
-1619.9776519632701
 31
0.0
  0
LINE
  5
8431
  8
01
 10
166.6858101885316
 20
-1647.9776519632701
 30
0.0
 11
166.6858101885316
 21
-1619.9776519632701
 31
0.0
  0
TEXT
  5
8432
  8
01
 10
107.0761755285573
 20
-1436.9776709632699
 30
0.0
 40
7.0
  1
PK802S
 41
1.0098214000000001
  0
LINE
  5
843B
  8
01
 10
152.18581018853141
 20
-1549.9776519632701
 30
0.0
 11
152.18581018853141
 21
-1561.977651963269
 31
0.0
  0
LINE
  5
843C
  8
01
 10
95.185810188531832
 20
-1549.9776519632701
 30
0.0
 11
95.185810188531832
 21
-1561.977651963269
 31
0.0
  0
LINE
  5
843F
  8
01
 10
95.185810188531605
 20
-1482.615578241561
 30
0.0
 11
95.185810188531605
 21
-1476.615578241561
 31
0.0
  0
LINE
  5
8440
  8
01
 10
92.185810188531605
 20
-1479.615578241561
 30
0.0
 11
98.185810188531605
 21
-1479.615578241561
 31
0.0
  0
LINE
  5
86B3
  8
01
 10
95.185810188531832
 20
-1470.9776709632699
 30
0.0
 11
134.6858101885318
 21
-1470.9776709632699
 31
0.0
  0
LINE
  5
86B4
  8
01
 10
95.185810188531832
 20
-1487.9776709632699
 30
0.0
 11
134.6858101885318
 21
-1487.9776709632699
 31
0.0
  0
LINE
  5
86B5
  8
01
 10
133.6858101885318
 20
-1472.9776709632699
 30
0.0
 11
133.6858101885318
 21
-1485.9776709632699
 31
0.0
  0
TEXT
  5
86B9
  8
01
 10
168.48926338588751
 20
-1579.9776519632701
 30
0.0
 40
3.5
  1
M4-10
  0
SOLID
  5
86BA
  8
01
 10
153.04652669236651
 20
-1561.813483712406
 30
0.0
 11
152.18581018853141
 21
-1559.9776519632701
 31
0.0
 12
153.5954063675548
 22
-1561.4350982652629
 32
0.0
 13
153.5954063675548
 23
-1561.4350982652629
 33
0.0
  0
LINE
  5
86BC
  8
01
 10
95.185810188531832
 20
-1545.677651963267
 30
0.0
 11
124.6858101885318
 21
-1545.677651963267
 31
0.0
  0
LINE
  5
86BD
  8
01
 10
103.6858101885318
 20
-1559.9776519632701
 30
0.0
 11
124.6858101885318
 21
-1559.9776519632701
 31
0.0
  0
LINE
  5
86BE
  8
01
 10
123.6858101885318
 20
-1547.677651963267
 30
0.0
 11
123.6858101885318
 21
-1557.9776519632701
 31
0.0
  0
LINE
  5
86C2
  8
01
 10
103.1858101885318
 20
-1539.9776519632701
 30
0.0
 11
134.6858101885318
 21
-1539.9776519632701
 31
0.0
  0
LINE
  5
86C3
  8
01
 10
103.6858101885318
 20
-1559.9776519632701
 30
0.0
 11
134.6858101885318
 21
-1559.9776519632701
 31
0.0
  0
LINE
  5
86C4
  8
01
 10
133.6858101885318
 20
-1541.9776519632701
 30
0.0
 11
133.6858101885318
 21
-1557.9776519632701
 31
0.0
  0
LINE
  5
86C8
  8
01
 10
160.6858101885316
 20
-1559.9776519632701
 30
0.0
 11
160.6858101885316
 21
-1583.7338129748871
 31
0.0
  0
LINE
  5
86C9
  8
01
 10
148.1858101885316
 20
-1559.9776519632701
 30
0.0
 11
148.1858101885316
 21
-1583.7338129748871
 31
0.0
  0
LINE
  5
86CA
  8
01
 10
158.6858101885316
 20
-1582.7338129748871
 30
0.0
 11
150.1858101885316
 21
-1582.7338129748871
 31
0.0
  0
TEXT
  5
86CE
  8
01
 10
148.3524768551982
 20
-1582.033812974887
 30
0.0
 40
3.5
  1
12.5
  0
LINE
  5
86CF
  8
01
  6
BYBLOCK
 10
150.1858101885316
 20
-1583.269711354887
 30
0.0
 11
148.1858101885316
 21
-1582.7338129748871
 31
0.0
  0
LINE
  5
86D0
  8
01
  6
BYBLOCK
 10
148.1858101885316
 20
-1582.7338129748871
 30
0.0
 11
150.1858101885316
 21
-1582.1979145948869
 31
0.0
  0
LINE
  5
86D1
  8
01
  6
BYBLOCK
 10
148.1858101885316
 20
-1582.7338129748871
 30
0.0
 11
150.1858101885316
 21
-1582.7338129748871
 31
0.0
  0
LINE
  5
86D2
  8
01
  6
BYBLOCK
 10
158.6858101885316
 20
-1582.1979145948869
 30
0.0
 11
160.6858101885316
 21
-1582.7338129748871
 31
0.0
  0
LINE
  5
86D3
  8
01
  6
BYBLOCK
 10
160.6858101885316
 20
-1582.7338129748871
 30
0.0
 11
158.6858101885316
 21
-1583.269711354887
 31
0.0
  0
LINE
  5
86D4
  8
01
  6
BYBLOCK
 10
160.6858101885316
 20
-1582.7338129748871
 30
0.0
 11
158.6858101885316
 21
-1582.7338129748871
 31
0.0
  0
TEXT
  5
86D5
  8
01
 10
132.9858101885321
 20
-1553.3109852966029
 30
0.0
 40
3.5
  1
20
 50
90.0
  0
LINE
  5
86D6
  8
01
  6
BYBLOCK
 10
134.2217085685318
 20
-1557.9776519632701
 30
0.0
 11
133.6858101885318
 21
-1559.9776519632701
 31
0.0
  0
LINE
  5
86D7
  8
01
  6
BYBLOCK
 10
133.6858101885318
 20
-1559.9776519632701
 30
0.0
 11
133.14991180853181
 21
-1557.9776519632701
 31
0.0
  0
LINE
  5
86D8
  8
01
  6
BYBLOCK
 10
133.6858101885318
 20
-1559.9776519632701
 30
0.0
 11
133.6858101885318
 21
-1557.9776519632701
 31
0.0
  0
LINE
  5
86D9
  8
01
  6
BYBLOCK
 10
133.14991180853181
 20
-1541.9776519632701
 30
0.0
 11
133.6858101885318
 21
-1539.9776519632701
 31
0.0
  0
LINE
  5
86DA
  8
01
  6
BYBLOCK
 10
133.6858101885318
 20
-1539.9776519632701
 30
0.0
 11
134.2217085685318
 21
-1541.9776519632701
 31
0.0
  0
LINE
  5
86DB
  8
01
  6
BYBLOCK
 10
133.6858101885318
 20
-1539.9776519632701
 30
0.0
 11
133.6858101885318
 21
-1541.9776519632701
 31
0.0
  0
TEXT
  5
86DC
  8
01
 10
122.985810188532
 20
-1556.4943186299349
 30
0.0
 40
3.5
  1
14
 50
90.0
  0
LINE
  5
86DD
  8
01
  6
BYBLOCK
 10
124.2217085685318
 20
-1557.9776519632701
 30
0.0
 11
123.6858101885318
 21
-1559.9776519632701
 31
0.0
  0
LINE
  5
86DE
  8
01
  6
BYBLOCK
 10
123.6858101885318
 20
-1559.9776519632701
 30
0.0
 11
123.1499118085318
 21
-1557.9776519632701
 31
0.0
  0
LINE
  5
86DF
  8
01
  6
BYBLOCK
 10
123.6858101885318
 20
-1559.9776519632701
 30
0.0
 11
123.6858101885318
 21
-1557.9776519632701
 31
0.0
  0
LINE
  5
86E0
  8
01
  6
BYBLOCK
 10
123.1499118085318
 20
-1547.677651963267
 30
0.0
 11
123.6858101885318
 21
-1545.677651963267
 31
0.0
  0
LINE
  5
86E1
  8
01
  6
BYBLOCK
 10
123.6858101885318
 20
-1545.677651963267
 30
0.0
 11
124.2217085685318
 21
-1547.677651963267
 31
0.0
  0
LINE
  5
86E2
  8
01
  6
BYBLOCK
 10
123.6858101885318
 20
-1545.677651963267
 30
0.0
 11
123.6858101885318
 21
-1547.677651963267
 31
0.0
  0
LINE
  5
86E3
  8
01
 10
153.32096652996071
 20
-1561.6242909888349
 30
0.0
 11
166.45593005255429
 21
-1580.677651963269
 31
0.0
  0
LINE
  5
86E4
  8
01
 10
166.45593005255429
 20
-1580.677651963269
 30
0.0
 11
186.322596719221
 21
-1580.677651963269
 31
0.0
  0
TEXT
  5
86E5
  8
01
 10
132.9858101885321
 20
-1485.011004296603
 30
0.0
 40
3.5
  1
φ17
 50
90.0
  0
LINE
  5
86E6
  8
01
  6
BYBLOCK
 10
134.2217085685318
 20
-1485.9776709632699
 30
0.0
 11
133.6858101885318
 21
-1487.9776709632699
 31
0.0
  0
LINE
  5
86E7
  8
01
  6
BYBLOCK
 10
133.6858101885318
 20
-1487.9776709632699
 30
0.0
 11
133.14991180853181
 21
-1485.9776709632699
 31
0.0
  0
LINE
  5
86E8
  8
01
  6
BYBLOCK
 10
133.6858101885318
 20
-1487.9776709632699
 30
0.0
 11
133.6858101885318
 21
-1485.9776709632699
 31
0.0
  0
LINE
  5
86E9
  8
01
  6
BYBLOCK
 10
133.14991180853181
 20
-1472.9776709632699
 30
0.0
 11
133.6858101885318
 21
-1470.9776709632699
 31
0.0
  0
LINE
  5
86EA
  8
01
  6
BYBLOCK
 10
133.6858101885318
 20
-1470.9776709632699
 30
0.0
 11
134.2217085685318
 21
-1472.9776709632699
 31
0.0
  0
LINE
  5
86EB
  8
01
  6
BYBLOCK
 10
133.6858101885318
 20
-1470.9776709632699
 30
0.0
 11
133.6858101885318
 21
-1472.9776709632699
 31
0.0
  0
VIEWPORT
  5
57
 67
     1
  8
0
 10
-7.9953093128029868
 20
18.53760359086229
 30
0.0
 40
423.17979144157061
 41
299.626405904612
 68
     1
 69
     1
1001
ACAD
1000
MVIEW
1002
{
1070
    16
1010
0.0
1020
0.0
1030
0.0
1010
0.0
1020
0.0
1030
1.0
1040
0.0
1040
299.626405904612
1040
-7.9953093128029868
1040
18.53760359086229
1040
50.0
1040
0.0
1040
0.0
1070
     0
1070
   100
1070
     1
1070
     1
1070
     0
1070
     0
1070
     0
1070
     0
1040
0.0
1040
0.0
1040
0.0
1040
10.0
1040
10.0
1040
10.0
1040
10.0
1070
     0
1002
{
1002
}
1002
}
  0
ENDSEC
  0
EOF
