  0
SECTION
  2
HEADER
  9
$ACADVER
  1
AC1009
  9
$INSBASE
 10
0.0
 20
0.0
 30
0.0
  9
$EXTMIN
 10
-2577.3143707615309
 20
296.5978772207506
 30
0.0
  9
$EXTMAX
 10
-2309.31437076153
 20
471.15361806324501
 30
0.0
  9
$LIMMIN
 10
0.0
 20
0.0
  9
$LIMMAX
 10
420.0
 20
297.0
  9
$ORTHOMODE
 70
     0
  9
$REGENMODE
 70
     1
  9
$FILLMODE
 70
     1
  9
$QTEXTMODE
 70
     0
  9
$MIRRTEXT
 70
     1
  9
$DRAGMODE
 70
     2
  9
$LTSCALE
 40
0.5
  9
$OSMODE
 70
  2175
  9
$ATTMODE
 70
     1
  9
$TEXTSIZE
 40
4.0
  9
$TRACEWID
 40
1.0
  9
$TEXTSTYLE
  7
STANDARD
  9
$CLAYER
  8
1TEXT
  9
$CELTYPE
  6
BYLAYER
  9
$CECOLOR
 62
   256
  9
$DIMSCALE
 40
1.0
  9
$DIMASZ
 40
2.0
  9
$DIMEXO
 40
0.0
  9
$DIMDLI
 40
7.0
  9
$DIMRND
 40
0.0
  9
$DIMDLE
 40
0.0
  9
$DIMEXE
 40
1.0
  9
$DIMTP
 40
0.0
  9
$DIMTM
 40
0.0
  9
$DIMTXT
 40
3.5
  9
$DIMCEN
 40
0.0
  9
$DIMTSZ
 40
0.0
  9
$DIMTOL
 70
     0
  9
$DIMLIM
 70
     0
  9
$DIMTIH
 70
     0
  9
$DIMTOH
 70
     0
  9
$DIMSE1
 70
     0
  9
$DIMSE2
 70
     0
  9
$DIMTAD
 70
     1
  9
$DIMZIN
 70
     8
  9
$DIMBLK
  1

  9
$DIMASO
 70
     1
  9
$DIMSHO
 70
     1
  9
$DIMPOST
  1
 
  9
$DIMAPOST
  1

  9
$DIMALT
 70
     0
  9
$DIMALTD
 70
     2
  9
$DIMALTF
 40
25.399999999999999
  9
$DIMLFAC
 40
1.0
  9
$DIMTOFL
 70
     1
  9
$DIMTVP
 40
0.0
  9
$DIMTIX
 70
     0
  9
$DIMSOXD
 70
     0
  9
$DIMSAH
 70
     1
  9
$DIMBLK1
  1
OPEN30
  9
$DIMBLK2
  1
OPEN30
  9
$DIMSTYLE
  2
NEWX10
  9
$DIMCLRD
 70
   256
  9
$DIMCLRE
 70
   256
  9
$DIMCLRT
 70
   201
  9
$DIMTFAC
 40
0.7
  9
$DIMGAP
 40
0.7
  9
$LUNITS
 70
     2
  9
$LUPREC
 70
     4
  9
$SKETCHINC
 40
1.0
  9
$FILLETRAD
 40
4.0
  9
$AUNITS
 70
     0
  9
$AUPREC
 70
     2
  9
$MENU
  1
acad
  9
$ELEVATION
 40
0.0
  9
$PELEVATION
 40
0.0
  9
$THICKNESS
 40
0.0
  9
$LIMCHECK
 70
     0
  9
$BLIPMODE
 70
     0
  9
$CHAMFERA
 40
10.0
  9
$CHAMFERB
 40
10.0
  9
$SKPOLY
 70
     0
  9
$TDCREATE
 40
2453033.7326634838
  9
$TDUPDATE
 40
2454994.46417588
  9
$TDINDWG
 40
0.8543847454
  9
$TDUSRTIMER
 40
0.8543847454
  9
$USRTIMER
 70
     1
  9
$ANGBASE
 50
0.0
  9
$ANGDIR
 70
     0
  9
$PDMODE
 70
     0
  9
$PDSIZE
 40
0.0
  9
$PLINEWID
 40
0.0
  9
$COORDS
 70
     2
  9
$SPLFRAME
 70
     0
  9
$SPLINETYPE
 70
     6
  9
$SPLINESEGS
 70
     8
  9
$ATTDIA
 70
     0
  9
$ATTREQ
 70
     1
  9
$HANDLING
 70
     1
  9
$HANDSEED
  5
19CDC
  9
$SURFTAB1
 70
     6
  9
$SURFTAB2
 70
     6
  9
$SURFTYPE
 70
     6
  9
$SURFU
 70
     6
  9
$SURFV
 70
     6
  9
$UCSNAME
  2

  9
$UCSORG
 10
0.0
 20
0.0
 30
0.0
  9
$UCSXDIR
 10
1.0
 20
0.0
 30
0.0
  9
$UCSYDIR
 10
0.0
 20
1.0
 30
0.0
  9
$PUCSNAME
  2

  9
$PUCSORG
 10
0.0
 20
0.0
 30
0.0
  9
$PUCSXDIR
 10
1.0
 20
0.0
 30
0.0
  9
$PUCSYDIR
 10
0.0
 20
1.0
 30
0.0
  9
$USERI1
 70
     0
  9
$USERI2
 70
     0
  9
$USERI3
 70
     0
  9
$USERI4
 70
     0
  9
$USERI5
 70
     0
  9
$USERR1
 40
0.0
  9
$USERR2
 40
0.0
  9
$USERR3
 40
0.0
  9
$USERR4
 40
0.0
  9
$USERR5
 40
0.0
  9
$WORLDVIEW
 70
     1
  9
$SHADEDGE
 70
     3
  9
$SHADEDIF
 70
    70
  9
$TILEMODE
 70
     1
  9
$MAXACTVP
 70
    48
  9
$PLIMCHECK
 70
     0
  9
$PEXTMIN
 10
1.0000000000000000E+020
 20
1.0000000000000000E+020
 30
1.0000000000000000E+020
  9
$PEXTMAX
 10
-1.0000000000000000E+020
 20
-1.0000000000000000E+020
 30
-1.0000000000000000E+020
  9
$PLIMMIN
 10
0.0
 20
0.0
  9
$PLIMMAX
 10
420.0
 20
297.0
  9
$UNITMODE
 70
     0
  9
$VISRETAIN
 70
     1
  9
$PLINEGEN
 70
     0
  9
$PSLTSCALE
 70
     1
  0
ENDSEC
  0
SECTION
  2
TABLES
  0
TABLE
  2
VPORT
 70
     1
  0
VPORT
  2
*ACTIVE
 70
     0
 10
0.0
 20
0.0
 11
1.0
 21
1.0
 12
-2443.2868116069048
 22
383.87272791293969
 13
0.0
 23
0.0
 14
10.0
 24
10.0
 15
10.0
 25
10.0
 16
0.0
 26
0.0
 36
1.0
 17
0.0
 27
0.0
 37
0.0
 40
200.9876578195491
 41
1.4123581336696089
 42
50.0
 43
0.0
 44
0.0
 50
0.0
 51
0.0
 71
     0
 72
   100
 73
     1
 74
     1
 75
     0
 76
     0
 77
     0
 78
     0
  0
ENDTAB
  0
TABLE
  2
LTYPE
 70
    14
  0
LTYPE
  2
CONTINUOUS
 70
     0
  3
Solid line
 72
    65
 73
     0
 40
0.0
  0
LTYPE
  2
CENTER2
 70
     0
  3
Center (.5x) ___ _ ___ _ ___ _ ___ _ ___ _ ___
 72
    65
 73
     4
 40
28.574999999999999
 49
19.050000000000001
 49
-3.1749999999999989
 49
3.1749999999999989
 49
-3.1749999999999989
  0
LTYPE
  2
XREF1|CENTER2
 70
    48
  3
Center (.5x) ___ _ ___ _ ___ _ ___ _ ___ _ ___
 72
    65
 73
     4
 40
28.574999999999999
 49
19.050000000000001
 49
-3.1749999999999989
 49
3.1749999999999989
 49
-3.1749999999999989
  0
LTYPE
  2
HIDDEN
 70
     0
  3
Hidden __ __ __ __ __ __ __ __ __ __ __ __ __ _
 72
    65
 73
     2
 40
9.5249999999999986
 49
6.3499999999999988
 49
-3.1749999999999989
  0
LTYPE
  2
A3WAKUDAKE|CENTER2
 70
    48
  3
Center (.5x) ___ _ ___ _ ___ _ ___ _ ___ _ ___
 72
    65
 73
     4
 40
28.574999999999999
 49
19.050000000000001
 49
-3.1749999999999989
 49
3.1749999999999989
 49
-3.1749999999999989
  0
ENDTAB
  0
TABLE
  2
LAYER
 70
    53
  0
LAYER
  2
0
 70
     0
 62
     7
  6
CONTINUOUS
  0
LAYER
  2
1CENTER
 70
     0
 62
     7
  6
CENTER2
  0
LAYER
  2
1TEXT
 70
     0
 62
     7
  6
CONTINUOUS
  0
LAYER
  2
1DIM
 70
     0
 62
     7
  6
CONTINUOUS
  0
LAYER
  2
1HIDDEN
 70
     0
 62
     7
  6
HIDDEN
  0
LAYER
  2
01
 70
     0
 62
     1
  6
CONTINUOUS
  0
LAYER
  2
XREF1|1CENTER
 70
    48
 62
     7
  6
XREF1|CENTER2
  0
LAYER
  2
A3WAKUDAKE|THICK
 70
    48
 62
     7
  6
CONTINUOUS
  0
LAYER
  2
A3WAKUDAKE|POINT
 70
    48
 62
     7
  6
CONTINUOUS
  0
LAYER
  2
A3WAKUDAKE|1CENTER
 70
    48
 62
     7
  6
A3WAKUDAKE|CENTER2
  0
LAYER
  2
A3WAKUDAKE|0-6
 70
    48
 62
     7
  6
CONTINUOUS
  0
LAYER
  2
A3WAKUDAKE|1DIM
 70
    48
 62
     7
  6
CONTINUOUS
  0
ENDTAB
  0
TABLE
  2
STYLE
 70
    23
  0
STYLE
  2
STANDARD
 70
     0
 40
0.0
 41
1.0
 50
0.0
 71
     0
 42
4.0
  3
txt.shx
  4
extfont.shx
  0
ENDTAB
  0
TABLE
  2
VIEW
 70
     0
  0
ENDTAB
  0
TABLE
  2
UCS
 70
     0
  0
ENDTAB
  0
TABLE
  2
APPID
 70
    13
  0
APPID
  2
ACAD
 70
     0
  0
APPID
  2
DRAWINGVARIABLESXDATA
 70
     0
  0
APPID
  2
CONTENTTABDATA
 70
     0
  0
APPID
  2
CONTENTCURRENTTAB
 70
     0
  0
APPID
  2
CONTENTBLOCKDESCRIPTION
 70
     0
  0
APPID
  2
CONTENTBLOCKICON
 70
     0
  0
APPID
  2
CONTENTLONGBLOCKNAME
 70
     0
  0
APPID
  2
ACAD_PSEXT
 70
     0
  0
APPID
  2
ACAD_DSTYLE_DIMTEXT_FILL
 70
     0
  0
APPID
  2
ACAD_DIMASSOC_CALC_DIMLFAC
 70
     0
  0
APPID
  2
ACAD_DIMASSOC_DIMLFAC
 70
     0
  0
APPID
  2
ACAD_DIMASSOC_OVERRIDDEN_D
 70
     0
  0
APPID
  2
ACAD_MLEADERVER
 70
     0
  0
ENDTAB
  0
TABLE
  2
DIMSTYLE
 70
     9
  0
DIMSTYLE
  2
NEWX10
 70
     0
  3
 
  4

  5

  6
OPEN30
  7
OPEN30
 40
1.0
 41
2.0
 42
0.0
 43
7.0
 44
1.0
 45
0.0
 46
0.0
 47
0.0
 48
0.0
140
3.5
141
0.0
142
0.0
143
25.399999999999999
144
1.0
145
0.0
146
0.7
147
0.7
 71
     0
 72
     0
 73
     0
 74
     0
 75
     0
 76
     0
 77
     1
 78
     8
170
     0
171
     2
172
     1
173
     1
174
     0
175
     0
176
   256
177
   256
178
   201
  0
ENDTAB
  0
ENDSEC
  0
SECTION
  2
BLOCKS
  0
BLOCK
  8
0
  2
$MODEL_SPACE
 70
     0
 10
0.0
 20
0.0
 30
0.0
  3
$MODEL_SPACE
  1

  0
ENDBLK
  5
1A
  8
0
  0
BLOCK
 67
     1
  8
0
  2
$PAPER_SPACE
 70
     0
 10
0.0
 20
0.0
 30
0.0
  3
$PAPER_SPACE
  1

  0
ENDBLK
  5
17
 67
     1
  8
0
  0
BLOCK
  8
0
  2
_OPEN30
 70
     0
 10
0.0
 20
0.0
 30
0.0
  3
_OPEN30
  1

  0
LINE
  5
44
  8
0
  6
BYBLOCK
 62
     0
 10
-1.0
 20
0.26794919
 30
0.0
 11
0.0
 21
0.0
 31
0.0
  0
LINE
  5
45
  8
0
  6
BYBLOCK
 62
     0
 10
0.0
 20
0.0
 30
0.0
 11
-1.0
 21
-0.26794919
 31
0.0
  0
LINE
  5
46
  8
0
  6
BYBLOCK
 62
     0
 10
0.0
 20
0.0
 30
0.0
 11
-1.0
 21
0.0
 31
0.0
  0
ENDBLK
  5
47
  8
0
  0
BLOCK
  8
0
  2
XREF1
 70
    36
 10
0.0
 20
0.0
 30
0.0
  3
XREF1
  1
D:\ACLT\FORMAT\KAWAJUN(9)É}û╩ùp.dwg
  0
ENDBLK
  5
5D
  8
0
  0
BLOCK
  8
0
  2
A3WAKUDAKE
 70
    36
 10
0.0
 20
0.0
 30
0.0
  3
A3WAKUDAKE
  1
D:\ACLT\FORMAT\A3WAKUdake.dwg
  0
ENDBLK
  5
6DC
  8
0
  0
BLOCK
  8
0
  2
*U120
 70
     1
 10
0.0
 20
0.0
 30
0.0
  3
*U120
  1

  0
TEXT
  5
19AEC
  8
0
 62
   201
 10
-63.717024855154051
 20
-3.8109119089904788
 30
0.0
 40
3.5
  1
âË5
 50
48.83031736650419
  0
ENDBLK
  5
19AEE
  8
0
  0
BLOCK
  8
0
  2
*U121
 70
     1
 10
0.0
 20
0.0
 30
0.0
  3
*U121
  1

  0
TEXT
  5
19AF0
  8
1TEXT
 62
   201
 10
21.614708555164611
 20
22.401236958861659
 30
0.0
 40
2.0
  1
ô±òÂÄÜ
  0
TEXT
  5
19AF1
  8
1TEXT
 62
   201
 10
21.614708555164611
 20
19.067903625528331
 30
0.0
 40
2.0
  1
(ò╩ôrÄwÆÞ)
  0
TEXT
  5
19AF2
  8
1TEXT
 62
   201
 10
21.614708555164611
 20
15.73457029219499
 30
0.0
 40
2.0
  1
ôVÆn û±1.8
  0
TEXT
  5
19AF3
  8
1TEXT
 62
   201
 10
21.614708555164611
 20
12.401236958861659
 30
0.0
 40
2.0
  1
ô╩0.2
  0
ENDBLK
  5
19AF5
  8
0
  0
BLOCK
  8
0
  2
*U122
 70
     1
 10
0.0
 20
0.0
 30
0.0
  3
*U122
  1

  0
SOLID
  5
19AF7
  8
1DIM
 10
17.769912945885331
 20
22.805130681268722
 30
0.0
 11
17.678379796037799
 21
23.814783819854821
 31
0.0
 12
18.0924202800296
 22
22.889392953575271
 32
0.0
 13
18.0924202800296
 23
22.889392953575271
 33
0.0
  0
POLYLINE
  5
19AF8
  8
1DIM
 66
     1
 10
0.0
 20
0.0
 30
0.0
  0
VERTEX
  5
19AF9
  8
1DIM
 10
17.931166612957469
 20
22.847261817422002
 30
0.0
  0
VERTEX
  5
19AFA
  8
1DIM
 10
20.91703607932029
 20
11.41907722970881
 30
0.0
  0
VERTEX
  5
19AFB
  8
1DIM
 10
35.143226555510758
 20
11.41907722970881
 30
0.0
  0
SEQEND
  5
19AFC
  8
1DIM
  0
ENDBLK
  5
19AFE
  8
0
  0
BLOCK
  8
0
  2
*U123
 70
     1
 10
0.0
 20
0.0
 30
0.0
  3
*U123
  1

  0
TEXT
  5
19B00
  8
1DIM
 62
   201
 10
8.9421530727463576
 20
19.285028579396069
 30
0.0
 40
2.0
  1
ÿg
  0
TEXT
  5
19B01
  8
1DIM
 62
   201
 10
7.0754864060796896
 20
15.951695246062741
 30
0.0
 40
2.0
  1
âË5
  0
TEXT
  5
19B02
  8
1DIM
 62
   201
 10
4.7421530727463583
 20
12.61836191272941
 30
0.0
 40
2.0
  1
ëÜ0.3
  0
ENDBLK
  5
19B04
  8
0
  0
BLOCK
  8
0
  2
*U124
 70
     1
 10
0.0
 20
0.0
 30
0.0
  3
*U124
  1

  0
SOLID
  5
19B06
  8
1DIM
 10
14.77538895849114
 20
20.894651819020488
 30
0.0
 11
15.75963814806016
 21
22.667323431007279
 31
0.0
 12
15.403512140193291
 22
20.67125595278117
 32
0.0
 13
15.403512140193291
 23
20.67125595278117
 33
0.0
  0
POLYLINE
  5
19B07
  8
1DIM
 66
     1
 10
0.0
 20
0.0
 30
0.0
  0
VERTEX
  5
19B08
  8
1DIM
 10
15.089450549342221
 20
20.782953885900831
 30
0.0
  0
VERTEX
  5
19B09
  8
1DIM
 10
11.821762131327951
 20
11.59517937383526
 30
0.0
  0
VERTEX
  5
19B0A
  8
1DIM
 10
2.3789049884708091
 20
11.59517937383526
 30
0.0
  0
SEQEND
  5
19B0B
  8
1DIM
  0
ENDBLK
  5
19B0D
  8
0
  0
BLOCK
  8
0
  2
*U125
 70
     1
 10
0.0
 20
0.0
 30
0.0
  3
*U125
  1

  0
TEXT
  5
19B10
  8
1TEXT
 10
14.9745471932972
 20
24.09947430071913
 30
0.0
 40
1.8
  1
XY
  0
ENDBLK
  5
19B12
  8
0
  0
BLOCK
  8
0
  2
*U126
 70
     1
 10
0.0
 20
0.0
 30
0.0
  3
*U126
  1

  0
LINE
  5
19B17
  8
0
 10
-9.6499999999999773
 20
2.0
 30
0.0
 11
-10.0
 21
1.649999999999977
 31
0.0
  0
LINE
  5
19B18
  8
0
 10
-10.0
 20
1.649999999999977
 30
0.0
 11
-10.0
 21
-1.649999999999977
 31
0.0
  0
LINE
  5
19B19
  8
0
 10
-9.6499999999999773
 20
2.0
 30
0.0
 11
-0.3500000000000227
 21
2.0
 31
0.0
  0
LINE
  5
19B1A
  8
0
 10
-10.0
 20
-1.649999999999977
 30
0.0
 11
-9.6499999999999773
 21
-2.0
 31
0.0
  0
LINE
  5
19B1B
  8
0
 10
-0.3500000000000227
 20
2.0
 30
0.0
 11
0.0
 21
1.649999999999977
 31
0.0
  0
LINE
  5
19B1C
  8
0
 10
-9.6499999999999773
 20
-2.0
 30
0.0
 11
-0.3500000000000227
 21
-2.0
 31
0.0
  0
LINE
  5
19B1D
  8
0
 10
0.0
 20
1.649999999999977
 30
0.0
 11
0.0
 21
-1.6499999999998629
 31
0.0
  0
LINE
  5
19B1E
  8
0
 10
0.0
 20
-1.6499999999998629
 30
0.0
 11
-0.3500000000000227
 21
-2.0
 31
0.0
  0
ENDBLK
  5
19B20
  8
0
  0
BLOCK
  8
0
  2
*U127
 70
     1
 10
0.0
 20
0.0
 30
0.0
  3
*U127
  1

  0
TEXT
  5
19B22
  8
1DIM
 62
   201
 10
2243.8065173259688
 20
-4621.9747620379721
 30
0.0
 40
3.5
  1
10
 50
90.0
  0
ENDBLK
  5
19B24
  8
0
  0
BLOCK
  8
0
  2
*U128
 70
     1
 10
0.0
 20
0.0
 30
0.0
  3
*U128
  1

  0
TEXT
  5
19B26
  8
1DIM
 62
   201
 10
2261.0518596868319
 20
-4627.53685371754
 30
0.0
 40
2.0
  1
90üï
 50
88.233180061219059
  0
ENDBLK
  5
19B28
  8
0
  0
BLOCK
  8
0
  2
*U129
 70
     1
 10
0.0
 20
0.0
 30
0.0
  3
*U129
  1

  0
TEXT
  5
19B2A
  8
1DIM
 62
   201
 10
2255.678928417462
 20
-4613.1589059087783
 30
0.0
 40
2.0
  1
âË7.6
 50
90.0
  0
ENDBLK
  5
19B2C
  8
0
  0
BLOCK
  8
0
  2
*U130
 70
     1
 10
0.0
 20
0.0
 30
0.0
  3
*U130
  1

  0
TEXT
  5
19B2E
  8
1TEXT
 62
   201
 10
2236.635264048401
 20
-4640.0714392351283
 30
0.0
 40
3.5
  1
0.5
  0
ENDBLK
  5
19B30
  8
0
  0
BLOCK
  8
0
  2
*U131
 70
     1
 10
0.0
 20
0.0
 30
0.0
  3
*U131
  1

  0
TEXT
  5
19B32
  8
1TEXT
 62
   201
 10
2233.2694915066568
 20
-4642.0497092644137
 30
0.0
 40
3.5
  1
âË5.6
 50
90.0
  0
ENDBLK
  5
19B34
  8
0
  0
BLOCK
  8
0
  2
*X132
 70
     1
 10
0.0
 20
0.0
 30
0.0
  3
*X132
  1

  0
LINE
  5
19B36
  8
0
 62
     0
 10
36.458164166693003
 20
7.5332805722630383
 30
0.0
 11
36.999999567127588
 21
8.0751159726978585
 31
0.0
  0
LINE
  5
19B37
  8
0
 62
     0
 10
35.499999567127141
 20
7.6976479878305781
 30
0.0
 11
36.999999567127823
 21
9.1976479878314876
 31
0.0
  0
LINE
  5
19B38
  8
0
 62
     0
 10
35.499999567126913
 20
8.8201800029644346
 30
0.0
 11
36.999999567127823
 21
10.320180002965341
 31
0.0
  0
LINE
  5
19B39
  8
0
 62
     0
 10
35.499999567127141
 20
9.9427120180980637
 30
0.0
 11
36.999999567127823
 21
11.442712018098741
 31
0.0
  0
LINE
  5
19B3A
  8
0
 62
     0
 10
35.499999567127141
 20
11.06524403323192
 30
0.0
 11
36.999999567127823
 21
12.565244033232601
 31
0.0
  0
LINE
  5
19B3B
  8
0
 62
     0
 10
35.499999567127588
 20
12.18777604836577
 30
0.0
 11
36.99999956712805
 21
13.68777604836623
 31
0.0
  0
LINE
  5
19B3C
  8
0
 62
     0
 10
35.499999567127141
 20
13.31030806349918
 30
0.0
 11
36.21154098106399
 21
14.02184947743603
 31
0.0
  0
LINE
  5
19B3D
  8
0
 62
     0
 10
35.499999567127823
 20
14.43284007863371
 30
0.0
 11
35.650249602288568
 21
14.58309011379424
 31
0.0
  0
LINE
  5
19B3E
  8
0
 62
     0
 10
36.787779985089401
 20
21.33328057226322
 30
0.0
 11
36.999999567127361
 21
21.54550015430118
 31
0.0
  0
LINE
  5
19B3F
  8
0
 62
     0
 10
35.499999567127141
 20
21.168032169434809
 30
0.0
 11
36.999999567127361
 21
22.66803216943504
 31
0.0
  0
LINE
  5
19B40
  8
0
 62
     0
 10
35.499999567127141
 20
22.290564184568211
 30
0.0
 11
36.999999567127361
 21
23.790564184568439
 31
0.0
  0
LINE
  5
19B41
  8
0
 62
     0
 10
35.499999567127141
 20
23.413096199702071
 30
0.0
 11
36.999999567127588
 21
24.913096199702519
 31
0.0
  0
LINE
  5
19B42
  8
0
 62
     0
 10
35.499999567127823
 20
24.535628214836152
 30
0.0
 11
36.999999567127823
 21
26.035628214836152
 31
0.0
  0
LINE
  5
19B43
  8
0
 62
     0
 10
35.499999567127361
 20
25.65816022996955
 30
0.0
 11
36.996323604997542
 21
27.154484267839742
 31
0.0
  0
LINE
  5
19B44
  8
0
 62
     0
 10
35.499999567127361
 20
26.780692245102951
 30
0.0
 11
36.73952617693795
 21
28.02021885491331
 31
0.0
  0
LINE
  5
19B45
  8
0
 62
     0
 10
35.130055879153822
 20
27.533280572263038
 30
0.0
 11
36.217092420981537
 21
28.620317114091002
 31
0.0
  0
LINE
  5
19B46
  8
0
 62
     0
 10
34.007523864020193
 20
27.533280572263038
 30
0.0
 11
35.455064786787943
 21
28.980821495030799
 31
0.0
  0
LINE
  5
19B47
  8
0
 62
     0
 10
32.88499184888633
 20
27.533280572263038
 30
0.0
 11
34.38499184888633
 21
29.033280572263038
 31
0.0
  0
LINE
  5
19B48
  8
0
 62
     0
 10
31.7624598337527
 20
27.533280572263038
 30
0.0
 11
33.262459833752928
 21
29.0332805722635
 31
0.0
  0
LINE
  5
19B49
  8
0
 62
     0
 10
30.639927818619299
 20
27.533280572263038
 30
0.0
 11
32.139927818619071
 21
29.033280572263038
 31
0.0
  0
LINE
  5
19B4A
  8
0
 62
     0
 10
29.517395803485218
 20
27.533280572263038
 30
0.0
 11
31.017395803485211
 21
29.033280572263038
 31
0.0
  0
LINE
  5
19B4B
  8
0
 62
     0
 10
28.39486378835181
 20
27.533280572263038
 30
0.0
 11
29.89486378835181
 21
29.033280572263038
 31
0.0
  0
LINE
  5
19B4C
  8
0
 62
     0
 10
27.272331773218191
 20
27.533280572263038
 30
0.0
 11
28.772331773218411
 21
29.0332805722635
 31
0.0
  0
LINE
  5
19B4D
  8
0
 62
     0
 10
26.149799758084558
 20
27.533280572263038
 30
0.0
 11
27.649799758084558
 21
29.033280572263038
 31
0.0
  0
LINE
  5
19B4E
  8
0
 62
     0
 10
25.027267742950698
 20
27.533280572263038
 30
0.0
 11
26.527267742950698
 21
29.033280572263038
 31
0.0
  0
LINE
  5
19B4F
  8
0
 62
     0
 10
23.904735727817069
 20
27.533280572262591
 30
0.0
 11
25.4047357278173
 21
29.033280572263038
 31
0.0
  0
LINE
  5
19B50
  8
0
 62
     0
 10
22.782203712683671
 20
27.533280572263038
 30
0.0
 11
24.282203712683899
 21
29.0332805722635
 31
0.0
  0
LINE
  5
19B51
  8
0
 62
     0
 10
21.659671697550039
 20
27.533280572263038
 30
0.0
 11
23.159671697550039
 21
29.033280572263038
 31
0.0
  0
LINE
  5
19B52
  8
0
 62
     0
 10
20.537139682416178
 20
27.533280572263038
 30
0.0
 11
22.037139682416178
 21
29.033280572263038
 31
0.0
  0
LINE
  5
19B53
  8
0
 62
     0
 10
19.414607667282549
 20
27.533280572262591
 30
0.0
 11
20.91460766728278
 21
29.033280572263038
 31
0.0
  0
LINE
  5
19B54
  8
0
 62
     0
 10
18.292075652149151
 20
27.533280572263038
 30
0.0
 11
19.792075652149379
 21
29.0332805722635
 31
0.0
  0
LINE
  5
19B55
  8
0
 62
     0
 10
17.169543637015519
 20
27.533280572263038
 30
0.0
 11
18.669543637015519
 21
29.033280572263038
 31
0.0
  0
LINE
  5
19B56
  8
0
 62
     0
 10
16.047011621881438
 20
27.533280572262811
 30
0.0
 11
17.547011621881659
 21
29.033280572263038
 31
0.0
  0
LINE
  5
19B57
  8
0
 62
     0
 10
14.92447960674804
 20
27.533280572263038
 30
0.0
 11
16.42447960674826
 21
29.0332805722635
 31
0.0
  0
LINE
  5
19B58
  8
0
 62
     0
 10
1.424479606748946
 20
14.03328057226417
 30
0.0
 11
1.49999956712827
 21
14.1088005326435
 31
0.0
  0
LINE
  5
19B59
  8
0
 62
     0
 10
13.8019475916144
 20
27.533280572263038
 30
0.0
 11
15.30194759161486
 21
29.0332805722635
 31
0.0
  0
LINE
  5
19B5A
  8
0
 62
     0
 10
0.3019475916146348
 20
14.03328057226304
 30
0.0
 11
1.499999567128725
 21
15.231332547777351
 31
0.0
  0
LINE
  5
19B5B
  8
0
 62
     0
 10
12.679415576480549
 20
27.533280572263038
 30
0.0
 11
14.179415576480549
 21
29.033280572263038
 31
0.0
  0
LINE
  5
19B5C
  8
0
 62
     0
 10
-0.0000004328726391
 20
14.85386456290985
 30
0.0
 11
1.49999956712827
 21
16.353864562910761
 31
0.0
  0
LINE
  5
19B5D
  8
0
 62
     0
 10
11.55688356134692
 20
27.533280572262811
 30
0.0
 11
13.056883561347149
 21
29.033280572263038
 31
0.0
  0
LINE
  5
19B5E
  8
0
 62
     0
 10
-0.0000004328726391
 20
15.97639657804325
 30
0.0
 11
1.499999567127815
 21
17.476396578043701
 31
0.0
  0
LINE
  5
19B5F
  8
0
 62
     0
 10
10.43435154621352
 20
27.533280572263038
 30
0.0
 11
11.934351546213749
 21
29.0332805722635
 31
0.0
  0
LINE
  5
19B60
  8
0
 62
     0
 10
-0.0000004328719569
 20
17.098928593177561
 30
0.0
 11
1.499999567127815
 21
18.598928593177561
 31
0.0
  0
LINE
  5
19B61
  8
0
 62
     0
 10
9.311819531079891
 20
27.533280572263038
 30
0.0
 11
10.81181953108034
 21
29.0332805722635
 31
0.0
  0
LINE
  5
19B62
  8
0
 62
     0
 10
-0.0000004328719569
 20
18.221460608310959
 30
0.0
 11
1.499999567127815
 21
19.721460608310959
 31
0.0
  0
LINE
  5
19B63
  8
0
 62
     0
 10
8.1892875159460345
 20
27.533280572263038
 30
0.0
 11
9.6892875159460345
 21
29.033280572263038
 31
0.0
  0
LINE
  5
19B64
  8
0
 62
     0
 10
-0.0000004328724117
 20
19.343992623444588
 30
0.0
 11
1.4999995671280431
 21
20.84399262344505
 31
0.0
  0
LINE
  5
19B65
  8
0
 62
     0
 10
7.0667555008124054
 20
27.533280572262591
 30
0.0
 11
8.5667555008126328
 21
29.033280572263038
 31
0.0
  0
LINE
  5
19B66
  8
0
 62
     0
 10
-0.0000004328724117
 20
20.466524638578001
 30
0.0
 11
1.499999567127815
 21
21.966524638578221
 31
0.0
  0
LINE
  5
19B67
  8
0
 62
     0
 10
5.9442234856787763
 20
27.533280572263038
 30
0.0
 11
7.4442234856792311
 21
29.0332805722635
 31
0.0
  0
LINE
  5
19B68
  8
0
 62
     0
 10
-0.0000004328719569
 20
21.589056653712081
 30
0.0
 11
1.499999567127815
 21
23.089056653712081
 31
0.0
  0
LINE
  5
19B69
  8
0
 62
     0
 10
4.8216914705453737
 20
27.533280572263038
 30
0.0
 11
6.3216914705458294
 21
29.0332805722635
 31
0.0
  0
LINE
  5
19B6A
  8
0
 62
     0
 10
-0.0000004328719569
 20
22.711588668845479
 30
0.0
 11
1.499999567127815
 21
24.211588668845479
 31
0.0
  0
LINE
  5
19B6B
  8
0
 62
     0
 10
3.5421311604084158
 20
27.376252277259709
 30
0.0
 11
5.1991594554115181
 21
29.033280572263038
 31
0.0
  0
LINE
  5
19B6C
  8
0
 62
     0
 10
-0.0000004328724117
 20
23.834120683978881
 30
0.0
 11
1.6570278621306891
 21
25.491148978981979
 31
0.0
  0
LINE
  5
19B6D
  8
0
 62
     0
 10
0.0221037613555382
 20
24.978756893340229
 30
0.0
 11
4.0545232460508478
 21
29.01117637803555
 31
0.0
  0
LINE
  5
19B6E
  8
0
 62
     0
 10
0.4836891637687586
 20
26.56287431088754
 30
0.0
 11
2.4704058285039991
 21
28.549590975622781
 31
0.0
  0
ENDBLK
  5
19B70
  8
0
  0
BLOCK
  8
0
  2
*U133
 70
     1
 10
0.0
 20
0.0
 30
0.0
  3
*U133
  1

  0
TEXT
  5
19B72
  8
1DIM
 62
   201
 10
-2357.93937076153
 20
368.85380823580653
 30
0.0
 40
3.5
  1
50
  0
ENDBLK
  5
19B74
  8
0
  0
BLOCK
  8
0
  2
*U134
 70
     1
 10
0.0
 20
0.0
 30
0.0
  3
*U134
  1

  0
TEXT
  5
19B76
  8
1DIM
 62
   201
 10
-2311.0143707615298
 20
399.82047490247533
 30
0.0
 40
3.5
  1
15
 50
90.0
  0
ENDBLK
  5
19B78
  8
0
  0
BLOCK
  8
0
  2
*U135
 70
     1
 10
0.0
 20
0.0
 30
0.0
  3
*U135
  1

  0
TEXT
  5
19B7A
  8
1DIM
 62
   201
 10
-2451.731037428196
 20
358.8538082358105
 30
0.0
 40
3.5
  1
37
  0
ENDBLK
  5
19B7C
  8
0
  0
BLOCK
  8
0
  2
*U136
 70
     1
 10
0.0
 20
0.0
 30
0.0
  3
*U136
  1

  0
TEXT
  5
19B7E
  8
1DIM
 62
   201
 10
-2488.0143707615312
 20
391.11214156914372
 30
0.0
 40
3.5
  1
10
 50
90.0
  0
ENDBLK
  5
19B80
  8
0
  0
BLOCK
  8
0
  2
*U137
 70
     1
 10
0.0
 20
0.0
 30
0.0
  3
*U137
  1

  0
TEXT
  5
19B82
  8
1DIM
 62
   201
 10
-2478.3477040948628
 20
368.85380823581067
 30
0.0
 40
3.5
  1
1.5
  0
ENDBLK
  5
19B84
  8
0
  0
BLOCK
  8
0
  2
*U138
 70
     1
 10
0.0
 20
0.0
 30
0.0
  3
*U138
  1

  0
TEXT
  5
19B86
  8
1DIM
 62
   201
 10
-2451.731037428196
 20
368.85380823581067
 30
0.0
 40
3.5
  1
34
  0
ENDBLK
  5
19B88
  8
0
  0
BLOCK
  8
0
  2
*U139
 70
     1
 10
0.0
 20
0.0
 30
0.0
  3
*U139
  1

  0
TEXT
  5
19B8A
  8
1DIM
 62
   201
 10
-2425.1143707615288
 20
368.85380823581067
 30
0.0
 40
3.5
  1
1.5
  0
ENDBLK
  5
19B8C
  8
0
  0
BLOCK
  8
0
  2
*U140
 70
     1
 10
0.0
 20
0.0
 30
0.0
  3
*U140
  1

  0
TEXT
  5
19B8E
  8
1DIM
 62
   201
 10
-2421.0143707615289
 20
397.43714156914359
 30
0.0
 40
3.5
  1
6.5
 50
90.0
  0
ENDBLK
  5
19B90
  8
0
  0
BLOCK
  8
0
  2
*U141
 70
     1
 10
0.0
 20
0.0
 30
0.0
  3
*U141
  1

  0
TEXT
  5
19B92
  8
1DIM
 62
   201
 10
-2411.0143707615298
 20
399.8204749024768
 30
0.0
 40
3.5
  1
15
 50
90.0
  0
ENDBLK
  5
19B94
  8
0
  0
BLOCK
  8
0
  2
*U142
 70
     1
 10
0.0
 20
0.0
 30
0.0
  3
*U142
  1

  0
TEXT
  5
19B96
  8
1DIM
 62
   201
 10
-2534.356037428196
 20
368.85380823581067
 30
0.0
 40
3.5
  1
10
  0
ENDBLK
  5
19B98
  8
0
  0
BLOCK
  8
0
  2
*U143
 70
     1
 10
0.0
 20
0.0
 30
0.0
  3
*U143
  1

  0
TEXT
  5
19B9A
  8
1DIM
 62
   201
 10
-2554.9393707615291
 20
368.85380823581067
 30
0.0
 40
3.5
  1
30
  0
ENDBLK
  5
19B9C
  8
0
  0
BLOCK
  8
0
  2
*U144
 70
     1
 10
0.0
 20
0.0
 30
0.0
  3
*U144
  1

  0
TEXT
  5
19B9E
  8
1DIM
 62
   201
 10
-2574.3560374281969
 20
368.85380823581067
 30
0.0
 40
3.5
  1
10
  0
ENDBLK
  5
19BA0
  8
0
  0
BLOCK
  8
0
  2
*U145
 70
     1
 10
0.0
 20
0.0
 30
0.0
  3
*U145
  1

  0
TEXT
  5
19BA2
  8
1DIM
 62
   201
 10
-2508.0143707615312
 20
394.23714156914212
 30
0.0
 40
3.5
  1
21.5
 50
90.0
  0
ENDBLK
  5
19BA4
  8
0
  0
BLOCK
  8
0
  2
*U146
 70
     1
 10
0.0
 20
0.0
 30
0.0
  3
*U146
  1

  0
TEXT
  5
19BA6
  8
1DIM
 62
   201
 10
-2369.744890022956
 20
321.90002239794939
 30
0.0
 40
3.5
  1
âË4
 50
90.0
  0
ENDBLK
  5
19BA8
  8
0
  0
BLOCK
  8
0
  2
*U147
 70
     1
 10
0.0
 20
0.0
 30
0.0
  3
*U147
  1

  0
TEXT
  5
19BAA
  8
1DIM
 62
   201
 10
-2358.3310391856489
 20
328.2165506958471
 30
0.0
 40
3.5
  1
16
  0
ENDBLK
  5
19BAC
  8
0
  0
BLOCK
  8
0
  2
*U148
 70
     1
 10
0.0
 20
0.0
 30
0.0
  3
*U148
  1

  0
TEXT
  5
19BAE
  8
1DIM
 62
   201
 10
54.50880398604982
 20
15.65815328166647
 30
0.0
 40
3.5
  1
R4
 50
40.814729571494091
  0
ENDBLK
  5
19BB0
  8
0
  0
BLOCK
  8
0
  2
*U149
 70
     1
 10
0.0
 20
0.0
 30
0.0
  3
*U149
  1

  0
TEXT
  5
19BB2
  8
1DIM
 62
   201
 10
56.061180088185623
 20
7.4687287860168272
 30
0.0
 40
3.5
  1
R4
 50
49.858806247984383
  0
ENDBLK
  5
19BB4
  8
0
  0
BLOCK
  8
0
  2
*U150
 70
     1
 10
0.0
 20
0.0
 30
0.0
  3
*U150
  1

  0
TEXT
  5
19BB9
  8
1DIM
 62
   201
 10
2240.9450654158341
 20
-4527.6226668891977
 30
0.0
 40
3.5
  1
90üï
 50
90.0
  0
ENDBLK
  5
19BBB
  8
0
  0
BLOCK
  8
0
  2
*U151
 70
     1
 10
0.0
 20
0.0
 30
0.0
  3
*U151
  1

  0
TEXT
  5
19BBD
  8
1DIM
 62
   201
 10
2125.640164200759
 20
-4541.1560002225306
 30
0.0
 40
3.5
  1
10
 50
90.0
  0
ENDBLK
  5
19BBF
  8
0
  0
BLOCK
  8
0
  2
*U152
 70
     1
 10
0.0
 20
0.0
 30
0.0
  3
*U152
  1

  0
TEXT
  5
19BC1
  8
1DIM
 62
   201
 10
2163.413881217708
 20
-4546.0504660819961
 30
0.0
 40
3.5
  1
10
  0
ENDBLK
  5
19BC3
  8
0
  0
BLOCK
  8
0
  2
*U153
 70
     1
 10
0.0
 20
0.0
 30
0.0
  3
*U153
  1

  0
TEXT
  5
19BC5
  8
1DIM
 62
   201
 10
2092.5787318740149
 20
-4525.5476668891952
 30
0.0
 40
3.5
  1
(11.5 )
 50
90.0
  0
ENDBLK
  5
19BC7
  8
0
  0
BLOCK
  8
0
  2
*U154
 70
     1
 10
0.0
 20
0.0
 30
0.0
  3
*U154
  1

  0
TEXT
  5
19BC9
  8
1DIM
 62
   201
 10
2101.6805478843739
 20
-4546.0504660819961
 30
0.0
 40
3.5
  1
10
  0
ENDBLK
  5
19BCB
  8
0
  0
BLOCK
  8
0
  2
*U155
 70
     1
 10
0.0
 20
0.0
 30
0.0
  3
*U155
  1

  0
TEXT
  5
19BCD
  8
1DIM
 62
   201
 10
2093.4953985406819
 20
-4541.1560002225306
 30
0.0
 40
3.5
  1
10
 50
90.0
  0
ENDBLK
  5
19BCF
  8
0
  0
BLOCK
  8
0
  2
*U156
 70
     1
 10
0.0
 20
0.0
 30
0.0
  3
*U156
  1

  0
TEXT
  5
19BD1
  8
1DIM
 62
   201
 10
2127.1446116919369
 20
-4546.0504660819961
 30
0.0
 40
3.5
  1
üi30 üj
  0
ENDBLK
  5
19BD3
  8
0
  0
BLOCK
  8
0
  2
*U157
 70
     1
 10
0.0
 20
0.0
 30
0.0
  3
*U157
  1

  0
TEXT
  5
19BD5
  8
1DIM
 62
   201
 10
2093.209881276935
 20
-4549.1799906829056
 30
0.0
 40
2.4499999999999988
  1
2-R1
 50
44.427519346302681
  0
ENDBLK
  5
19BD7
  8
0
  0
BLOCK
  8
0
  2
*U158
 70
     1
 10
0.0
 20
0.0
 30
0.0
  3
*U158
  1

  0
TEXT
  5
19BD9
  8
1DIM
 62
   201
 10
2164.6274827749662
 20
-4535.5397465531087
 30
0.0
 40
4.5499999999999989
  1
2-R4
 50
322.8405767252471
  0
ENDBLK
  5
19BDB
  8
0
  0
BLOCK
  8
0
  2
*U159
 70
     1
 10
0.0
 20
0.0
 30
0.0
  3
*U159
  1

  0
TEXT
  5
19BDD
  8
1DIM
 62
   201
 10
2215.0245194903978
 20
-4520.8726668891959
 30
0.0
 40
3.5
  1
10
 50
90.0
  0
ENDBLK
  5
19BDF
  8
0
  0
BLOCK
  8
0
  2
*U160
 70
     1
 10
0.0
 20
0.0
 30
0.0
  3
*U160
  1

  0
TEXT
  5
19BE1
  8
1DIM
 62
   201
 10
2230.9421564504059
 20
-4561.7501922836736
 30
0.0
 40
4.0
  1
âË7.2
 50
90.0
  0
TEXT
  5
19BE2
  8
1DIM
 62
   201
 10
2228.4754897837388
 20
-4547.6168589503404
 30
0.0
 40
2.7999999999999989
  1
 0
 50
90.0
  0
TEXT
  5
19BE3
  8
1DIM
 62
   201
 10
2232.2088231170728
 20
-4547.6168589503404
 30
0.0
 40
2.7999999999999989
  1
-0.2
 50
90.0
  0
ENDBLK
  5
19BE5
  8
0
  0
BLOCK
  8
0
  2
*U161
 70
     1
 10
0.0
 20
0.0
 30
0.0
  3
*U161
  1

  0
TEXT
  5
19BE7
  8
1TEXT
 62
   201
 10
2210.1631230233302
 20
-4548.2991979145081
 30
0.0
 40
3.5
  1
0.5
  0
ENDBLK
  5
19BE9
  8
0
  0
BLOCK
  8
0
  2
*U162
 70
     1
 10
0.0
 20
0.0
 30
0.0
  3
*U162
  1

  0
TEXT
  5
19BEB
  8
1TEXT
 62
   201
 10
2196.2811091905928
 20
-4551.6130827385241
 30
0.0
 40
3.5
  1
âË4.8
 50
90.0
  0
ENDBLK
  5
19BED
  8
0
  0
BLOCK
  8
0
  2
*U163
 70
     1
 10
0.0
 20
0.0
 30
0.0
  3
*U163
  1

  0
TEXT
  5
19BEF
  8
1DIM
 62
   201
 10
2377.6584299114929
 20
-4540.5748967593363
 30
0.0
 40
3.5
  1
âË6
 50
90.0
  0
ENDBLK
  5
19BF1
  8
0
  0
BLOCK
  8
0
  2
*U164
 70
     1
 10
0.0
 20
0.0
 30
0.0
  3
*U164
  1

  0
TEXT
  5
19BF3
  8
1DIM
 62
   201
 10
2355.3203049467338
 20
-4532.8431647521211
 30
0.0
 40
3.5
  1
16
  0
ENDBLK
  5
19BF5
  8
0
  0
BLOCK
  8
0
  2
*U165
 70
     1
 10
0.0
 20
0.0
 30
0.0
  3
*U165
  1

  0
TEXT
  5
19BF7
  8
1DIM
 62
   201
 10
2337.2721258614301
 20
-4538.6715726351813
 30
0.0
 40
3.5
  1
âË4
 50
90.0
  0
ENDBLK
  5
19BF9
  8
0
  0
BLOCK
  8
0
  2
*U166
 70
     1
 10
0.0
 20
0.0
 30
0.0
  3
*U166
  1

  0
TEXT
  5
19BFB
  8
1DIM
 62
   201
 10
2206.8531230233311
 20
-4540.7759844540451
 30
0.0
 40
3.5
  1
0.3
  0
ENDBLK
  5
19BFD
  8
0
  0
BLOCK
  8
0
  2
*U167
 70
     1
 10
0.0
 20
0.0
 30
0.0
  3
*U167
  1

  0
TEXT
  5
19BFF
  8
1DIM
 62
   201
 10
-2571.6093316838042
 20
201.22399818656501
 30
0.0
 40
3.5
  1
10
 50
90.0
  0
ENDBLK
  5
19C01
  8
0
  0
BLOCK
  8
0
  2
*U168
 70
     1
 10
0.0
 20
0.0
 30
0.0
  3
*U168
  1

  0
TEXT
  5
19C03
  8
1DIM
 62
   201
 10
-2533.8356146668548
 20
196.3295323271002
 30
0.0
 40
3.5
  1
10
  0
ENDBLK
  5
19C05
  8
0
  0
BLOCK
  8
0
  2
*U169
 70
     1
 10
0.0
 20
0.0
 30
0.0
  3
*U169
  1

  0
TEXT
  5
19C07
  8
1DIM
 62
   201
 10
-2604.6707640105492
 20
216.83233151989839
 30
0.0
 40
3.5
  1
(11.5 )
 50
90.0
  0
ENDBLK
  5
19C09
  8
0
  0
BLOCK
  8
0
  2
*U170
 70
     1
 10
0.0
 20
0.0
 30
0.0
  3
*U170
  1

  0
TEXT
  5
19C0B
  8
1DIM
 62
   201
 10
-2595.5689480001888
 20
196.3295323271002
 30
0.0
 40
3.5
  1
10
  0
ENDBLK
  5
19C0D
  8
0
  0
BLOCK
  8
0
  2
*U171
 70
     1
 10
0.0
 20
0.0
 30
0.0
  3
*U171
  1

  0
TEXT
  5
19C0F
  8
1DIM
 62
   201
 10
-2603.7540973438809
 20
201.22399818656501
 30
0.0
 40
3.5
  1
10
 50
90.0
  0
ENDBLK
  5
19C11
  8
0
  0
BLOCK
  8
0
  2
*U172
 70
     1
 10
0.0
 20
0.0
 30
0.0
  3
*U172
  1

  0
TEXT
  5
19C13
  8
1DIM
 62
   201
 10
-2570.1048841926249
 20
196.3295323271002
 30
0.0
 40
3.5
  1
üi30 üj
  0
ENDBLK
  5
19C15
  8
0
  0
BLOCK
  8
0
  2
*U173
 70
     1
 10
0.0
 20
0.0
 30
0.0
  3
*U173
  1

  0
TEXT
  5
19C17
  8
1DIM
 62
   201
 10
-2604.0396146076132
 20
193.2000077261747
 30
0.0
 40
2.4499999999999988
  1
2-R1
 50
44.427519346358167
  0
ENDBLK
  5
19C19
  8
0
  0
BLOCK
  8
0
  2
*U174
 70
     1
 10
0.0
 20
0.0
 30
0.0
  3
*U174
  1

  0
TEXT
  5
19C1B
  8
1DIM
 62
   201
 10
-2532.6220131095961
 20
206.84025185598779
 30
0.0
 40
4.5499999999999989
  1
2-R4
 50
322.8405767252471
  0
ENDBLK
  5
19C1D
  8
0
  0
BLOCK
  8
0
  2
*U175
 70
     1
 10
0.0
 20
0.0
 30
0.0
  3
*U175
  1

  0
TEXT
  5
19C1F
  8
1DIM
 62
   201
 10
-2482.224976394165
 20
221.50733151989931
 30
0.0
 40
3.5
  1
10
 50
90.0
  0
ENDBLK
  5
19C21
  8
0
  0
BLOCK
  8
0
  2
*U176
 70
     1
 10
0.0
 20
0.0
 30
0.0
  3
*U176
  1

  0
TEXT
  5
19C23
  8
1DIM
 62
   201
 10
-2466.3073394341582
 20
180.62980612542259
 30
0.0
 40
4.0
  1
âË7.2
 50
90.0
  0
TEXT
  5
19C24
  8
1DIM
 62
   201
 10
-2468.774006100824
 20
194.76313945875589
 30
0.0
 40
2.7999999999999989
  1
 0
 50
90.0
  0
TEXT
  5
19C25
  8
1DIM
 62
   201
 10
-2465.0406727674899
 20
194.76313945875589
 30
0.0
 40
2.7999999999999989
  1
-0.2
 50
90.0
  0
ENDBLK
  5
19C27
  8
0
  0
BLOCK
  8
0
  2
*U177
 70
     1
 10
0.0
 20
0.0
 30
0.0
  3
*U177
  1

  0
TEXT
  5
19C29
  8
1TEXT
 62
   201
 10
-2487.086372861233
 20
194.0808004945882
 30
0.0
 40
3.5
  1
0.5
  0
ENDBLK
  5
19C2B
  8
0
  0
BLOCK
  8
0
  2
*U178
 70
     1
 10
0.0
 20
0.0
 30
0.0
  3
*U178
  1

  0
TEXT
  5
19C2D
  8
1TEXT
 62
   201
 10
-2500.9683866939699
 20
190.7669156705719
 30
0.0
 40
3.5
  1
âË4.8
 50
90.0
  0
ENDBLK
  5
19C2F
  8
0
  0
BLOCK
  8
0
  2
*U179
 70
     1
 10
0.0
 20
0.0
 30
0.0
  3
*U179
  1

  0
TEXT
  5
19C31
  8
1DIM
 62
   201
 10
-2456.3044304687292
 20
214.75733151989749
 30
0.0
 40
3.5
  1
90üï
 50
90.0
  0
ENDBLK
  5
19C33
  8
0
  0
BLOCK
  8
0
  2
*U180
 70
     1
 10
0.0
 20
0.0
 30
0.0
  3
*U180
  1

  0
TEXT
  5
19C35
  8
1DIM
 62
   201
 10
-2319.5910659730698
 20
201.8051016497586
 30
0.0
 40
3.5
  1
âË6
 50
90.0
  0
ENDBLK
  5
19C37
  8
0
  0
BLOCK
  8
0
  2
*U181
 70
     1
 10
0.0
 20
0.0
 30
0.0
  3
*U181
  1

  0
TEXT
  5
19C39
  8
1DIM
 62
   201
 10
-2341.9291909378289
 20
209.53683365697441
 30
0.0
 40
3.5
  1
16
  0
ENDBLK
  5
19C3B
  8
0
  0
BLOCK
  8
0
  2
*U182
 70
     1
 10
0.0
 20
0.0
 30
0.0
  3
*U182
  1

  0
TEXT
  5
19C3D
  8
1DIM
 62
   201
 10
-2359.9773700231331
 20
203.708425773915
 30
0.0
 40
3.5
  1
âË4
 50
90.0
  0
ENDBLK
  5
19C3F
  8
0
  0
BLOCK
  8
0
  2
*U183
 70
     1
 10
0.0
 20
0.0
 30
0.0
  3
*U183
  1

  0
TEXT
  5
19C41
  8
1DIM
 62
   201
 10
-2490.3963728612321
 20
201.60401395505119
 30
0.0
 40
3.5
  1
0.3
  0
ENDBLK
  5
19C43
  8
0
  0
BLOCK
  8
0
  2
*U184
 70
     1
 10
0.0
 20
0.0
 30
0.0
  3
*U184
  1

  0
TEXT
  5
19C45
  8
1DIM
 62
   201
 10
-2340.4604052365921
 20
320.8166890646155
 30
0.0
 40
3.5
  1
âË6
 50
90.0
  0
ENDBLK
  5
19C47
  8
0
  0
BLOCK
  8
0
  2
*U185
 70
     1
 10
0.0
 20
0.0
 30
0.0
  3
*U185
  1

  0
TEXT
  5
19C49
  8
1DIM
 62
   201
 10
-2458.0143707615312
 20
379.43706924675507
 30
0.0
 40
3.5
  1
âË4.8
 50
90.0
  0
ENDBLK
  5
19C4B
  8
0
  0
BLOCK
  8
0
  2
*U186
 70
     1
 10
0.0
 20
0.0
 30
0.0
  3
*U186
  1

  0
TEXT
  5
19C4D
  8
1DIM
 62
   201
 10
-2478.0143707615321
 20
404.37047490247619
 30
0.0
 40
3.5
  1
âË7.2
 50
90.0
  0
ENDBLK
  5
19C4F
  8
0
  0
BLOCK
  8
0
  2
*U187
 70
     1
 10
0.0
 20
0.0
 30
0.0
  3
*U187
  1

  0
TEXT
  5
19C51
  8
1DIM
 62
   201
 10
2240.9450654158341
 20
-4527.6226668891977
 30
0.0
 40
3.5
  1
90üï
 50
90.0
  0
ENDBLK
  5
19C53
  8
0
  0
BLOCK
  8
0
  2
*U188
 70
     1
 10
0.0
 20
0.0
 30
0.0
  3
*U188
  1

  0
TEXT
  5
19C55
  8
1DIM
 62
   201
 10
2125.640164200759
 20
-4541.1560002225306
 30
0.0
 40
3.5
  1
10
 50
90.0
  0
ENDBLK
  5
19C57
  8
0
  0
BLOCK
  8
0
  2
*U189
 70
     1
 10
0.0
 20
0.0
 30
0.0
  3
*U189
  1

  0
TEXT
  5
19C59
  8
1DIM
 62
   201
 10
2163.413881217708
 20
-4546.0504660819961
 30
0.0
 40
3.5
  1
10
  0
ENDBLK
  5
19C5B
  8
0
  0
BLOCK
  8
0
  2
*U190
 70
     1
 10
0.0
 20
0.0
 30
0.0
  3
*U190
  1

  0
TEXT
  5
19C5D
  8
1DIM
 62
   201
 10
2092.5787318740149
 20
-4525.5476668891952
 30
0.0
 40
3.5
  1
(11.5 )
 50
90.0
  0
ENDBLK
  5
19C5F
  8
0
  0
BLOCK
  8
0
  2
*U191
 70
     1
 10
0.0
 20
0.0
 30
0.0
  3
*U191
  1

  0
TEXT
  5
19C61
  8
1DIM
 62
   201
 10
2101.6805478843739
 20
-4546.0504660819961
 30
0.0
 40
3.5
  1
10
  0
ENDBLK
  5
19C63
  8
0
  0
BLOCK
  8
0
  2
*U192
 70
     1
 10
0.0
 20
0.0
 30
0.0
  3
*U192
  1

  0
TEXT
  5
19C65
  8
1DIM
 62
   201
 10
2093.4953985406819
 20
-4541.1560002225306
 30
0.0
 40
3.5
  1
10
 50
90.0
  0
ENDBLK
  5
19C67
  8
0
  0
BLOCK
  8
0
  2
*U193
 70
     1
 10
0.0
 20
0.0
 30
0.0
  3
*U193
  1

  0
TEXT
  5
19C69
  8
1DIM
 62
   201
 10
2127.1446116919369
 20
-4546.0504660819961
 30
0.0
 40
3.5
  1
üi30 üj
  0
ENDBLK
  5
19C6B
  8
0
  0
BLOCK
  8
0
  2
*U194
 70
     1
 10
0.0
 20
0.0
 30
0.0
  3
*U194
  1

  0
TEXT
  5
19C6D
  8
1DIM
 62
   201
 10
2093.209881276935
 20
-4549.1799906829056
 30
0.0
 40
2.4499999999999988
  1
2-R1
 50
44.427519346302681
  0
ENDBLK
  5
19C6F
  8
0
  0
BLOCK
  8
0
  2
*U195
 70
     1
 10
0.0
 20
0.0
 30
0.0
  3
*U195
  1

  0
TEXT
  5
19C71
  8
1DIM
 62
   201
 10
2164.6274827749662
 20
-4535.5397465531087
 30
0.0
 40
4.5499999999999989
  1
2-R4
 50
322.8405767252471
  0
ENDBLK
  5
19C73
  8
0
  0
BLOCK
  8
0
  2
*U196
 70
     1
 10
0.0
 20
0.0
 30
0.0
  3
*U196
  1

  0
TEXT
  5
19C75
  8
1DIM
 62
   201
 10
2215.0245194903978
 20
-4520.8726668891959
 30
0.0
 40
3.5
  1
10
 50
90.0
  0
ENDBLK
  5
19C77
  8
0
  0
BLOCK
  8
0
  2
*U197
 70
     1
 10
0.0
 20
0.0
 30
0.0
  3
*U197
  1

  0
TEXT
  5
19C79
  8
1DIM
 62
   201
 10
2230.9421564504059
 20
-4561.7501922836736
 30
0.0
 40
4.0
  1
âË7.2
 50
90.0
  0
TEXT
  5
19C7A
  8
1DIM
 62
   201
 10
2228.4754897837388
 20
-4547.6168589503404
 30
0.0
 40
2.7999999999999989
  1
 0
 50
90.0
  0
TEXT
  5
19C7B
  8
1DIM
 62
   201
 10
2232.2088231170728
 20
-4547.6168589503404
 30
0.0
 40
2.7999999999999989
  1
-0.2
 50
90.0
  0
ENDBLK
  5
19C7D
  8
0
  0
BLOCK
  8
0
  2
*U198
 70
     1
 10
0.0
 20
0.0
 30
0.0
  3
*U198
  1

  0
TEXT
  5
19C7F
  8
1TEXT
 62
   201
 10
2210.1631230233302
 20
-4548.2991979145081
 30
0.0
 40
3.5
  1
0.5
  0
ENDBLK
  5
19C81
  8
0
  0
BLOCK
  8
0
  2
*U199
 70
     1
 10
0.0
 20
0.0
 30
0.0
  3
*U199
  1

  0
TEXT
  5
19C83
  8
1TEXT
 62
   201
 10
2196.2811091905928
 20
-4551.6130827385241
 30
0.0
 40
3.5
  1
âË4.8
 50
90.0
  0
ENDBLK
  5
19C85
  8
0
  0
BLOCK
  8
0
  2
*U200
 70
     1
 10
0.0
 20
0.0
 30
0.0
  3
*U200
  1

  0
TEXT
  5
19C87
  8
1DIM
 62
   201
 10
2377.6584299114929
 20
-4540.5748967593363
 30
0.0
 40
3.5
  1
âË6
 50
90.0
  0
ENDBLK
  5
19C89
  8
0
  0
BLOCK
  8
0
  2
*U201
 70
     1
 10
0.0
 20
0.0
 30
0.0
  3
*U201
  1

  0
TEXT
  5
19C8B
  8
1DIM
 62
   201
 10
2355.3203049467338
 20
-4532.8431647521211
 30
0.0
 40
3.5
  1
16
  0
ENDBLK
  5
19C8D
  8
0
  0
BLOCK
  8
0
  2
*U202
 70
     1
 10
0.0
 20
0.0
 30
0.0
  3
*U202
  1

  0
TEXT
  5
19C8F
  8
1DIM
 62
   201
 10
2337.2721258614301
 20
-4538.6715726351813
 30
0.0
 40
3.5
  1
âË4
 50
90.0
  0
ENDBLK
  5
19C91
  8
0
  0
BLOCK
  8
0
  2
*U203
 70
     1
 10
0.0
 20
0.0
 30
0.0
  3
*U203
  1

  0
TEXT
  5
19C93
  8
1DIM
 62
   201
 10
2206.8531230233311
 20
-4540.7759844540451
 30
0.0
 40
3.5
  1
0.3
  0
ENDBLK
  5
19C95
  8
0
  0
BLOCK
  8
0
  2
*U204
 70
     1
 10
0.0
 20
0.0
 30
0.0
  3
*U204
  1

  0
TEXT
  5
19C97
  8
1DIM
 62
   201
 10
-2536.067063069213
 20
192.61838399524169
 30
0.0
 40
3.5
  1
10
 50
90.0
  0
ENDBLK
  5
19C99
  8
0
  0
BLOCK
  8
0
  2
*U205
 70
     1
 10
0.0
 20
0.0
 30
0.0
  3
*U205
  1

  0
TEXT
  5
19C9B
  8
1DIM
 62
   201
 10
-2498.293346052264
 20
187.7239181357769
 30
0.0
 40
3.5
  1
10
  0
ENDBLK
  5
19C9D
  8
0
  0
BLOCK
  8
0
  2
*U206
 70
     1
 10
0.0
 20
0.0
 30
0.0
  3
*U206
  1

  0
TEXT
  5
19C9F
  8
1DIM
 62
   201
 10
-2569.128495395958
 20
208.22671732857501
 30
0.0
 40
3.5
  1
(11.5 )
 50
90.0
  0
ENDBLK
  5
19CA1
  8
0
  0
BLOCK
  8
0
  2
*U207
 70
     1
 10
0.0
 20
0.0
 30
0.0
  3
*U207
  1

  0
TEXT
  5
19CA3
  8
1DIM
 62
   201
 10
-2560.026679385599
 20
187.7239181357769
 30
0.0
 40
3.5
  1
10
  0
ENDBLK
  5
19CA5
  8
0
  0
BLOCK
  8
0
  2
*U208
 70
     1
 10
0.0
 20
0.0
 30
0.0
  3
*U208
  1

  0
TEXT
  5
19CA7
  8
1DIM
 62
   201
 10
-2568.211828729291
 20
192.61838399524169
 30
0.0
 40
3.5
  1
10
 50
90.0
  0
ENDBLK
  5
19CA9
  8
0
  0
BLOCK
  8
0
  2
*U209
 70
     1
 10
0.0
 20
0.0
 30
0.0
  3
*U209
  1

  0
TEXT
  5
19CAB
  8
1DIM
 62
   201
 10
-2534.5626155780351
 20
187.7239181357769
 30
0.0
 40
3.5
  1
üi30 üj
  0
ENDBLK
  5
19CAD
  8
0
  0
BLOCK
  8
0
  2
*U210
 70
     1
 10
0.0
 20
0.0
 30
0.0
  3
*U210
  1

  0
TEXT
  5
19CAF
  8
1DIM
 62
   201
 10
-2568.4973459930229
 20
184.5943935348516
 30
0.0
 40
2.4499999999999988
  1
2-R1
 50
44.427519346358167
  0
ENDBLK
  5
19CB1
  8
0
  0
BLOCK
  8
0
  2
*U211
 70
     1
 10
0.0
 20
0.0
 30
0.0
  3
*U211
  1

  0
TEXT
  5
19CB3
  8
1DIM
 62
   201
 10
-2497.0797444950058
 20
198.2346376646644
 30
0.0
 40
4.5499999999999989
  1
2-R4
 50
322.8405767252471
  0
ENDBLK
  5
19CB5
  8
0
  0
BLOCK
  8
0
  2
*U212
 70
     1
 10
0.0
 20
0.0
 30
0.0
  3
*U212
  1

  0
TEXT
  5
19CB7
  8
1DIM
 62
   201
 10
-2446.6827077795751
 20
212.90171732857601
 30
0.0
 40
3.5
  1
10
 50
90.0
  0
ENDBLK
  5
19CB9
  8
0
  0
BLOCK
  8
0
  2
*U213
 70
     1
 10
0.0
 20
0.0
 30
0.0
  3
*U213
  1

  0
TEXT
  5
19CBB
  8
1DIM
 62
   201
 10
-2430.765070819567
 20
172.02419193409929
 30
0.0
 40
4.0
  1
âË7.2
 50
90.0
  0
TEXT
  5
19CBC
  8
1DIM
 62
   201
 10
-2433.2317374862332
 20
186.15752526743259
 30
0.0
 40
2.7999999999999989
  1
 0
 50
90.0
  0
TEXT
  5
19CBD
  8
1DIM
 62
   201
 10
-2429.4984041529001
 20
186.15752526743259
 30
0.0
 40
2.7999999999999989
  1
-0.2
 50
90.0
  0
ENDBLK
  5
19CBF
  8
0
  0
BLOCK
  8
0
  2
*U214
 70
     1
 10
0.0
 20
0.0
 30
0.0
  3
*U214
  1

  0
TEXT
  5
19CC1
  8
1TEXT
 62
   201
 10
-2451.5441042466432
 20
185.47518630326491
 30
0.0
 40
3.5
  1
0.5
  0
ENDBLK
  5
19CC3
  8
0
  0
BLOCK
  8
0
  2
*U215
 70
     1
 10
0.0
 20
0.0
 30
0.0
  3
*U215
  1

  0
TEXT
  5
19CC5
  8
1TEXT
 62
   201
 10
-2465.4261180793801
 20
182.16130147924861
 30
0.0
 40
3.5
  1
âË4.8
 50
90.0
  0
ENDBLK
  5
19CC7
  8
0
  0
BLOCK
  8
0
  2
*U216
 70
     1
 10
0.0
 20
0.0
 30
0.0
  3
*U216
  1

  0
TEXT
  5
19CC9
  8
1DIM
 62
   201
 10
-2420.7621618541389
 20
206.15171732857419
 30
0.0
 40
3.5
  1
90üï
 50
90.0
  0
ENDBLK
  5
19CCB
  8
0
  0
BLOCK
  8
0
  2
*U217
 70
     1
 10
0.0
 20
0.0
 30
0.0
  3
*U217
  1

  0
TEXT
  5
19CCD
  8
1DIM
 62
   201
 10
-2284.04879735848
 20
193.1994874584353
 30
0.0
 40
3.5
  1
âË6
 50
90.0
  0
ENDBLK
  5
19CCF
  8
0
  0
BLOCK
  8
0
  2
*U218
 70
     1
 10
0.0
 20
0.0
 30
0.0
  3
*U218
  1

  0
TEXT
  5
19CD1
  8
1DIM
 62
   201
 10
-2306.3869223232391
 20
200.931219465651
 30
0.0
 40
3.5
  1
16
  0
ENDBLK
  5
19CD3
  8
0
  0
BLOCK
  8
0
  2
*U219
 70
     1
 10
0.0
 20
0.0
 30
0.0
  3
*U219
  1

  0
TEXT
  5
19CD5
  8
1DIM
 62
   201
 10
-2324.4351014085428
 20
195.1028115825917
 30
0.0
 40
3.5
  1
âË4
 50
90.0
  0
ENDBLK
  5
19CD7
  8
0
  0
BLOCK
  8
0
  2
*U220
 70
     1
 10
0.0
 20
0.0
 30
0.0
  3
*U220
  1

  0
TEXT
  5
19CD9
  8
1DIM
 62
   201
 10
-2454.8541042466418
 20
192.99839976372789
 30
0.0
 40
3.5
  1
0.3
  0
ENDBLK
  5
19CDB
  8
0
  0
ENDSEC
  0
SECTION
  2
ENTITIES
  0
LINE
  5
1616D
  8
01
 10
-2355.31437076153
 20
409.65380823580881
 30
0.0
 11
-2380.31437076153
 21
409.6538082358083
 31
0.0
  0
LINE
  5
161C6
  8
01
 10
-2376.31437076153
 20
394.6538082358079
 30
0.0
 11
-2334.3143707615309
 21
394.65380823580972
 31
0.0
  0
LINE
  5
161ED
  8
01
 10
-2355.31437076153
 20
409.65380823580881
 30
0.0
 11
-2330.3143707615309
 21
409.6538082358083
 31
0.0
  0
LINE
  5
1620E
  8
01
 10
-2380.31437076153
 20
409.6538082358079
 30
0.0
 11
-2380.31437076153
 21
392.15380823580819
 31
0.0
  0
LINE
  5
16210
  8
01
 10
-2330.3143707615309
 20
409.65380823580881
 30
0.0
 11
-2330.3143707615309
 21
392.15380823580659
 31
0.0
  0
LINE
  5
16229
  8
01
 10
-2334.3143707615309
 20
388.15380823580659
 30
0.0
 11
-2376.31437076153
 21
388.15380823580819
 31
0.0
  0
LINE
  5
17A14
  8
01
 10
-2577.3143707615309
 20
409.6538082358087
 30
0.0
 11
-2527.31437076153
 21
409.65380823580909
 31
0.0
  0
LINE
  5
17A50
  8
1CENTER
 10
-2560.31437076153
 20
398.1538082358087
 30
0.0
 11
-2574.31437076153
 21
398.1538082358087
 31
0.0
  0
LINE
  5
17A51
  8
1CENTER
 10
-2567.31437076153
 20
405.1538082358087
 30
0.0
 11
-2567.31437076153
 21
391.1538082358087
 31
0.0
  0
LINE
  5
17A5C
  8
01
 10
-2577.3143707615309
 20
409.65380823580819
 30
0.0
 11
-2577.3143707615309
 21
392.15380823580722
 31
0.0
  0
LINE
  5
17A5E
  8
1CENTER
 10
-2537.3143707615309
 20
405.15380823580909
 30
0.0
 11
-2537.31437076153
 21
391.15380823580921
 31
0.0
  0
LINE
  5
17A5F
  8
1CENTER
 10
-2544.3143707615309
 20
398.1538082358087
 30
0.0
 11
-2530.31437076153
 21
398.15380823580961
 31
0.0
  0
LINE
  5
17A60
  8
01
 10
-2527.31437076153
 20
409.65380823580909
 30
0.0
 11
-2527.31437076153
 21
392.15380823581057
 31
0.0
  0
LINE
  5
17A61
  8
01
 10
-2573.3143707615309
 20
388.15380823580711
 30
0.0
 11
-2531.3143707615291
 21
388.15380823581029
 31
0.0
  0
LINE
  5
18C17
  8
1DIM
 10
-2527.31437076153
 20
317.15380823581069
 30
0.0
 11
-2457.31437076153
 21
317.15380823581069
 31
0.0
  0
TEXT
  5
18C18
  8
1TEXT
 10
-2521.381037428197
 20
318.84289462423988
 30
0.0
 40
4.0
  1
âwâAâëâCâô
 72
     1
 11
-2509.9143707615299
 21
318.84289462423988
 31
0.0
  0
TEXT
  5
18C19
  8
1TEXT
 10
-2520.5619898091491
 20
332.6538082358108
 30
0.0
 40
4.0
  1
ò\û╩ÅêùØüF
 72
     1
 11
-2509.9143707615299
 21
332.6538082358108
 31
0.0
  0
TEXT
  5
18C1A
  8
1TEXT
 10
-2514.1810374281972
 20
325.81851957628629
 30
0.0
 40
4.0
  1
ï¥û╩
 72
     1
 11
-2509.9143707615299
 21
325.81851957628629
 31
0.0
  0
LINE
  5
18C1B
  8
1DIM
 10
-2527.31437076153
 20
331.15380823581069
 30
0.0
 11
-2457.31437076153
 21
331.15380823581069
 31
0.0
  0
LINE
  5
18C1C
  8
1DIM
 10
-2527.31437076153
 20
324.1538082358108
 30
0.0
 11
-2457.31437076153
 21
324.1538082358108
 31
0.0
  0
LINE
  5
18C1D
  8
1DIM
 10
-2527.31437076153
 20
324.1538082358108
 30
0.0
 11
-2457.31437076153
 21
324.1538082358108
 31
0.0
  0
LINE
  5
18C1E
  8
1DIM
 10
-2492.31437076153
 20
338.15380823581069
 30
0.0
 11
-2492.31437076153
 21
317.1538082358108
 31
0.0
  0
TEXT
  5
18C1F
  8
1TEXT
 10
-2489.581037428195
 20
325.4394512521614
 30
0.0
 40
4.0
  1
PS075C05
 72
     1
 11
-2474.914370761529
 21
325.4394512521614
 31
0.0
  0
TEXT
  5
18C20
  8
1TEXT
 10
-2489.581037428195
 20
318.4394512521614
 30
0.0
 40
4.0
  1
PS075T05
 72
     1
 11
-2474.914370761529
 21
318.4394512521614
 31
0.0
  0
TEXT
  5
18C21
  8
1TEXT
 10
-2520.0363872651042
 20
341.919835822133
 30
0.0
 40
4.0
  1
ìÌÄ┐üFâXâeâôâîâX
 72
     1
 11
-2501.6363872651041
 21
341.919835822133
 31
0.0
  0
LINE
  5
18C22
  8
1DIM
 10
-2527.31437076153
 20
338.15380823581069
 30
0.0
 11
-2457.31437076153
 21
338.15380823581069
 31
0.0
  0
TEXT
  5
18C23
  8
1TEXT
 10
-2481.7143707615301
 20
332.6538082358108
 30
0.0
 40
4.0
  1
âRü[âh
 72
     1
 11
-2474.9143707615299
 21
332.6538082358108
 31
0.0
  0
LINE
  5
18C24
  8
1DIM
 10
-2527.31437076153
 20
317.1538082358108
 30
0.0
 11
-2527.31437076153
 21
338.15380823581069
 31
0.0
  0
LINE
  5
18C25
  8
1DIM
 10
-2457.31437076153
 20
317.1538082358108
 30
0.0
 11
-2457.31437076153
 21
338.15380823581069
 31
0.0
  0
LINE
  5
18C26
  8
01
 10
-2430.31437076153
 20
405.15380823581052
 30
0.0
 11
-2430.31437076153
 21
394.65380823581052
 31
0.0
  0
LINE
  5
18C27
  8
01
 10
-2430.31437076153
 20
394.65380823581052
 30
0.0
 11
-2431.8143707615291
 21
394.65380823581052
 31
0.0
  0
LINE
  5
18C28
  8
01
 10
-2431.81437076153
 20
405.15380823581052
 30
0.0
 11
-2431.81437076153
 21
394.65380823581052
 31
0.0
  0
ARC
  5
18C29
  8
01
 10
-2434.81437076153
 20
405.15380823581069
 30
0.0
 40
3.0
 50
0.000000000000007
 51
90.0
  0
ARC
  5
18C2A
  8
01
 10
-2434.81437076153
 20
405.15380823581069
 30
0.0
 40
4.5
 50
0.000000000000007
 51
90.0
  0
LINE
  5
18C2B
  8
01
 10
-2467.3143707615291
 20
407.65380823581052
 30
0.0
 11
-2467.3143707615291
 21
388.15380823581052
 31
0.0
  0
LINE
  5
18C2C
  8
01
 10
-2467.3143707615291
 20
388.15380823581052
 30
0.0
 11
-2465.81437076153
 21
388.15380823581052
 31
0.0
  0
LINE
  5
18C2E
  8
01
 10
-2467.3143707615291
 20
409.15380823581091
 30
0.0
 11
-2467.3143707615291
 21
388.15380823581052
 31
0.0
  0
LINE
  5
18C2F
  8
01
 10
-2465.8143707615291
 20
408.15380823581052
 30
0.0
 11
-2465.8143707615291
 21
388.15380823581052
 31
0.0
  0
LINE
  5
18C30
  8
01
 10
-2434.81437076153
 20
409.65380823581052
 30
0.0
 11
-2466.8143707615291
 21
409.65380823581091
 31
0.0
  0
ARC
  5
18C31
  8
01
 10
-2466.8143707615291
 20
409.15380823581108
 30
0.0
 40
0.5
 50
90.0
 51
180.0
  0
LINE
  5
18C32
  8
01
 10
-2434.81437076153
 20
408.15380823581052
 30
0.0
 11
-2465.8143707615291
 21
408.15380823581052
 31
0.0
  0
LINE
  5
18C35
  8
1CENTER
 10
-2460.8143707615291
 20
398.15380823581103
 30
0.0
 11
-2470.81437076153
 21
398.15380823581103
 31
0.0
  0
LINE
  5
18C64
  8
1CENTER
 10
-2470.314370761535
 20
398.15380823581052
 30
0.0
 11
-2461.7143707615301
 21
398.15380823580961
 31
0.0
  0
TEXT
  5
18DB1
  8
1TEXT
 10
-2577.31437076153
 20
464.15361806324489
 30
0.0
 40
7.0
  1
PS075_05
 41
1.0098214000000001
  0
ARC
  5
18F4B
  8
01
 10
-2334.3143707615309
 20
398.65380823580972
 30
0.0
 40
4.0
 50
270.00000000000227
 51
0.0000000000025444
  0
ARC
  5
18F4C
  8
01
 10
-2334.3143707615309
 20
392.15380823580659
 30
0.0
 40
4.0
 50
269.99999999999778
 51
0.0
  0
ARC
  5
18F4D
  8
01
 10
-2376.31437076153
 20
398.6538082358079
 30
0.0
 40
4.0
 50
180.0
 51
270.00000000000227
  0
ARC
  5
18F4E
  8
01
 10
-2376.31437076153
 20
392.15380823580819
 30
0.0
 40
4.0
 50
180.0
 51
269.99999999999778
  0
ARC
  5
18F4F
  8
01
 10
-2531.31437076153
 20
392.15380823581029
 30
0.0
 40
4.0
 50
270.00000000000438
 51
0.0000000000038039
  0
ARC
  5
18F50
  8
01
 10
-2573.3143707615309
 20
392.15380823580711
 30
0.0
 40
4.0
 50
179.99999999999869
 51
270.00000000000449
  0
LINE
  5
19219
  8
1HIDDEN
 10
-2466.1143707615288
 20
400.55388055819901
 30
0.0
 11
-2466.1143707615288
 21
395.75373591342208
 31
0.0
  0
LINE
  5
1922E
  8
1HIDDEN
 10
-2467.3143707615291
 20
394.55384439700902
 30
0.0
 11
-2466.1143707615288
 21
395.75373591342208
 31
0.0
  0
LINE
  5
1922F
  8
1HIDDEN
 10
-2467.3143707615291
 20
401.75377207461042
 30
0.0
 11
-2466.1143707615288
 21
400.55388055819901
 31
0.0
  0
LINE
  5
1923F
  8
01
 10
-2359.0000199628912
 20
317.06668906461579
 30
0.0
 11
-2350.1000315969131
 21
317.06668906461579
 31
0.0
  0
LINE
  5
19240
  8
01
 10
-2359.0000269432762
 20
314.0666890646159
 30
0.0
 11
-2350.0999664464612
 21
314.0666890646159
 31
0.0
  0
LINE
  5
19241
  8
1CENTER
 10
-2365.8366800723961
 20
315.5666890646159
 30
0.0
 11
-2346.4715480762661
 21
315.5666890646159
 31
0.0
  0
LINE
  5
19242
  8
01
 10
-2357.4000281066728
 20
313.5666890646159
 30
0.0
 11
-2358.200018799495
 21
317.5666890646159
 31
0.0
  0
LINE
  5
19243
  8
01
 10
-2358.200018799495
 20
317.5666890646159
 30
0.0
 11
-2358.3000199628918
 21
317.06668906461579
 31
0.0
  0
LINE
  5
19244
  8
01
 10
-2357.300026943276
 20
314.0666890646159
 30
0.0
 11
-2357.4000281066728
 21
313.5666890646159
 31
0.0
  0
LINE
  5
19245
  8
01
 10
-2360.6000270530631
 20
314.01950520667441
 30
0.0
 11
-2361.4000203799042
 21
316.88746790800599
 31
0.0
  0
LINE
  5
19246
  8
01
 10
-2362.2000259994588
 20
314.47231871472337
 30
0.0
 11
-2363.00002143351
 21
316.43465380359851
 31
0.0
  0
LINE
  5
19247
  8
01
 10
-2361.4000203799042
 20
316.88746790800599
 30
0.0
 11
-2361.5827845225322
 21
316.33571844420169
 31
0.0
  0
LINE
  5
19248
  8
01
 10
-2362.0485902030182
 20
314.92949055535479
 30
0.0
 11
-2362.2000259994588
 21
314.47231871472337
 31
0.0
  0
LINE
  5
19249
  8
01
 10
-2363.00002143351
 20
316.43465380359851
 30
0.0
 11
-2363.3117912897619
 21
315.84637722855649
 31
0.0
  0
LINE
  5
1924A
  8
01
 10
-2360.487257540713
 20
314.48760366182489
 30
0.0
 11
-2360.6000270530631
 21
314.01950520667441
 31
0.0
  0
LINE
  5
1924B
  8
01
 10
-2359.0000281066732
 20
313.5666890646159
 30
0.0
 11
-2359.8000193262978
 21
317.34028201241262
 31
0.0
  0
LINE
  5
1924C
  8
01
 10
-2359.8000193262978
 20
317.34028201241262
 30
0.0
 11
-2359.9292900239279
 21
316.80368827714091
 31
0.0
  0
LINE
  5
1924D
  8
01
 10
-2364.300023453136
 20
315.5666890646159
 30
0.0
 11
-2359.0000199628912
 21
317.06668906461579
 31
0.0
  0
LINE
  5
1924E
  8
01
 10
-2364.300023453136
 20
315.5666890646159
 30
0.0
 11
-2359.0000269432762
 21
314.0666890646159
 31
0.0
  0
LINE
  5
1924F
  8
01
 10
-2358.9000269432759
 20
314.0666890646159
 30
0.0
 11
-2359.0000281066732
 21
313.5666890646159
 31
0.0
  0
LINE
  5
19250
  8
01
 10
-2351.0000281066718
 20
313.5666890646159
 30
0.0
 11
-2351.8000187994949
 21
317.5666890646159
 31
0.0
  0
LINE
  5
19251
  8
01
 10
-2350.900026943275
 20
314.0666890646159
 30
0.0
 11
-2351.0000281066718
 21
313.5666890646159
 31
0.0
  0
LINE
  5
19252
  8
01
 10
-2351.8000187994949
 20
317.5666890646159
 30
0.0
 11
-2351.9000199628931
 21
317.06668906461579
 31
0.0
  0
LINE
  5
19253
  8
01
 10
-2348.6000141458499
 20
318.56668906461579
 30
0.0
 11
-2348.3000141458479
 21
318.56668906461579
 31
0.0
  0
LINE
  5
19254
  8
01
 10
-2348.6000304332888
 20
312.56674258127771
 30
0.0
 11
-2348.3000292698912
 21
312.56674258127771
 31
0.0
  0
LINE
  5
19255
  8
01
 10
-2348.3000292698912
 20
312.56674258127771
 30
0.0
 11
-2348.3000153092462
 21
318.56668906461579
 31
0.0
  0
LINE
  5
19256
  8
01
 10
-2348.6000292698918
 20
312.56674258127771
 30
0.0
 11
-2348.60001530925
 21
318.56668790122927
 31
0.0
  0
LINE
  5
19257
  8
01
 10
-2355.8000281066738
 20
313.5666890646159
 30
0.0
 11
-2356.600018799496
 21
317.5666890646159
 31
0.0
  0
LINE
  5
19258
  8
01
 10
-2356.600018799496
 20
317.5666890646159
 30
0.0
 11
-2356.7000199628928
 21
317.06668906461579
 31
0.0
  0
LINE
  5
19259
  8
01
 10
-2354.1000269432761
 20
314.0666890646159
 30
0.0
 11
-2354.200028106673
 21
313.5666890646159
 31
0.0
  0
LINE
  5
1925A
  8
01
 10
-2355.000018799496
 20
317.5666890646159
 30
0.0
 11
-2355.1000199628929
 21
317.06668906461579
 31
0.0
  0
LINE
  5
1925B
  8
01
 10
-2355.700026943276
 20
314.0666890646159
 30
0.0
 11
-2355.8000281066738
 21
313.5666890646159
 31
0.0
  0
LINE
  5
1925C
  8
01
 10
-2354.200028106673
 20
313.5666890646159
 30
0.0
 11
-2355.000018799496
 21
317.5666890646159
 31
0.0
  0
LINE
  5
1925D
  8
01
 10
-2353.4000187994948
 20
317.5666890646159
 30
0.0
 11
-2353.500019962893
 21
317.06668906461579
 31
0.0
  0
LINE
  5
1925E
  8
01
 10
-2352.5000269432762
 20
314.0666890646159
 30
0.0
 11
-2352.6000281066731
 21
313.5666890646159
 31
0.0
  0
LINE
  5
1925F
  8
01
 10
-2352.6000281066731
 20
313.5666890646159
 30
0.0
 11
-2353.4000187994948
 21
317.5666890646159
 31
0.0
  0
LINE
  5
19260
  8
01
 10
-2348.6000141458499
 20
318.56668906461579
 30
0.0
 11
-2350.1000315969131
 21
317.06668906461579
 31
0.0
  0
LINE
  5
19261
  8
01
 10
-2348.6000304332888
 20
312.56674258127771
 30
0.0
 11
-2350.0999664464612
 21
314.0666890646159
 31
0.0
  0
LINE
  5
19267
  8
1HIDDEN
 10
-2466.1143707615288
 20
400.55388055819901
 30
0.0
 11
-2465.8143707615291
 21
400.55388055819901
 31
0.0
  0
LINE
  5
19268
  8
1HIDDEN
 10
-2466.1143707615288
 20
395.75373591342208
 30
0.0
 11
-2465.8143707615291
 21
395.75373591342208
 31
0.0
  0
CIRCLE
  5
19427
  8
01
  6
BYBLOCK
 10
-2537.3143707615309
 20
398.15380823580932
 30
0.0
 40
2.40007232238895
  0
CIRCLE
  5
19428
  8
01
  6
BYBLOCK
 10
-2537.3143707615309
 20
398.15380823580932
 30
0.0
 40
3.6000000000000001
  0
CIRCLE
  5
19429
  8
01
  6
BYBLOCK
 10
-2567.31437076153
 20
398.15380823580881
 30
0.0
 40
2.40007232238895
  0
CIRCLE
  5
1942A
  8
01
  6
BYBLOCK
 10
-2567.31437076153
 20
398.15380823580881
 30
0.0
 40
3.6000000000000001
  0
LINE
  5
199E2
  8
1DIM
 10
-2528.3143707615309
 20
388.15380823580909
 30
0.0
 11
-2506.3143707615309
 21
388.15380823580909
 31
0.0
  0
LINE
  5
199E3
  8
1DIM
 10
-2527.31437076153
 20
409.65380823580909
 30
0.0
 11
-2506.3143707615309
 21
409.65380823580909
 31
0.0
  0
LINE
  5
199E4
  8
1DIM
 10
-2507.3143707615309
 20
390.15380823580909
 30
0.0
 11
-2507.3143707615309
 21
407.65380823580909
 31
0.0
  0
LINE
  5
199E8
  8
1DIM
 10
-2567.3143707615309
 20
391.15380823580938
 30
0.0
 11
-2567.3143707615309
 21
367.15380823581069
 31
0.0
  0
LINE
  5
199E9
  8
1DIM
 10
-2577.3143707615309
 20
389.15380823581057
 30
0.0
 11
-2577.3143707615309
 21
367.15380823581069
 31
0.0
  0
LINE
  5
199EA
  8
1DIM
 10
-2569.3143707615318
 20
368.15380823581069
 30
0.0
 11
-2575.31437076153
 21
368.15380823581069
 31
0.0
  0
LINE
  5
199EE
  8
1DIM
 10
-2567.31437076153
 20
391.1538082358087
 30
0.0
 11
-2567.31437076153
 21
367.15380823581069
 31
0.0
  0
LINE
  5
199EF
  8
1DIM
 10
-2537.3143707615291
 20
391.1538082358087
 30
0.0
 11
-2537.3143707615291
 21
367.15380823581069
 31
0.0
  0
LINE
  5
199F0
  8
1DIM
 10
-2565.31437076153
 20
368.15380823581069
 30
0.0
 11
-2539.3143707615291
 21
368.15380823581069
 31
0.0
  0
LINE
  5
199F4
  8
1DIM
 10
-2537.3143707615291
 20
391.15380823580938
 30
0.0
 11
-2537.3143707615291
 21
367.15380823581069
 31
0.0
  0
LINE
  5
199F5
  8
1DIM
 10
-2527.31437076153
 20
389.15380823581057
 30
0.0
 11
-2527.31437076153
 21
367.15380823581069
 31
0.0
  0
LINE
  5
199F6
  8
1DIM
 10
-2535.3143707615291
 20
368.15380823581069
 30
0.0
 11
-2529.31437076153
 21
368.15380823581069
 31
0.0
  0
LINE
  5
199FA
  8
1DIM
 10
-2467.3143707615291
 20
401.75377207461042
 30
0.0
 11
-2478.3143707615309
 21
401.75377207461042
 31
0.0
  0
LINE
  5
199FB
  8
1DIM
 10
-2467.3143707615291
 20
394.55384439700902
 30
0.0
 11
-2478.3143707615309
 21
394.55384439700902
 31
0.0
  0
LINE
  5
199FC
  8
1DIM
 10
-2477.3143707615309
 20
396.55384439700902
 30
0.0
 11
-2477.3143707615309
 21
399.75377207461042
 31
0.0
  0
LINE
  5
199FD
  8
1DIM
 10
-2477.3143707615309
 20
401.75377207461042
 30
0.0
 11
-2477.3143707615309
 21
416.68714156914319
 31
0.0
  0
LINE
  5
19A01
  8
1DIM
 10
-2465.8143707615291
 20
400.55388055819901
 30
0.0
 11
-2456.3143707615309
 21
400.55388055819901
 31
0.0
  0
LINE
  5
19A02
  8
1DIM
 10
-2465.8143707615291
 20
395.75373591342208
 30
0.0
 11
-2456.3143707615309
 21
395.75373591342208
 31
0.0
  0
LINE
  5
19A03
  8
1DIM
 10
-2457.3143707615309
 20
402.55388055819913
 30
0.0
 11
-2457.3143707615309
 21
404.55388055819901
 31
0.0
  0
LINE
  5
19A04
  8
1DIM
 10
-2457.3143707615309
 20
393.75373591342208
 30
0.0
 11
-2457.3143707615309
 21
379.02040258008878
 31
0.0
  0
LINE
  5
19A05
  8
1DIM
 10
-2457.3143707615309
 20
400.55388055819901
 30
0.0
 11
-2457.3143707615309
 21
395.75373591342208
 31
0.0
  0
LINE
  5
19A09
  8
1DIM
 10
-2430.31437076153
 20
394.65380823581052
 30
0.0
 11
-2409.31437076153
 21
394.65380823581052
 31
0.0
  0
LINE
  5
19A0A
  8
1DIM
 10
-2434.81437076153
 20
409.65380823581052
 30
0.0
 11
-2409.31437076153
 21
409.65380823581052
 31
0.0
  0
LINE
  5
19A0B
  8
1DIM
 10
-2410.3143707615291
 20
396.65380823581052
 30
0.0
 11
-2410.3143707615291
 21
407.6538082358104
 31
0.0
  0
LINE
  5
19A0F
  8
1DIM
 10
-2465.8143707615291
 20
388.15380823581052
 30
0.0
 11
-2419.31437076153
 21
388.15380823581052
 31
0.0
  0
LINE
  5
19A10
  8
1DIM
 10
-2430.31437076153
 20
394.65380823581052
 30
0.0
 11
-2419.31437076153
 21
394.65380823581052
 31
0.0
  0
LINE
  5
19A11
  8
1DIM
 10
-2420.31437076153
 20
390.15380823581052
 30
0.0
 11
-2420.31437076153
 21
392.65380823581052
 31
0.0
  0
LINE
  5
19A12
  8
1DIM
 10
-2420.31437076153
 20
394.65380823581052
 30
0.0
 11
-2420.31437076153
 21
405.22047490247712
 31
0.0
  0
LINE
  5
19A16
  8
1DIM
 10
-2431.8143707615291
 20
394.65380823581052
 30
0.0
 11
-2431.8143707615291
 21
367.15380823581069
 31
0.0
  0
LINE
  5
19A17
  8
1DIM
 10
-2430.31437076153
 20
394.65380823581052
 30
0.0
 11
-2430.31437076153
 21
367.15380823581069
 31
0.0
  0
LINE
  5
19A18
  8
1DIM
 10
-2433.8143707615291
 20
368.1538082358108
 30
0.0
 11
-2435.8143707615291
 21
368.1538082358108
 31
0.0
  0
LINE
  5
19A19
  8
1DIM
 10
-2428.31437076153
 20
368.1538082358108
 30
0.0
 11
-2418.0810374281959
 21
368.1538082358108
 31
0.0
  0
LINE
  5
19A1A
  8
1DIM
 10
-2431.8143707615291
 20
368.1538082358108
 30
0.0
 11
-2430.31437076153
 21
368.1538082358108
 31
0.0
  0
LINE
  5
19A1E
  8
1DIM
 10
-2465.8143707615291
 20
388.15380823581052
 30
0.0
 11
-2465.8143707615291
 21
367.15380823581069
 31
0.0
  0
LINE
  5
19A1F
  8
1DIM
 10
-2431.81437076153
 20
394.65380823581052
 30
0.0
 11
-2431.81437076153
 21
367.15380823581069
 31
0.0
  0
LINE
  5
19A20
  8
1DIM
 10
-2463.8143707615291
 20
368.1538082358108
 30
0.0
 11
-2433.81437076153
 21
368.1538082358108
 31
0.0
  0
LINE
  5
19A24
  8
1DIM
 10
-2467.31437076153
 20
388.15380823581052
 30
0.0
 11
-2467.31437076153
 21
367.15380823581069
 31
0.0
  0
LINE
  5
19A25
  8
1DIM
 10
-2465.8143707615291
 20
388.15380823581052
 30
0.0
 11
-2465.8143707615291
 21
367.15380823581069
 31
0.0
  0
LINE
  5
19A26
  8
1DIM
 10
-2463.8143707615291
 20
368.1538082358108
 30
0.0
 11
-2461.8143707615291
 21
368.1538082358108
 31
0.0
  0
LINE
  5
19A27
  8
1DIM
 10
-2469.31437076153
 20
368.1538082358108
 30
0.0
 11
-2479.5477040948631
 21
368.1538082358108
 31
0.0
  0
LINE
  5
19A28
  8
1DIM
 10
-2465.8143707615291
 20
368.1538082358108
 30
0.0
 11
-2467.31437076153
 21
368.1538082358108
 31
0.0
  0
LINE
  5
19A2C
  8
1DIM
 10
-2467.31437076153
 20
388.15380823581052
 30
0.0
 11
-2488.3143707615318
 21
388.15380823581052
 31
0.0
  0
LINE
  5
19A2D
  8
1DIM
 10
-2470.81437076153
 20
398.15380823581103
 30
0.0
 11
-2488.3143707615318
 21
398.15380823581103
 31
0.0
  0
LINE
  5
19A2E
  8
1DIM
 10
-2487.3143707615309
 20
390.15380823581052
 30
0.0
 11
-2487.3143707615309
 21
396.15380823581103
 31
0.0
  0
LINE
  5
19A32
  8
1DIM
 10
-2348.3000222896312
 20
312.56674258127771
 30
0.0
 11
-2338.7604052365919
 21
312.56674258127771
 31
0.0
  0
LINE
  5
19A33
  8
1DIM
 10
-2348.3000222896312
 20
318.56668906461579
 30
0.0
 11
-2338.7604052365919
 21
318.56668906461579
 31
0.0
  0
LINE
  5
19A34
  8
1DIM
 10
-2339.7604052365919
 20
314.56674258127771
 30
0.0
 11
-2339.7604052365919
 21
316.56668906461579
 31
0.0
  0
LINE
  5
19A35
  8
1DIM
 10
-2339.7604052365919
 20
318.56668906461579
 30
0.0
 11
-2339.7604052365919
 21
328.30002239794919
 31
0.0
  0
LINE
  5
19A39
  8
1DIM
 10
-2364.300014145902
 20
315.5666890646159
 30
0.0
 11
-2364.300014145902
 21
328.51655069584712
 31
0.0
  0
LINE
  5
19A3A
  8
1DIM
 10
-2348.3000060020672
 20
319.06668906461579
 30
0.0
 11
-2348.3000060020672
 21
328.51655069584712
 31
0.0
  0
LINE
  5
19A3B
  8
1DIM
 10
-2362.300014145902
 20
327.51655069584712
 30
0.0
 11
-2350.3000060020672
 21
327.51655069584712
 31
0.0
  0
LINE
  5
19A3F
  8
1DIM
 10
-2358.2000094922619
 20
317.5666890646159
 30
0.0
 11
-2370.0448900229562
 21
317.5666890646159
 31
0.0
  0
LINE
  5
19A40
  8
1DIM
 10
-2357.4000187994388
 20
313.5666890646159
 30
0.0
 11
-2370.0448900229562
 21
313.5666890646159
 31
0.0
  0
LINE
  5
19A41
  8
1DIM
 10
-2369.0448900229562
 20
311.5666890646159
 30
0.0
 11
-2369.0448900229562
 21
309.5666890646159
 31
0.0
  0
LINE
  5
19A42
  8
1DIM
 10
-2369.0448900229562
 20
319.5666890646159
 30
0.0
 11
-2369.0448900229562
 21
329.4666890646165
 31
0.0
  0
LINE
  5
19A43
  8
1DIM
 10
-2369.0448900229562
 20
313.5666890646159
 30
0.0
 11
-2369.0448900229562
 21
317.5666890646159
 31
0.0
  0
TEXT
  5
19A47
  8
1TEXT
 10
-2362.379636402773
 20
299.0866791296927
 30
0.0
 40
4.0
  1
òtæ«òi
  0
LINE
  5
19A48
  8
1DIM
 10
-2374.4433583455798
 20
338.15380823581069
 30
0.0
 11
-2336.1853831774802
 21
338.15380823581069
 31
0.0
  0
LINE
  5
19A49
  8
1DIM
 10
-2336.1853831774802
 20
338.15380823581069
 30
0.0
 11
-2336.1853831774802
 21
296.5978772207506
 31
0.0
  0
LINE
  5
19A4A
  8
1DIM
 10
-2336.1853831774802
 20
296.5978772207506
 30
0.0
 11
-2374.4433583455798
 21
296.5978772207506
 31
0.0
  0
LINE
  5
19A4B
  8
1DIM
 10
-2374.4433583455798
 20
296.5978772207506
 30
0.0
 11
-2374.4433583455798
 21
338.15380823581069
 31
0.0
  0
LINE
  5
19A4C
  8
1DIM
 10
-2430.31437076153
 20
394.65380823581052
 30
0.0
 11
-2430.31437076153
 21
357.15380823581052
 31
0.0
  0
LINE
  5
19A4D
  8
1DIM
 10
-2467.31437076153
 20
388.15380823581052
 30
0.0
 11
-2467.31437076153
 21
357.15380823581052
 31
0.0
  0
LINE
  5
19A4E
  8
1DIM
 10
-2432.31437076153
 20
358.15380823581052
 30
0.0
 11
-2465.31437076153
 21
358.15380823581052
 31
0.0
  0
LINE
  5
19A52
  8
1DIM
 10
-2333.31437076153
 20
394.65380823580972
 30
0.0
 11
-2309.31437076153
 21
394.65380823580972
 31
0.0
  0
LINE
  5
19A53
  8
1DIM
 10
-2330.31437076153
 20
409.6538082358083
 30
0.0
 11
-2309.31437076153
 21
409.6538082358083
 31
0.0
  0
LINE
  5
19A54
  8
1DIM
 10
-2310.31437076153
 20
396.65380823580972
 30
0.0
 11
-2310.31437076153
 21
407.6538082358083
 31
0.0
  0
LINE
  5
19A58
  8
1DIM
 10
-2380.31437076153
 20
389.1538082358083
 30
0.0
 11
-2380.31437076153
 21
367.15380823580648
 31
0.0
  0
LINE
  5
19A59
  8
1DIM
 10
-2330.31437076153
 20
389.15380823581057
 30
0.0
 11
-2330.31437076153
 21
367.15380823580648
 31
0.0
  0
LINE
  5
19A5A
  8
1DIM
 10
-2378.3143707615291
 20
368.15380823580648
 30
0.0
 11
-2332.31437076153
 21
368.15380823580648
 31
0.0
  0
TEXT
  5
19A5E
  8
1DIM
 10
-2357.93937076153
 20
368.85380823580653
 30
0.0
 40
3.5
  1
50
  0
LINE
  5
19A5F
  8
0
  6
BYBLOCK
 10
-2332.31437076153
 20
368.68970661580647
 30
0.0
 11
-2330.31437076153
 21
368.15380823580648
 31
0.0
  0
LINE
  5
19A60
  8
0
  6
BYBLOCK
 10
-2330.31437076153
 20
368.15380823580648
 30
0.0
 11
-2332.31437076153
 21
367.6179098558066
 31
0.0
  0
LINE
  5
19A61
  8
0
  6
BYBLOCK
 10
-2330.31437076153
 20
368.15380823580648
 30
0.0
 11
-2332.31437076153
 21
368.15380823580648
 31
0.0
  0
LINE
  5
19A62
  8
0
  6
BYBLOCK
 10
-2378.3143707615291
 20
367.6179098558066
 30
0.0
 11
-2380.31437076153
 21
368.15380823580648
 31
0.0
  0
LINE
  5
19A63
  8
0
  6
BYBLOCK
 10
-2380.31437076153
 20
368.15380823580648
 30
0.0
 11
-2378.3143707615291
 21
368.68970661580647
 31
0.0
  0
LINE
  5
19A64
  8
0
  6
BYBLOCK
 10
-2380.31437076153
 20
368.15380823580648
 30
0.0
 11
-2378.3143707615291
 21
368.15380823580648
 31
0.0
  0
TEXT
  5
19A65
  8
1DIM
 10
-2311.0143707615298
 20
399.82047490247533
 30
0.0
 40
3.5
  1
15
 50
90.0
  0
LINE
  5
19A66
  8
0
  6
BYBLOCK
 10
-2310.8502691415301
 20
407.6538082358083
 30
0.0
 11
-2310.31437076153
 21
409.6538082358083
 31
0.0
  0
LINE
  5
19A67
  8
0
  6
BYBLOCK
 10
-2310.31437076153
 20
409.6538082358083
 30
0.0
 11
-2309.7784723815298
 21
407.6538082358083
 31
0.0
  0
LINE
  5
19A68
  8
0
  6
BYBLOCK
 10
-2310.31437076153
 20
409.6538082358083
 30
0.0
 11
-2310.31437076153
 21
407.6538082358083
 31
0.0
  0
LINE
  5
19A69
  8
0
  6
BYBLOCK
 10
-2309.7784723815298
 20
396.65380823580972
 30
0.0
 11
-2310.31437076153
 21
394.65380823580972
 31
0.0
  0
LINE
  5
19A6A
  8
0
  6
BYBLOCK
 10
-2310.31437076153
 20
394.65380823580972
 30
0.0
 11
-2310.8502691415301
 21
396.65380823580972
 31
0.0
  0
LINE
  5
19A6B
  8
0
  6
BYBLOCK
 10
-2310.31437076153
 20
394.65380823580972
 30
0.0
 11
-2310.31437076153
 21
396.65380823580972
 31
0.0
  0
TEXT
  5
19A6C
  8
1DIM
 10
-2451.731037428196
 20
358.8538082358105
 30
0.0
 40
3.5
  1
37
  0
LINE
  5
19A6D
  8
0
  6
BYBLOCK
 10
-2465.31437076153
 20
357.61790985581052
 30
0.0
 11
-2467.31437076153
 21
358.15380823581052
 31
0.0
  0
LINE
  5
19A6E
  8
0
  6
BYBLOCK
 10
-2467.31437076153
 20
358.15380823581052
 30
0.0
 11
-2465.31437076153
 21
358.68970661581051
 31
0.0
  0
LINE
  5
19A6F
  8
0
  6
BYBLOCK
 10
-2467.31437076153
 20
358.15380823581052
 30
0.0
 11
-2465.31437076153
 21
358.15380823581052
 31
0.0
  0
LINE
  5
19A70
  8
0
  6
BYBLOCK
 10
-2432.31437076153
 20
358.68970661581051
 30
0.0
 11
-2430.31437076153
 21
358.15380823581052
 31
0.0
  0
LINE
  5
19A71
  8
0
  6
BYBLOCK
 10
-2430.31437076153
 20
358.15380823581052
 30
0.0
 11
-2432.31437076153
 21
357.61790985581052
 31
0.0
  0
LINE
  5
19A72
  8
0
  6
BYBLOCK
 10
-2430.31437076153
 20
358.15380823581052
 30
0.0
 11
-2432.31437076153
 21
358.15380823581052
 31
0.0
  0
TEXT
  5
19A73
  8
1DIM
 10
-2369.744890022956
 20
321.90002239794939
 30
0.0
 40
3.5
  1
âË4
 50
90.0
  0
LINE
  5
19A74
  8
0
  6
BYBLOCK
 10
-2368.5089916429561
 20
319.5666890646159
 30
0.0
 11
-2369.0448900229562
 21
317.5666890646159
 31
0.0
  0
LINE
  5
19A75
  8
0
  6
BYBLOCK
 10
-2369.0448900229562
 20
317.5666890646159
 30
0.0
 11
-2369.5807884029559
 21
319.5666890646159
 31
0.0
  0
LINE
  5
19A76
  8
0
  6
BYBLOCK
 10
-2369.0448900229562
 20
317.5666890646159
 30
0.0
 11
-2369.0448900229562
 21
319.5666890646159
 31
0.0
  0
LINE
  5
19A77
  8
0
  6
BYBLOCK
 10
-2369.5807884029559
 20
311.5666890646159
 30
0.0
 11
-2369.0448900229562
 21
313.5666890646159
 31
0.0
  0
LINE
  5
19A78
  8
0
  6
BYBLOCK
 10
-2369.0448900229562
 20
313.5666890646159
 30
0.0
 11
-2368.5089916429561
 21
311.5666890646159
 31
0.0
  0
LINE
  5
19A79
  8
0
  6
BYBLOCK
 10
-2369.0448900229562
 20
313.5666890646159
 30
0.0
 11
-2369.0448900229562
 21
311.5666890646159
 31
0.0
  0
TEXT
  5
19A7A
  8
1DIM
 10
-2358.3310391856489
 20
328.2165506958471
 30
0.0
 40
3.5
  1
16
  0
LINE
  5
19A7B
  8
0
  6
BYBLOCK
 10
-2350.3000060020672
 20
328.05244907584699
 30
0.0
 11
-2348.3000060020672
 21
327.51655069584712
 31
0.0
  0
LINE
  5
19A7C
  8
0
  6
BYBLOCK
 10
-2348.3000060020672
 20
327.51655069584712
 30
0.0
 11
-2350.3000060020672
 21
326.98065231584712
 31
0.0
  0
LINE
  5
19A7D
  8
0
  6
BYBLOCK
 10
-2348.3000060020672
 20
327.51655069584712
 30
0.0
 11
-2350.3000060020672
 21
327.51655069584712
 31
0.0
  0
LINE
  5
19A7E
  8
0
  6
BYBLOCK
 10
-2362.300014145902
 20
326.98065231584712
 30
0.0
 11
-2364.300014145902
 21
327.51655069584712
 31
0.0
  0
LINE
  5
19A7F
  8
0
  6
BYBLOCK
 10
-2364.300014145902
 20
327.51655069584712
 30
0.0
 11
-2362.300014145902
 21
328.05244907584699
 31
0.0
  0
LINE
  5
19A80
  8
0
  6
BYBLOCK
 10
-2364.300014145902
 20
327.51655069584712
 30
0.0
 11
-2362.300014145902
 21
327.51655069584712
 31
0.0
  0
TEXT
  5
19A81
  8
1DIM
 10
-2340.4604052365921
 20
320.8166890646155
 30
0.0
 40
3.5
  1
âË6
 50
90.0
  0
LINE
  5
19A82
  8
0
  6
BYBLOCK
 10
-2340.2963036165929
 20
316.56668906461579
 30
0.0
 11
-2339.7604052365919
 21
318.56668906461579
 31
0.0
  0
LINE
  5
19A83
  8
0
  6
BYBLOCK
 10
-2339.7604052365919
 20
318.56668906461579
 30
0.0
 11
-2339.2245068565921
 21
316.56668906461579
 31
0.0
  0
LINE
  5
19A84
  8
0
  6
BYBLOCK
 10
-2339.7604052365919
 20
318.56668906461579
 30
0.0
 11
-2339.7604052365919
 21
316.56668906461579
 31
0.0
  0
LINE
  5
19A85
  8
0
  6
BYBLOCK
 10
-2339.2245068565921
 20
314.56674258127771
 30
0.0
 11
-2339.7604052365919
 21
312.56674258127771
 31
0.0
  0
LINE
  5
19A86
  8
0
  6
BYBLOCK
 10
-2339.7604052365919
 20
312.56674258127771
 30
0.0
 11
-2340.2963036165929
 21
314.56674258127771
 31
0.0
  0
LINE
  5
19A87
  8
0
  6
BYBLOCK
 10
-2339.7604052365919
 20
312.56674258127771
 30
0.0
 11
-2339.7604052365919
 21
314.56674258127771
 31
0.0
  0
TEXT
  5
19A88
  8
1DIM
 10
-2488.0143707615312
 20
391.11214156914372
 30
0.0
 40
3.5
  1
10
 50
90.0
  0
LINE
  5
19A89
  8
0
  6
BYBLOCK
 10
-2487.850269141532
 20
396.15380823581103
 30
0.0
 11
-2487.3143707615309
 21
398.15380823581103
 31
0.0
  0
LINE
  5
19A8A
  8
0
  6
BYBLOCK
 10
-2487.3143707615309
 20
398.15380823581103
 30
0.0
 11
-2486.7784723815312
 21
396.15380823581103
 31
0.0
  0
LINE
  5
19A8B
  8
0
  6
BYBLOCK
 10
-2487.3143707615309
 20
398.15380823581103
 30
0.0
 11
-2487.3143707615309
 21
396.15380823581103
 31
0.0
  0
LINE
  5
19A8C
  8
0
  6
BYBLOCK
 10
-2486.7784723815312
 20
390.15380823581052
 30
0.0
 11
-2487.3143707615309
 21
388.15380823581052
 31
0.0
  0
LINE
  5
19A8D
  8
0
  6
BYBLOCK
 10
-2487.3143707615309
 20
388.15380823581052
 30
0.0
 11
-2487.850269141532
 21
390.15380823581052
 31
0.0
  0
LINE
  5
19A8E
  8
0
  6
BYBLOCK
 10
-2487.3143707615309
 20
388.15380823581052
 30
0.0
 11
-2487.3143707615309
 21
390.15380823581052
 31
0.0
  0
TEXT
  5
19A8F
  8
1DIM
 10
-2478.3477040948628
 20
368.85380823581067
 30
0.0
 40
3.5
  1
1.5
  0
LINE
  5
19A90
  8
0
  6
BYBLOCK
 10
-2469.31437076153
 20
368.68970661581068
 30
0.0
 11
-2467.31437076153
 21
368.1538082358108
 31
0.0
  0
LINE
  5
19A91
  8
0
  6
BYBLOCK
 10
-2467.31437076153
 20
368.1538082358108
 30
0.0
 11
-2469.31437076153
 21
367.61790985581081
 31
0.0
  0
LINE
  5
19A92
  8
0
  6
BYBLOCK
 10
-2467.31437076153
 20
368.1538082358108
 30
0.0
 11
-2469.31437076153
 21
368.1538082358108
 31
0.0
  0
LINE
  5
19A93
  8
0
  6
BYBLOCK
 10
-2463.8143707615291
 20
367.61790985581081
 30
0.0
 11
-2465.8143707615291
 21
368.1538082358108
 31
0.0
  0
LINE
  5
19A94
  8
0
  6
BYBLOCK
 10
-2465.8143707615291
 20
368.1538082358108
 30
0.0
 11
-2463.8143707615291
 21
368.68970661581068
 31
0.0
  0
LINE
  5
19A95
  8
0
  6
BYBLOCK
 10
-2465.8143707615291
 20
368.1538082358108
 30
0.0
 11
-2463.8143707615291
 21
368.1538082358108
 31
0.0
  0
TEXT
  5
19A96
  8
1DIM
 10
-2451.731037428196
 20
368.85380823581067
 30
0.0
 40
3.5
  1
34
  0
LINE
  5
19A97
  8
0
  6
BYBLOCK
 10
-2433.81437076153
 20
368.68970661581068
 30
0.0
 11
-2431.81437076153
 21
368.1538082358108
 31
0.0
  0
LINE
  5
19A98
  8
0
  6
BYBLOCK
 10
-2431.81437076153
 20
368.1538082358108
 30
0.0
 11
-2433.81437076153
 21
367.61790985581081
 31
0.0
  0
LINE
  5
19A99
  8
0
  6
BYBLOCK
 10
-2431.81437076153
 20
368.1538082358108
 30
0.0
 11
-2433.81437076153
 21
368.1538082358108
 31
0.0
  0
LINE
  5
19A9A
  8
0
  6
BYBLOCK
 10
-2463.8143707615291
 20
367.61790985581081
 30
0.0
 11
-2465.8143707615291
 21
368.1538082358108
 31
0.0
  0
LINE
  5
19A9B
  8
0
  6
BYBLOCK
 10
-2465.8143707615291
 20
368.1538082358108
 30
0.0
 11
-2463.8143707615291
 21
368.68970661581068
 31
0.0
  0
LINE
  5
19A9C
  8
0
  6
BYBLOCK
 10
-2465.8143707615291
 20
368.1538082358108
 30
0.0
 11
-2463.8143707615291
 21
368.1538082358108
 31
0.0
  0
TEXT
  5
19A9D
  8
1DIM
 10
-2425.1143707615288
 20
368.85380823581067
 30
0.0
 40
3.5
  1
1.5
  0
LINE
  5
19A9E
  8
0
  6
BYBLOCK
 10
-2428.31437076153
 20
367.61790985581081
 30
0.0
 11
-2430.31437076153
 21
368.1538082358108
 31
0.0
  0
LINE
  5
19A9F
  8
0
  6
BYBLOCK
 10
-2430.31437076153
 20
368.1538082358108
 30
0.0
 11
-2428.31437076153
 21
368.68970661581068
 31
0.0
  0
LINE
  5
19AA0
  8
0
  6
BYBLOCK
 10
-2430.31437076153
 20
368.1538082358108
 30
0.0
 11
-2428.31437076153
 21
368.1538082358108
 31
0.0
  0
LINE
  5
19AA1
  8
0
  6
BYBLOCK
 10
-2433.8143707615291
 20
368.68970661581068
 30
0.0
 11
-2431.8143707615291
 21
368.1538082358108
 31
0.0
  0
LINE
  5
19AA2
  8
0
  6
BYBLOCK
 10
-2431.8143707615291
 20
368.1538082358108
 30
0.0
 11
-2433.8143707615291
 21
367.61790985581081
 31
0.0
  0
LINE
  5
19AA3
  8
0
  6
BYBLOCK
 10
-2431.8143707615291
 20
368.1538082358108
 30
0.0
 11
-2433.8143707615291
 21
368.1538082358108
 31
0.0
  0
TEXT
  5
19AA4
  8
1DIM
 10
-2421.0143707615289
 20
397.43714156914359
 30
0.0
 40
3.5
  1
6.5
 50
90.0
  0
LINE
  5
19AA5
  8
0
  6
BYBLOCK
 10
-2420.8502691415301
 20
392.65380823581052
 30
0.0
 11
-2420.31437076153
 21
394.65380823581052
 31
0.0
  0
LINE
  5
19AA6
  8
0
  6
BYBLOCK
 10
-2420.31437076153
 20
394.65380823581052
 30
0.0
 11
-2419.7784723815289
 21
392.65380823581052
 31
0.0
  0
LINE
  5
19AA7
  8
0
  6
BYBLOCK
 10
-2420.31437076153
 20
394.65380823581052
 30
0.0
 11
-2420.31437076153
 21
392.65380823581052
 31
0.0
  0
LINE
  5
19AA8
  8
0
  6
BYBLOCK
 10
-2419.7784723815289
 20
390.15380823581052
 30
0.0
 11
-2420.31437076153
 21
388.15380823581052
 31
0.0
  0
LINE
  5
19AA9
  8
0
  6
BYBLOCK
 10
-2420.31437076153
 20
388.15380823581052
 30
0.0
 11
-2420.8502691415301
 21
390.15380823581052
 31
0.0
  0
LINE
  5
19AAA
  8
0
  6
BYBLOCK
 10
-2420.31437076153
 20
388.15380823581052
 30
0.0
 11
-2420.31437076153
 21
390.15380823581052
 31
0.0
  0
TEXT
  5
19AAB
  8
1DIM
 10
-2411.0143707615298
 20
399.8204749024768
 30
0.0
 40
3.5
  1
15
 50
90.0
  0
LINE
  5
19AAC
  8
0
  6
BYBLOCK
 10
-2410.8502691415301
 20
407.6538082358104
 30
0.0
 11
-2410.3143707615291
 21
409.65380823581052
 31
0.0
  0
LINE
  5
19AAD
  8
0
  6
BYBLOCK
 10
-2410.3143707615291
 20
409.65380823581052
 30
0.0
 11
-2409.7784723815298
 21
407.6538082358104
 31
0.0
  0
LINE
  5
19AAE
  8
0
  6
BYBLOCK
 10
-2410.3143707615291
 20
409.65380823581052
 30
0.0
 11
-2410.3143707615291
 21
407.6538082358104
 31
0.0
  0
LINE
  5
19AAF
  8
0
  6
BYBLOCK
 10
-2409.7784723815298
 20
396.65380823581052
 30
0.0
 11
-2410.3143707615291
 21
394.65380823581052
 31
0.0
  0
LINE
  5
19AB0
  8
0
  6
BYBLOCK
 10
-2410.3143707615291
 20
394.65380823581052
 30
0.0
 11
-2410.8502691415301
 21
396.65380823581052
 31
0.0
  0
LINE
  5
19AB1
  8
0
  6
BYBLOCK
 10
-2410.3143707615291
 20
394.65380823581052
 30
0.0
 11
-2410.3143707615291
 21
396.65380823581052
 31
0.0
  0
TEXT
  5
19AB2
  8
1DIM
 10
-2458.0143707615312
 20
379.43706924675507
 30
0.0
 40
3.5
  1
âË4.8
 50
90.0
  0
LINE
  5
19AB3
  8
0
  6
BYBLOCK
 10
-2457.850269141531
 20
393.75373591342208
 30
0.0
 11
-2457.3143707615309
 21
395.75373591342208
 31
0.0
  0
LINE
  5
19AB4
  8
0
  6
BYBLOCK
 10
-2457.3143707615309
 20
395.75373591342208
 30
0.0
 11
-2456.7784723815312
 21
393.75373591342208
 31
0.0
  0
LINE
  5
19AB5
  8
0
  6
BYBLOCK
 10
-2457.3143707615309
 20
395.75373591342208
 30
0.0
 11
-2457.3143707615309
 21
393.75373591342208
 31
0.0
  0
LINE
  5
19AB6
  8
0
  6
BYBLOCK
 10
-2456.7784723815312
 20
402.55388055819913
 30
0.0
 11
-2457.3143707615309
 21
400.55388055819901
 31
0.0
  0
LINE
  5
19AB7
  8
0
  6
BYBLOCK
 10
-2457.3143707615309
 20
400.55388055819901
 30
0.0
 11
-2457.850269141531
 21
402.55388055819913
 31
0.0
  0
LINE
  5
19AB8
  8
0
  6
BYBLOCK
 10
-2457.3143707615309
 20
400.55388055819901
 30
0.0
 11
-2457.3143707615309
 21
402.55388055819913
 31
0.0
  0
TEXT
  5
19AB9
  8
1DIM
 10
-2478.0143707615321
 20
404.37047490247619
 30
0.0
 40
3.5
  1
âË7.2
 50
90.0
  0
LINE
  5
19ABA
  8
0
  6
BYBLOCK
 10
-2477.850269141532
 20
399.75377207461042
 30
0.0
 11
-2477.3143707615309
 21
401.75377207461042
 31
0.0
  0
LINE
  5
19ABB
  8
0
  6
BYBLOCK
 10
-2477.3143707615309
 20
401.75377207461042
 30
0.0
 11
-2476.7784723815312
 21
399.75377207461042
 31
0.0
  0
LINE
  5
19ABC
  8
0
  6
BYBLOCK
 10
-2477.3143707615309
 20
401.75377207461042
 30
0.0
 11
-2477.3143707615309
 21
399.75377207461042
 31
0.0
  0
LINE
  5
19ABD
  8
0
  6
BYBLOCK
 10
-2476.7784723815312
 20
396.55384439700902
 30
0.0
 11
-2477.3143707615309
 21
394.55384439700902
 31
0.0
  0
LINE
  5
19ABE
  8
0
  6
BYBLOCK
 10
-2477.3143707615309
 20
394.55384439700902
 30
0.0
 11
-2477.850269141532
 21
396.55384439700902
 31
0.0
  0
LINE
  5
19ABF
  8
0
  6
BYBLOCK
 10
-2477.3143707615309
 20
394.55384439700902
 30
0.0
 11
-2477.3143707615309
 21
396.55384439700902
 31
0.0
  0
TEXT
  5
19AC0
  8
1DIM
 10
-2534.356037428196
 20
368.85380823581067
 30
0.0
 40
3.5
  1
10
  0
LINE
  5
19AC1
  8
0
  6
BYBLOCK
 10
-2529.31437076153
 20
368.68970661581068
 30
0.0
 11
-2527.31437076153
 21
368.15380823581069
 31
0.0
  0
LINE
  5
19AC2
  8
0
  6
BYBLOCK
 10
-2527.31437076153
 20
368.15380823581069
 30
0.0
 11
-2529.31437076153
 21
367.61790985581069
 31
0.0
  0
LINE
  5
19AC3
  8
0
  6
BYBLOCK
 10
-2527.31437076153
 20
368.15380823581069
 30
0.0
 11
-2529.31437076153
 21
368.15380823581069
 31
0.0
  0
LINE
  5
19AC4
  8
0
  6
BYBLOCK
 10
-2535.3143707615291
 20
367.61790985581069
 30
0.0
 11
-2537.3143707615291
 21
368.15380823581069
 31
0.0
  0
LINE
  5
19AC5
  8
0
  6
BYBLOCK
 10
-2537.3143707615291
 20
368.15380823581069
 30
0.0
 11
-2535.3143707615291
 21
368.68970661581068
 31
0.0
  0
LINE
  5
19AC6
  8
0
  6
BYBLOCK
 10
-2537.3143707615291
 20
368.15380823581069
 30
0.0
 11
-2535.3143707615291
 21
368.15380823581069
 31
0.0
  0
TEXT
  5
19AC7
  8
1DIM
 10
-2554.9393707615291
 20
368.85380823581067
 30
0.0
 40
3.5
  1
30
  0
LINE
  5
19AC8
  8
0
  6
BYBLOCK
 10
-2539.3143707615291
 20
368.68970661581068
 30
0.0
 11
-2537.3143707615291
 21
368.15380823581069
 31
0.0
  0
LINE
  5
19AC9
  8
0
  6
BYBLOCK
 10
-2537.3143707615291
 20
368.15380823581069
 30
0.0
 11
-2539.3143707615291
 21
367.61790985581069
 31
0.0
  0
LINE
  5
19ACA
  8
0
  6
BYBLOCK
 10
-2537.3143707615291
 20
368.15380823581069
 30
0.0
 11
-2539.3143707615291
 21
368.15380823581069
 31
0.0
  0
LINE
  5
19ACB
  8
0
  6
BYBLOCK
 10
-2565.31437076153
 20
367.61790985581069
 30
0.0
 11
-2567.31437076153
 21
368.15380823581069
 31
0.0
  0
LINE
  5
19ACC
  8
0
  6
BYBLOCK
 10
-2567.31437076153
 20
368.15380823581069
 30
0.0
 11
-2565.31437076153
 21
368.68970661581068
 31
0.0
  0
LINE
  5
19ACD
  8
0
  6
BYBLOCK
 10
-2567.31437076153
 20
368.15380823581069
 30
0.0
 11
-2565.31437076153
 21
368.15380823581069
 31
0.0
  0
TEXT
  5
19ACE
  8
1DIM
 10
-2574.3560374281969
 20
368.85380823581067
 30
0.0
 40
3.5
  1
10
  0
LINE
  5
19ACF
  8
0
  6
BYBLOCK
 10
-2575.31437076153
 20
367.61790985581069
 30
0.0
 11
-2577.3143707615309
 21
368.15380823581069
 31
0.0
  0
LINE
  5
19AD0
  8
0
  6
BYBLOCK
 10
-2577.3143707615309
 20
368.15380823581069
 30
0.0
 11
-2575.31437076153
 21
368.68970661581068
 31
0.0
  0
LINE
  5
19AD1
  8
0
  6
BYBLOCK
 10
-2577.3143707615309
 20
368.15380823581069
 30
0.0
 11
-2575.31437076153
 21
368.15380823581069
 31
0.0
  0
LINE
  5
19AD2
  8
0
  6
BYBLOCK
 10
-2569.3143707615318
 20
368.68970661581068
 30
0.0
 11
-2567.3143707615309
 21
368.15380823581069
 31
0.0
  0
LINE
  5
19AD3
  8
0
  6
BYBLOCK
 10
-2567.3143707615309
 20
368.15380823581069
 30
0.0
 11
-2569.3143707615318
 21
367.61790985581069
 31
0.0
  0
LINE
  5
19AD4
  8
0
  6
BYBLOCK
 10
-2567.3143707615309
 20
368.15380823581069
 30
0.0
 11
-2569.3143707615318
 21
368.15380823581069
 31
0.0
  0
TEXT
  5
19AD5
  8
1DIM
 10
-2508.0143707615312
 20
394.23714156914212
 30
0.0
 40
3.5
  1
21.5
 50
90.0
  0
LINE
  5
19AD6
  8
0
  6
BYBLOCK
 10
-2507.850269141531
 20
407.65380823580909
 30
0.0
 11
-2507.3143707615309
 21
409.65380823580909
 31
0.0
  0
LINE
  5
19AD7
  8
0
  6
BYBLOCK
 10
-2507.3143707615309
 20
409.65380823580909
 30
0.0
 11
-2506.7784723815312
 21
407.65380823580909
 31
0.0
  0
LINE
  5
19AD8
  8
0
  6
BYBLOCK
 10
-2507.3143707615309
 20
409.65380823580909
 30
0.0
 11
-2507.3143707615309
 21
407.65380823580909
 31
0.0
  0
LINE
  5
19AD9
  8
0
  6
BYBLOCK
 10
-2506.7784723815312
 20
390.15380823580909
 30
0.0
 11
-2507.3143707615309
 21
388.15380823580909
 31
0.0
  0
LINE
  5
19ADA
  8
0
  6
BYBLOCK
 10
-2507.3143707615309
 20
388.15380823580909
 30
0.0
 11
-2507.850269141531
 21
390.15380823580909
 31
0.0
  0
LINE
  5
19ADB
  8
0
  6
BYBLOCK
 10
-2507.3143707615309
 20
388.15380823580909
 30
0.0
 11
-2507.3143707615309
 21
390.15380823580909
 31
0.0
  0
VIEWPORT
  5
57
 67
     1
  8
0
 10
-7.7295770211574668
 20
30.598826267414442
 30
0.0
 40
473.84651075066699
 41
335.5002527011419
 68
     1
 69
     1
1001
ACAD
1000
MVIEW
1002
{
1070
    16
1010
0.0
1020
0.0
1030
0.0
1010
0.0
1020
0.0
1030
1.0
1040
0.0
1040
335.5002527011419
1040
-7.7295770211574668
1040
30.598826267414442
1040
50.0
1040
0.0
1040
0.0
1070
     0
1070
   100
1070
     1
1070
     1
1070
     0
1070
     0
1070
     0
1070
     0
1040
0.0
1040
0.0
1040
0.0
1040
10.0
1040
10.0
1040
10.0
1040
10.0
1070
     0
1002
{
1002
}
1002
}
  0
ENDSEC
  0
EOF
