  0
SECTION
  2
HEADER
  9
$ACADVER
  1
AC1009
  9
$INSBASE
 10
0.0
 20
0.0
 30
0.0
  9
$EXTMIN
 10
-2623.8533787575939
 20
-44.45497782556415
 30
0.0
  9
$EXTMAX
 10
-2256.8533787575961
 20
130.10076301693101
 30
0.0
  9
$LIMMIN
 10
0.0
 20
0.0
  9
$LIMMAX
 10
420.0
 20
297.0
  9
$ORTHOMODE
 70
     0
  9
$REGENMODE
 70
     1
  9
$FILLMODE
 70
     1
  9
$QTEXTMODE
 70
     0
  9
$MIRRTEXT
 70
     1
  9
$DRAGMODE
 70
     2
  9
$LTSCALE
 40
0.5
  9
$OSMODE
 70
  2175
  9
$ATTMODE
 70
     1
  9
$TEXTSIZE
 40
4.0
  9
$TRACEWID
 40
1.0
  9
$TEXTSTYLE
  7
STANDARD
  9
$CLAYER
  8
1TEXT
  9
$CELTYPE
  6
BYLAYER
  9
$CECOLOR
 62
   256
  9
$DIMSCALE
 40
1.0
  9
$DIMASZ
 40
2.0
  9
$DIMEXO
 40
0.0
  9
$DIMDLI
 40
7.0
  9
$DIMRND
 40
0.0
  9
$DIMDLE
 40
0.0
  9
$DIMEXE
 40
1.0
  9
$DIMTP
 40
0.0
  9
$DIMTM
 40
0.0
  9
$DIMTXT
 40
3.5
  9
$DIMCEN
 40
0.0
  9
$DIMTSZ
 40
0.0
  9
$DIMTOL
 70
     0
  9
$DIMLIM
 70
     0
  9
$DIMTIH
 70
     0
  9
$DIMTOH
 70
     0
  9
$DIMSE1
 70
     0
  9
$DIMSE2
 70
     0
  9
$DIMTAD
 70
     1
  9
$DIMZIN
 70
     8
  9
$DIMBLK
  1

  9
$DIMASO
 70
     1
  9
$DIMSHO
 70
     1
  9
$DIMPOST
  1
 
  9
$DIMAPOST
  1

  9
$DIMALT
 70
     0
  9
$DIMALTD
 70
     2
  9
$DIMALTF
 40
25.399999999999999
  9
$DIMLFAC
 40
1.0
  9
$DIMTOFL
 70
     1
  9
$DIMTVP
 40
0.0
  9
$DIMTIX
 70
     0
  9
$DIMSOXD
 70
     0
  9
$DIMSAH
 70
     1
  9
$DIMBLK1
  1
OPEN30
  9
$DIMBLK2
  1
OPEN30
  9
$DIMSTYLE
  2
NEWX10
  9
$DIMCLRD
 70
   256
  9
$DIMCLRE
 70
   256
  9
$DIMCLRT
 70
   201
  9
$DIMTFAC
 40
0.7
  9
$DIMGAP
 40
0.7
  9
$LUNITS
 70
     2
  9
$LUPREC
 70
     4
  9
$SKETCHINC
 40
1.0
  9
$FILLETRAD
 40
4.0
  9
$AUNITS
 70
     0
  9
$AUPREC
 70
     2
  9
$MENU
  1
acad
  9
$ELEVATION
 40
0.0
  9
$PELEVATION
 40
0.0
  9
$THICKNESS
 40
0.0
  9
$LIMCHECK
 70
     0
  9
$BLIPMODE
 70
     0
  9
$CHAMFERA
 40
10.0
  9
$CHAMFERB
 40
10.0
  9
$SKPOLY
 70
     0
  9
$TDCREATE
 40
2453033.7326634838
  9
$TDUPDATE
 40
2454994.4640312041
  9
$TDINDWG
 40
0.8605497569
  9
$TDUSRTIMER
 40
0.8605497569
  9
$USRTIMER
 70
     1
  9
$ANGBASE
 50
0.0
  9
$ANGDIR
 70
     0
  9
$PDMODE
 70
     0
  9
$PDSIZE
 40
0.0
  9
$PLINEWID
 40
0.0
  9
$COORDS
 70
     2
  9
$SPLFRAME
 70
     0
  9
$SPLINETYPE
 70
     6
  9
$SPLINESEGS
 70
     8
  9
$ATTDIA
 70
     0
  9
$ATTREQ
 70
     1
  9
$HANDLING
 70
     1
  9
$HANDSEED
  5
19785
  9
$SURFTAB1
 70
     6
  9
$SURFTAB2
 70
     6
  9
$SURFTYPE
 70
     6
  9
$SURFU
 70
     6
  9
$SURFV
 70
     6
  9
$UCSNAME
  2

  9
$UCSORG
 10
0.0
 20
0.0
 30
0.0
  9
$UCSXDIR
 10
1.0
 20
0.0
 30
0.0
  9
$UCSYDIR
 10
0.0
 20
1.0
 30
0.0
  9
$PUCSNAME
  2

  9
$PUCSORG
 10
0.0
 20
0.0
 30
0.0
  9
$PUCSXDIR
 10
1.0
 20
0.0
 30
0.0
  9
$PUCSYDIR
 10
0.0
 20
1.0
 30
0.0
  9
$USERI1
 70
     0
  9
$USERI2
 70
     0
  9
$USERI3
 70
     0
  9
$USERI4
 70
     0
  9
$USERI5
 70
     0
  9
$USERR1
 40
0.0
  9
$USERR2
 40
0.0
  9
$USERR3
 40
0.0
  9
$USERR4
 40
0.0
  9
$USERR5
 40
0.0
  9
$WORLDVIEW
 70
     1
  9
$SHADEDGE
 70
     3
  9
$SHADEDIF
 70
    70
  9
$TILEMODE
 70
     1
  9
$MAXACTVP
 70
    48
  9
$PLIMCHECK
 70
     0
  9
$PEXTMIN
 10
1.0000000000000000E+020
 20
1.0000000000000000E+020
 30
1.0000000000000000E+020
  9
$PEXTMAX
 10
-1.0000000000000000E+020
 20
-1.0000000000000000E+020
 30
-1.0000000000000000E+020
  9
$PLIMMIN
 10
0.0
 20
0.0
  9
$PLIMMAX
 10
420.0
 20
297.0
  9
$UNITMODE
 70
     0
  9
$VISRETAIN
 70
     1
  9
$PLINEGEN
 70
     0
  9
$PSLTSCALE
 70
     1
  0
ENDSEC
  0
SECTION
  2
TABLES
  0
TABLE
  2
VPORT
 70
     1
  0
VPORT
  2
*ACTIVE
 70
     0
 10
0.0
 20
0.0
 11
1.0
 21
1.0
 12
-2440.3703597280228
 22
42.818301773464839
 13
0.0
 23
0.0
 14
10.0
 24
10.0
 15
10.0
 25
10.0
 16
0.0
 26
0.0
 36
1.0
 17
0.0
 27
0.0
 37
0.0
 40
275.10259140923358
 41
1.4123581336696089
 42
50.0
 43
0.0
 44
0.0
 50
0.0
 51
0.0
 71
     0
 72
   100
 73
     1
 74
     1
 75
     0
 76
     0
 77
     0
 78
     0
  0
ENDTAB
  0
TABLE
  2
LTYPE
 70
    14
  0
LTYPE
  2
CONTINUOUS
 70
     0
  3
Solid line
 72
    65
 73
     0
 40
0.0
  0
LTYPE
  2
CENTER2
 70
     0
  3
Center (.5x) ___ _ ___ _ ___ _ ___ _ ___ _ ___
 72
    65
 73
     4
 40
28.574999999999999
 49
19.050000000000001
 49
-3.1749999999999989
 49
3.1749999999999989
 49
-3.1749999999999989
  0
LTYPE
  2
XREF1|CENTER2
 70
    48
  3
Center (.5x) ___ _ ___ _ ___ _ ___ _ ___ _ ___
 72
    65
 73
     4
 40
28.574999999999999
 49
19.050000000000001
 49
-3.1749999999999989
 49
3.1749999999999989
 49
-3.1749999999999989
  0
LTYPE
  2
HIDDEN
 70
     0
  3
Hidden __ __ __ __ __ __ __ __ __ __ __ __ __ _
 72
    65
 73
     2
 40
9.5249999999999986
 49
6.3499999999999988
 49
-3.1749999999999989
  0
LTYPE
  2
A3WAKUDAKE|CENTER2
 70
    48
  3
Center (.5x) ___ _ ___ _ ___ _ ___ _ ___ _ ___
 72
    65
 73
     4
 40
28.574999999999999
 49
19.050000000000001
 49
-3.1749999999999989
 49
3.1749999999999989
 49
-3.1749999999999989
  0
ENDTAB
  0
TABLE
  2
LAYER
 70
    53
  0
LAYER
  2
0
 70
     0
 62
     7
  6
CONTINUOUS
  0
LAYER
  2
1CENTER
 70
     0
 62
     7
  6
CENTER2
  0
LAYER
  2
1TEXT
 70
     0
 62
     7
  6
CONTINUOUS
  0
LAYER
  2
1DIM
 70
     0
 62
     7
  6
CONTINUOUS
  0
LAYER
  2
1HIDDEN
 70
     0
 62
     7
  6
HIDDEN
  0
LAYER
  2
01
 70
     0
 62
     1
  6
CONTINUOUS
  0
LAYER
  2
1HATCH
 70
     0
 62
     7
  6
CONTINUOUS
  0
LAYER
  2
XREF1|1CENTER
 70
    48
 62
     7
  6
XREF1|CENTER2
  0
LAYER
  2
A3WAKUDAKE|THICK
 70
    48
 62
     7
  6
CONTINUOUS
  0
LAYER
  2
A3WAKUDAKE|POINT
 70
    48
 62
     7
  6
CONTINUOUS
  0
LAYER
  2
A3WAKUDAKE|1CENTER
 70
    48
 62
     7
  6
A3WAKUDAKE|CENTER2
  0
LAYER
  2
A3WAKUDAKE|0-6
 70
    48
 62
     7
  6
CONTINUOUS
  0
LAYER
  2
A3WAKUDAKE|1DIM
 70
    48
 62
     7
  6
CONTINUOUS
  0
ENDTAB
  0
TABLE
  2
STYLE
 70
    23
  0
STYLE
  2
STANDARD
 70
     0
 40
0.0
 41
1.0
 50
0.0
 71
     0
 42
4.0
  3
txt.shx
  4
extfont.shx
  0
ENDTAB
  0
TABLE
  2
VIEW
 70
     0
  0
ENDTAB
  0
TABLE
  2
UCS
 70
     0
  0
ENDTAB
  0
TABLE
  2
APPID
 70
    10
  0
APPID
  2
ACAD
 70
     0
  0
APPID
  2
DRAWINGVARIABLESXDATA
 70
     0
  0
APPID
  2
CONTENTTABDATA
 70
     0
  0
APPID
  2
CONTENTCURRENTTAB
 70
     0
  0
APPID
  2
CONTENTBLOCKDESCRIPTION
 70
     0
  0
APPID
  2
CONTENTBLOCKICON
 70
     0
  0
APPID
  2
CONTENTLONGBLOCKNAME
 70
     0
  0
APPID
  2
ACAD_PSEXT
 70
     0
  0
APPID
  2
ACAD_DSTYLE_DIMTEXT_FILL
 70
     0
  0
APPID
  2
ACAD_MLEADERVER
 70
     0
  0
ENDTAB
  0
TABLE
  2
DIMSTYLE
 70
     9
  0
DIMSTYLE
  2
NEWX10
 70
     0
  3
 
  4

  5

  6
OPEN30
  7
OPEN30
 40
1.0
 41
2.0
 42
0.0
 43
7.0
 44
1.0
 45
0.0
 46
0.0
 47
0.0
 48
0.0
140
3.5
141
0.0
142
0.0
143
25.399999999999999
144
1.0
145
0.0
146
0.7
147
0.7
 71
     0
 72
     0
 73
     0
 74
     0
 75
     0
 76
     0
 77
     1
 78
     8
170
     0
171
     2
172
     1
173
     1
174
     0
175
     0
176
   256
177
   256
178
   201
  0
ENDTAB
  0
ENDSEC
  0
SECTION
  2
BLOCKS
  0
BLOCK
  8
0
  2
$MODEL_SPACE
 70
     0
 10
0.0
 20
0.0
 30
0.0
  3
$MODEL_SPACE
  1

  0
ENDBLK
  5
1A
  8
0
  0
BLOCK
 67
     1
  8
0
  2
$PAPER_SPACE
 70
     0
 10
0.0
 20
0.0
 30
0.0
  3
$PAPER_SPACE
  1

  0
ENDBLK
  5
17
 67
     1
  8
0
  0
BLOCK
  8
0
  2
_OPEN30
 70
     0
 10
0.0
 20
0.0
 30
0.0
  3
_OPEN30
  1

  0
LINE
  5
44
  8
0
  6
BYBLOCK
 62
     0
 10
-1.0
 20
0.26794919
 30
0.0
 11
0.0
 21
0.0
 31
0.0
  0
LINE
  5
45
  8
0
  6
BYBLOCK
 62
     0
 10
0.0
 20
0.0
 30
0.0
 11
-1.0
 21
-0.26794919
 31
0.0
  0
LINE
  5
46
  8
0
  6
BYBLOCK
 62
     0
 10
0.0
 20
0.0
 30
0.0
 11
-1.0
 21
0.0
 31
0.0
  0
ENDBLK
  5
47
  8
0
  0
BLOCK
  8
0
  2
XREF1
 70
    36
 10
0.0
 20
0.0
 30
0.0
  3
XREF1
  1
D:\ACLT\FORMAT\KAWAJUN(9)図面用.dwg
  0
ENDBLK
  5
5D
  8
0
  0
BLOCK
  8
0
  2
A3WAKUDAKE
 70
    36
 10
0.0
 20
0.0
 30
0.0
  3
A3WAKUDAKE
  1
D:\ACLT\FORMAT\A3WAKUdake.dwg
  0
ENDBLK
  5
6DC
  8
0
  0
BLOCK
  8
0
  2
*U83
 70
     1
 10
0.0
 20
0.0
 30
0.0
  3
*U83
  1

  0
TEXT
  5
19631
  8
0
 62
   201
 10
-63.717024855154051
 20
-3.8109119089904788
 30
0.0
 40
3.5
  1
φ5
 50
48.83031736650419
  0
ENDBLK
  5
19633
  8
0
  0
BLOCK
  8
0
  2
*U84
 70
     1
 10
0.0
 20
0.0
 30
0.0
  3
*U84
  1

  0
TEXT
  5
19635
  8
1TEXT
 62
   201
 10
21.614708555164611
 20
22.401236958861659
 30
0.0
 40
2.0
  1
二文字
  0
TEXT
  5
19636
  8
1TEXT
 62
   201
 10
21.614708555164611
 20
19.067903625528331
 30
0.0
 40
2.0
  1
(別途指定)
  0
TEXT
  5
19637
  8
1TEXT
 62
   201
 10
21.614708555164611
 20
15.73457029219499
 30
0.0
 40
2.0
  1
天地 約1.8
  0
TEXT
  5
19638
  8
1TEXT
 62
   201
 10
21.614708555164611
 20
12.401236958861659
 30
0.0
 40
2.0
  1
凸0.2
  0
ENDBLK
  5
1963A
  8
0
  0
BLOCK
  8
0
  2
*U85
 70
     1
 10
0.0
 20
0.0
 30
0.0
  3
*U85
  1

  0
SOLID
  5
1963C
  8
1DIM
 10
17.769912945885331
 20
22.805130681268722
 30
0.0
 11
17.678379796037799
 21
23.814783819854821
 31
0.0
 12
18.0924202800296
 22
22.889392953575271
 32
0.0
 13
18.0924202800296
 23
22.889392953575271
 33
0.0
  0
POLYLINE
  5
1963D
  8
1DIM
 66
     1
 10
0.0
 20
0.0
 30
0.0
  0
VERTEX
  5
1963E
  8
1DIM
 10
17.931166612957469
 20
22.847261817422002
 30
0.0
  0
VERTEX
  5
1963F
  8
1DIM
 10
20.91703607932029
 20
11.41907722970881
 30
0.0
  0
VERTEX
  5
19640
  8
1DIM
 10
35.143226555510758
 20
11.41907722970881
 30
0.0
  0
SEQEND
  5
19641
  8
1DIM
  0
ENDBLK
  5
19643
  8
0
  0
BLOCK
  8
0
  2
*U86
 70
     1
 10
0.0
 20
0.0
 30
0.0
  3
*U86
  1

  0
TEXT
  5
19645
  8
1DIM
 62
   201
 10
8.9421530727463576
 20
19.285028579396069
 30
0.0
 40
2.0
  1
枠
  0
TEXT
  5
19646
  8
1DIM
 62
   201
 10
7.0754864060796896
 20
15.951695246062741
 30
0.0
 40
2.0
  1
φ5
  0
TEXT
  5
19647
  8
1DIM
 62
   201
 10
4.7421530727463583
 20
12.61836191272941
 30
0.0
 40
2.0
  1
凹0.3
  0
ENDBLK
  5
19649
  8
0
  0
BLOCK
  8
0
  2
*U87
 70
     1
 10
0.0
 20
0.0
 30
0.0
  3
*U87
  1

  0
SOLID
  5
1964B
  8
1DIM
 10
14.77538895849114
 20
20.894651819020488
 30
0.0
 11
15.75963814806016
 21
22.667323431007279
 31
0.0
 12
15.403512140193291
 22
20.67125595278117
 32
0.0
 13
15.403512140193291
 23
20.67125595278117
 33
0.0
  0
POLYLINE
  5
1964C
  8
1DIM
 66
     1
 10
0.0
 20
0.0
 30
0.0
  0
VERTEX
  5
1964D
  8
1DIM
 10
15.089450549342221
 20
20.782953885900831
 30
0.0
  0
VERTEX
  5
1964E
  8
1DIM
 10
11.821762131327951
 20
11.59517937383526
 30
0.0
  0
VERTEX
  5
1964F
  8
1DIM
 10
2.3789049884708091
 20
11.59517937383526
 30
0.0
  0
SEQEND
  5
19650
  8
1DIM
  0
ENDBLK
  5
19652
  8
0
  0
BLOCK
  8
0
  2
*U88
 70
     1
 10
0.0
 20
0.0
 30
0.0
  3
*U88
  1

  0
TEXT
  5
19655
  8
1TEXT
 10
14.9745471932972
 20
24.09947430071913
 30
0.0
 40
1.8
  1
XY
  0
ENDBLK
  5
19657
  8
0
  0
BLOCK
  8
0
  2
*U89
 70
     1
 10
0.0
 20
0.0
 30
0.0
  3
*U89
  1

  0
LINE
  5
1965C
  8
0
 10
-9.6499999999999773
 20
2.0
 30
0.0
 11
-10.0
 21
1.649999999999977
 31
0.0
  0
LINE
  5
1965D
  8
0
 10
-10.0
 20
1.649999999999977
 30
0.0
 11
-10.0
 21
-1.649999999999977
 31
0.0
  0
LINE
  5
1965E
  8
0
 10
-9.6499999999999773
 20
2.0
 30
0.0
 11
-0.3500000000000227
 21
2.0
 31
0.0
  0
LINE
  5
1965F
  8
0
 10
-10.0
 20
-1.649999999999977
 30
0.0
 11
-9.6499999999999773
 21
-2.0
 31
0.0
  0
LINE
  5
19660
  8
0
 10
-0.3500000000000227
 20
2.0
 30
0.0
 11
0.0
 21
1.649999999999977
 31
0.0
  0
LINE
  5
19661
  8
0
 10
-9.6499999999999773
 20
-2.0
 30
0.0
 11
-0.3500000000000227
 21
-2.0
 31
0.0
  0
LINE
  5
19662
  8
0
 10
0.0
 20
1.649999999999977
 30
0.0
 11
0.0
 21
-1.6499999999998629
 31
0.0
  0
LINE
  5
19663
  8
0
 10
0.0
 20
-1.6499999999998629
 30
0.0
 11
-0.3500000000000227
 21
-2.0
 31
0.0
  0
ENDBLK
  5
19665
  8
0
  0
BLOCK
  8
0
  2
*U90
 70
     1
 10
0.0
 20
0.0
 30
0.0
  3
*U90
  1

  0
TEXT
  5
19667
  8
1DIM
 62
   201
 10
-2438.2700454242608
 20
17.800953189495839
 30
0.0
 40
3.5
  1
37
  0
ENDBLK
  5
19669
  8
0
  0
BLOCK
  8
0
  2
*U91
 70
     1
 10
0.0
 20
0.0
 30
0.0
  3
*U91
  1

  0
TEXT
  5
1966B
  8
1DIM
 62
   201
 10
-2464.8867120909281
 20
27.80095318949607
 30
0.0
 40
3.5
  1
1.5
  0
ENDBLK
  5
1966D
  8
0
  0
BLOCK
  8
0
  2
*U92
 70
     1
 10
0.0
 20
0.0
 30
0.0
  3
*U92
  1

  0
TEXT
  5
1966F
  8
1DIM
 62
   201
 10
-2438.2700454242608
 20
27.80095318949607
 30
0.0
 40
3.5
  1
34
  0
ENDBLK
  5
19671
  8
0
  0
BLOCK
  8
0
  2
*U93
 70
     1
 10
0.0
 20
0.0
 30
0.0
  3
*U93
  1

  0
TEXT
  5
19673
  8
1DIM
 62
   201
 10
-2411.653378757595
 20
27.80095318949607
 30
0.0
 40
3.5
  1
1.5
  0
ENDBLK
  5
19675
  8
0
  0
BLOCK
  8
0
  2
*U94
 70
     1
 10
0.0
 20
0.0
 30
0.0
  3
*U94
  1

  0
TEXT
  5
19677
  8
1DIM
 62
   201
 10
-2407.5533787575951
 20
56.38428652282883
 30
0.0
 40
3.5
  1
6.5
 50
90.0
  0
ENDBLK
  5
19679
  8
0
  0
BLOCK
  8
0
  2
*U95
 70
     1
 10
0.0
 20
0.0
 30
0.0
  3
*U95
  1

  0
TEXT
  5
1967B
  8
1DIM
 62
   201
 10
-2397.5533787575951
 20
58.767619856162163
 30
0.0
 40
3.5
  1
15
 50
90.0
  0
ENDBLK
  5
1967D
  8
0
  0
BLOCK
  8
0
  2
*U96
 70
     1
 10
0.0
 20
0.0
 30
0.0
  3
*U96
  1

  0
TEXT
  5
1967F
  8
1DIM
 62
   201
 10
2243.8065173259688
 20
-4621.9747620379721
 30
0.0
 40
3.5
  1
10
 50
90.0
  0
ENDBLK
  5
19681
  8
0
  0
BLOCK
  8
0
  2
*U97
 70
     1
 10
0.0
 20
0.0
 30
0.0
  3
*U97
  1

  0
TEXT
  5
19683
  8
1DIM
 62
   201
 10
2261.0518596868319
 20
-4627.53685371754
 30
0.0
 40
2.0
  1
90°
 50
88.233180061219059
  0
ENDBLK
  5
19685
  8
0
  0
BLOCK
  8
0
  2
*U98
 70
     1
 10
0.0
 20
0.0
 30
0.0
  3
*U98
  1

  0
TEXT
  5
19687
  8
1DIM
 62
   201
 10
2255.678928417462
 20
-4613.1589059087783
 30
0.0
 40
2.0
  1
φ7.6
 50
90.0
  0
ENDBLK
  5
19689
  8
0
  0
BLOCK
  8
0
  2
*U99
 70
     1
 10
0.0
 20
0.0
 30
0.0
  3
*U99
  1

  0
TEXT
  5
1968B
  8
1HATCH
 62
   201
 10
2236.635264048401
 20
-4640.0714392351283
 30
0.0
 40
3.5
  1
0.5
  0
ENDBLK
  5
1968D
  8
0
  0
BLOCK
  8
0
  2
*U100
 70
     1
 10
0.0
 20
0.0
 30
0.0
  3
*U100
  1

  0
TEXT
  5
1968F
  8
1HATCH
 62
   201
 10
2233.2694915066568
 20
-4642.0497092644137
 30
0.0
 40
3.5
  1
φ5.6
 50
90.0
  0
ENDBLK
  5
19691
  8
0
  0
BLOCK
  8
0
  2
*X101
 70
     1
 10
0.0
 20
0.0
 30
0.0
  3
*X101
  1

  0
LINE
  5
19693
  8
0
 62
     0
 10
36.458164166693003
 20
7.5332805722630383
 30
0.0
 11
36.999999567127588
 21
8.0751159726978585
 31
0.0
  0
LINE
  5
19694
  8
0
 62
     0
 10
35.499999567127141
 20
7.6976479878305781
 30
0.0
 11
36.999999567127823
 21
9.1976479878314876
 31
0.0
  0
LINE
  5
19695
  8
0
 62
     0
 10
35.499999567126913
 20
8.8201800029644346
 30
0.0
 11
36.999999567127823
 21
10.320180002965341
 31
0.0
  0
LINE
  5
19696
  8
0
 62
     0
 10
35.499999567127141
 20
9.9427120180980637
 30
0.0
 11
36.999999567127823
 21
11.442712018098741
 31
0.0
  0
LINE
  5
19697
  8
0
 62
     0
 10
35.499999567127141
 20
11.06524403323192
 30
0.0
 11
36.999999567127823
 21
12.565244033232601
 31
0.0
  0
LINE
  5
19698
  8
0
 62
     0
 10
35.499999567127588
 20
12.18777604836577
 30
0.0
 11
36.99999956712805
 21
13.68777604836623
 31
0.0
  0
LINE
  5
19699
  8
0
 62
     0
 10
35.499999567127141
 20
13.31030806349918
 30
0.0
 11
36.21154098106399
 21
14.02184947743603
 31
0.0
  0
LINE
  5
1969A
  8
0
 62
     0
 10
35.499999567127823
 20
14.43284007863371
 30
0.0
 11
35.650249602288568
 21
14.58309011379424
 31
0.0
  0
LINE
  5
1969B
  8
0
 62
     0
 10
36.787779985089401
 20
21.33328057226322
 30
0.0
 11
36.999999567127361
 21
21.54550015430118
 31
0.0
  0
LINE
  5
1969C
  8
0
 62
     0
 10
35.499999567127141
 20
21.168032169434809
 30
0.0
 11
36.999999567127361
 21
22.66803216943504
 31
0.0
  0
LINE
  5
1969D
  8
0
 62
     0
 10
35.499999567127141
 20
22.290564184568211
 30
0.0
 11
36.999999567127361
 21
23.790564184568439
 31
0.0
  0
LINE
  5
1969E
  8
0
 62
     0
 10
35.499999567127141
 20
23.413096199702071
 30
0.0
 11
36.999999567127588
 21
24.913096199702519
 31
0.0
  0
LINE
  5
1969F
  8
0
 62
     0
 10
35.499999567127823
 20
24.535628214836152
 30
0.0
 11
36.999999567127823
 21
26.035628214836152
 31
0.0
  0
LINE
  5
196A0
  8
0
 62
     0
 10
35.499999567127361
 20
25.65816022996955
 30
0.0
 11
36.996323604997542
 21
27.154484267839742
 31
0.0
  0
LINE
  5
196A1
  8
0
 62
     0
 10
35.499999567127361
 20
26.780692245102951
 30
0.0
 11
36.73952617693795
 21
28.02021885491331
 31
0.0
  0
LINE
  5
196A2
  8
0
 62
     0
 10
35.130055879153822
 20
27.533280572263038
 30
0.0
 11
36.217092420981537
 21
28.620317114091002
 31
0.0
  0
LINE
  5
196A3
  8
0
 62
     0
 10
34.007523864020193
 20
27.533280572263038
 30
0.0
 11
35.455064786787943
 21
28.980821495030799
 31
0.0
  0
LINE
  5
196A4
  8
0
 62
     0
 10
32.88499184888633
 20
27.533280572263038
 30
0.0
 11
34.38499184888633
 21
29.033280572263038
 31
0.0
  0
LINE
  5
196A5
  8
0
 62
     0
 10
31.7624598337527
 20
27.533280572263038
 30
0.0
 11
33.262459833752928
 21
29.0332805722635
 31
0.0
  0
LINE
  5
196A6
  8
0
 62
     0
 10
30.639927818619299
 20
27.533280572263038
 30
0.0
 11
32.139927818619071
 21
29.033280572263038
 31
0.0
  0
LINE
  5
196A7
  8
0
 62
     0
 10
29.517395803485218
 20
27.533280572263038
 30
0.0
 11
31.017395803485211
 21
29.033280572263038
 31
0.0
  0
LINE
  5
196A8
  8
0
 62
     0
 10
28.39486378835181
 20
27.533280572263038
 30
0.0
 11
29.89486378835181
 21
29.033280572263038
 31
0.0
  0
LINE
  5
196A9
  8
0
 62
     0
 10
27.272331773218191
 20
27.533280572263038
 30
0.0
 11
28.772331773218411
 21
29.0332805722635
 31
0.0
  0
LINE
  5
196AA
  8
0
 62
     0
 10
26.149799758084558
 20
27.533280572263038
 30
0.0
 11
27.649799758084558
 21
29.033280572263038
 31
0.0
  0
LINE
  5
196AB
  8
0
 62
     0
 10
25.027267742950698
 20
27.533280572263038
 30
0.0
 11
26.527267742950698
 21
29.033280572263038
 31
0.0
  0
LINE
  5
196AC
  8
0
 62
     0
 10
23.904735727817069
 20
27.533280572262591
 30
0.0
 11
25.4047357278173
 21
29.033280572263038
 31
0.0
  0
LINE
  5
196AD
  8
0
 62
     0
 10
22.782203712683671
 20
27.533280572263038
 30
0.0
 11
24.282203712683899
 21
29.0332805722635
 31
0.0
  0
LINE
  5
196AE
  8
0
 62
     0
 10
21.659671697550039
 20
27.533280572263038
 30
0.0
 11
23.159671697550039
 21
29.033280572263038
 31
0.0
  0
LINE
  5
196AF
  8
0
 62
     0
 10
20.537139682416178
 20
27.533280572263038
 30
0.0
 11
22.037139682416178
 21
29.033280572263038
 31
0.0
  0
LINE
  5
196B0
  8
0
 62
     0
 10
19.414607667282549
 20
27.533280572262591
 30
0.0
 11
20.91460766728278
 21
29.033280572263038
 31
0.0
  0
LINE
  5
196B1
  8
0
 62
     0
 10
18.292075652149151
 20
27.533280572263038
 30
0.0
 11
19.792075652149379
 21
29.0332805722635
 31
0.0
  0
LINE
  5
196B2
  8
0
 62
     0
 10
17.169543637015519
 20
27.533280572263038
 30
0.0
 11
18.669543637015519
 21
29.033280572263038
 31
0.0
  0
LINE
  5
196B3
  8
0
 62
     0
 10
16.047011621881438
 20
27.533280572262811
 30
0.0
 11
17.547011621881659
 21
29.033280572263038
 31
0.0
  0
LINE
  5
196B4
  8
0
 62
     0
 10
14.92447960674804
 20
27.533280572263038
 30
0.0
 11
16.42447960674826
 21
29.0332805722635
 31
0.0
  0
LINE
  5
196B5
  8
0
 62
     0
 10
1.424479606748946
 20
14.03328057226417
 30
0.0
 11
1.49999956712827
 21
14.1088005326435
 31
0.0
  0
LINE
  5
196B6
  8
0
 62
     0
 10
13.8019475916144
 20
27.533280572263038
 30
0.0
 11
15.30194759161486
 21
29.0332805722635
 31
0.0
  0
LINE
  5
196B7
  8
0
 62
     0
 10
0.3019475916146348
 20
14.03328057226304
 30
0.0
 11
1.499999567128725
 21
15.231332547777351
 31
0.0
  0
LINE
  5
196B8
  8
0
 62
     0
 10
12.679415576480549
 20
27.533280572263038
 30
0.0
 11
14.179415576480549
 21
29.033280572263038
 31
0.0
  0
LINE
  5
196B9
  8
0
 62
     0
 10
-0.0000004328726391
 20
14.85386456290985
 30
0.0
 11
1.49999956712827
 21
16.353864562910761
 31
0.0
  0
LINE
  5
196BA
  8
0
 62
     0
 10
11.55688356134692
 20
27.533280572262811
 30
0.0
 11
13.056883561347149
 21
29.033280572263038
 31
0.0
  0
LINE
  5
196BB
  8
0
 62
     0
 10
-0.0000004328726391
 20
15.97639657804325
 30
0.0
 11
1.499999567127815
 21
17.476396578043701
 31
0.0
  0
LINE
  5
196BC
  8
0
 62
     0
 10
10.43435154621352
 20
27.533280572263038
 30
0.0
 11
11.934351546213749
 21
29.0332805722635
 31
0.0
  0
LINE
  5
196BD
  8
0
 62
     0
 10
-0.0000004328719569
 20
17.098928593177561
 30
0.0
 11
1.499999567127815
 21
18.598928593177561
 31
0.0
  0
LINE
  5
196BE
  8
0
 62
     0
 10
9.311819531079891
 20
27.533280572263038
 30
0.0
 11
10.81181953108034
 21
29.0332805722635
 31
0.0
  0
LINE
  5
196BF
  8
0
 62
     0
 10
-0.0000004328719569
 20
18.221460608310959
 30
0.0
 11
1.499999567127815
 21
19.721460608310959
 31
0.0
  0
LINE
  5
196C0
  8
0
 62
     0
 10
8.1892875159460345
 20
27.533280572263038
 30
0.0
 11
9.6892875159460345
 21
29.033280572263038
 31
0.0
  0
LINE
  5
196C1
  8
0
 62
     0
 10
-0.0000004328724117
 20
19.343992623444588
 30
0.0
 11
1.4999995671280431
 21
20.84399262344505
 31
0.0
  0
LINE
  5
196C2
  8
0
 62
     0
 10
7.0667555008124054
 20
27.533280572262591
 30
0.0
 11
8.5667555008126328
 21
29.033280572263038
 31
0.0
  0
LINE
  5
196C3
  8
0
 62
     0
 10
-0.0000004328724117
 20
20.466524638578001
 30
0.0
 11
1.499999567127815
 21
21.966524638578221
 31
0.0
  0
LINE
  5
196C4
  8
0
 62
     0
 10
5.9442234856787763
 20
27.533280572263038
 30
0.0
 11
7.4442234856792311
 21
29.0332805722635
 31
0.0
  0
LINE
  5
196C5
  8
0
 62
     0
 10
-0.0000004328719569
 20
21.589056653712081
 30
0.0
 11
1.499999567127815
 21
23.089056653712081
 31
0.0
  0
LINE
  5
196C6
  8
0
 62
     0
 10
4.8216914705453737
 20
27.533280572263038
 30
0.0
 11
6.3216914705458294
 21
29.0332805722635
 31
0.0
  0
LINE
  5
196C7
  8
0
 62
     0
 10
-0.0000004328719569
 20
22.711588668845479
 30
0.0
 11
1.499999567127815
 21
24.211588668845479
 31
0.0
  0
LINE
  5
196C8
  8
0
 62
     0
 10
3.5421311604084158
 20
27.376252277259709
 30
0.0
 11
5.1991594554115181
 21
29.033280572263038
 31
0.0
  0
LINE
  5
196C9
  8
0
 62
     0
 10
-0.0000004328724117
 20
23.834120683978881
 30
0.0
 11
1.6570278621306891
 21
25.491148978981979
 31
0.0
  0
LINE
  5
196CA
  8
0
 62
     0
 10
0.0221037613555382
 20
24.978756893340229
 30
0.0
 11
4.0545232460508478
 21
29.01117637803555
 31
0.0
  0
LINE
  5
196CB
  8
0
 62
     0
 10
0.4836891637687586
 20
26.56287431088754
 30
0.0
 11
2.4704058285039991
 21
28.549590975622781
 31
0.0
  0
ENDBLK
  5
196CD
  8
0
  0
BLOCK
  8
0
  2
*U102
 70
     1
 10
0.0
 20
0.0
 30
0.0
  3
*U102
  1

  0
TEXT
  5
196CF
  8
1DIM
 62
   201
 10
-2474.5533787575969
 20
50.059286522829041
 30
0.0
 40
3.5
  1
10
 50
90.0
  0
ENDBLK
  5
196D1
  8
0
  0
BLOCK
  8
0
  2
*U103
 70
     1
 10
0.0
 20
0.0
 30
0.0
  3
*U103
  1

  0
TEXT
  5
196D3
  8
1DIM
 62
   201
 10
-2484.5533787575951
 20
53.184286522828877
 30
0.0
 40
3.5
  1
21.5
 50
90.0
  0
ENDBLK
  5
196D5
  8
0
  0
BLOCK
  8
0
  2
*U104
 70
     1
 10
0.0
 20
0.0
 30
0.0
  3
*U104
  1

  0
TEXT
  5
196D7
  8
1DIM
 62
   201
 10
-2567.353378757593
 20
27.80095318949607
 30
0.0
 40
3.5
  1
100
  0
ENDBLK
  5
196D9
  8
0
  0
BLOCK
  8
0
  2
*U105
 70
     1
 10
0.0
 20
0.0
 30
0.0
  3
*U105
  1

  0
TEXT
  5
196DB
  8
1DIM
 62
   201
 10
-2510.8950454242608
 20
27.80095318949607
 30
0.0
 40
3.5
  1
10
  0
ENDBLK
  5
196DD
  8
0
  0
BLOCK
  8
0
  2
*U106
 70
     1
 10
0.0
 20
0.0
 30
0.0
  3
*U106
  1

  0
TEXT
  5
196DF
  8
1DIM
 62
   201
 10
-2620.895045424259
 20
27.80095318949607
 30
0.0
 40
3.5
  1
10
  0
ENDBLK
  5
196E1
  8
0
  0
BLOCK
  8
0
  2
*U107
 70
     1
 10
0.0
 20
0.0
 30
0.0
  3
*U107
  1

  0
TEXT
  5
196E3
  8
1DIM
 62
   201
 10
-2331.2838980190199
 20
-19.152832648365251
 30
0.0
 40
3.5
  1
φ4
 50
90.0
  0
ENDBLK
  5
196E5
  8
0
  0
BLOCK
  8
0
  2
*U108
 70
     1
 10
0.0
 20
0.0
 30
0.0
  3
*U108
  1

  0
TEXT
  5
196E7
  8
1DIM
 62
   201
 10
-2320.6450454242622
 20
27.80095318949607
 30
0.0
 40
3.5
  1
120
  0
ENDBLK
  5
196E9
  8
0
  0
BLOCK
  8
0
  2
*U109
 70
     1
 10
0.0
 20
0.0
 30
0.0
  3
*U109
  1

  0
TEXT
  5
196EB
  8
1DIM
 62
   201
 10
-2386.0101458797799
 20
51.387479388922017
 30
0.0
 40
3.5
  1
R4
 50
28.03723003401614
  0
ENDBLK
  5
196ED
  8
0
  0
BLOCK
  8
0
  2
*U110
 70
     1
 10
0.0
 20
0.0
 30
0.0
  3
*U110
  1

  0
TEXT
  5
196EF
  8
1DIM
 62
   201
 10
-2385.1458712335598
 20
43.316198440230629
 30
0.0
 40
3.5
  1
R4
 50
35.103339829186787
  0
ENDBLK
  5
196F1
  8
0
  0
BLOCK
  8
0
  2
*U111
 70
     1
 10
0.0
 20
0.0
 30
0.0
  3
*U111
  1

  0
TEXT
  5
196F6
  8
1DIM
 62
   201
 10
-2458.0143707615312
 20
379.43706924675507
 30
0.0
 40
3.5
  1
φ4.8
 50
90.0
  0
ENDBLK
  5
196F8
  8
0
  0
BLOCK
  8
0
  2
*U112
 70
     1
 10
0.0
 20
0.0
 30
0.0
  3
*U112
  1

  0
TEXT
  5
196FA
  8
1DIM
 62
   201
 10
-2478.0143707615321
 20
404.37047490247619
 30
0.0
 40
3.5
  1
φ7.2
 50
90.0
  0
ENDBLK
  5
196FC
  8
0
  0
BLOCK
  8
0
  2
*U113
 70
     1
 10
0.0
 20
0.0
 30
0.0
  3
*U113
  1

  0
TEXT
  5
196FE
  8
1DIM
 62
   201
 10
-2451.731037428196
 20
358.8538082358105
 30
0.0
 40
3.5
  1
37
  0
ENDBLK
  5
19700
  8
0
  0
BLOCK
  8
0
  2
*U114
 70
     1
 10
0.0
 20
0.0
 30
0.0
  3
*U114
  1

  0
TEXT
  5
19702
  8
1DIM
 62
   201
 10
-2369.744890022956
 20
321.90002239794939
 30
0.0
 40
3.5
  1
φ4
 50
90.0
  0
ENDBLK
  5
19704
  8
0
  0
BLOCK
  8
0
  2
*U115
 70
     1
 10
0.0
 20
0.0
 30
0.0
  3
*U115
  1

  0
TEXT
  5
19706
  8
1DIM
 62
   201
 10
-2358.3310391856489
 20
328.2165506958471
 30
0.0
 40
3.5
  1
16
  0
ENDBLK
  5
19708
  8
0
  0
BLOCK
  8
0
  2
*U116
 70
     1
 10
0.0
 20
0.0
 30
0.0
  3
*U116
  1

  0
TEXT
  5
1970A
  8
1DIM
 62
   201
 10
-2340.4604052365921
 20
320.8166890646155
 30
0.0
 40
3.5
  1
φ6
 50
90.0
  0
ENDBLK
  5
1970C
  8
0
  0
BLOCK
  8
0
  2
*U117
 70
     1
 10
0.0
 20
0.0
 30
0.0
  3
*U117
  1

  0
TEXT
  5
1970E
  8
1DIM
 62
   201
 10
-2488.0143707615312
 20
391.11214156914372
 30
0.0
 40
3.5
  1
10
 50
90.0
  0
ENDBLK
  5
19710
  8
0
  0
BLOCK
  8
0
  2
*U118
 70
     1
 10
0.0
 20
0.0
 30
0.0
  3
*U118
  1

  0
TEXT
  5
19712
  8
1DIM
 62
   201
 10
-2478.3477040948628
 20
368.85380823581067
 30
0.0
 40
3.5
  1
1.5
  0
ENDBLK
  5
19714
  8
0
  0
BLOCK
  8
0
  2
*U119
 70
     1
 10
0.0
 20
0.0
 30
0.0
  3
*U119
  1

  0
TEXT
  5
19716
  8
1DIM
 62
   201
 10
-2451.731037428196
 20
368.85380823581067
 30
0.0
 40
3.5
  1
34
  0
ENDBLK
  5
19718
  8
0
  0
BLOCK
  8
0
  2
*U120
 70
     1
 10
0.0
 20
0.0
 30
0.0
  3
*U120
  1

  0
TEXT
  5
1971A
  8
1DIM
 62
   201
 10
-2425.1143707615288
 20
368.85380823581067
 30
0.0
 40
3.5
  1
1.5
  0
ENDBLK
  5
1971C
  8
0
  0
BLOCK
  8
0
  2
*U121
 70
     1
 10
0.0
 20
0.0
 30
0.0
  3
*U121
  1

  0
TEXT
  5
1971E
  8
1DIM
 62
   201
 10
-2421.0143707615289
 20
397.43714156914359
 30
0.0
 40
3.5
  1
6.5
 50
90.0
  0
ENDBLK
  5
19720
  8
0
  0
BLOCK
  8
0
  2
*U122
 70
     1
 10
0.0
 20
0.0
 30
0.0
  3
*U122
  1

  0
TEXT
  5
19722
  8
1DIM
 62
   201
 10
-2411.0143707615298
 20
399.8204749024768
 30
0.0
 40
3.5
  1
15
 50
90.0
  0
ENDBLK
  5
19724
  8
0
  0
BLOCK
  8
0
  2
*U123
 70
     1
 10
0.0
 20
0.0
 30
0.0
  3
*U123
  1

  0
TEXT
  5
19726
  8
1DIM
 62
   201
 10
-2534.356037428196
 20
368.85380823581067
 30
0.0
 40
3.5
  1
10
  0
ENDBLK
  5
19728
  8
0
  0
BLOCK
  8
0
  2
*U124
 70
     1
 10
0.0
 20
0.0
 30
0.0
  3
*U124
  1

  0
TEXT
  5
1972A
  8
1DIM
 62
   201
 10
-2554.9393707615291
 20
368.85380823581067
 30
0.0
 40
3.5
  1
30
  0
ENDBLK
  5
1972C
  8
0
  0
BLOCK
  8
0
  2
*U125
 70
     1
 10
0.0
 20
0.0
 30
0.0
  3
*U125
  1

  0
TEXT
  5
1972E
  8
1DIM
 62
   201
 10
-2574.3560374281969
 20
368.85380823581067
 30
0.0
 40
3.5
  1
10
  0
ENDBLK
  5
19730
  8
0
  0
BLOCK
  8
0
  2
*U126
 70
     1
 10
0.0
 20
0.0
 30
0.0
  3
*U126
  1

  0
TEXT
  5
19732
  8
1DIM
 62
   201
 10
-2508.0143707615312
 20
394.23714156914212
 30
0.0
 40
3.5
  1
21.5
 50
90.0
  0
ENDBLK
  5
19734
  8
0
  0
BLOCK
  8
0
  2
*U127
 70
     1
 10
0.0
 20
0.0
 30
0.0
  3
*U127
  1

  0
TEXT
  5
19736
  8
1DIM
 62
   201
 10
-2436.8851088951401
 20
-154.59058102400761
 30
0.0
 40
3.5
  1
37
  0
ENDBLK
  5
19738
  8
0
  0
BLOCK
  8
0
  2
*U128
 70
     1
 10
0.0
 20
0.0
 30
0.0
  3
*U128
  1

  0
TEXT
  5
1973A
  8
1DIM
 62
   201
 10
-2354.8989614898992
 20
-191.54436686186861
 30
0.0
 40
3.5
  1
φ4
 50
90.0
  0
ENDBLK
  5
1973C
  8
0
  0
BLOCK
  8
0
  2
*U129
 70
     1
 10
0.0
 20
0.0
 30
0.0
  3
*U129
  1

  0
TEXT
  5
1973E
  8
1DIM
 62
   201
 10
-2343.485110652593
 20
-185.22783856397109
 30
0.0
 40
3.5
  1
16
  0
ENDBLK
  5
19740
  8
0
  0
BLOCK
  8
0
  2
*U130
 70
     1
 10
0.0
 20
0.0
 30
0.0
  3
*U130
  1

  0
TEXT
  5
19742
  8
1DIM
 62
   201
 10
-2325.6144767035362
 20
-192.62770019520261
 30
0.0
 40
3.5
  1
φ6
 50
90.0
  0
ENDBLK
  5
19744
  8
0
  0
BLOCK
  8
0
  2
*U131
 70
     1
 10
0.0
 20
0.0
 30
0.0
  3
*U131
  1

  0
TEXT
  5
19746
  8
1DIM
 62
   201
 10
-2473.1684422284752
 20
-122.33224769067439
 30
0.0
 40
3.5
  1
10
 50
90.0
  0
ENDBLK
  5
19748
  8
0
  0
BLOCK
  8
0
  2
*U132
 70
     1
 10
0.0
 20
0.0
 30
0.0
  3
*U132
  1

  0
TEXT
  5
1974A
  8
1DIM
 62
   201
 10
-2463.5017755618069
 20
-144.59058102400741
 30
0.0
 40
3.5
  1
1.5
  0
ENDBLK
  5
1974C
  8
0
  0
BLOCK
  8
0
  2
*U133
 70
     1
 10
0.0
 20
0.0
 30
0.0
  3
*U133
  1

  0
TEXT
  5
1974E
  8
1DIM
 62
   201
 10
-2436.8851088951392
 20
-144.59058102400741
 30
0.0
 40
3.5
  1
34
  0
ENDBLK
  5
19750
  8
0
  0
BLOCK
  8
0
  2
*U134
 70
     1
 10
0.0
 20
0.0
 30
0.0
  3
*U134
  1

  0
TEXT
  5
19752
  8
1DIM
 62
   201
 10
-2410.2684422284728
 20
-144.59058102400741
 30
0.0
 40
3.5
  1
1.5
  0
ENDBLK
  5
19754
  8
0
  0
BLOCK
  8
0
  2
*U135
 70
     1
 10
0.0
 20
0.0
 30
0.0
  3
*U135
  1

  0
TEXT
  5
19756
  8
1DIM
 62
   201
 10
-2406.1684422284729
 20
-116.0072476906747
 30
0.0
 40
3.5
  1
6.5
 50
90.0
  0
ENDBLK
  5
19758
  8
0
  0
BLOCK
  8
0
  2
*U136
 70
     1
 10
0.0
 20
0.0
 30
0.0
  3
*U136
  1

  0
TEXT
  5
1975A
  8
1DIM
 62
   201
 10
-2396.1684422284729
 20
-113.62391435734131
 30
0.0
 40
3.5
  1
15
 50
90.0
  0
ENDBLK
  5
1975C
  8
0
  0
BLOCK
  8
0
  2
*U137
 70
     1
 10
0.0
 20
0.0
 30
0.0
  3
*U137
  1

  0
TEXT
  5
1975E
  8
1DIM
 62
   201
 10
-2443.1684422284739
 20
-134.00732001306301
 30
0.0
 40
3.5
  1
φ4.8
 50
90.0
  0
ENDBLK
  5
19760
  8
0
  0
BLOCK
  8
0
  2
*U138
 70
     1
 10
0.0
 20
0.0
 30
0.0
  3
*U138
  1

  0
TEXT
  5
19762
  8
1DIM
 62
   201
 10
-2463.1684422284752
 20
-109.07391435734191
 30
0.0
 40
3.5
  1
φ7.2
 50
90.0
  0
ENDBLK
  5
19764
  8
0
  0
BLOCK
  8
0
  2
*U139
 70
     1
 10
0.0
 20
0.0
 30
0.0
  3
*U139
  1

  0
TEXT
  5
19766
  8
1DIM
 62
   201
 10
-2519.5101088951392
 20
-144.59058102400741
 30
0.0
 40
3.5
  1
10
  0
ENDBLK
  5
19768
  8
0
  0
BLOCK
  8
0
  2
*U140
 70
     1
 10
0.0
 20
0.0
 30
0.0
  3
*U140
  1

  0
TEXT
  5
1976A
  8
1DIM
 62
   201
 10
-2540.0934422284731
 20
-144.59058102400741
 30
0.0
 40
3.5
  1
30
  0
ENDBLK
  5
1976C
  8
0
  0
BLOCK
  8
0
  2
*U141
 70
     1
 10
0.0
 20
0.0
 30
0.0
  3
*U141
  1

  0
TEXT
  5
1976E
  8
1DIM
 62
   201
 10
-2559.510108895141
 20
-144.59058102400741
 30
0.0
 40
3.5
  1
10
  0
ENDBLK
  5
19770
  8
0
  0
BLOCK
  8
0
  2
*U142
 70
     1
 10
0.0
 20
0.0
 30
0.0
  3
*U142
  1

  0
TEXT
  5
19772
  8
1DIM
 62
   201
 10
-2493.1684422284752
 20
-119.207247690676
 30
0.0
 40
3.5
  1
21.5
 50
90.0
  0
ENDBLK
  5
19774
  8
0
  0
BLOCK
  8
0
  2
*U143
 70
     1
 10
0.0
 20
0.0
 30
0.0
  3
*U143
  1

  0
TEXT
  5
19776
  8
1DIM
 62
   201
 10
-2464.553378757596
 20
63.400953189494771
 30
0.0
 40
3.5
  1
φ7.2
 50
90.0
  0
ENDBLK
  5
19778
  8
0
  0
BLOCK
  8
0
  2
*U144
 70
     1
 10
0.0
 20
0.0
 30
0.0
  3
*U144
  1

  0
TEXT
  5
1977A
  8
1DIM
 62
   201
 10
-2444.553378757596
 20
38.384214200440418
 30
0.0
 40
3.5
  1
φ4.8
 50
90.0
  0
ENDBLK
  5
1977C
  8
0
  0
BLOCK
  8
0
  2
*U145
 70
     1
 10
0.0
 20
0.0
 30
0.0
  3
*U145
  1

  0
TEXT
  5
1977E
  8
1DIM
 62
   201
 10
-2301.9994132326569
 20
-20.23616598169923
 30
0.0
 40
3.5
  1
φ6
 50
90.0
  0
ENDBLK
  5
19780
  8
0
  0
BLOCK
  8
0
  2
*U146
 70
     1
 10
0.0
 20
0.0
 30
0.0
  3
*U146
  1

  0
TEXT
  5
19782
  8
1DIM
 62
   201
 10
-2319.8700471817142
 20
-12.836304350467641
 30
0.0
 40
3.5
  1
16
  0
ENDBLK
  5
19784
  8
0
  0
ENDSEC
  0
SECTION
  2
ENTITIES
  0
LINE
  5
1684D
  8
01
 10
-2376.8533787575961
 20
68.600953189493708
 30
0.0
 11
-2376.8533787575961
 21
51.100953189492579
 31
0.0
  0
LINE
  5
172A5
  8
01
 10
-2256.8533787575961
 20
68.600953189494902
 30
0.0
 11
-2256.8533787575971
 21
51.100953189494859
 31
0.0
  0
LINE
  5
172A9
  8
01
 10
-2376.8533787575961
 20
68.600953189500814
 30
0.0
 11
-2256.8533787575961
 21
68.600953189494902
 31
0.0
  0
LINE
  5
172AA
  8
01
 10
-2372.8533787575948
 20
53.600953189493509
 30
0.0
 11
-2260.8533787575961
 21
53.600953189495748
 31
0.0
  0
LINE
  5
172AB
  8
01
 10
-2372.8533787575948
 20
47.100953189492579
 30
0.0
 11
-2260.8533787575961
 21
47.100953189494859
 31
0.0
  0
TEXT
  5
1758B
  8
1TEXT
 10
-2623.8533787575939
 20
123.100763016931
 30
0.0
 40
7.0
  1
PS075_12
 41
1.0098214000000001
  0
LINE
  5
1758E
  8
1DIM
 10
-2513.8533787575948
 20
-23.899046810503929
 30
0.0
 11
-2443.8533787575948
 21
-23.899046810503929
 31
0.0
  0
TEXT
  5
1758F
  8
1TEXT
 10
-2507.9200454242618
 20
-22.209960422074801
 30
0.0
 40
4.0
  1
ヘアライン
 72
     1
 11
-2496.4533787575951
 21
-22.209960422074801
 31
0.0
  0
TEXT
  5
17590
  8
1TEXT
 10
-2507.1009978052139
 20
-8.3990468105039326
 30
0.0
 40
4.0
  1
表面処理：
 72
     1
 11
-2496.4533787575951
 21
-8.3990468105039326
 31
0.0
  0
TEXT
  5
17591
  8
1TEXT
 10
-2500.720045424262
 20
-15.234335470028331
 30
0.0
 40
4.0
  1
鏡面
 72
     1
 11
-2496.4533787575951
 21
-15.234335470028331
 31
0.0
  0
LINE
  5
17592
  8
1DIM
 10
-2513.8533787575948
 20
-9.8990468105039326
 30
0.0
 11
-2443.8533787575948
 21
-9.8990468105039326
 31
0.0
  0
LINE
  5
17593
  8
1DIM
 10
-2513.8533787575948
 20
-16.899046810503929
 30
0.0
 11
-2443.8533787575948
 21
-16.899046810503929
 31
0.0
  0
LINE
  5
17594
  8
1DIM
 10
-2513.8533787575948
 20
-16.899046810503929
 30
0.0
 11
-2443.8533787575948
 21
-16.899046810503929
 31
0.0
  0
LINE
  5
17595
  8
1DIM
 10
-2478.8533787575948
 20
-2.8990468105039322
 30
0.0
 11
-2478.8533787575948
 21
-23.899046810503879
 31
0.0
  0
TEXT
  5
17596
  8
1TEXT
 10
-2475.7867120909282
 20
-15.61340379415333
 30
0.0
 40
4.0
  1
PS075C12
 72
     1
 11
-2461.4533787575951
 21
-15.61340379415333
 31
0.0
  0
TEXT
  5
17597
  8
1TEXT
 10
-2475.7867120909282
 20
-22.613403794153331
 30
0.0
 40
4.0
  1
PS075T12
 72
     1
 11
-2461.4533787575951
 21
-22.613403794153331
 31
0.0
  0
TEXT
  5
175A3
  8
1TEXT
 10
-2506.575395261169
 20
0.8669807758183196
 30
0.0
 40
4.0
  1
材質：ステンレス
 72
     1
 11
-2488.1753952611689
 21
0.8669807758183196
 31
0.0
  0
LINE
  5
175A4
  8
1DIM
 10
-2513.8533787575948
 20
-2.8990468105039322
 30
0.0
 11
-2443.8533787575948
 21
-2.8990468105039322
 31
0.0
  0
TEXT
  5
175A5
  8
1TEXT
 10
-2468.2533787575949
 20
-8.3990468105039326
 30
0.0
 40
4.0
  1
コード
 72
     1
 11
-2461.4533787575951
 21
-8.3990468105039326
 31
0.0
  0
LINE
  5
175A6
  8
1DIM
 10
-2513.8533787575948
 20
-23.899046810503879
 30
0.0
 11
-2513.8533787575948
 21
-2.8990468105039322
 31
0.0
  0
LINE
  5
175A7
  8
1DIM
 10
-2443.8533787575948
 20
-23.899046810503879
 30
0.0
 11
-2443.8533787575948
 21
-2.8990468105039322
 31
0.0
  0
LINE
  5
17B00
  8
01
 10
-2623.8533787575939
 20
68.600953189501851
 30
0.0
 11
-2623.8533787575939
 21
51.100953189493637
 31
0.0
  0
LINE
  5
17B06
  8
01
 10
-2503.8533787575939
 20
68.600953189495954
 30
0.0
 11
-2503.8533787575939
 21
51.10095318949589
 31
0.0
  0
LINE
  5
17B07
  8
01
 10
-2623.8533787575939
 20
68.600953189501851
 30
0.0
 11
-2503.8533787575939
 21
68.600953189495954
 31
0.0
  0
LINE
  5
17B09
  8
01
 10
-2619.8533787575939
 20
47.100953189493637
 30
0.0
 11
-2507.8533787575939
 21
47.10095318949589
 31
0.0
  0
LINE
  5
17B39
  8
1CENTER
 10
-2606.8533787575921
 20
57.10095318949476
 30
0.0
 11
-2620.8533787575921
 21
57.10095318949476
 31
0.0
  0
LINE
  5
17B3A
  8
1CENTER
 10
-2613.8533787575921
 20
64.10095318949476
 30
0.0
 11
-2613.8533787575921
 21
50.10095318949476
 31
0.0
  0
LINE
  5
17B59
  8
1CENTER
 10
-2520.8533787575939
 20
57.10095318949476
 30
0.0
 11
-2506.8533787575939
 21
57.10095318949476
 31
0.0
  0
LINE
  5
17B5A
  8
1CENTER
 10
-2513.8533787575939
 20
64.10095318949476
 30
0.0
 11
-2513.8533787575939
 21
50.10095318949476
 31
0.0
  0
LINE
  5
17CFD
  8
01
 10
-2416.8533787575948
 20
64.100953189495883
 30
0.0
 11
-2416.8533787575948
 21
53.600953189495883
 31
0.0
  0
LINE
  5
17CFE
  8
01
 10
-2416.8533787575948
 20
53.600953189495883
 30
0.0
 11
-2418.3533787575939
 21
53.600953189495883
 31
0.0
  0
LINE
  5
17CFF
  8
01
 10
-2418.3533787575948
 20
64.100953189495883
 30
0.0
 11
-2418.3533787575948
 21
53.600953189495883
 31
0.0
  0
ARC
  5
17D00
  8
01
 10
-2421.3533787575948
 20
64.100953189496025
 30
0.0
 40
3.0
 50
0.000000000000007
 51
90.0
  0
ARC
  5
17D01
  8
01
 10
-2421.3533787575948
 20
64.100953189496025
 30
0.0
 40
4.5
 50
0.000000000000007
 51
90.0
  0
LINE
  5
17D02
  8
01
 10
-2453.8533787575948
 20
66.600953189495883
 30
0.0
 11
-2453.8533787575948
 21
47.100953189495883
 31
0.0
  0
LINE
  5
17D03
  8
01
 10
-2453.8533787575948
 20
47.100953189495883
 30
0.0
 11
-2452.3533787575948
 21
47.100953189495883
 31
0.0
  0
LINE
  5
17D05
  8
01
 10
-2453.8533787575948
 20
68.100953189496337
 30
0.0
 11
-2453.8533787575948
 21
47.100953189495883
 31
0.0
  0
LINE
  5
17D06
  8
01
 10
-2452.3533787575948
 20
67.100953189495883
 30
0.0
 11
-2452.3533787575948
 21
47.100953189495883
 31
0.0
  0
LINE
  5
17D07
  8
01
 10
-2421.3533787575948
 20
68.600953189495883
 30
0.0
 11
-2453.3533787575939
 21
68.600953189496337
 31
0.0
  0
ARC
  5
17D08
  8
01
 10
-2453.3533787575939
 20
68.100953189496465
 30
0.0
 40
0.5
 50
90.0
 51
180.0
  0
LINE
  5
17D09
  8
01
 10
-2421.3533787575948
 20
67.100953189495883
 30
0.0
 11
-2452.3533787575948
 21
67.100953189495883
 31
0.0
  0
LINE
  5
17D0A
  8
1HATCH
 10
-2452.3533787575948
 20
67.100953189495883
 30
0.0
 11
-2453.3533787575939
 21
68.100953189495883
 31
0.0
  0
LINE
  5
17D0D
  8
1CENTER
 10
-2447.3533787575948
 20
57.10095318949633
 30
0.0
 11
-2457.3533787575948
 21
57.10095318949633
 31
0.0
  0
LINE
  5
18A36
  8
1CENTER
 10
-2456.8533787575998
 20
57.100953189495883
 30
0.0
 11
-2448.2533787575958
 21
57.100953189494973
 31
0.0
  0
ARC
  5
18FAF
  8
01
 10
-2372.8533787575948
 20
57.600953189493517
 30
0.0
 40
4.0
 50
180.0
 51
270.00000000000108
  0
ARC
  5
18FB0
  8
01
 10
-2372.8533787575948
 20
51.100953189492579
 30
0.0
 40
4.0
 50
180.0
 51
270.00000000000119
  0
ARC
  5
18FB1
  8
01
 10
-2260.8533787575961
 20
57.600953189495741
 30
0.0
 40
4.0
 50
270.00000000000108
 51
0.0
  0
ARC
  5
18FB2
  8
01
 10
-2260.8533787575961
 20
51.100953189494859
 30
0.0
 40
4.0
 50
270.00000000000119
 51
0.0
  0
ARC
  5
18FB3
  8
01
 10
-2507.8533787575939
 20
51.10095318949589
 30
0.0
 40
4.0
 50
270.00000000000119
 51
0.0
  0
ARC
  5
18FB4
  8
01
 10
-2619.8533787575939
 20
51.100953189493637
 30
0.0
 40
4.0
 50
180.0
 51
270.00000000000108
  0
LINE
  5
1918E
  8
01
 10
-2320.539019815174
 20
-23.986165981698861
 30
0.0
 11
-2311.639031449196
 21
-23.986165981698861
 31
0.0
  0
LINE
  5
1918F
  8
01
 10
-2320.539026795559
 20
-26.986165981698861
 30
0.0
 11
-2311.638966298744
 21
-26.986165981698861
 31
0.0
  0
LINE
  5
19190
  8
1CENTER
 10
-2327.375679924678
 20
-25.486165981698861
 30
0.0
 11
-2308.0105479285489
 21
-25.486165981698861
 31
0.0
  0
LINE
  5
19191
  8
01
 10
-2318.9390279589561
 20
-27.486165981698861
 30
0.0
 11
-2319.7390186517791
 21
-23.486165981698861
 31
0.0
  0
LINE
  5
19192
  8
01
 10
-2319.7390186517791
 20
-23.486165981698861
 30
0.0
 11
-2319.8390198151751
 21
-23.986165981698861
 31
0.0
  0
LINE
  5
19193
  8
01
 10
-2318.8390267955592
 20
-26.986165981698861
 30
0.0
 11
-2318.9390279589561
 21
-27.486165981698861
 31
0.0
  0
LINE
  5
19194
  8
01
 10
-2322.1390269053459
 20
-27.033349839640351
 30
0.0
 11
-2322.939020232187
 21
-24.16538713830872
 31
0.0
  0
LINE
  5
19195
  8
01
 10
-2323.7390258517412
 20
-26.580536331591279
 30
0.0
 11
-2324.5390212857919
 21
-24.6182012427162
 31
0.0
  0
LINE
  5
19196
  8
01
 10
-2322.939020232187
 20
-24.16538713830872
 30
0.0
 11
-2323.121784374815
 21
-24.717136602113019
 31
0.0
  0
LINE
  5
19197
  8
01
 10
-2323.5875900553001
 20
-26.123364490959862
 30
0.0
 11
-2323.7390258517412
 21
-26.580536331591279
 31
0.0
  0
LINE
  5
19198
  8
01
 10
-2324.5390212857919
 20
-24.6182012427162
 30
0.0
 11
-2324.8507911420438
 21
-25.20647781775827
 31
0.0
  0
LINE
  5
19199
  8
01
 10
-2322.0262573929949
 20
-26.565251384489809
 30
0.0
 11
-2322.1390269053459
 21
-27.033349839640351
 31
0.0
  0
LINE
  5
1919A
  8
01
 10
-2320.539027958956
 20
-27.486165981698861
 30
0.0
 11
-2321.3390191785802
 21
-23.712573033902149
 31
0.0
  0
LINE
  5
1919B
  8
01
 10
-2321.3390191785802
 20
-23.712573033902149
 30
0.0
 11
-2321.4682898762112
 21
-24.249166769173861
 31
0.0
  0
LINE
  5
1919C
  8
01
 10
-2325.8390233054201
 20
-25.486165981698861
 30
0.0
 11
-2320.539019815174
 21
-23.986165981698861
 31
0.0
  0
LINE
  5
1919D
  8
01
 10
-2325.8390233054201
 20
-25.486165981698861
 30
0.0
 11
-2320.539026795559
 21
-26.986165981698861
 31
0.0
  0
LINE
  5
1919E
  8
01
 10
-2320.4390267955582
 20
-26.986165981698861
 30
0.0
 11
-2320.539027958956
 21
-27.486165981698861
 31
0.0
  0
LINE
  5
1919F
  8
01
 10
-2312.5390279589551
 20
-27.486165981698861
 30
0.0
 11
-2313.3390186517772
 21
-23.486165981698861
 31
0.0
  0
LINE
  5
191A0
  8
01
 10
-2312.4390267955591
 20
-26.986165981698861
 30
0.0
 11
-2312.5390279589551
 21
-27.486165981698861
 31
0.0
  0
LINE
  5
191A1
  8
01
 10
-2313.3390186517772
 20
-23.486165981698861
 30
0.0
 11
-2313.439019815175
 21
-23.986165981698861
 31
0.0
  0
LINE
  5
191A2
  8
01
 10
-2310.1390139981331
 20
-22.486165981698861
 30
0.0
 11
-2309.839013998132
 21
-22.486165981698861
 31
0.0
  0
LINE
  5
191A3
  8
01
 10
-2310.1390302855721
 20
-28.486112465036999
 30
0.0
 11
-2309.839029122174
 21
-28.486112465036999
 31
0.0
  0
LINE
  5
191A4
  8
01
 10
-2309.839029122174
 20
-28.486112465036999
 30
0.0
 11
-2309.839015161529
 21
-22.486165981698861
 31
0.0
  0
LINE
  5
191A5
  8
01
 10
-2310.1390291221742
 20
-28.486112465036999
 30
0.0
 11
-2310.1390151615328
 21
-22.486167145085371
 31
0.0
  0
LINE
  5
191A6
  8
01
 10
-2317.3390279589562
 20
-27.486165981698861
 30
0.0
 11
-2318.1390186517792
 21
-23.486165981698861
 31
0.0
  0
LINE
  5
191A7
  8
01
 10
-2318.1390186517792
 20
-23.486165981698861
 30
0.0
 11
-2318.2390198151761
 21
-23.986165981698861
 31
0.0
  0
LINE
  5
191A8
  8
01
 10
-2315.6390267955589
 20
-26.986165981698861
 30
0.0
 11
-2315.7390279589558
 21
-27.486165981698861
 31
0.0
  0
LINE
  5
191A9
  8
01
 10
-2316.539018651778
 20
-23.486165981698861
 30
0.0
 11
-2316.6390198151748
 21
-23.986165981698861
 31
0.0
  0
LINE
  5
191AA
  8
01
 10
-2317.2390267955579
 20
-26.986165981698861
 30
0.0
 11
-2317.3390279589562
 21
-27.486165981698861
 31
0.0
  0
LINE
  5
191AB
  8
01
 10
-2315.7390279589558
 20
-27.486165981698861
 30
0.0
 11
-2316.539018651778
 21
-23.486165981698861
 31
0.0
  0
LINE
  5
191AC
  8
01
 10
-2314.939018651778
 20
-23.486165981698861
 30
0.0
 11
-2315.0390198151758
 21
-23.986165981698861
 31
0.0
  0
LINE
  5
191AD
  8
01
 10
-2314.0390267955581
 20
-26.986165981698861
 30
0.0
 11
-2314.139027958955
 21
-27.486165981698861
 31
0.0
  0
LINE
  5
191AE
  8
01
 10
-2314.139027958955
 20
-27.486165981698861
 30
0.0
 11
-2314.939018651778
 21
-23.486165981698861
 31
0.0
  0
LINE
  5
191AF
  8
01
 10
-2310.1390139981331
 20
-22.486165981698861
 30
0.0
 11
-2311.639031449196
 21
-23.986165981698861
 31
0.0
  0
LINE
  5
191B0
  8
01
 10
-2310.1390302855721
 20
-28.486112465036999
 30
0.0
 11
-2311.638966298744
 21
-26.986165981698861
 31
0.0
  0
CIRCLE
  5
1931D
  8
01
  6
BYBLOCK
 10
-2513.8533787575939
 20
57.10095318949476
 30
0.0
 40
2.40007232238895
  0
CIRCLE
  5
1931E
  8
01
  6
BYBLOCK
 10
-2513.8533787575939
 20
57.10095318949476
 30
0.0
 40
3.6000000000000001
  0
CIRCLE
  5
1931F
  8
01
  6
BYBLOCK
 10
-2613.8533787575921
 20
57.10095318949476
 30
0.0
 40
2.40007232238895
  0
CIRCLE
  5
19320
  8
01
  6
BYBLOCK
 10
-2613.8533787575921
 20
57.10095318949476
 30
0.0
 40
3.6000000000000001
  0
LINE
  5
19321
  8
1HIDDEN
 10
-2452.653378757595
 20
59.501025511884471
 30
0.0
 11
-2452.653378757595
 21
54.700880867107493
 31
0.0
  0
LINE
  5
19322
  8
1HIDDEN
 10
-2453.8533787575948
 20
53.500989350694368
 30
0.0
 11
-2452.653378757595
 21
54.700880867107493
 31
0.0
  0
LINE
  5
19323
  8
1HIDDEN
 10
-2453.8533787575948
 20
60.700917028295777
 30
0.0
 11
-2452.653378757595
 21
59.501025511884471
 31
0.0
  0
LINE
  5
19324
  8
1HIDDEN
 10
-2452.653378757595
 20
59.501025511884471
 30
0.0
 11
-2452.3533787575948
 21
59.501025511884471
 31
0.0
  0
LINE
  5
19325
  8
1HIDDEN
 10
-2452.653378757595
 20
54.700880867107493
 30
0.0
 11
-2452.3533787575948
 21
54.700880867107493
 31
0.0
  0
LINE
  5
19526
  8
1DIM
 10
-2385.3160155131441
 20
42.340980042063158
 30
0.0
 11
-2377.762075947966
 21
47.650635538426513
 31
0.0
  0
LINE
  5
19529
  8
1DIM
 10
-2386.2989638910099
 20
50.44059810999147
 30
0.0
 11
-2378.149232858284
 21
54.780682042206422
 31
0.0
  0
LINE
  5
1952C
  8
1DIM
 10
-2453.8533787575948
 20
60.700917028295777
 30
0.0
 11
-2464.8533787575971
 21
60.700917028295777
 31
0.0
  0
LINE
  5
1952D
  8
1DIM
 10
-2453.8533787575948
 20
53.500989350694368
 30
0.0
 11
-2464.8533787575971
 21
53.500989350694368
 31
0.0
  0
LINE
  5
1952E
  8
1DIM
 10
-2463.8533787575971
 20
55.500989350694368
 30
0.0
 11
-2463.8533787575971
 21
58.700917028295777
 31
0.0
  0
LINE
  5
1952F
  8
1DIM
 10
-2463.8533787575971
 20
60.700917028295777
 30
0.0
 11
-2463.8533787575971
 21
75.717619856161804
 31
0.0
  0
LINE
  5
19533
  8
1DIM
 10
-2452.3533787575948
 20
59.501025511884471
 30
0.0
 11
-2442.8533787575961
 21
59.501025511884471
 31
0.0
  0
LINE
  5
19534
  8
1DIM
 10
-2452.3533787575948
 20
54.700880867107493
 30
0.0
 11
-2442.8533787575961
 21
54.700880867107479
 31
0.0
  0
LINE
  5
19535
  8
1DIM
 10
-2443.8533787575971
 20
61.501025511884471
 30
0.0
 11
-2443.8533787575971
 21
63.501025511884471
 31
0.0
  0
LINE
  5
19536
  8
1DIM
 10
-2443.8533787575971
 20
52.700880867107479
 30
0.0
 11
-2443.8533787575971
 21
37.967547533774152
 31
0.0
  0
LINE
  5
19537
  8
1DIM
 10
-2443.8533787575971
 20
59.501025511884471
 30
0.0
 11
-2443.8533787575971
 21
54.700880867107479
 31
0.0
  0
LINE
  5
1953B
  8
1DIM
 10
-2376.8533787575948
 20
48.100953189493687
 30
0.0
 11
-2376.8533787575948
 21
26.100953189496071
 31
0.0
  0
LINE
  5
1953C
  8
1DIM
 10
-2256.8533787575961
 20
48.10095318949368
 30
0.0
 11
-2256.8533787575961
 21
26.100953189496071
 31
0.0
  0
LINE
  5
1953D
  8
1DIM
 10
-2374.8533787575948
 20
27.100953189496071
 30
0.0
 11
-2258.8533787575961
 21
27.100953189496071
 31
0.0
  0
LINE
  5
19541
  8
1DIM
 10
-2416.8533787575948
 20
53.600953189495883
 30
0.0
 11
-2395.8533787575948
 21
53.600953189495868
 31
0.0
  0
LINE
  5
19542
  8
1DIM
 10
-2421.3533787575948
 20
68.600953189495883
 30
0.0
 11
-2395.8533787575948
 21
68.600953189495868
 31
0.0
  0
LINE
  5
19543
  8
1DIM
 10
-2396.8533787575948
 20
55.600953189495883
 30
0.0
 11
-2396.8533787575948
 21
66.600953189495854
 31
0.0
  0
LINE
  5
19547
  8
1DIM
 10
-2452.3533787575948
 20
47.100953189495883
 30
0.0
 11
-2405.8533787575948
 21
47.100953189495861
 31
0.0
  0
LINE
  5
19548
  8
1DIM
 10
-2416.8533787575948
 20
53.600953189495883
 30
0.0
 11
-2405.8533787575948
 21
53.600953189495868
 31
0.0
  0
LINE
  5
19549
  8
1DIM
 10
-2406.8533787575948
 20
49.100953189495861
 30
0.0
 11
-2406.8533787575948
 21
51.600953189495868
 31
0.0
  0
LINE
  5
1954A
  8
1DIM
 10
-2406.8533787575948
 20
53.600953189495868
 30
0.0
 11
-2406.8533787575948
 21
64.167619856162545
 31
0.0
  0
LINE
  5
1954E
  8
1DIM
 10
-2418.3533787575939
 20
53.600953189495883
 30
0.0
 11
-2418.3533787575939
 21
26.100953189496071
 31
0.0
  0
LINE
  5
1954F
  8
1DIM
 10
-2416.8533787575948
 20
53.600953189495883
 30
0.0
 11
-2416.8533787575948
 21
26.100953189496071
 31
0.0
  0
LINE
  5
19550
  8
1DIM
 10
-2420.3533787575948
 20
27.100953189496071
 30
0.0
 11
-2422.3533787575948
 21
27.100953189496071
 31
0.0
  0
LINE
  5
19551
  8
1DIM
 10
-2414.8533787575948
 20
27.100953189496071
 30
0.0
 11
-2404.6200454242621
 21
27.100953189496071
 31
0.0
  0
LINE
  5
19552
  8
1DIM
 10
-2418.3533787575939
 20
27.100953189496071
 30
0.0
 11
-2416.8533787575948
 21
27.100953189496071
 31
0.0
  0
LINE
  5
19556
  8
1DIM
 10
-2452.3533787575948
 20
47.100953189495883
 30
0.0
 11
-2452.3533787575948
 21
26.100953189496071
 31
0.0
  0
LINE
  5
19557
  8
1DIM
 10
-2418.3533787575948
 20
53.600953189495883
 30
0.0
 11
-2418.3533787575948
 21
26.100953189496071
 31
0.0
  0
LINE
  5
19558
  8
1DIM
 10
-2450.3533787575939
 20
27.100953189496071
 30
0.0
 11
-2420.3533787575948
 21
27.100953189496071
 31
0.0
  0
LINE
  5
1955C
  8
1DIM
 10
-2453.8533787575948
 20
47.100953189495883
 30
0.0
 11
-2453.8533787575948
 21
26.100953189496071
 31
0.0
  0
LINE
  5
1955D
  8
1DIM
 10
-2452.3533787575948
 20
47.100953189495883
 30
0.0
 11
-2452.3533787575948
 21
26.100953189496071
 31
0.0
  0
LINE
  5
1955E
  8
1DIM
 10
-2450.3533787575939
 20
27.100953189496071
 30
0.0
 11
-2448.3533787575948
 21
27.100953189496071
 31
0.0
  0
LINE
  5
1955F
  8
1DIM
 10
-2455.8533787575948
 20
27.100953189496071
 30
0.0
 11
-2466.0867120909279
 21
27.100953189496071
 31
0.0
  0
LINE
  5
19560
  8
1DIM
 10
-2452.3533787575948
 20
27.100953189496071
 30
0.0
 11
-2453.8533787575948
 21
27.100953189496071
 31
0.0
  0
LINE
  5
19564
  8
1DIM
 10
-2453.8533787575948
 20
47.100953189495883
 30
0.0
 11
-2474.8533787575971
 21
47.100953189495883
 31
0.0
  0
LINE
  5
19565
  8
1DIM
 10
-2457.3533787575948
 20
57.10095318949633
 30
0.0
 11
-2474.8533787575971
 21
57.10095318949633
 31
0.0
  0
LINE
  5
19566
  8
1DIM
 10
-2473.8533787575971
 20
49.100953189495883
 30
0.0
 11
-2473.8533787575971
 21
55.100953189496337
 31
0.0
  0
LINE
  5
1956A
  8
1DIM
 10
-2623.853378757593
 20
48.10095318949476
 30
0.0
 11
-2623.853378757593
 21
26.100953189496071
 31
0.0
  0
LINE
  5
1956B
  8
1DIM
 10
-2613.8533787575921
 20
50.10095318949476
 30
0.0
 11
-2613.8533787575921
 21
26.100953189496071
 31
0.0
  0
LINE
  5
1956C
  8
1DIM
 10
-2621.853378757593
 20
27.100953189496071
 30
0.0
 11
-2615.8533787575921
 21
27.100953189496071
 31
0.0
  0
LINE
  5
19570
  8
1DIM
 10
-2513.8533787575939
 20
50.100953189494753
 30
0.0
 11
-2513.8533787575939
 21
26.100953189496071
 31
0.0
  0
LINE
  5
19571
  8
1DIM
 10
-2503.8533787575948
 20
48.100953189495961
 30
0.0
 11
-2503.8533787575948
 21
26.100953189496071
 31
0.0
  0
LINE
  5
19572
  8
1DIM
 10
-2511.8533787575939
 20
27.100953189496071
 30
0.0
 11
-2505.8533787575948
 21
27.100953189496071
 31
0.0
  0
LINE
  5
19576
  8
1DIM
 10
-2613.8533787575921
 20
50.10095318949476
 30
0.0
 11
-2613.8533787575921
 21
26.100953189496071
 31
0.0
  0
LINE
  5
19577
  8
1DIM
 10
-2513.8533787575939
 20
50.100953189494753
 30
0.0
 11
-2513.8533787575939
 21
26.100953189496071
 31
0.0
  0
LINE
  5
19578
  8
1DIM
 10
-2611.8533787575921
 20
27.100953189496071
 30
0.0
 11
-2515.8533787575939
 21
27.100953189496071
 31
0.0
  0
LINE
  5
1957C
  8
1DIM
 10
-2504.8533787575948
 20
47.100953189495947
 30
0.0
 11
-2482.8533787575948
 21
47.100953189495947
 31
0.0
  0
LINE
  5
1957D
  8
1DIM
 10
-2503.8533787575939
 20
68.600953189495954
 30
0.0
 11
-2482.8533787575948
 21
68.600953189495954
 31
0.0
  0
LINE
  5
1957E
  8
1DIM
 10
-2483.8533787575948
 20
49.100953189495947
 30
0.0
 11
-2483.8533787575948
 21
66.600953189495954
 31
0.0
  0
LINE
  5
19582
  8
1DIM
 10
-2309.8390302856951
 20
-28.486112465036999
 30
0.0
 11
-2300.2994132326571
 21
-28.486112465036999
 31
0.0
  0
LINE
  5
19583
  8
1DIM
 10
-2309.839015161529
 20
-22.486165981698861
 30
0.0
 11
-2300.2994132326571
 21
-22.486165981698861
 31
0.0
  0
LINE
  5
19584
  8
1DIM
 10
-2301.2994132326571
 20
-26.486112465036999
 30
0.0
 11
-2301.2994132326571
 21
-24.486165981698861
 31
0.0
  0
LINE
  5
19585
  8
1DIM
 10
-2301.2994132326571
 20
-22.486165981698861
 30
0.0
 11
-2301.2994132326571
 21
-12.75283264836553
 31
0.0
  0
LINE
  5
19589
  8
1DIM
 10
-2325.8390221419681
 20
-25.486165981698861
 30
0.0
 11
-2325.8390221419681
 21
-12.53630435046764
 31
0.0
  0
LINE
  5
1958A
  8
1DIM
 10
-2309.839013998132
 20
-22.486165981698861
 30
0.0
 11
-2309.839013998132
 21
-12.53630435046764
 31
0.0
  0
LINE
  5
1958B
  8
1DIM
 10
-2323.8390221419668
 20
-13.53630435046764
 30
0.0
 11
-2311.8390139981311
 21
-13.53630435046764
 31
0.0
  0
LINE
  5
1958F
  8
1DIM
 10
-2319.7390174883271
 20
-23.486165981698861
 30
0.0
 11
-2331.583898019021
 21
-23.486165981698861
 31
0.0
  0
LINE
  5
19590
  8
1DIM
 10
-2318.9390267955041
 20
-27.486165981698861
 30
0.0
 11
-2331.583898019021
 21
-27.486165981698861
 31
0.0
  0
LINE
  5
19591
  8
1DIM
 10
-2330.583898019021
 20
-29.486165981698861
 30
0.0
 11
-2330.583898019021
 21
-31.486165981698861
 31
0.0
  0
LINE
  5
19592
  8
1DIM
 10
-2330.583898019021
 20
-21.486165981698861
 30
0.0
 11
-2330.583898019021
 21
-11.58616598169821
 31
0.0
  0
LINE
  5
19593
  8
1DIM
 10
-2330.583898019021
 20
-27.486165981698861
 30
0.0
 11
-2330.583898019021
 21
-23.486165981698861
 31
0.0
  0
TEXT
  5
19597
  8
1TEXT
 10
-2323.9186443988378
 20
-41.966175916621999
 30
0.0
 40
4.0
  1
付属品
  0
LINE
  5
19598
  8
1DIM
 10
-2335.982366341645
 20
-2.8990468105039611
 30
0.0
 11
-2297.724391173545
 21
-2.8990468105039611
 31
0.0
  0
LINE
  5
19599
  8
1DIM
 10
-2297.724391173545
 20
-2.8990468105039611
 30
0.0
 11
-2297.724391173545
 21
-44.45497782556415
 31
0.0
  0
LINE
  5
1959A
  8
1DIM
 10
-2297.724391173545
 20
-44.45497782556415
 30
0.0
 11
-2335.982366341645
 21
-44.45497782556415
 31
0.0
  0
LINE
  5
1959B
  8
1DIM
 10
-2335.982366341645
 20
-44.45497782556415
 30
0.0
 11
-2335.982366341645
 21
-2.8990468105039611
 31
0.0
  0
LINE
  5
1959C
  8
1DIM
 10
-2416.8533787575948
 20
53.600953189495883
 30
0.0
 11
-2416.8533787575948
 21
16.10095318949584
 31
0.0
  0
LINE
  5
1959D
  8
1DIM
 10
-2453.8533787575948
 20
47.100953189495883
 30
0.0
 11
-2453.8533787575948
 21
16.10095318949584
 31
0.0
  0
LINE
  5
1959E
  8
1DIM
 10
-2418.8533787575948
 20
17.10095318949584
 30
0.0
 11
-2451.8533787575948
 21
17.10095318949584
 31
0.0
  0
TEXT
  5
195A2
  8
1DIM
 10
-2438.2700454242608
 20
17.800953189495839
 30
0.0
 40
3.5
  1
37
  0
LINE
  5
195A3
  8
0
  6
BYBLOCK
 10
-2451.8533787575948
 20
16.565054809495841
 30
0.0
 11
-2453.8533787575948
 21
17.10095318949584
 31
0.0
  0
LINE
  5
195A4
  8
0
  6
BYBLOCK
 10
-2453.8533787575948
 20
17.10095318949584
 30
0.0
 11
-2451.8533787575948
 21
17.636851569495839
 31
0.0
  0
LINE
  5
195A5
  8
0
  6
BYBLOCK
 10
-2453.8533787575948
 20
17.10095318949584
 30
0.0
 11
-2451.8533787575948
 21
17.10095318949584
 31
0.0
  0
LINE
  5
195A6
  8
0
  6
BYBLOCK
 10
-2418.8533787575948
 20
17.636851569495839
 30
0.0
 11
-2416.8533787575948
 21
17.10095318949584
 31
0.0
  0
LINE
  5
195A7
  8
0
  6
BYBLOCK
 10
-2416.8533787575948
 20
17.10095318949584
 30
0.0
 11
-2418.8533787575948
 21
16.565054809495841
 31
0.0
  0
LINE
  5
195A8
  8
0
  6
BYBLOCK
 10
-2416.8533787575948
 20
17.10095318949584
 30
0.0
 11
-2418.8533787575948
 21
17.10095318949584
 31
0.0
  0
TEXT
  5
195A9
  8
1DIM
 10
-2331.2838980190199
 20
-19.152832648365251
 30
0.0
 40
3.5
  1
φ4
 50
90.0
  0
LINE
  5
195AA
  8
0
  6
BYBLOCK
 10
-2330.04799963902
 20
-21.486165981698861
 30
0.0
 11
-2330.583898019021
 21
-23.486165981698861
 31
0.0
  0
LINE
  5
195AB
  8
0
  6
BYBLOCK
 10
-2330.583898019021
 20
-23.486165981698861
 30
0.0
 11
-2331.1197963990212
 21
-21.486165981698861
 31
0.0
  0
LINE
  5
195AC
  8
0
  6
BYBLOCK
 10
-2330.583898019021
 20
-23.486165981698861
 30
0.0
 11
-2330.583898019021
 21
-21.486165981698861
 31
0.0
  0
LINE
  5
195AD
  8
0
  6
BYBLOCK
 10
-2331.1197963990212
 20
-29.486165981698861
 30
0.0
 11
-2330.583898019021
 21
-27.486165981698861
 31
0.0
  0
LINE
  5
195AE
  8
0
  6
BYBLOCK
 10
-2330.583898019021
 20
-27.486165981698861
 30
0.0
 11
-2330.04799963902
 21
-29.486165981698861
 31
0.0
  0
LINE
  5
195AF
  8
0
  6
BYBLOCK
 10
-2330.583898019021
 20
-27.486165981698861
 30
0.0
 11
-2330.583898019021
 21
-29.486165981698861
 31
0.0
  0
TEXT
  5
195B0
  8
1DIM
 10
-2319.8700471817142
 20
-12.836304350467641
 30
0.0
 40
3.5
  1
16
  0
LINE
  5
195B1
  8
0
  6
BYBLOCK
 10
-2311.8390139981311
 20
-13.000405970467639
 30
0.0
 11
-2309.839013998132
 21
-13.53630435046764
 31
0.0
  0
LINE
  5
195B2
  8
0
  6
BYBLOCK
 10
-2309.839013998132
 20
-13.53630435046764
 30
0.0
 11
-2311.8390139981311
 21
-14.072202730467639
 31
0.0
  0
LINE
  5
195B3
  8
0
  6
BYBLOCK
 10
-2309.839013998132
 20
-13.53630435046764
 30
0.0
 11
-2311.8390139981311
 21
-13.53630435046764
 31
0.0
  0
LINE
  5
195B4
  8
0
  6
BYBLOCK
 10
-2323.8390221419668
 20
-14.072202730467639
 30
0.0
 11
-2325.8390221419681
 21
-13.53630435046764
 31
0.0
  0
LINE
  5
195B5
  8
0
  6
BYBLOCK
 10
-2325.8390221419681
 20
-13.53630435046764
 30
0.0
 11
-2323.8390221419668
 21
-13.00040597046765
 31
0.0
  0
LINE
  5
195B6
  8
0
  6
BYBLOCK
 10
-2325.8390221419681
 20
-13.53630435046764
 30
0.0
 11
-2323.8390221419668
 21
-13.53630435046764
 31
0.0
  0
TEXT
  5
195B7
  8
1DIM
 10
-2301.9994132326569
 20
-20.23616598169923
 30
0.0
 40
3.5
  1
φ6
 50
90.0
  0
LINE
  5
195B8
  8
0
  6
BYBLOCK
 10
-2301.8353116126568
 20
-24.486165981698861
 30
0.0
 11
-2301.2994132326571
 21
-22.486165981698861
 31
0.0
  0
LINE
  5
195B9
  8
0
  6
BYBLOCK
 10
-2301.2994132326571
 20
-22.486165981698861
 30
0.0
 11
-2300.763514852657
 21
-24.486165981698861
 31
0.0
  0
LINE
  5
195BA
  8
0
  6
BYBLOCK
 10
-2301.2994132326571
 20
-22.486165981698861
 30
0.0
 11
-2301.2994132326571
 21
-24.486165981698861
 31
0.0
  0
LINE
  5
195BB
  8
0
  6
BYBLOCK
 10
-2300.763514852657
 20
-26.486112465036999
 30
0.0
 11
-2301.2994132326571
 21
-28.486112465036999
 31
0.0
  0
LINE
  5
195BC
  8
0
  6
BYBLOCK
 10
-2301.2994132326571
 20
-28.486112465036999
 30
0.0
 11
-2301.8353116126568
 21
-26.486112465036999
 31
0.0
  0
LINE
  5
195BD
  8
0
  6
BYBLOCK
 10
-2301.2994132326571
 20
-28.486112465036999
 30
0.0
 11
-2301.2994132326571
 21
-26.486112465036999
 31
0.0
  0
TEXT
  5
195BE
  8
1DIM
 10
-2484.5533787575951
 20
53.184286522828877
 30
0.0
 40
3.5
  1
21.5
 50
90.0
  0
LINE
  5
195BF
  8
0
  6
BYBLOCK
 10
-2484.3892771375949
 20
66.600953189495954
 30
0.0
 11
-2483.8533787575948
 21
68.600953189495954
 31
0.0
  0
LINE
  5
195C0
  8
0
  6
BYBLOCK
 10
-2483.8533787575948
 20
68.600953189495954
 30
0.0
 11
-2483.3174803775951
 21
66.600953189495954
 31
0.0
  0
LINE
  5
195C1
  8
0
  6
BYBLOCK
 10
-2483.8533787575948
 20
68.600953189495954
 30
0.0
 11
-2483.8533787575948
 21
66.600953189495954
 31
0.0
  0
LINE
  5
195C2
  8
0
  6
BYBLOCK
 10
-2483.3174803775951
 20
49.100953189495947
 30
0.0
 11
-2483.8533787575948
 21
47.100953189495947
 31
0.0
  0
LINE
  5
195C3
  8
0
  6
BYBLOCK
 10
-2483.8533787575948
 20
47.100953189495947
 30
0.0
 11
-2484.3892771375949
 21
49.100953189495947
 31
0.0
  0
LINE
  5
195C4
  8
0
  6
BYBLOCK
 10
-2483.8533787575948
 20
47.100953189495947
 30
0.0
 11
-2483.8533787575948
 21
49.100953189495947
 31
0.0
  0
TEXT
  5
195C5
  8
1DIM
 10
-2567.353378757593
 20
27.80095318949607
 30
0.0
 40
3.5
  1
100
  0
LINE
  5
195C6
  8
0
  6
BYBLOCK
 10
-2515.8533787575939
 20
27.63685156949607
 30
0.0
 11
-2513.8533787575939
 21
27.100953189496071
 31
0.0
  0
LINE
  5
195C7
  8
0
  6
BYBLOCK
 10
-2513.8533787575939
 20
27.100953189496071
 30
0.0
 11
-2515.8533787575939
 21
26.565054809496068
 31
0.0
  0
LINE
  5
195C8
  8
0
  6
BYBLOCK
 10
-2513.8533787575939
 20
27.100953189496071
 30
0.0
 11
-2515.8533787575939
 21
27.100953189496071
 31
0.0
  0
LINE
  5
195C9
  8
0
  6
BYBLOCK
 10
-2611.8533787575921
 20
26.565054809496068
 30
0.0
 11
-2613.8533787575921
 21
27.100953189496071
 31
0.0
  0
LINE
  5
195CA
  8
0
  6
BYBLOCK
 10
-2613.8533787575921
 20
27.100953189496071
 30
0.0
 11
-2611.8533787575921
 21
27.63685156949607
 31
0.0
  0
LINE
  5
195CB
  8
0
  6
BYBLOCK
 10
-2613.8533787575921
 20
27.100953189496071
 30
0.0
 11
-2611.8533787575921
 21
27.100953189496071
 31
0.0
  0
TEXT
  5
195CC
  8
1DIM
 10
-2510.8950454242608
 20
27.80095318949607
 30
0.0
 40
3.5
  1
10
  0
LINE
  5
195CD
  8
0
  6
BYBLOCK
 10
-2505.8533787575948
 20
27.63685156949607
 30
0.0
 11
-2503.8533787575948
 21
27.100953189496071
 31
0.0
  0
LINE
  5
195CE
  8
0
  6
BYBLOCK
 10
-2503.8533787575948
 20
27.100953189496071
 30
0.0
 11
-2505.8533787575948
 21
26.565054809496068
 31
0.0
  0
LINE
  5
195CF
  8
0
  6
BYBLOCK
 10
-2503.8533787575948
 20
27.100953189496071
 30
0.0
 11
-2505.8533787575948
 21
27.100953189496071
 31
0.0
  0
LINE
  5
195D0
  8
0
  6
BYBLOCK
 10
-2511.8533787575939
 20
26.565054809496068
 30
0.0
 11
-2513.8533787575939
 21
27.100953189496071
 31
0.0
  0
LINE
  5
195D1
  8
0
  6
BYBLOCK
 10
-2513.8533787575939
 20
27.100953189496071
 30
0.0
 11
-2511.8533787575939
 21
27.63685156949607
 31
0.0
  0
LINE
  5
195D2
  8
0
  6
BYBLOCK
 10
-2513.8533787575939
 20
27.100953189496071
 30
0.0
 11
-2511.8533787575939
 21
27.100953189496071
 31
0.0
  0
TEXT
  5
195D3
  8
1DIM
 10
-2620.895045424259
 20
27.80095318949607
 30
0.0
 40
3.5
  1
10
  0
LINE
  5
195D4
  8
0
  6
BYBLOCK
 10
-2615.8533787575921
 20
27.63685156949607
 30
0.0
 11
-2613.8533787575921
 21
27.100953189496071
 31
0.0
  0
LINE
  5
195D5
  8
0
  6
BYBLOCK
 10
-2613.8533787575921
 20
27.100953189496071
 30
0.0
 11
-2615.8533787575921
 21
26.565054809496068
 31
0.0
  0
LINE
  5
195D6
  8
0
  6
BYBLOCK
 10
-2613.8533787575921
 20
27.100953189496071
 30
0.0
 11
-2615.8533787575921
 21
27.100953189496071
 31
0.0
  0
LINE
  5
195D7
  8
0
  6
BYBLOCK
 10
-2621.853378757593
 20
26.565054809496068
 30
0.0
 11
-2623.853378757593
 21
27.100953189496071
 31
0.0
  0
LINE
  5
195D8
  8
0
  6
BYBLOCK
 10
-2623.853378757593
 20
27.100953189496071
 30
0.0
 11
-2621.853378757593
 21
27.63685156949607
 31
0.0
  0
LINE
  5
195D9
  8
0
  6
BYBLOCK
 10
-2623.853378757593
 20
27.100953189496071
 30
0.0
 11
-2621.853378757593
 21
27.100953189496071
 31
0.0
  0
TEXT
  5
195DA
  8
1DIM
 10
-2474.5533787575969
 20
50.059286522829041
 30
0.0
 40
3.5
  1
10
 50
90.0
  0
LINE
  5
195DB
  8
0
  6
BYBLOCK
 10
-2474.3892771375972
 20
55.100953189496337
 30
0.0
 11
-2473.8533787575971
 21
57.10095318949633
 31
0.0
  0
LINE
  5
195DC
  8
0
  6
BYBLOCK
 10
-2473.8533787575971
 20
57.10095318949633
 30
0.0
 11
-2473.3174803775969
 21
55.100953189496337
 31
0.0
  0
LINE
  5
195DD
  8
0
  6
BYBLOCK
 10
-2473.8533787575971
 20
57.10095318949633
 30
0.0
 11
-2473.8533787575971
 21
55.100953189496337
 31
0.0
  0
LINE
  5
195DE
  8
0
  6
BYBLOCK
 10
-2473.3174803775969
 20
49.100953189495883
 30
0.0
 11
-2473.8533787575971
 21
47.100953189495883
 31
0.0
  0
LINE
  5
195DF
  8
0
  6
BYBLOCK
 10
-2473.8533787575971
 20
47.100953189495883
 30
0.0
 11
-2474.3892771375972
 21
49.100953189495883
 31
0.0
  0
LINE
  5
195E0
  8
0
  6
BYBLOCK
 10
-2473.8533787575971
 20
47.100953189495883
 30
0.0
 11
-2473.8533787575971
 21
49.100953189495883
 31
0.0
  0
TEXT
  5
195E1
  8
1DIM
 10
-2464.8867120909281
 20
27.80095318949607
 30
0.0
 40
3.5
  1
1.5
  0
LINE
  5
195E2
  8
0
  6
BYBLOCK
 10
-2455.8533787575948
 20
27.63685156949607
 30
0.0
 11
-2453.8533787575948
 21
27.100953189496071
 31
0.0
  0
LINE
  5
195E3
  8
0
  6
BYBLOCK
 10
-2453.8533787575948
 20
27.100953189496071
 30
0.0
 11
-2455.8533787575948
 21
26.565054809496068
 31
0.0
  0
LINE
  5
195E4
  8
0
  6
BYBLOCK
 10
-2453.8533787575948
 20
27.100953189496071
 30
0.0
 11
-2455.8533787575948
 21
27.100953189496071
 31
0.0
  0
LINE
  5
195E5
  8
0
  6
BYBLOCK
 10
-2450.3533787575939
 20
26.565054809496068
 30
0.0
 11
-2452.3533787575948
 21
27.100953189496071
 31
0.0
  0
LINE
  5
195E6
  8
0
  6
BYBLOCK
 10
-2452.3533787575948
 20
27.100953189496071
 30
0.0
 11
-2450.3533787575939
 21
27.63685156949607
 31
0.0
  0
LINE
  5
195E7
  8
0
  6
BYBLOCK
 10
-2452.3533787575948
 20
27.100953189496071
 30
0.0
 11
-2450.3533787575939
 21
27.100953189496071
 31
0.0
  0
TEXT
  5
195E8
  8
1DIM
 10
-2438.2700454242608
 20
27.80095318949607
 30
0.0
 40
3.5
  1
34
  0
LINE
  5
195E9
  8
0
  6
BYBLOCK
 10
-2420.3533787575948
 20
27.63685156949607
 30
0.0
 11
-2418.3533787575948
 21
27.100953189496071
 31
0.0
  0
LINE
  5
195EA
  8
0
  6
BYBLOCK
 10
-2418.3533787575948
 20
27.100953189496071
 30
0.0
 11
-2420.3533787575948
 21
26.565054809496068
 31
0.0
  0
LINE
  5
195EB
  8
0
  6
BYBLOCK
 10
-2418.3533787575948
 20
27.100953189496071
 30
0.0
 11
-2420.3533787575948
 21
27.100953189496071
 31
0.0
  0
LINE
  5
195EC
  8
0
  6
BYBLOCK
 10
-2450.3533787575939
 20
26.565054809496068
 30
0.0
 11
-2452.3533787575948
 21
27.100953189496071
 31
0.0
  0
LINE
  5
195ED
  8
0
  6
BYBLOCK
 10
-2452.3533787575948
 20
27.100953189496071
 30
0.0
 11
-2450.3533787575939
 21
27.63685156949607
 31
0.0
  0
LINE
  5
195EE
  8
0
  6
BYBLOCK
 10
-2452.3533787575948
 20
27.100953189496071
 30
0.0
 11
-2450.3533787575939
 21
27.100953189496071
 31
0.0
  0
TEXT
  5
195EF
  8
1DIM
 10
-2411.653378757595
 20
27.80095318949607
 30
0.0
 40
3.5
  1
1.5
  0
LINE
  5
195F0
  8
0
  6
BYBLOCK
 10
-2414.8533787575948
 20
26.565054809496068
 30
0.0
 11
-2416.8533787575948
 21
27.100953189496071
 31
0.0
  0
LINE
  5
195F1
  8
0
  6
BYBLOCK
 10
-2416.8533787575948
 20
27.100953189496071
 30
0.0
 11
-2414.8533787575948
 21
27.63685156949607
 31
0.0
  0
LINE
  5
195F2
  8
0
  6
BYBLOCK
 10
-2416.8533787575948
 20
27.100953189496071
 30
0.0
 11
-2414.8533787575948
 21
27.100953189496071
 31
0.0
  0
LINE
  5
195F3
  8
0
  6
BYBLOCK
 10
-2420.3533787575948
 20
27.63685156949607
 30
0.0
 11
-2418.3533787575939
 21
27.100953189496071
 31
0.0
  0
LINE
  5
195F4
  8
0
  6
BYBLOCK
 10
-2418.3533787575939
 20
27.100953189496071
 30
0.0
 11
-2420.3533787575948
 21
26.565054809496068
 31
0.0
  0
LINE
  5
195F5
  8
0
  6
BYBLOCK
 10
-2418.3533787575939
 20
27.100953189496071
 30
0.0
 11
-2420.3533787575948
 21
27.100953189496071
 31
0.0
  0
TEXT
  5
195F6
  8
1DIM
 10
-2407.5533787575951
 20
56.38428652282883
 30
0.0
 40
3.5
  1
6.5
 50
90.0
  0
LINE
  5
195F7
  8
0
  6
BYBLOCK
 10
-2407.3892771375949
 20
51.600953189495868
 30
0.0
 11
-2406.8533787575948
 21
53.600953189495868
 31
0.0
  0
LINE
  5
195F8
  8
0
  6
BYBLOCK
 10
-2406.8533787575948
 20
53.600953189495868
 30
0.0
 11
-2406.3174803775951
 21
51.600953189495868
 31
0.0
  0
LINE
  5
195F9
  8
0
  6
BYBLOCK
 10
-2406.8533787575948
 20
53.600953189495868
 30
0.0
 11
-2406.8533787575948
 21
51.600953189495868
 31
0.0
  0
LINE
  5
195FA
  8
0
  6
BYBLOCK
 10
-2406.3174803775951
 20
49.100953189495861
 30
0.0
 11
-2406.8533787575948
 21
47.100953189495861
 31
0.0
  0
LINE
  5
195FB
  8
0
  6
BYBLOCK
 10
-2406.8533787575948
 20
47.100953189495861
 30
0.0
 11
-2407.3892771375949
 21
49.100953189495861
 31
0.0
  0
LINE
  5
195FC
  8
0
  6
BYBLOCK
 10
-2406.8533787575948
 20
47.100953189495861
 30
0.0
 11
-2406.8533787575948
 21
49.100953189495861
 31
0.0
  0
TEXT
  5
195FD
  8
1DIM
 10
-2397.5533787575951
 20
58.767619856162163
 30
0.0
 40
3.5
  1
15
 50
90.0
  0
LINE
  5
195FE
  8
0
  6
BYBLOCK
 10
-2397.3892771375949
 20
66.600953189495854
 30
0.0
 11
-2396.8533787575948
 21
68.600953189495868
 31
0.0
  0
LINE
  5
195FF
  8
0
  6
BYBLOCK
 10
-2396.8533787575948
 20
68.600953189495868
 30
0.0
 11
-2396.3174803775951
 21
66.600953189495854
 31
0.0
  0
LINE
  5
19600
  8
0
  6
BYBLOCK
 10
-2396.8533787575948
 20
68.600953189495868
 30
0.0
 11
-2396.8533787575948
 21
66.600953189495854
 31
0.0
  0
LINE
  5
19601
  8
0
  6
BYBLOCK
 10
-2396.3174803775951
 20
55.600953189495883
 30
0.0
 11
-2396.8533787575948
 21
53.600953189495868
 31
0.0
  0
LINE
  5
19602
  8
0
  6
BYBLOCK
 10
-2396.8533787575948
 20
53.600953189495868
 30
0.0
 11
-2397.3892771375949
 21
55.600953189495883
 31
0.0
  0
LINE
  5
19603
  8
0
  6
BYBLOCK
 10
-2396.8533787575948
 20
53.600953189495868
 30
0.0
 11
-2396.8533787575948
 21
55.600953189495883
 31
0.0
  0
TEXT
  5
19604
  8
1DIM
 10
-2320.6450454242622
 20
27.80095318949607
 30
0.0
 40
3.5
  1
120
  0
LINE
  5
19605
  8
0
  6
BYBLOCK
 10
-2258.8533787575961
 20
27.63685156949607
 30
0.0
 11
-2256.8533787575961
 21
27.100953189496071
 31
0.0
  0
LINE
  5
19606
  8
0
  6
BYBLOCK
 10
-2256.8533787575961
 20
27.100953189496071
 30
0.0
 11
-2258.8533787575961
 21
26.565054809496068
 31
0.0
  0
LINE
  5
19607
  8
0
  6
BYBLOCK
 10
-2256.8533787575961
 20
27.100953189496071
 30
0.0
 11
-2258.8533787575961
 21
27.100953189496071
 31
0.0
  0
LINE
  5
19608
  8
0
  6
BYBLOCK
 10
-2374.8533787575948
 20
26.565054809496068
 30
0.0
 11
-2376.8533787575948
 21
27.100953189496071
 31
0.0
  0
LINE
  5
19609
  8
0
  6
BYBLOCK
 10
-2376.8533787575948
 20
27.100953189496071
 30
0.0
 11
-2374.8533787575948
 21
27.63685156949607
 31
0.0
  0
LINE
  5
1960A
  8
0
  6
BYBLOCK
 10
-2376.8533787575948
 20
27.100953189496071
 30
0.0
 11
-2374.8533787575948
 21
27.100953189496071
 31
0.0
  0
TEXT
  5
1960B
  8
1DIM
 10
-2444.553378757596
 20
38.384214200440418
 30
0.0
 40
3.5
  1
φ4.8
 50
90.0
  0
LINE
  5
1960C
  8
0
  6
BYBLOCK
 10
-2444.3892771375972
 20
52.700880867107479
 30
0.0
 11
-2443.8533787575971
 21
54.700880867107479
 31
0.0
  0
LINE
  5
1960D
  8
0
  6
BYBLOCK
 10
-2443.8533787575971
 20
54.700880867107479
 30
0.0
 11
-2443.317480377596
 21
52.700880867107479
 31
0.0
  0
LINE
  5
1960E
  8
0
  6
BYBLOCK
 10
-2443.8533787575971
 20
54.700880867107479
 30
0.0
 11
-2443.8533787575971
 21
52.700880867107479
 31
0.0
  0
LINE
  5
1960F
  8
0
  6
BYBLOCK
 10
-2443.317480377596
 20
61.501025511884471
 30
0.0
 11
-2443.8533787575971
 21
59.501025511884471
 31
0.0
  0
LINE
  5
19610
  8
0
  6
BYBLOCK
 10
-2443.8533787575971
 20
59.501025511884471
 30
0.0
 11
-2444.3892771375972
 21
61.501025511884471
 31
0.0
  0
LINE
  5
19611
  8
0
  6
BYBLOCK
 10
-2443.8533787575971
 20
59.501025511884471
 30
0.0
 11
-2443.8533787575971
 21
61.501025511884471
 31
0.0
  0
TEXT
  5
19612
  8
1DIM
 10
-2464.553378757596
 20
63.400953189494771
 30
0.0
 40
3.5
  1
φ7.2
 50
90.0
  0
LINE
  5
19613
  8
0
  6
BYBLOCK
 10
-2464.3892771375972
 20
58.700917028295777
 30
0.0
 11
-2463.8533787575971
 21
60.700917028295777
 31
0.0
  0
LINE
  5
19614
  8
0
  6
BYBLOCK
 10
-2463.8533787575971
 20
60.700917028295777
 30
0.0
 11
-2463.3174803775969
 21
58.700917028295777
 31
0.0
  0
LINE
  5
19615
  8
0
  6
BYBLOCK
 10
-2463.8533787575971
 20
60.700917028295777
 30
0.0
 11
-2463.8533787575971
 21
58.700917028295777
 31
0.0
  0
LINE
  5
19616
  8
0
  6
BYBLOCK
 10
-2463.3174803775969
 20
55.500989350694368
 30
0.0
 11
-2463.8533787575971
 21
53.500989350694368
 31
0.0
  0
LINE
  5
19617
  8
0
  6
BYBLOCK
 10
-2463.8533787575971
 20
53.500989350694368
 30
0.0
 11
-2464.3892771375972
 21
55.500989350694368
 31
0.0
  0
LINE
  5
19618
  8
0
  6
BYBLOCK
 10
-2463.8533787575971
 20
53.500989350694368
 30
0.0
 11
-2463.8533787575971
 21
55.500989350694368
 31
0.0
  0
LINE
  5
19619
  8
0
  6
BYBLOCK
 10
-2378.4011293147828
 20
55.253688647752348
 30
0.0
 11
-2376.383948158054
 21
55.720772424635697
 31
0.0
  0
LINE
  5
1961A
  8
0
  6
BYBLOCK
 10
-2376.383948158054
 20
55.720772424635697
 30
0.0
 11
-2377.8973364017852
 21
54.30767543666061
 31
0.0
  0
LINE
  5
1961B
  8
0
  6
BYBLOCK
 10
-2376.383948158054
 20
55.720772424635697
 30
0.0
 11
-2378.149232858284
 21
54.780682042206479
 31
0.0
  0
TEXT
  5
1961C
  8
1DIM
 10
-2386.0101458797799
 20
51.387479388922017
 30
0.0
 40
3.5
  1
R4
 50
28.03723003401614
  0
LINE
  5
1961D
  8
0
  6
BYBLOCK
 10
-2378.0702458879141
 20
48.089062683798069
 30
0.0
 11
-2376.1258435511759
 21
48.800741422115379
 31
0.0
  0
LINE
  5
1961E
  8
0
  6
BYBLOCK
 10
-2376.1258435511759
 20
48.800741422115379
 30
0.0
 11
-2377.4539060080169
 21
47.212208393054937
 31
0.0
  0
LINE
  5
1961F
  8
0
  6
BYBLOCK
 10
-2376.1258435511759
 20
48.800741422115379
 30
0.0
 11
-2377.762075947966
 21
47.650635538426499
 31
0.0
  0
TEXT
  5
19620
  8
1DIM
 10
-2385.1458712335598
 20
43.316198440230629
 30
0.0
 40
3.5
  1
R4
 50
35.103339829186787
  0
VIEWPORT
  5
57
 67
     1
  8
0
 10
-7.7295765619315944
 20
24.701378709091461
 30
0.0
 40
420.59388346048559
 41
297.7954907001473
 68
     1
 69
     1
1001
ACAD
1000
MVIEW
1002
{
1070
    16
1010
0.0
1020
0.0
1030
0.0
1010
0.0
1020
0.0
1030
1.0
1040
0.0
1040
297.7954907001473
1040
-7.7295765619315944
1040
24.701378709091461
1040
50.0
1040
0.0
1040
0.0
1070
     0
1070
   100
1070
     1
1070
     1
1070
     0
1070
     0
1070
     0
1070
     0
1040
0.0
1040
0.0
1040
0.0
1040
10.0
1040
10.0
1040
10.0
1040
10.0
1070
     0
1002
{
1002
}
1002
}
  0
ENDSEC
  0
EOF
