  0
SECTION
  2
HEADER
  9
$ACADVER
  1
AC1009
  9
$INSBASE
 10
0.0
 20
0.0
 30
0.0
  9
$EXTMIN
 10
-364.26062298866509
 20
-2890.952005900695
 30
0.0
  9
$EXTMAX
 10
-210.45474264897089
 20
-2672.4520283997381
 30
0.0
  9
$LIMMIN
 10
0.0
 20
0.0
  9
$LIMMAX
 10
420.0
 20
297.0
  9
$ORTHOMODE
 70
     0
  9
$REGENMODE
 70
     1
  9
$FILLMODE
 70
     1
  9
$QTEXTMODE
 70
     0
  9
$MIRRTEXT
 70
     1
  9
$DRAGMODE
 70
     2
  9
$LTSCALE
 40
0.5
  9
$OSMODE
 70
    63
  9
$ATTMODE
 70
     1
  9
$TEXTSIZE
 40
4.0
  9
$TRACEWID
 40
1.0
  9
$TEXTSTYLE
  7
STANDARD
  9
$CLAYER
  8
1TEXT
  9
$CELTYPE
  6
BYLAYER
  9
$CECOLOR
 62
   256
  9
$DIMSCALE
 40
1.0
  9
$DIMASZ
 40
2.0
  9
$DIMEXO
 40
0.0
  9
$DIMDLI
 40
7.0
  9
$DIMRND
 40
0.0
  9
$DIMDLE
 40
0.0
  9
$DIMEXE
 40
1.0
  9
$DIMTP
 40
0.0
  9
$DIMTM
 40
0.0
  9
$DIMTXT
 40
3.5
  9
$DIMCEN
 40
0.0
  9
$DIMTSZ
 40
0.0
  9
$DIMTOL
 70
     0
  9
$DIMLIM
 70
     0
  9
$DIMTIH
 70
     0
  9
$DIMTOH
 70
     0
  9
$DIMSE1
 70
     0
  9
$DIMSE2
 70
     0
  9
$DIMTAD
 70
     1
  9
$DIMZIN
 70
     8
  9
$DIMBLK
  1

  9
$DIMASO
 70
     1
  9
$DIMSHO
 70
     1
  9
$DIMPOST
  1
 
  9
$DIMAPOST
  1

  9
$DIMALT
 70
     0
  9
$DIMALTD
 70
     2
  9
$DIMALTF
 40
25.399999999999999
  9
$DIMLFAC
 40
1.0
  9
$DIMTOFL
 70
     1
  9
$DIMTVP
 40
0.0
  9
$DIMTIX
 70
     0
  9
$DIMSOXD
 70
     0
  9
$DIMSAH
 70
     1
  9
$DIMBLK1
  1
OPEN30
  9
$DIMBLK2
  1
OPEN30
  9
$DIMSTYLE
  2
NEWX10
  9
$DIMCLRD
 70
   256
  9
$DIMCLRE
 70
   256
  9
$DIMCLRT
 70
   201
  9
$DIMTFAC
 40
0.7
  9
$DIMGAP
 40
0.7
  9
$LUNITS
 70
     2
  9
$LUPREC
 70
     4
  9
$SKETCHINC
 40
1.0
  9
$FILLETRAD
 40
0.0
  9
$AUNITS
 70
     0
  9
$AUPREC
 70
     2
  9
$MENU
  1
acad
  9
$ELEVATION
 40
0.0
  9
$PELEVATION
 40
0.0
  9
$THICKNESS
 40
0.0
  9
$LIMCHECK
 70
     0
  9
$BLIPMODE
 70
     0
  9
$CHAMFERA
 40
10.0
  9
$CHAMFERB
 40
10.0
  9
$SKPOLY
 70
     0
  9
$TDCREATE
 40
2453033.7326634838
  9
$TDUPDATE
 40
2457014.72572735
  9
$TDINDWG
 40
0.2419505787
  9
$TDUSRTIMER
 40
0.2419505787
  9
$USRTIMER
 70
     1
  9
$ANGBASE
 50
0.0
  9
$ANGDIR
 70
     0
  9
$PDMODE
 70
     0
  9
$PDSIZE
 40
0.0
  9
$PLINEWID
 40
0.0
  9
$COORDS
 70
     0
  9
$SPLFRAME
 70
     0
  9
$SPLINETYPE
 70
     6
  9
$SPLINESEGS
 70
     8
  9
$ATTDIA
 70
     0
  9
$ATTREQ
 70
     1
  9
$HANDLING
 70
     1
  9
$HANDSEED
  5
8850
  9
$SURFTAB1
 70
     6
  9
$SURFTAB2
 70
     6
  9
$SURFTYPE
 70
     6
  9
$SURFU
 70
     6
  9
$SURFV
 70
     6
  9
$UCSNAME
  2

  9
$UCSORG
 10
0.0
 20
0.0
 30
0.0
  9
$UCSXDIR
 10
1.0
 20
0.0
 30
0.0
  9
$UCSYDIR
 10
0.0
 20
1.0
 30
0.0
  9
$PUCSNAME
  2

  9
$PUCSORG
 10
0.0
 20
0.0
 30
0.0
  9
$PUCSXDIR
 10
1.0
 20
0.0
 30
0.0
  9
$PUCSYDIR
 10
0.0
 20
1.0
 30
0.0
  9
$USERI1
 70
     0
  9
$USERI2
 70
     0
  9
$USERI3
 70
     0
  9
$USERI4
 70
     0
  9
$USERI5
 70
     0
  9
$USERR1
 40
0.0
  9
$USERR2
 40
0.0
  9
$USERR3
 40
0.0
  9
$USERR4
 40
0.0
  9
$USERR5
 40
0.0
  9
$WORLDVIEW
 70
     1
  9
$SHADEDGE
 70
     3
  9
$SHADEDIF
 70
    70
  9
$TILEMODE
 70
     1
  9
$MAXACTVP
 70
    48
  9
$PLIMCHECK
 70
     0
  9
$PEXTMIN
 10
1.0000000000000000E+020
 20
1.0000000000000000E+020
 30
1.0000000000000000E+020
  9
$PEXTMAX
 10
-1.0000000000000000E+020
 20
-1.0000000000000000E+020
 30
-1.0000000000000000E+020
  9
$PLIMMIN
 10
0.0
 20
0.0
  9
$PLIMMAX
 10
420.0
 20
297.0
  9
$UNITMODE
 70
     0
  9
$VISRETAIN
 70
     1
  9
$PLINEGEN
 70
     0
  9
$PSLTSCALE
 70
     1
  0
ENDSEC
  0
SECTION
  2
TABLES
  0
TABLE
  2
VPORT
 70
     1
  0
VPORT
  2
*ACTIVE
 70
     0
 10
0.0
 20
0.0
 11
1.0
 21
1.0
 12
-287.34011802907622
 22
-2781.7212533003558
 13
0.0
 23
0.0
 14
10.0
 24
10.0
 15
10.0
 25
10.0
 16
0.0
 26
0.0
 36
1.0
 17
0.0
 27
0.0
 37
0.0
 40
231.87554018297121
 41
2.1749379652605461
 42
50.0
 43
0.0
 44
0.0
 50
0.0
 51
0.0
 71
     0
 72
   100
 73
     1
 74
     1
 75
     0
 76
     0
 77
     0
 78
     0
  0
ENDTAB
  0
TABLE
  2
LTYPE
 70
    15
  0
LTYPE
  2
CONTINUOUS
 70
     0
  3
Solid line
 72
    65
 73
     0
 40
0.0
  0
LTYPE
  2
CENTER2
 70
     0
  3
Center (.5x) ___ _ ___ _ ___ _ ___ _ ___ _ ___
 72
    65
 73
     4
 40
28.574999999999999
 49
19.050000000000001
 49
-3.1749999999999989
 49
3.1749999999999989
 49
-3.1749999999999989
  0
LTYPE
  2
XREF1|CENTER2
 70
    48
  3
Center (.5x) ___ _ ___ _ ___ _ ___ _ ___ _ ___
 72
    65
 73
     4
 40
28.574999999999999
 49
19.050000000000001
 49
-3.1749999999999989
 49
3.1749999999999989
 49
-3.1749999999999989
  0
LTYPE
  2
A3WAKUDAKE|CENTER2
 70
    48
  3
Center (.5x) ___ _ ___ _ ___ _ ___ _ ___ _ ___
 72
    65
 73
     4
 40
28.574999999999999
 49
19.050000000000001
 49
-3.1749999999999989
 49
3.1749999999999989
 49
-3.1749999999999989
  0
ENDTAB
  0
TABLE
  2
LAYER
 70
    49
  0
LAYER
  2
0
 70
     0
 62
     7
  6
CONTINUOUS
  0
LAYER
  2
1CENTER
 70
     0
 62
     7
  6
CENTER2
  0
LAYER
  2
1TEXT
 70
     0
 62
     7
  6
CONTINUOUS
  0
LAYER
  2
1DIM
 70
     0
 62
     7
  6
CONTINUOUS
  0
LAYER
  2
01
 70
     0
 62
     1
  6
CONTINUOUS
  0
LAYER
  2
A3WAKUDAKE|THICK
 70
    48
 62
     7
  6
CONTINUOUS
  0
LAYER
  2
A3WAKUDAKE|POINT
 70
    48
 62
     7
  6
CONTINUOUS
  0
LAYER
  2
A3WAKUDAKE|1CENTER
 70
    48
 62
     7
  6
A3WAKUDAKE|CENTER2
  0
LAYER
  2
A3WAKUDAKE|0-6
 70
    48
 62
     7
  6
CONTINUOUS
  0
LAYER
  2
A3WAKUDAKE|1DIM
 70
    48
 62
     7
  6
CONTINUOUS
  0
LAYER
  2
XREF1|1CENTER
 70
    48
 62
     7
  6
XREF1|CENTER2
  0
ENDTAB
  0
TABLE
  2
STYLE
 70
    23
  0
STYLE
  2
STANDARD
 70
     0
 40
0.0
 41
1.0
 50
0.0
 71
     0
 42
4.0
  3
txt.shx
  4
extfont.shx
  0
ENDTAB
  0
TABLE
  2
VIEW
 70
     5
  0
ENDTAB
  0
TABLE
  2
UCS
 70
     0
  0
ENDTAB
  0
TABLE
  2
APPID
 70
    14
  0
APPID
  2
ACAD
 70
     0
  0
APPID
  2
DRAWINGVARIABLESXDATA
 70
     0
  0
APPID
  2
CONTENTTABDATA
 70
     0
  0
APPID
  2
CONTENTCURRENTTAB
 70
     0
  0
APPID
  2
CONTENTBLOCKDESCRIPTION
 70
     0
  0
APPID
  2
CONTENTBLOCKICON
 70
     0
  0
APPID
  2
CONTENTLONGBLOCKNAME
 70
     0
  0
APPID
  2
ACAD_PSEXT
 70
     0
  0
APPID
  2
ACAD_DSTYLE_DIMTEXT_FILL
 70
     0
  0
APPID
  2
ACAD_DSTYLE_DIMRADIAL_EXTENSION
 70
     0
  0
APPID
  2
ACLAYERTOOLS
 70
     0
  0
APPID
  2
ACAD_MLEADERVER
 70
     0
  0
APPID
  2
ACAD_EXEMPT_FROM_CAD_STANDARDS
 70
     0
  0
APPID
  2
ACAD_NAV_VCDISPLAY
 70
     0
  0
ENDTAB
  0
TABLE
  2
DIMSTYLE
 70
     8
  0
DIMSTYLE
  2
NEWX10
 70
     0
  3
 
  4

  5

  6
OPEN30
  7
OPEN30
 40
1.0
 41
2.0
 42
0.0
 43
7.0
 44
1.0
 45
0.0
 46
0.0
 47
0.0
 48
0.0
140
3.5
141
0.0
142
0.0
143
25.399999999999999
144
1.0
145
0.0
146
0.7
147
0.7
 71
     0
 72
     0
 73
     0
 74
     0
 75
     0
 76
     0
 77
     1
 78
     8
170
     0
171
     2
172
     1
173
     1
174
     0
175
     0
176
   256
177
   256
178
   201
  0
ENDTAB
  0
ENDSEC
  0
SECTION
  2
BLOCKS
  0
BLOCK
  8
0
  2
$MODEL_SPACE
 70
     0
 10
0.0
 20
0.0
 30
0.0
  3
$MODEL_SPACE
  1

  0
ENDBLK
  5
1A
  8
0
  0
BLOCK
 67
     1
  8
0
  2
$PAPER_SPACE
 70
     0
 10
0.0
 20
0.0
 30
0.0
  3
$PAPER_SPACE
  1

  0
ENDBLK
  5
17
 67
     1
  8
0
  0
BLOCK
  8
0
  2
_OPEN30
 70
     0
 10
0.0
 20
0.0
 30
0.0
  3
_OPEN30
  1

  0
LINE
  5
44
  8
0
  6
BYBLOCK
 62
     0
 10
-1.0
 20
0.26794919
 30
0.0
 11
0.0
 21
0.0
 31
0.0
  0
LINE
  5
45
  8
0
  6
BYBLOCK
 62
     0
 10
0.0
 20
0.0
 30
0.0
 11
-1.0
 21
-0.26794919
 31
0.0
  0
LINE
  5
46
  8
0
  6
BYBLOCK
 62
     0
 10
0.0
 20
0.0
 30
0.0
 11
-1.0
 21
0.0
 31
0.0
  0
ENDBLK
  5
47
  8
0
  0
BLOCK
  8
0
  2
XREF1
 70
    36
 10
0.0
 20
0.0
 30
0.0
  3
XREF1
  1
D:\ACLT\FORMAT\KAWAJUN(9)図面用.dwg
  0
ENDBLK
  5
5D
  8
0
  0
BLOCK
  8
0
  2
A3WAKUDAKE
 70
    36
 10
0.0
 20
0.0
 30
0.0
  3
A3WAKUDAKE
  1
D:\ACLT\FORMAT\A3WAKUdake.dwg
  0
ENDBLK
  5
6DC
  8
0
  0
ENDSEC
  0
SECTION
  2
ENTITIES
  0
ARC
  5
8430
  8
01
 10
-302.52162584632742
 20
-2714.4863029695362
 30
0.0
 40
15.0
 50
273.87400999998113
 51
320.70986000000858
  0
ARC
  5
8431
  8
01
 10
-302.52162584632742
 20
-2728.4177530695351
 30
0.0
 40
15.0
 50
39.290144000008901
 51
86.125994000018537
  0
ARC
  5
8432
  8
01
 10
-300.49476584632748
 20
-2728.4177530695351
 30
0.0
 40
15.0
 50
93.874010999994027
 51
140.7098600000086
  0
ARC
  5
8433
  8
01
 10
-300.49476584632748
 20
-2714.4863029695362
 30
0.0
 40
15.0
 50
219.2901399999914
 51
266.12599000001887
  0
ARC
  5
8434
  8
01
 10
-309.00819584632751
 20
-2721.452027869535
 30
0.0
 40
4.0
 50
140.7098600000086
 51
219.29015000001189
  0
ARC
  5
8435
  8
01
 10
-294.00819584632751
 20
-2721.452027869535
 30
0.0
 40
4.0
 50
320.70986000000858
 51
39.290144000008901
  0
ARC
  5
8436
  8
01
 10
-300.49476584632748
 20
-2794.4177349006941
 30
0.0
 40
15.0
 50
93.874010999994027
 51
140.7098600000086
  0
LINE
  5
8437
  8
01
 10
-307.508195846327
 20
-2802.9520059006941
 30
0.0
 11
-295.508195846327
 21
-2802.9520059006941
 31
0.0
  0
LINE
  5
8438
  8
01
 10
-307.508195846327
 20
-2797.9520039006952
 30
0.0
 11
-295.508195846327
 21
-2797.9520039006952
 31
0.0
  0
ARC
  5
8439
  8
01
 10
-309.00819584632751
 20
-2787.452005900695
 30
0.0
 40
4.0
 50
140.7098600000086
 51
219.29015000001189
  0
LINE
  5
843A
  8
01
 10
-307.508195846327
 20
-2797.9520039006952
 30
0.0
 11
-307.508195846327
 21
-2802.9520059006941
 31
0.0
  0
ARC
  5
843B
  8
01
 10
-294.00819584632751
 20
-2787.452005900695
 30
0.0
 40
4.0
 50
320.70986000000858
 51
39.290144000008901
  0
LINE
  5
843C
  8
01
 10
-305.0082558463269
 20
-2802.9520059006941
 30
0.0
 11
-305.5082558463269
 21
-2804.9520079006938
 31
0.0
  0
LINE
  5
843D
  8
01
 10
-305.5082558463269
 20
-2804.9520079006938
 30
0.0
 11
-306.00825584632679
 21
-2802.9520059006941
 31
0.0
  0
LINE
  5
843E
  8
01
 10
-295.508195846327
 20
-2797.9520039006952
 30
0.0
 11
-295.508195846327
 21
-2802.9520059006941
 31
0.0
  0
ARC
  5
843F
  8
01
 10
-293.2862658463273
 20
-2795.9364059006948
 30
0.0
 40
3.0
 50
120.57013282329859
 51
222.21132999999281
  0
ARC
  5
8440
  8
01
 10
-302.52162584632742
 20
-2794.4177349006941
 30
0.0
 40
15.0
 50
39.290144000008901
 51
86.125994000018537
  0
ARC
  5
8441
  8
01
 10
-302.52162584632742
 20
-2780.4862809006941
 30
0.0
 40
15.0
 50
300.92877577643708
 51
320.70986000000858
  0
LINE
  5
8442
  8
01
 10
-248.00819584632751
 20
-2797.9520039006952
 30
0.0
 11
-248.00819584632751
 21
-2802.9520059006941
 31
0.0
  0
LINE
  5
8443
  8
01
 10
-236.00819584632751
 20
-2797.9520039006952
 30
0.0
 11
-236.00819584632751
 21
-2802.9520059006941
 31
0.0
  0
ARC
  5
8444
  8
01
 10
-242.00819584632751
 20
-2787.452005900695
 30
0.0
 40
8.0
 50
313.65696999999011
 51
226.34303000000989
  0
ARC
  5
8445
  8
01
 10
-242.00819584632751
 20
-2787.452005900695
 30
0.0
 40
8.0
 50
243.0650200000056
 51
298.5300200000093
  0
LINE
  5
8446
  8
01
 10
-248.00819584632751
 20
-2797.9520039006952
 30
0.0
 11
-236.00819584632751
 21
-2797.9520039006952
 31
0.0
  0
ARC
  5
8447
  8
01
 10
-249.6019458463274
 20
-2795.410346900695
 30
0.0
 40
3.0
 50
302.08955000000572
 51
46.343028000005752
  0
ARC
  5
8448
  8
01
 10
-234.4145658463276
 20
-2795.410346900695
 30
0.0
 40
3.0
 50
133.65696999999011
 51
237.91045999999841
  0
LINE
  5
8449
  8
01
 10
-248.00819584632751
 20
-2802.9520059006941
 30
0.0
 11
-236.00819584632751
 21
-2802.9520059006941
 31
0.0
  0
LINE
  5
844A
  8
01
 10
-242.0082558463273
 20
-2804.9520079006952
 30
0.0
 11
-242.5082558463273
 21
-2802.9520059006941
 31
0.0
  0
LINE
  5
844B
  8
01
 10
-241.5082558463273
 20
-2802.9520059006941
 30
0.0
 11
-242.0082558463273
 21
-2804.9520079006952
 31
0.0
  0
TEXT
  5
845F
  8
1TEXT
 10
-323.06376220774519
 20
-2679.452028399739
 30
0.0
 40
7.0
  1
PZ-112-XS
 41
1.0098214000000001
  0
LINE
  5
8461
  8
1CENTER
 10
-301.508195846327
 20
-2724.452027869535
 30
0.0
 11
-301.508195846327
 21
-2718.4520278695359
 31
0.0
  0
LINE
  5
8462
  8
1CENTER
 10
-304.508195846327
 20
-2721.452027869535
 30
0.0
 11
-298.508195846327
 21
-2721.452027869535
 31
0.0
  0
LINE
  5
8463
  8
1CENTER
 10
-242.00819584632751
 20
-2792.952005900695
 30
0.0
 11
-242.00819584632751
 21
-2804.952005900695
 31
0.0
  0
ARC
  5
8467
  8
01
 10
-309.73012584632761
 20
-2795.9364059006948
 30
0.0
 40
3.0
 50
317.78867000000719
 51
59.429867176701393
  0
ARC
  5
8468
  8
01
 10
-300.49476584632748
 20
-2780.4862809006941
 30
0.0
 40
15.0
 50
219.2901399999914
 51
239.07122422356289
  0
ARC
  5
8469
  8
1DIM
 10
-301.5081958463274
 20
-2783.4826766273118
 30
0.0
 40
11.927670273382979
 50
235.8475717180377
 51
237.2869845171133
  0
ARC
  5
846A
  8
01
 10
-301.5081958463274
 20
-2783.4826766273118
 30
0.0
 40
11.927670273382979
 50
245.36169452886341
 51
294.67549310746023
  0
ARC
  5
846B
  8
1DIM
 10
-301.5081958463274
 20
-2783.4826766273118
 30
0.0
 40
11.927670273382979
 50
302.7130154828867
 51
304.15242828196227
  0
LINE
  5
846D
  8
1CENTER
 10
-301.508195846327
 20
-2792.952005900695
 30
0.0
 11
-301.508195846327
 21
-2804.952005900695
 31
0.0
  0
LINE
  5
86F4
  8
1DIM
 10
-322.67543031372111
 20
-2890.952005900695
 30
0.0
 11
-252.67543031372111
 21
-2890.952005900695
 31
0.0
  0
TEXT
  5
86F5
  8
1TEXT
 10
-315.92304936134008
 20
-2868.4520059006959
 30
0.0
 40
4.0
  1
表面処理：
 72
     1
 11
-305.27543031372102
 21
-2868.4520059006959
 31
0.0
  0
TEXT
  5
86F6
  8
1TEXT
 10
-314.60876364705427
 20
-2882.2872945602189
 30
0.0
 40
4.0
  1
クローム
 72
     1
 11
-305.27543031372102
 21
-2882.2872945602189
 31
0.0
  0
TEXT
  5
86F7
  8
1TEXT
 10
-316.47543031372101
 20
-2875.4299009206802
 30
0.0
 40
4.0
  1
本金メッキ
 72
     1
 11
-305.27543031372102
 21
-2875.4299009206802
 31
0.0
  0
LINE
  5
86F8
  8
1DIM
 10
-322.67543031372111
 20
-2862.952005900695
 30
0.0
 11
-252.67543031372111
 21
-2862.952005900695
 31
0.0
  0
LINE
  5
86F9
  8
1DIM
 10
-322.67543031372111
 20
-2876.9520059006959
 30
0.0
 11
-252.67543031372111
 21
-2876.9520059006959
 31
0.0
  0
LINE
  5
86FA
  8
1DIM
 10
-322.67543031372111
 20
-2869.9520059006959
 30
0.0
 11
-252.67543031372111
 21
-2869.9520059006959
 31
0.0
  0
LINE
  5
86FB
  8
1DIM
 10
-322.67543031372111
 20
-2883.9520059006959
 30
0.0
 11
-252.67543031372111
 21
-2883.9520059006959
 31
0.0
  0
LINE
  5
86FC
  8
1DIM
 10
-322.67543031372111
 20
-2883.9520059006959
 30
0.0
 11
-252.67543031372111
 21
-2883.9520059006959
 31
0.0
  0
LINE
  5
86FD
  8
1DIM
 10
-287.67543031372111
 20
-2862.952005900695
 30
0.0
 11
-287.67543031372111
 21
-2890.952005900695
 31
0.0
  0
TEXT
  5
86FE
  8
1TEXT
 10
-277.07543031372097
 20
-2868.4520059006959
 30
0.0
 40
4.0
  1
コード
 72
     1
 11
-270.27543031372102
 21
-2868.4520059006959
 31
0.0
  0
TEXT
  5
86FF
  8
1TEXT
 10
-321.54209698038773
 20
-2889.2629195122659
 30
0.0
 40
4.0
  1
サテンニッケル
 72
     1
 11
-305.27543031372102
 21
-2889.2629195122659
 31
0.0
  0
LINE
  5
8700
  8
1DIM
 10
-322.67543031372111
 20
-2890.952005900695
 30
0.0
 11
-322.67543031372111
 21
-2862.952005900695
 31
0.0
  0
LINE
  5
8701
  8
1DIM
 10
-252.67543031372111
 20
-2890.952005900695
 30
0.0
 11
-252.67543031372111
 21
-2862.952005900695
 31
0.0
  0
TEXT
  5
8702
  8
1TEXT
 10
-284.67543031372151
 20
-2875.4520059006959
 30
0.0
 40
4.0
  1
PZ-112-XGS
 41
0.8
 72
     1
 11
-270.27543031372159
 21
-2875.4520059006959
 31
0.0
  0
TEXT
  5
8703
  8
1TEXT
 10
-284.67543031372151
 20
-2882.4520059006959
 30
0.0
 40
4.0
  1
PZ-112-XCS
 41
0.8
 72
     1
 11
-270.27543031372159
 21
-2882.4520059006959
 31
0.0
  0
TEXT
  5
8704
  8
1TEXT
 10
-284.67543031372151
 20
-2889.452005900695
 30
0.0
 40
4.0
  1
PZ-112-XNS
 41
0.8
 72
     1
 11
-270.27543031372159
 21
-2889.452005900695
 31
0.0
  0
TEXT
  5
87B0
  8
01
 10
-364.26062298866498
 20
-2766.8657289600728
 30
0.0
 40
3.5
  1
材質：亜鉛ダイキャスト
  0
TEXT
  5
87B1
  8
01
 10
-356.09395632199841
 20
-2772.6990622934072
 30
0.0
 40
3.5
  1
仕上げ：各種メッキ
  0
SOLID
  5
87B2
  8
1DIM
 10
-310.85982292325173
 20
-2780.909187604359
 30
0.0
 11
-309.665276522299
 21
-2782.54753128231
 31
0.0
 12
-311.32660755388702
 22
-2781.3851671764492
 32
0.0
 13
-311.32660755388702
 23
-2781.3851671764492
 33
0.0
1001
ACAD
1000
DSTYLE
1002
{
1070
    45
1040
0.5
1002
}
  0
LINE
  5
87B6
  8
1DIM
 10
-305.5082558463269
 20
-2804.9520079006938
 30
0.0
 11
-305.5082558463269
 21
-2823.952005900695
 31
0.0
  0
LINE
  5
87B7
  8
1DIM
 10
-301.508195846327
 20
-2804.9520079006938
 30
0.0
 11
-301.508195846327
 21
-2823.952005900695
 31
0.0
  0
LINE
  5
87B8
  8
1DIM
 10
-307.5082558463269
 20
-2822.952005900695
 30
0.0
 11
-309.5082558463269
 21
-2822.952005900695
 31
0.0
  0
LINE
  5
87B9
  8
1DIM
 10
-299.508195846327
 20
-2822.952005900695
 30
0.0
 11
-293.60819584632702
 21
-2822.952005900695
 31
0.0
  0
LINE
  5
87BA
  8
1DIM
 10
-305.5082558463269
 20
-2822.952005900695
 30
0.0
 11
-301.508195846327
 21
-2822.952005900695
 31
0.0
  0
TEXT
  5
87BE
  8
1DIM
 10
-225.03807598230421
 20
-2822.9520059006941
 30
0.0
 40
3.5
  1
M4-10
  0
SOLID
  5
87BF
  8
1DIM
 10
-241.14747934249181
 20
-2804.7878376498311
 30
0.0
 11
-242.008195846327
 21
-2802.9520059006941
 31
0.0
 12
-240.59859966730349
 22
-2804.409452202688
 32
0.0
 13
-240.59859966730349
 23
-2804.409452202688
 33
0.0
  0
LINE
  5
87C1
  8
1DIM
 10
-248.00819584632751
 20
-2802.952005900695
 30
0.0
 11
-248.00819584632751
 21
-2823.952005900695
 31
0.0
  0
LINE
  5
87C2
  8
1DIM
 10
-236.00819584632751
 20
-2802.9520059006941
 30
0.0
 11
-236.00819584632751
 21
-2823.952005900695
 31
0.0
  0
LINE
  5
87C3
  8
1DIM
 10
-246.00819584632751
 20
-2822.952005900695
 30
0.0
 11
-238.00819584632751
 21
-2822.952005900695
 31
0.0
  0
LINE
  5
87C7
  8
1DIM
 10
-301.50820695323858
 20
-2713.4520276570188
 30
0.0
 11
-269.00819584632751
 21
-2713.4520276570188
 31
0.0
  0
LINE
  5
87C8
  8
1DIM
 10
-301.50818500061769
 20
-2729.452028399739
 30
0.0
 11
-269.00819584632751
 21
-2729.452028399739
 31
0.0
  0
LINE
  5
87C9
  8
1DIM
 10
-270.0081958463274
 20
-2715.4520276570188
 30
0.0
 11
-270.0081958463274
 21
-2727.452028399739
 31
0.0
  0
LINE
  5
87CD
  8
1DIM
 10
-301.50818604542059
 20
-2779.4520093997389
 30
0.0
 11
-269.00819584632751
 21
-2779.4520093997389
 31
0.0
  0
LINE
  5
87CE
  8
1DIM
 10
-295.508195846327
 20
-2802.9520059006941
 30
0.0
 11
-269.00819584632751
 21
-2802.9520059006941
 31
0.0
  0
LINE
  5
87CF
  8
1DIM
 10
-270.0081958463274
 20
-2781.4520093997389
 30
0.0
 11
-270.0081958463274
 21
-2800.952005900695
 31
0.0
  0
LINE
  5
87D3
  8
1DIM
 10
-290.008195846327
 20
-2721.452027869535
 30
0.0
 11
-290.008195846327
 21
-2750.452028399739
 31
0.0
  0
LINE
  5
87D4
  8
1DIM
 10
-313.008195846327
 20
-2721.452027869535
 30
0.0
 11
-313.008195846327
 21
-2750.452028399739
 31
0.0
  0
LINE
  5
87D5
  8
1DIM
 10
-292.008195846327
 20
-2749.452028399739
 30
0.0
 11
-311.008195846327
 21
-2749.452028399739
 31
0.0
  0
TEXT
  5
87D9
  8
1DIM
 10
-304.42486251299368
 20
-2748.7520283997392
 30
0.0
 40
3.5
  1
23
  0
LINE
  5
87DA
  8
0
  6
BYBLOCK
 10
-311.008195846327
 20
-2749.9879267797401
 30
0.0
 11
-313.008195846327
 21
-2749.452028399739
 31
0.0
  0
LINE
  5
87DB
  8
0
  6
BYBLOCK
 10
-313.008195846327
 20
-2749.452028399739
 30
0.0
 11
-311.008195846327
 21
-2748.9161300197388
 31
0.0
  0
LINE
  5
87DC
  8
0
  6
BYBLOCK
 10
-313.008195846327
 20
-2749.452028399739
 30
0.0
 11
-311.008195846327
 21
-2749.452028399739
 31
0.0
  0
LINE
  5
87DD
  8
0
  6
BYBLOCK
 10
-292.008195846327
 20
-2748.9161300197388
 30
0.0
 11
-290.008195846327
 21
-2749.452028399739
 31
0.0
  0
LINE
  5
87DE
  8
0
  6
BYBLOCK
 10
-290.008195846327
 20
-2749.452028399739
 30
0.0
 11
-292.008195846327
 21
-2749.9879267797401
 31
0.0
  0
LINE
  5
87DF
  8
0
  6
BYBLOCK
 10
-290.008195846327
 20
-2749.452028399739
 30
0.0
 11
-292.008195846327
 21
-2749.452028399739
 31
0.0
  0
TEXT
  5
87E0
  8
1DIM
 10
-270.70819584632699
 20
-2796.4520076502172
 30
0.0
 40
3.5
  1
23.5
 50
90.0
  0
LINE
  5
87E1
  8
0
  6
BYBLOCK
 10
-269.47229746632752
 20
-2800.952005900695
 30
0.0
 11
-270.0081958463274
 21
-2802.9520059006941
 31
0.0
  0
LINE
  5
87E2
  8
0
  6
BYBLOCK
 10
-270.0081958463274
 20
-2802.9520059006941
 30
0.0
 11
-270.54409422632739
 21
-2800.952005900695
 31
0.0
  0
LINE
  5
87E3
  8
0
  6
BYBLOCK
 10
-270.0081958463274
 20
-2802.9520059006941
 30
0.0
 11
-270.0081958463274
 21
-2800.952005900695
 31
0.0
  0
LINE
  5
87E4
  8
0
  6
BYBLOCK
 10
-270.54409422632739
 20
-2781.4520093997389
 30
0.0
 11
-270.0081958463274
 21
-2779.4520093997389
 31
0.0
  0
LINE
  5
87E5
  8
0
  6
BYBLOCK
 10
-270.0081958463274
 20
-2779.4520093997389
 30
0.0
 11
-269.47229746632752
 21
-2781.4520093997389
 31
0.0
  0
LINE
  5
87E6
  8
0
  6
BYBLOCK
 10
-270.0081958463274
 20
-2779.4520093997389
 30
0.0
 11
-270.0081958463274
 21
-2781.4520093997389
 31
0.0
  0
TEXT
  5
87E7
  8
1DIM
 10
-270.70819584632699
 20
-2723.7853613617131
 30
0.0
 40
3.5
  1
16
 50
90.0
  0
LINE
  5
87E8
  8
0
  6
BYBLOCK
 10
-269.47229746632752
 20
-2727.452028399739
 30
0.0
 11
-270.0081958463274
 21
-2729.452028399739
 31
0.0
  0
LINE
  5
87E9
  8
0
  6
BYBLOCK
 10
-270.0081958463274
 20
-2729.452028399739
 30
0.0
 11
-270.54409422632739
 21
-2727.452028399739
 31
0.0
  0
LINE
  5
87EA
  8
0
  6
BYBLOCK
 10
-270.0081958463274
 20
-2729.452028399739
 30
0.0
 11
-270.0081958463274
 21
-2727.452028399739
 31
0.0
  0
LINE
  5
87EB
  8
0
  6
BYBLOCK
 10
-270.54409422632739
 20
-2715.4520276570188
 30
0.0
 11
-270.0081958463274
 21
-2713.4520276570188
 31
0.0
  0
LINE
  5
87EC
  8
0
  6
BYBLOCK
 10
-270.0081958463274
 20
-2713.4520276570188
 30
0.0
 11
-269.47229746632752
 21
-2715.4520276570188
 31
0.0
  0
LINE
  5
87ED
  8
0
  6
BYBLOCK
 10
-270.0081958463274
 20
-2713.4520276570188
 30
0.0
 11
-270.0081958463274
 21
-2715.4520276570188
 31
0.0
  0
TEXT
  5
87EE
  8
1DIM
 10
-246.79152917966081
 20
-2822.2520059006961
 30
0.0
 40
3.5
  1
\U+03C612
  0
LINE
  5
87EF
  8
0
  6
BYBLOCK
 10
-238.00819584632751
 20
-2822.4161075206948
 30
0.0
 11
-236.00819584632751
 21
-2822.952005900695
 31
0.0
  0
LINE
  5
87F0
  8
0
  6
BYBLOCK
 10
-236.00819584632751
 20
-2822.952005900695
 30
0.0
 11
-238.00819584632751
 21
-2823.4879042806951
 31
0.0
  0
LINE
  5
87F1
  8
0
  6
BYBLOCK
 10
-236.00819584632751
 20
-2822.952005900695
 30
0.0
 11
-238.00819584632751
 21
-2822.952005900695
 31
0.0
  0
LINE
  5
87F2
  8
0
  6
BYBLOCK
 10
-246.00819584632751
 20
-2823.4879042806951
 30
0.0
 11
-248.00819584632751
 21
-2822.952005900695
 31
0.0
  0
LINE
  5
87F3
  8
0
  6
BYBLOCK
 10
-248.00819584632751
 20
-2822.952005900695
 30
0.0
 11
-246.00819584632751
 21
-2822.4161075206948
 31
0.0
  0
LINE
  5
87F4
  8
0
  6
BYBLOCK
 10
-248.00819584632751
 20
-2822.952005900695
 30
0.0
 11
-246.00819584632751
 21
-2822.952005900695
 31
0.0
  0
LINE
  5
87F5
  8
1DIM
 10
-240.8730395048976
 20
-2804.5986449262591
 30
0.0
 11
-227.738075982304
 21
-2823.6520059006948
 31
0.0
  0
LINE
  5
87F6
  8
1DIM
 10
-227.738075982304
 20
-2823.6520059006948
 30
0.0
 11
-225.03807598230409
 21
-2823.6520059006948
 31
0.0
  0
TEXT
  5
87F7
  8
1DIM
 10
-296.7248625129937
 20
-2822.2520059006961
 30
0.0
 40
3.5
  1
4
  0
LINE
  5
87F8
  8
0
  6
BYBLOCK
 10
-299.508195846327
 20
-2823.4879042806951
 30
0.0
 11
-301.508195846327
 21
-2822.952005900695
 31
0.0
  0
LINE
  5
87F9
  8
0
  6
BYBLOCK
 10
-301.508195846327
 20
-2822.952005900695
 30
0.0
 11
-299.508195846327
 21
-2822.4161075206948
 31
0.0
  0
LINE
  5
87FA
  8
0
  6
BYBLOCK
 10
-301.508195846327
 20
-2822.952005900695
 30
0.0
 11
-299.508195846327
 21
-2822.952005900695
 31
0.0
  0
LINE
  5
87FB
  8
0
  6
BYBLOCK
 10
-307.5082558463269
 20
-2822.4161075206948
 30
0.0
 11
-305.5082558463269
 21
-2822.952005900695
 31
0.0
  0
LINE
  5
87FC
  8
0
  6
BYBLOCK
 10
-305.5082558463269
 20
-2822.952005900695
 30
0.0
 11
-307.5082558463269
 21
-2823.4879042806951
 31
0.0
  0
LINE
  5
87FD
  8
0
  6
BYBLOCK
 10
-305.5082558463269
 20
-2822.952005900695
 30
0.0
 11
-307.5082558463269
 21
-2822.952005900695
 31
0.0
  0
LINE
  5
87FE
  8
1DIM
 10
-311.09321523856943
 20
-2781.1471773904041
 30
0.0
 11
-318.99395632199838
 21
-2773.3990622934061
 31
0.0
1001
ACAD
1000
DSTYLE
1002
{
1070
    45
1040
0.5
1002
}
  0
VIEWPORT
  5
57
 67
     1
  8
0
 10
81.078623929536008
 20
9.8414732014601896
 30
0.0
 40
583.05910283021615
 41
268.0807968517708
 68
     1
 69
     1
1001
ACAD
1000
MVIEW
1002
{
1070
    16
1010
0.0
1020
0.0
1030
0.0
1010
0.0
1020
0.0
1030
1.0
1040
0.0
1040
268.0807968517708
1040
81.078623929536008
1040
9.8414732014601896
1040
50.0
1040
0.0
1040
0.0
1070
     0
1070
   100
1070
     1
1070
     1
1070
     0
1070
     0
1070
     0
1070
     0
1040
0.0
1040
0.0
1040
0.0
1040
10.0
1040
10.0
1040
10.0
1040
10.0
1070
     0
1002
{
1002
}
1002
}
  0
ENDSEC
  0
EOF
