  0
SECTION
  2
HEADER
  9
$ACADVER
  1
AC1009
  9
$INSBASE
 10
0.0
 20
0.0
 30
0.0
  9
$EXTMIN
 10
-2041.595571251275
 20
-1632.3039145216919
 30
0.0
  9
$EXTMAX
 10
-1882.3490806133941
 20
-1407.3213788790181
 30
0.0
  9
$LIMMIN
 10
0.0
 20
0.0
  9
$LIMMAX
 10
420.0
 20
297.0
  9
$ORTHOMODE
 70
     0
  9
$REGENMODE
 70
     1
  9
$FILLMODE
 70
     1
  9
$QTEXTMODE
 70
     0
  9
$MIRRTEXT
 70
     1
  9
$DRAGMODE
 70
     2
  9
$LTSCALE
 40
0.5
  9
$OSMODE
 70
    63
  9
$ATTMODE
 70
     1
  9
$TEXTSIZE
 40
4.0
  9
$TRACEWID
 40
1.0
  9
$TEXTSTYLE
  7
STANDARD
  9
$CLAYER
  8
1TEXT
  9
$CELTYPE
  6
BYLAYER
  9
$CECOLOR
 62
   256
  9
$DIMSCALE
 40
1.0
  9
$DIMASZ
 40
2.0
  9
$DIMEXO
 40
0.0
  9
$DIMDLI
 40
7.0
  9
$DIMRND
 40
0.0
  9
$DIMDLE
 40
0.0
  9
$DIMEXE
 40
1.0
  9
$DIMTP
 40
0.0
  9
$DIMTM
 40
0.0
  9
$DIMTXT
 40
3.5
  9
$DIMCEN
 40
0.0
  9
$DIMTSZ
 40
0.0
  9
$DIMTOL
 70
     0
  9
$DIMLIM
 70
     0
  9
$DIMTIH
 70
     0
  9
$DIMTOH
 70
     0
  9
$DIMSE1
 70
     0
  9
$DIMSE2
 70
     0
  9
$DIMTAD
 70
     1
  9
$DIMZIN
 70
     8
  9
$DIMBLK
  1

  9
$DIMASO
 70
     1
  9
$DIMSHO
 70
     1
  9
$DIMPOST
  1
 
  9
$DIMAPOST
  1

  9
$DIMALT
 70
     0
  9
$DIMALTD
 70
     2
  9
$DIMALTF
 40
25.399999999999999
  9
$DIMLFAC
 40
1.0
  9
$DIMTOFL
 70
     1
  9
$DIMTVP
 40
0.0
  9
$DIMTIX
 70
     0
  9
$DIMSOXD
 70
     0
  9
$DIMSAH
 70
     1
  9
$DIMBLK1
  1
OPEN30
  9
$DIMBLK2
  1
OPEN30
  9
$DIMSTYLE
  2
NEWX10
  9
$DIMCLRD
 70
   256
  9
$DIMCLRE
 70
   256
  9
$DIMCLRT
 70
   201
  9
$DIMTFAC
 40
0.7
  9
$DIMGAP
 40
0.7
  9
$LUNITS
 70
     2
  9
$LUPREC
 70
     4
  9
$SKETCHINC
 40
1.0
  9
$FILLETRAD
 40
0.0
  9
$AUNITS
 70
     0
  9
$AUPREC
 70
     2
  9
$MENU
  1
acad
  9
$ELEVATION
 40
0.0
  9
$PELEVATION
 40
0.0
  9
$THICKNESS
 40
0.0
  9
$LIMCHECK
 70
     0
  9
$BLIPMODE
 70
     0
  9
$CHAMFERA
 40
10.0
  9
$CHAMFERB
 40
10.0
  9
$SKPOLY
 70
     0
  9
$TDCREATE
 40
2453033.7326634838
  9
$TDUPDATE
 40
2457014.7257792591
  9
$TDINDWG
 40
0.2659367708
  9
$TDUSRTIMER
 40
0.2659367708
  9
$USRTIMER
 70
     1
  9
$ANGBASE
 50
0.0
  9
$ANGDIR
 70
     0
  9
$PDMODE
 70
     0
  9
$PDSIZE
 40
0.0
  9
$PLINEWID
 40
0.0
  9
$COORDS
 70
     0
  9
$SPLFRAME
 70
     0
  9
$SPLINETYPE
 70
     6
  9
$SPLINESEGS
 70
     8
  9
$ATTDIA
 70
     0
  9
$ATTREQ
 70
     1
  9
$HANDLING
 70
     1
  9
$HANDSEED
  5
9434
  9
$SURFTAB1
 70
     6
  9
$SURFTAB2
 70
     6
  9
$SURFTYPE
 70
     6
  9
$SURFU
 70
     6
  9
$SURFV
 70
     6
  9
$UCSNAME
  2

  9
$UCSORG
 10
0.0
 20
0.0
 30
0.0
  9
$UCSXDIR
 10
1.0
 20
0.0
 30
0.0
  9
$UCSYDIR
 10
0.0
 20
1.0
 30
0.0
  9
$PUCSNAME
  2

  9
$PUCSORG
 10
0.0
 20
0.0
 30
0.0
  9
$PUCSXDIR
 10
1.0
 20
0.0
 30
0.0
  9
$PUCSYDIR
 10
0.0
 20
1.0
 30
0.0
  9
$USERI1
 70
     0
  9
$USERI2
 70
     0
  9
$USERI3
 70
     0
  9
$USERI4
 70
     0
  9
$USERI5
 70
     0
  9
$USERR1
 40
0.0
  9
$USERR2
 40
0.0
  9
$USERR3
 40
0.0
  9
$USERR4
 40
0.0
  9
$USERR5
 40
0.0
  9
$WORLDVIEW
 70
     1
  9
$SHADEDGE
 70
     3
  9
$SHADEDIF
 70
    70
  9
$TILEMODE
 70
     1
  9
$MAXACTVP
 70
    48
  9
$PLIMCHECK
 70
     0
  9
$PEXTMIN
 10
1.0000000000000000E+020
 20
1.0000000000000000E+020
 30
1.0000000000000000E+020
  9
$PEXTMAX
 10
-1.0000000000000000E+020
 20
-1.0000000000000000E+020
 30
-1.0000000000000000E+020
  9
$PLIMMIN
 10
0.0
 20
0.0
  9
$PLIMMAX
 10
420.0
 20
297.0
  9
$UNITMODE
 70
     0
  9
$VISRETAIN
 70
     1
  9
$PLINEGEN
 70
     0
  9
$PSLTSCALE
 70
     1
  0
ENDSEC
  0
SECTION
  2
TABLES
  0
TABLE
  2
VPORT
 70
     1
  0
VPORT
  2
*ACTIVE
 70
     0
 10
0.0
 20
0.0
 11
1.0
 21
1.0
 12
-1961.9673818706131
 22
-1519.8328171888929
 13
0.0
 23
0.0
 14
10.0
 24
10.0
 15
10.0
 25
10.0
 16
0.0
 26
0.0
 36
1.0
 17
0.0
 27
0.0
 37
0.0
 40
238.66657806259789
 41
2.1749379652605461
 42
50.0
 43
0.0
 44
0.0
 50
0.0
 51
0.0
 71
     0
 72
   100
 73
     1
 74
     1
 75
     0
 76
     0
 77
     0
 78
     0
  0
ENDTAB
  0
TABLE
  2
LTYPE
 70
    15
  0
LTYPE
  2
CONTINUOUS
 70
     0
  3
Solid line
 72
    65
 73
     0
 40
0.0
  0
LTYPE
  2
CENTER2
 70
     0
  3
Center (.5x) ___ _ ___ _ ___ _ ___ _ ___ _ ___
 72
    65
 73
     4
 40
28.574999999999999
 49
19.050000000000001
 49
-3.1749999999999989
 49
3.1749999999999989
 49
-3.1749999999999989
  0
LTYPE
  2
XREF1|CENTER2
 70
    48
  3
Center (.5x) ___ _ ___ _ ___ _ ___ _ ___ _ ___
 72
    65
 73
     4
 40
28.574999999999999
 49
19.050000000000001
 49
-3.1749999999999989
 49
3.1749999999999989
 49
-3.1749999999999989
  0
LTYPE
  2
A3WAKUDAKE|CENTER2
 70
    48
  3
Center (.5x) ___ _ ___ _ ___ _ ___ _ ___ _ ___
 72
    65
 73
     4
 40
28.574999999999999
 49
19.050000000000001
 49
-3.1749999999999989
 49
3.1749999999999989
 49
-3.1749999999999989
  0
ENDTAB
  0
TABLE
  2
LAYER
 70
    49
  0
LAYER
  2
0
 70
     0
 62
     7
  6
CONTINUOUS
  0
LAYER
  2
1CENTER
 70
     0
 62
     7
  6
CENTER2
  0
LAYER
  2
1TEXT
 70
     0
 62
     7
  6
CONTINUOUS
  0
LAYER
  2
1DIM
 70
     0
 62
     7
  6
CONTINUOUS
  0
LAYER
  2
01
 70
     0
 62
     1
  6
CONTINUOUS
  0
LAYER
  2
A3WAKUDAKE|THICK
 70
    48
 62
     7
  6
CONTINUOUS
  0
LAYER
  2
A3WAKUDAKE|POINT
 70
    48
 62
     7
  6
CONTINUOUS
  0
LAYER
  2
A3WAKUDAKE|1CENTER
 70
    48
 62
     7
  6
A3WAKUDAKE|CENTER2
  0
LAYER
  2
A3WAKUDAKE|0-6
 70
    48
 62
     7
  6
CONTINUOUS
  0
LAYER
  2
A3WAKUDAKE|1DIM
 70
    48
 62
     7
  6
CONTINUOUS
  0
LAYER
  2
XREF1|1CENTER
 70
    48
 62
     7
  6
XREF1|CENTER2
  0
ENDTAB
  0
TABLE
  2
STYLE
 70
    23
  0
STYLE
  2
STANDARD
 70
     0
 40
0.0
 41
1.0
 50
0.0
 71
     0
 42
4.0
  3
txt.shx
  4
extfont.shx
  0
ENDTAB
  0
TABLE
  2
VIEW
 70
     5
  0
ENDTAB
  0
TABLE
  2
UCS
 70
     0
  0
ENDTAB
  0
TABLE
  2
APPID
 70
    14
  0
APPID
  2
ACAD
 70
     0
  0
APPID
  2
DRAWINGVARIABLESXDATA
 70
     0
  0
APPID
  2
CONTENTTABDATA
 70
     0
  0
APPID
  2
CONTENTCURRENTTAB
 70
     0
  0
APPID
  2
CONTENTBLOCKDESCRIPTION
 70
     0
  0
APPID
  2
CONTENTBLOCKICON
 70
     0
  0
APPID
  2
CONTENTLONGBLOCKNAME
 70
     0
  0
APPID
  2
ACAD_PSEXT
 70
     0
  0
APPID
  2
ACAD_DSTYLE_DIMTEXT_FILL
 70
     0
  0
APPID
  2
ACAD_DSTYLE_DIMRADIAL_EXTENSION
 70
     0
  0
APPID
  2
ACLAYERTOOLS
 70
     0
  0
APPID
  2
ACAD_MLEADERVER
 70
     0
  0
APPID
  2
ACAD_EXEMPT_FROM_CAD_STANDARDS
 70
     0
  0
APPID
  2
ACAD_NAV_VCDISPLAY
 70
     0
  0
ENDTAB
  0
TABLE
  2
DIMSTYLE
 70
     8
  0
DIMSTYLE
  2
NEWX10
 70
     0
  3
 
  4

  5

  6
OPEN30
  7
OPEN30
 40
1.0
 41
2.0
 42
0.0
 43
7.0
 44
1.0
 45
0.0
 46
0.0
 47
0.0
 48
0.0
140
3.5
141
0.0
142
0.0
143
25.399999999999999
144
1.0
145
0.0
146
0.7
147
0.7
 71
     0
 72
     0
 73
     0
 74
     0
 75
     0
 76
     0
 77
     1
 78
     8
170
     0
171
     2
172
     1
173
     1
174
     0
175
     0
176
   256
177
   256
178
   201
  0
ENDTAB
  0
ENDSEC
  0
SECTION
  2
BLOCKS
  0
BLOCK
  8
0
  2
$MODEL_SPACE
 70
     0
 10
0.0
 20
0.0
 30
0.0
  3
$MODEL_SPACE
  1

  0
ENDBLK
  5
1A
  8
0
  0
BLOCK
 67
     1
  8
0
  2
$PAPER_SPACE
 70
     0
 10
0.0
 20
0.0
 30
0.0
  3
$PAPER_SPACE
  1

  0
ENDBLK
  5
17
 67
     1
  8
0
  0
BLOCK
  8
0
  2
_OPEN30
 70
     0
 10
0.0
 20
0.0
 30
0.0
  3
_OPEN30
  1

  0
LINE
  5
44
  8
0
  6
BYBLOCK
 62
     0
 10
-1.0
 20
0.26794919
 30
0.0
 11
0.0
 21
0.0
 31
0.0
  0
LINE
  5
45
  8
0
  6
BYBLOCK
 62
     0
 10
0.0
 20
0.0
 30
0.0
 11
-1.0
 21
-0.26794919
 31
0.0
  0
LINE
  5
46
  8
0
  6
BYBLOCK
 62
     0
 10
0.0
 20
0.0
 30
0.0
 11
-1.0
 21
0.0
 31
0.0
  0
ENDBLK
  5
47
  8
0
  0
BLOCK
  8
0
  2
XREF1
 70
    36
 10
0.0
 20
0.0
 30
0.0
  3
XREF1
  1
D:\ACLT\FORMAT\KAWAJUN(9)図面用.dwg
  0
ENDBLK
  5
5D
  8
0
  0
BLOCK
  8
0
  2
A3WAKUDAKE
 70
    36
 10
0.0
 20
0.0
 30
0.0
  3
A3WAKUDAKE
  1
D:\ACLT\FORMAT\A3WAKUdake.dwg
  0
ENDBLK
  5
6DC
  8
0
  0
ENDSEC
  0
SECTION
  2
ENTITIES
  0
TEXT
  5
848B
  8
1TEXT
 10
-2005.0535463253591
 20
-1414.3213788790181
 30
0.0
 40
7.0
  1
PZ-112-X
 41
1.0098214000000001
  0
ARC
  5
8ACC
  8
01
 10
-1977.6776338980169
 20
-1444.354031021692
 30
0.0
 40
20.0
 50
221.55407899999861
 51
265.31581799999418
  0
ARC
  5
8ACE
  8
01
 10
-1980.127533898017
 20
-1444.354031021692
 30
0.0
 40
20.0
 50
274.68418000000611
 51
318.44593000000282
  0
ARC
  5
8ACF
  8
01
 10
-1978.9025338980171
 20
-1459.3039325216921
 30
0.0
 40
5.0
 50
265.31581799999418
 51
274.68418000000611
  0
ARC
  5
8AD1
  8
01
 10
-1980.127533898017
 20
-1464.253827421692
 30
0.0
 40
20.0
 50
41.554069999997203
 51
85.315819999993906
  0
ARC
  5
8AD2
  8
01
 10
-1968.9025338980171
 20
-1454.3039320216931
 30
0.0
 40
5.0
 50
318.44593000000282
 51
41.554079999995707
  0
ARC
  5
8AD3
  8
01
 10
-1988.9025338980171
 20
-1454.3039320216931
 30
0.0
 40
5.0
 50
138.44592000000421
 51
221.55407899999861
  0
ARC
  5
8AD4
  8
01
 10
-1977.6776338980169
 20
-1464.253827421692
 30
0.0
 40
20.0
 50
94.684180000006052
 51
138.44592000000421
  0
ARC
  5
8AD5
  8
01
 10
-1978.9025338980171
 20
-1449.3039310216921
 30
0.0
 40
5.0
 50
85.315819999993906
 51
94.684180000006052
  0
ARC
  5
8AD7
  8
01
 10
-1913.9025338107499
 20
-1524.3039135216909
 30
0.0
 40
10.0
 50
302.19682000000063
 51
237.80305128353879
  0
ARC
  5
8AD8
  8
01
 10
-1906.9757338107511
 20
-1535.3048095216921
 30
0.0
 40
3.0
 50
122.1968200000006
 51
271.39852000000099
  0
LINE
  5
8AD9
  8
01
 10
-1920.9025338107499
 20
-1538.3039165216919
 30
0.0
 11
-1906.9025338107499
 21
-1538.3039165216919
 31
0.0
  0
ARC
  5
8ADA
  8
01
 10
-1920.8293338107501
 20
-1535.3048095216921
 30
0.0
 40
3.0
 50
268.6014799999989
 51
57.803181000004813
  0
LINE
  5
8ADC
  8
01
 10
-1920.9025338107499
 20
-1544.3039145216919
 30
0.0
 11
-1906.9025338107499
 21
-1544.3039145216919
 31
0.0
  0
LINE
  5
8ADD
  8
01
 10
-1913.9024338107511
 20
-1546.303943521692
 30
0.0
 11
-1913.1524338107511
 21
-1544.3039305216921
 31
0.0
  0
LINE
  5
8ADE
  8
01
 10
-1914.6524338107511
 20
-1544.3038975216921
 30
0.0
 11
-1913.9024338107511
 21
-1546.303913521692
 31
0.0
  0
LINE
  5
8ADF
  8
01
 10
-1920.9025338107499
 20
-1544.3039145216919
 30
0.0
 11
-1920.9025338107499
 21
-1538.3039165216919
 31
0.0
  0
LINE
  5
8AE0
  8
01
 10
-1906.9025338107499
 20
-1544.3039145216919
 30
0.0
 11
-1906.9025338107499
 21
-1538.3039165216919
 31
0.0
  0
LINE
  5
8AE7
  8
01
 10
-1971.9025338107499
 20
-1538.3039165216919
 30
0.0
 11
-1985.9025338107499
 21
-1538.3039165216919
 31
0.0
  0
LINE
  5
8AE8
  8
01
 10
-1971.9025338107499
 20
-1544.3039145216919
 30
0.0
 11
-1985.9025338107499
 21
-1544.3039145216919
 31
0.0
  0
ARC
  5
8AE9
  8
01
 10
-1980.1275338107489
 20
-1534.253814521692
 30
0.0
 40
20.0
 50
41.554069999997182
 51
85.315819999993934
  0
LINE
  5
8AED
  8
01
 10
-1971.9025338107499
 20
-1544.3039145216919
 30
0.0
 11
-1971.9025338107499
 21
-1538.3039165216919
 31
0.0
  0
ARC
  5
8AEE
  8
01
 10
-1980.1275338107489
 20
-1514.354015521692
 30
0.0
 40
20.0
 50
295.97566000000671
 51
318.44593000000282
  0
ARC
  5
8AEF
  8
01
 10
-1968.9025338107499
 20
-1524.303913521692
 30
0.0
 40
5.0
 50
318.44592000000432
 51
41.554069999997182
  0
ARC
  5
8AF0
  8
01
 10
-1969.8347338107501
 20
-1535.4800495216921
 30
0.0
 40
3.5
 50
115.9756510000029
 51
233.78627999999591
  0
ARC
  5
8AF2
  8
01
 10
-1977.67763381075
 20
-1534.253814521692
 30
0.0
 40
20.0
 50
94.684182000005748
 51
138.44592100000139
  0
ARC
  5
8AF3
  8
01
 10
-1988.9025338107499
 20
-1524.303913521692
 30
0.0
 40
5.0
 50
138.44592100000139
 51
221.55407999999579
  0
LINE
  5
8AF4
  8
01
 10
-1985.9025338107499
 20
-1544.3039145216919
 30
0.0
 11
-1985.9025338107499
 21
-1538.3039165216919
 31
0.0
  0
ARC
  5
8AF5
  8
01
 10
-1978.9025338107499
 20
-1519.303913521692
 30
0.0
 40
5.0
 50
85.31584000000403
 51
94.684161999995681
  0
ARC
  5
8AF6
  8
01
 10
-1987.9704338107499
 20
-1535.4800495216921
 30
0.0
 40
3.5
 50
306.213720000004
 51
64.024339999993344
  0
ARC
  5
8AF7
  8
01
 10
-1977.67763381075
 20
-1514.354015521692
 30
0.0
 40
20.0
 50
221.55407999999579
 51
244.024349999995
  0
LINE
  5
8D26
  8
1CENTER
 10
-1978.9025338107499
 20
-1534.3039145216919
 30
0.0
 11
-1978.9025338107499
 21
-1546.3039145216919
 31
0.0
  0
LINE
  5
8E54
  8
01
 10
-1983.1524338107499
 20
-1546.3039305216921
 30
0.0
 11
-1982.4024338107499
 21
-1544.3039145216919
 31
0.0
  0
LINE
  5
8E55
  8
01
 10
-1983.9025338107499
 20
-1544.303913521692
 30
0.0
 11
-1983.1525338107499
 21
-1546.3039265216919
 31
0.0
  0
LINE
  5
8E57
  8
1CENTER
 10
-1978.9025338980171
 20
-1457.3039320216919
 30
0.0
 11
-1978.9025338980171
 21
-1451.3039320216919
 31
0.0
  0
LINE
  5
8E58
  8
1CENTER
 10
-1981.9025338980171
 20
-1454.3039320216931
 30
0.0
 11
-1975.9025338980171
 21
-1454.3039320216931
 31
0.0
  0
LINE
  5
8EAF
  8
1CENTER
 10
-1913.9025338107499
 20
-1534.3039145216919
 30
0.0
 11
-1913.9025338107499
 21
-1546.3039145216931
 31
0.0
  0
ARC
  5
90B3
  8
01
 10
-1978.902584168907
 20
-1524.26517180778
 30
0.0
 40
11.039637714026609
 50
244.90338131565099
 51
295.2991094206613
  0
ARC
  5
90B7
  8
01
 10
-1913.9025338107499
 20
-1524.3039135216909
 30
0.0
 40
10.0
 50
247.92300176064131
 51
293.37142054462117
  0
LINE
  5
92B3
  8
1DIM
 10
-2006.3162451210351
 20
-1632.3039145216919
 30
0.0
 11
-1936.3162451210339
 21
-1632.3039145216919
 31
0.0
  0
TEXT
  5
92B4
  8
1TEXT
 10
-1999.563864168653
 20
-1609.8039145216919
 30
0.0
 40
4.0
  1
表面処理：
 72
     1
 11
-1988.9162451210341
 21
-1609.8039145216919
 31
0.0
  0
TEXT
  5
92B5
  8
1TEXT
 10
-1998.249578454368
 20
-1623.6392031812161
 30
0.0
 40
4.0
  1
クローム
 72
     1
 11
-1988.9162451210341
 21
-1623.6392031812161
 31
0.0
  0
TEXT
  5
92B6
  8
1TEXT
 10
-2000.1162451210339
 20
-1616.7818095416769
 30
0.0
 40
4.0
  1
本金メッキ
 72
     1
 11
-1988.9162451210341
 21
-1616.7818095416769
 31
0.0
  0
LINE
  5
92B7
  8
1DIM
 10
-2006.3162451210351
 20
-1604.3039145216919
 30
0.0
 11
-1936.3162451210339
 21
-1604.3039145216919
 31
0.0
  0
LINE
  5
92B8
  8
1DIM
 10
-2006.3162451210351
 20
-1618.3039145216919
 30
0.0
 11
-1936.3162451210339
 21
-1618.3039145216919
 31
0.0
  0
LINE
  5
92B9
  8
1DIM
 10
-2006.3162451210351
 20
-1611.3039145216919
 30
0.0
 11
-1936.3162451210339
 21
-1611.3039145216919
 31
0.0
  0
LINE
  5
92BA
  8
1DIM
 10
-2006.3162451210351
 20
-1625.3039145216919
 30
0.0
 11
-1936.3162451210339
 21
-1625.3039145216919
 31
0.0
  0
LINE
  5
92BB
  8
1DIM
 10
-2006.3162451210351
 20
-1625.3039145216919
 30
0.0
 11
-1936.3162451210339
 21
-1625.3039145216919
 31
0.0
  0
LINE
  5
92BC
  8
1DIM
 10
-1971.3162451210351
 20
-1604.3039145216919
 30
0.0
 11
-1971.3162451210351
 21
-1632.3039145216919
 31
0.0
  0
TEXT
  5
92BD
  8
1TEXT
 10
-1960.716245121034
 20
-1609.8039145216919
 30
0.0
 40
4.0
  1
コード
 72
     1
 11
-1953.9162451210341
 21
-1609.8039145216919
 31
0.0
  0
TEXT
  5
92BE
  8
1TEXT
 10
-2005.182911787701
 20
-1630.614828133263
 30
0.0
 40
4.0
  1
サテンニッケル
 72
     1
 11
-1988.9162451210341
 21
-1630.614828133263
 31
0.0
  0
LINE
  5
92BF
  8
1DIM
 10
-2006.3162451210351
 20
-1632.3039145216919
 30
0.0
 11
-2006.3162451210351
 21
-1604.3039145216919
 31
0.0
  0
LINE
  5
92C0
  8
1DIM
 10
-1936.3162451210339
 20
-1632.3039145216919
 30
0.0
 11
-1936.3162451210339
 21
-1604.3039145216919
 31
0.0
  0
TEXT
  5
92C1
  8
1TEXT
 10
-1968.3162451210351
 20
-1616.8039145216919
 30
0.0
 40
4.0
  1
PZ-112-XG
 41
0.9
 72
     1
 11
-1953.916245121035
 21
-1616.8039145216919
 31
0.0
  0
TEXT
  5
92C2
  8
1TEXT
 10
-1968.3162451210351
 20
-1623.8039145216919
 30
0.0
 40
4.0
  1
PZ-112-XC
 41
0.9
 72
     1
 11
-1953.916245121035
 21
-1623.8039145216919
 31
0.0
  0
TEXT
  5
92C3
  8
1TEXT
 10
-1968.3162451210351
 20
-1630.8039145216919
 30
0.0
 40
4.0
  1
PZ-112-XN
 41
0.9
 72
     1
 11
-1953.916245121035
 21
-1630.8039145216919
 31
0.0
  0
TEXT
  5
9394
  8
01
 10
-2041.5955712512759
 20
-1500.877682669108
 30
0.0
 40
3.5
  1
材質：亜鉛ダイキャスト
  0
TEXT
  5
9395
  8
01
 10
-2033.428904584609
 20
-1506.7110160024411
 30
0.0
 40
3.5
  1
仕上げ：各種メッキ
  0
SOLID
  5
9396
  8
1DIM
 10
-1988.194771185862
 20
-1514.9211413133939
 30
0.0
 11
-1987.00022478491
 21
-1516.559484991345
 31
0.0
 12
-1988.661555816497
 22
-1515.3971208854839
 32
0.0
 13
-1988.661555816497
 23
-1515.3971208854839
 33
0.0
1001
ACAD
1000
DSTYLE
1002
{
1070
    45
1040
0.5
1002
}
  0
TEXT
  5
939A
  8
1DIM
 10
-1896.9324139467269
 20
-1564.3039145216919
 30
0.0
 40
3.5
  1
M4-10
  0
SOLID
  5
939B
  8
1DIM
 10
-1913.0418173069149
 20
-1546.139746270828
 30
0.0
 11
-1913.9025338107499
 21
-1544.3039145216919
 31
0.0
 12
-1912.492937631727
 22
-1545.761360823685
 32
0.0
 13
-1912.492937631727
 23
-1545.761360823685
 33
0.0
  0
LINE
  5
939D
  8
1DIM
 10
-1920.9025338107499
 20
-1544.3039145216919
 30
0.0
 11
-1920.9025338107499
 21
-1565.3039145216919
 31
0.0
  0
LINE
  5
939E
  8
1DIM
 10
-1906.9025338107499
 20
-1544.3039145216919
 30
0.0
 11
-1906.9025338107499
 21
-1565.3039145216919
 31
0.0
  0
LINE
  5
939F
  8
1DIM
 10
-1918.9025338107499
 20
-1564.3039145216919
 30
0.0
 11
-1908.902533810751
 21
-1564.3039145216919
 31
0.0
  0
LINE
  5
93A3
  8
1DIM
 10
-1993.9025338980171
 20
-1454.3039319780589
 30
0.0
 11
-1993.9025338980171
 21
-1485.2872323864819
 31
0.0
  0
LINE
  5
93A4
  8
1DIM
 10
-1963.9025338980171
 20
-1454.303932030419
 30
0.0
 11
-1963.9025338980171
 21
-1485.2872323864819
 31
0.0
  0
LINE
  5
93A5
  8
1DIM
 10
-1991.9025338980171
 20
-1484.2872323864819
 30
0.0
 11
-1965.9025338980171
 21
-1484.2872323864819
 31
0.0
  0
LINE
  5
93A9
  8
1DIM
 10
-1978.9025338980171
 20
-1444.3039310216921
 30
0.0
 11
-1942.9025338980171
 21
-1444.3039310216921
 31
0.0
  0
LINE
  5
93AA
  8
1DIM
 10
-1978.9025338980171
 20
-1464.3039325216921
 30
0.0
 11
-1942.9025338980171
 21
-1464.3039325216921
 31
0.0
  0
LINE
  5
93AB
  8
1DIM
 10
-1943.9025338980171
 20
-1446.3039310216921
 30
0.0
 11
-1943.9025338980171
 21
-1462.3039325216921
 31
0.0
  0
LINE
  5
93AF
  8
1DIM
 10
-1978.9025338107499
 20
-1514.303913521692
 30
0.0
 11
-1942.9025338980171
 21
-1514.303913521692
 31
0.0
  0
LINE
  5
93B0
  8
1DIM
 10
-1971.9025338107499
 20
-1544.3039145216919
 30
0.0
 11
-1942.9025338980171
 21
-1544.3039145216919
 31
0.0
  0
LINE
  5
93B1
  8
1DIM
 10
-1943.9025338980171
 20
-1516.303913521692
 30
0.0
 11
-1943.9025338980171
 21
-1542.3039145216919
 31
0.0
  0
LINE
  5
93B5
  8
1DIM
 10
-1983.1525338107499
 20
-1546.3039265216919
 30
0.0
 11
-1983.1525338107499
 21
-1565.3039145216919
 31
0.0
  0
LINE
  5
93B6
  8
1DIM
 10
-1978.9025338107499
 20
-1546.3039265216919
 30
0.0
 11
-1978.9025338107499
 21
-1565.3039145216919
 31
0.0
  0
LINE
  5
93B7
  8
1DIM
 10
-1976.9025338107499
 20
-1564.3039145216919
 30
0.0
 11
-1974.9025338107499
 21
-1564.3039145216919
 31
0.0
  0
LINE
  5
93B8
  8
1DIM
 10
-1985.1525338107499
 20
-1564.3039145216919
 30
0.0
 11
-1992.8421087755789
 21
-1564.3039145216919
 31
0.0
  0
LINE
  5
93B9
  8
1DIM
 10
-1978.9025338107499
 20
-1564.3039145216919
 30
0.0
 11
-1983.1525338107499
 21
-1564.3039145216919
 31
0.0
  0
TEXT
  5
93BD
  8
1DIM
 10
-1992.058775442245
 20
-1563.6039145216921
 30
0.0
 40
3.5
  1
4
  0
LINE
  5
93BE
  8
0
  6
BYBLOCK
 10
-1985.1525338107499
 20
-1563.768016141692
 30
0.0
 11
-1983.1525338107499
 21
-1564.3039145216919
 31
0.0
  0
LINE
  5
93BF
  8
0
  6
BYBLOCK
 10
-1983.1525338107499
 20
-1564.3039145216919
 30
0.0
 11
-1985.1525338107499
 21
-1564.8398129016921
 31
0.0
  0
LINE
  5
93C0
  8
0
  6
BYBLOCK
 10
-1983.1525338107499
 20
-1564.3039145216919
 30
0.0
 11
-1985.1525338107499
 21
-1564.3039145216919
 31
0.0
  0
LINE
  5
93C1
  8
0
  6
BYBLOCK
 10
-1976.9025338107499
 20
-1564.8398129016921
 30
0.0
 11
-1978.9025338107499
 21
-1564.3039145216919
 31
0.0
  0
LINE
  5
93C2
  8
0
  6
BYBLOCK
 10
-1978.9025338107499
 20
-1564.3039145216919
 30
0.0
 11
-1976.9025338107499
 21
-1563.768016141692
 31
0.0
  0
LINE
  5
93C3
  8
0
  6
BYBLOCK
 10
-1978.9025338107499
 20
-1564.3039145216919
 30
0.0
 11
-1976.9025338107499
 21
-1564.3039145216919
 31
0.0
  0
TEXT
  5
93C4
  8
1DIM
 10
-1944.6025338980171
 20
-1531.928914021692
 30
0.0
 40
3.5
  1
30
 50
90.0
  0
LINE
  5
93C5
  8
0
  6
BYBLOCK
 10
-1943.3666355180169
 20
-1542.3039145216919
 30
0.0
 11
-1943.9025338980171
 21
-1544.3039145216919
 31
0.0
  0
LINE
  5
93C6
  8
0
  6
BYBLOCK
 10
-1943.9025338980171
 20
-1544.3039145216919
 30
0.0
 11
-1944.438432278017
 21
-1542.3039145216919
 31
0.0
  0
LINE
  5
93C7
  8
0
  6
BYBLOCK
 10
-1943.9025338980171
 20
-1544.3039145216919
 30
0.0
 11
-1943.9025338980171
 21
-1542.3039145216919
 31
0.0
  0
LINE
  5
93C8
  8
0
  6
BYBLOCK
 10
-1944.438432278017
 20
-1516.303913521692
 30
0.0
 11
-1943.9025338980171
 21
-1514.303913521692
 31
0.0
  0
LINE
  5
93C9
  8
0
  6
BYBLOCK
 10
-1943.9025338980171
 20
-1514.303913521692
 30
0.0
 11
-1943.3666355180169
 21
-1516.303913521692
 31
0.0
  0
LINE
  5
93CA
  8
0
  6
BYBLOCK
 10
-1943.9025338980171
 20
-1514.303913521692
 30
0.0
 11
-1943.9025338980171
 21
-1516.303913521692
 31
0.0
  0
TEXT
  5
93CB
  8
1DIM
 10
-1944.6025338980171
 20
-1456.9289317716921
 30
0.0
 40
3.5
  1
20
 50
90.0
  0
LINE
  5
93CC
  8
0
  6
BYBLOCK
 10
-1943.3666355180169
 20
-1462.3039325216921
 30
0.0
 11
-1943.9025338980171
 21
-1464.3039325216921
 31
0.0
  0
LINE
  5
93CD
  8
0
  6
BYBLOCK
 10
-1943.9025338980171
 20
-1464.3039325216921
 30
0.0
 11
-1944.438432278017
 21
-1462.3039325216921
 31
0.0
  0
LINE
  5
93CE
  8
0
  6
BYBLOCK
 10
-1943.9025338980171
 20
-1464.3039325216921
 30
0.0
 11
-1943.9025338980171
 21
-1462.3039325216921
 31
0.0
  0
LINE
  5
93CF
  8
0
  6
BYBLOCK
 10
-1944.438432278017
 20
-1446.3039310216921
 30
0.0
 11
-1943.9025338980171
 21
-1444.3039310216921
 31
0.0
  0
LINE
  5
93D0
  8
0
  6
BYBLOCK
 10
-1943.9025338980171
 20
-1444.3039310216921
 30
0.0
 11
-1943.3666355180169
 21
-1446.3039310216921
 31
0.0
  0
LINE
  5
93D1
  8
0
  6
BYBLOCK
 10
-1943.9025338980171
 20
-1444.3039310216921
 30
0.0
 11
-1943.9025338980171
 21
-1446.3039310216921
 31
0.0
  0
TEXT
  5
93D2
  8
1DIM
 10
-1981.5275338980171
 20
-1483.5872323864819
 30
0.0
 40
3.5
  1
30
  0
LINE
  5
93D3
  8
0
  6
BYBLOCK
 10
-1965.9025338980171
 20
-1483.751334006482
 30
0.0
 11
-1963.9025338980171
 21
-1484.2872323864819
 31
0.0
  0
LINE
  5
93D4
  8
0
  6
BYBLOCK
 10
-1963.9025338980171
 20
-1484.2872323864819
 30
0.0
 11
-1965.9025338980171
 21
-1484.8231307664821
 31
0.0
  0
LINE
  5
93D5
  8
0
  6
BYBLOCK
 10
-1963.9025338980171
 20
-1484.2872323864819
 30
0.0
 11
-1965.9025338980171
 21
-1484.2872323864819
 31
0.0
  0
LINE
  5
93D6
  8
0
  6
BYBLOCK
 10
-1991.9025338980171
 20
-1484.8231307664821
 30
0.0
 11
-1993.9025338980171
 21
-1484.2872323864819
 31
0.0
  0
LINE
  5
93D7
  8
0
  6
BYBLOCK
 10
-1993.9025338980171
 20
-1484.2872323864819
 30
0.0
 11
-1991.9025338980171
 21
-1483.751334006482
 31
0.0
  0
LINE
  5
93D8
  8
0
  6
BYBLOCK
 10
-1993.9025338980171
 20
-1484.2872323864819
 30
0.0
 11
-1991.9025338980171
 21
-1484.2872323864819
 31
0.0
  0
TEXT
  5
93D9
  8
1DIM
 10
-1918.6858671440841
 20
-1563.6039145216921
 30
0.0
 40
3.5
  1
\U+03C614
  0
LINE
  5
93DA
  8
0
  6
BYBLOCK
 10
-1908.902533810751
 20
-1563.768016141692
 30
0.0
 11
-1906.9025338107499
 21
-1564.3039145216919
 31
0.0
  0
LINE
  5
93DB
  8
0
  6
BYBLOCK
 10
-1906.9025338107499
 20
-1564.3039145216919
 30
0.0
 11
-1908.902533810751
 21
-1564.8398129016921
 31
0.0
  0
LINE
  5
93DC
  8
0
  6
BYBLOCK
 10
-1906.9025338107499
 20
-1564.3039145216919
 30
0.0
 11
-1908.902533810751
 21
-1564.3039145216919
 31
0.0
  0
LINE
  5
93DD
  8
0
  6
BYBLOCK
 10
-1918.9025338107499
 20
-1564.8398129016921
 30
0.0
 11
-1920.9025338107499
 21
-1564.3039145216919
 31
0.0
  0
LINE
  5
93DE
  8
0
  6
BYBLOCK
 10
-1920.9025338107499
 20
-1564.3039145216919
 30
0.0
 11
-1918.9025338107499
 21
-1563.768016141692
 31
0.0
  0
LINE
  5
93DF
  8
0
  6
BYBLOCK
 10
-1920.9025338107499
 20
-1564.3039145216919
 30
0.0
 11
-1918.9025338107499
 21
-1564.3039145216919
 31
0.0
  0
LINE
  5
93E0
  8
1DIM
 10
-1912.767377469321
 20
-1545.950553547257
 30
0.0
 11
-1899.632413946727
 21
-1565.003914521692
 31
0.0
  0
LINE
  5
93E1
  8
1DIM
 10
-1899.632413946727
 20
-1565.003914521692
 30
0.0
 11
-1896.9324139467269
 21
-1565.003914521692
 31
0.0
  0
LINE
  5
93E2
  8
1DIM
 10
-1988.4281635011801
 20
-1515.159131099439
 30
0.0
 11
-1996.3289045846091
 21
-1507.4110160024411
 31
0.0
1001
ACAD
1000
DSTYLE
1002
{
1070
    45
1040
0.5
1002
}
  0
VIEWPORT
  5
57
 67
     1
  8
0
 10
81.104662974052985
 20
9.8414732014601896
 30
0.0
 40
583.59198371532148
 41
268.32580654566408
 68
     1
 69
     1
1001
ACAD
1000
MVIEW
1002
{
1070
    16
1010
0.0
1020
0.0
1030
0.0
1010
0.0
1020
0.0
1030
1.0
1040
0.0
1040
268.32580654566408
1040
81.104662974052985
1040
9.8414732014601896
1040
50.0
1040
0.0
1040
0.0
1070
     0
1070
   100
1070
     1
1070
     1
1070
     0
1070
     0
1070
     0
1070
     0
1040
0.0
1040
0.0
1040
0.0
1040
10.0
1040
10.0
1040
10.0
1040
10.0
1070
     0
1002
{
1002
}
1002
}
  0
ENDSEC
  0
EOF
