  0
SECTION
  2
HEADER
  9
$ACADVER
  1
AC1009
  9
$INSBASE
 10
0.0
 20
0.0
 30
0.0
  9
$EXTMIN
 10
5495.7714090372674
 20
96.012000050530006
 30
0.0
  9
$EXTMAX
 10
5777.1996944204102
 20
296.1883239840505
 30
0.0
  9
$LIMMIN
 10
0.0
 20
0.0
  9
$LIMMAX
 10
420.0
 20
297.0
  9
$ORTHOMODE
 70
     0
  9
$REGENMODE
 70
     1
  9
$FILLMODE
 70
     1
  9
$QTEXTMODE
 70
     0
  9
$MIRRTEXT
 70
     0
  9
$DRAGMODE
 70
     2
  9
$LTSCALE
 40
0.5
  9
$OSMODE
 70
  2173
  9
$ATTMODE
 70
     1
  9
$TEXTSIZE
 40
4.0
  9
$TRACEWID
 40
1.0
  9
$TEXTSTYLE
  7
STANDARD
  9
$CLAYER
  8
1TEXT
  9
$CELTYPE
  6
BYLAYER
  9
$CECOLOR
 62
   256
  9
$DIMSCALE
 40
1.0
  9
$DIMASZ
 40
2.0
  9
$DIMEXO
 40
0.0
  9
$DIMDLI
 40
7.0
  9
$DIMRND
 40
0.0
  9
$DIMDLE
 40
0.0
  9
$DIMEXE
 40
1.0
  9
$DIMTP
 40
0.0
  9
$DIMTM
 40
0.0
  9
$DIMTXT
 40
3.5
  9
$DIMCEN
 40
0.0
  9
$DIMTSZ
 40
0.0
  9
$DIMTOL
 70
     0
  9
$DIMLIM
 70
     0
  9
$DIMTIH
 70
     0
  9
$DIMTOH
 70
     0
  9
$DIMSE1
 70
     0
  9
$DIMSE2
 70
     0
  9
$DIMTAD
 70
     1
  9
$DIMZIN
 70
     8
  9
$DIMBLK
  1

  9
$DIMASO
 70
     1
  9
$DIMSHO
 70
     1
  9
$DIMPOST
  1
 
  9
$DIMAPOST
  1

  9
$DIMALT
 70
     0
  9
$DIMALTD
 70
     2
  9
$DIMALTF
 40
25.399999999999999
  9
$DIMLFAC
 40
1.0
  9
$DIMTOFL
 70
     1
  9
$DIMTVP
 40
0.0
  9
$DIMTIX
 70
     0
  9
$DIMSOXD
 70
     0
  9
$DIMSAH
 70
     1
  9
$DIMBLK1
  1
OPEN30
  9
$DIMBLK2
  1
OPEN30
  9
$DIMSTYLE
  2
NEWX10
  9
$DIMCLRD
 70
   256
  9
$DIMCLRE
 70
   256
  9
$DIMCLRT
 70
   201
  9
$DIMTFAC
 40
0.7
  9
$DIMGAP
 40
0.7
  9
$LUNITS
 70
     2
  9
$LUPREC
 70
     4
  9
$SKETCHINC
 40
1.0
  9
$FILLETRAD
 40
1.0
  9
$AUNITS
 70
     0
  9
$AUPREC
 70
     2
  9
$MENU
  1
acad
  9
$ELEVATION
 40
0.0
  9
$PELEVATION
 40
0.0
  9
$THICKNESS
 40
0.0
  9
$LIMCHECK
 70
     0
  9
$BLIPMODE
 70
     0
  9
$CHAMFERA
 40
10.0
  9
$CHAMFERB
 40
10.0
  9
$SKPOLY
 70
     0
  9
$TDCREATE
 40
2451318.621352917
  9
$TDUPDATE
 40
2454013.6697587501
  9
$TDINDWG
 40
0.6226344792
  9
$TDUSRTIMER
 40
0.6226344792
  9
$USRTIMER
 70
     1
  9
$ANGBASE
 50
0.0
  9
$ANGDIR
 70
     0
  9
$PDMODE
 70
     0
  9
$PDSIZE
 40
0.0
  9
$PLINEWID
 40
0.0
  9
$COORDS
 70
     2
  9
$SPLFRAME
 70
     0
  9
$SPLINETYPE
 70
     6
  9
$SPLINESEGS
 70
     8
  9
$ATTDIA
 70
     0
  9
$ATTREQ
 70
     1
  9
$HANDLING
 70
     1
  9
$HANDSEED
  5
C1C3
  9
$SURFTAB1
 70
     6
  9
$SURFTAB2
 70
     6
  9
$SURFTYPE
 70
     6
  9
$SURFU
 70
     6
  9
$SURFV
 70
     6
  9
$UCSNAME
  2

  9
$UCSORG
 10
0.0
 20
0.0
 30
0.0
  9
$UCSXDIR
 10
1.0
 20
0.0
 30
0.0
  9
$UCSYDIR
 10
0.0
 20
1.0
 30
0.0
  9
$PUCSNAME
  2

  9
$PUCSORG
 10
0.0
 20
0.0
 30
0.0
  9
$PUCSXDIR
 10
1.0
 20
0.0
 30
0.0
  9
$PUCSYDIR
 10
0.0
 20
1.0
 30
0.0
  9
$USERI1
 70
     0
  9
$USERI2
 70
     0
  9
$USERI3
 70
     0
  9
$USERI4
 70
     0
  9
$USERI5
 70
     0
  9
$USERR1
 40
0.0
  9
$USERR2
 40
0.0
  9
$USERR3
 40
0.0
  9
$USERR4
 40
0.0
  9
$USERR5
 40
0.0
  9
$WORLDVIEW
 70
     1
  9
$SHADEDGE
 70
     3
  9
$SHADEDIF
 70
    70
  9
$TILEMODE
 70
     1
  9
$MAXACTVP
 70
    48
  9
$PLIMCHECK
 70
     0
  9
$PEXTMIN
 10
1.0000000000000000E+020
 20
1.0000000000000000E+020
 30
1.0000000000000000E+020
  9
$PEXTMAX
 10
-1.0000000000000000E+020
 20
-1.0000000000000000E+020
 30
-1.0000000000000000E+020
  9
$PLIMMIN
 10
0.0
 20
0.0
  9
$PLIMMAX
 10
420.0
 20
297.0
  9
$UNITMODE
 70
     0
  9
$VISRETAIN
 70
     1
  9
$PLINEGEN
 70
     0
  9
$PSLTSCALE
 70
     1
  0
ENDSEC
  0
SECTION
  2
TABLES
  0
TABLE
  2
VPORT
 70
     4
  0
VPORT
  2
*ACTIVE
 70
     0
 10
0.0
 20
0.0
 11
1.0
 21
1.0
 12
5636.5514854777684
 22
196.09586408920109
 13
0.0
 23
0.0
 14
10.0
 24
10.0
 15
10.0
 25
10.0
 16
0.0
 26
0.0
 36
1.0
 17
0.0
 27
0.0
 37
0.0
 40
212.4332411380116
 41
1.508086253369272
 42
50.0
 43
0.0
 44
0.0
 50
0.0
 51
0.0
 71
     0
 72
   100
 73
     1
 74
     1
 75
     0
 76
     0
 77
     0
 78
     0
  0
ENDTAB
  0
TABLE
  2
LTYPE
 70
    14
  0
LTYPE
  2
CONTINUOUS
 70
     0
  3
Solid line
 72
    65
 73
     0
 40
0.0
  0
LTYPE
  2
XREF1|CENTER2
 70
    48
  3
Center (.5x) ___ _ ___ _ ___ _ ___ _ ___ _ ___
 72
    65
 73
     4
 40
28.574999999999999
 49
19.050000000000001
 49
-3.1749999999999989
 49
3.1749999999999989
 49
-3.1749999999999989
  0
LTYPE
  2
A3WAKUDAKE|CENTER2
 70
    48
  3
Center (.5x) ___ _ ___ _ ___ _ ___ _ ___ _ ___
 72
    65
 73
     4
 40
28.574999999999999
 49
19.050000000000001
 49
-3.1749999999999989
 49
3.1749999999999989
 49
-3.1749999999999989
  0
LTYPE
  2
HIDDEN
 70
     0
  3
Hidden __ __ __ __ __ __ __ __ __ __ __ __ __ _
 72
    65
 73
     2
 40
9.5249999999999986
 49
6.3499999999999988
 49
-3.1749999999999989
  0
LTYPE
  2
PHANTOM2
 70
     0
  3
Phantom (.5x) ___ _ _ ___ _ _ ___ _ _ ___ _ _
 72
    65
 73
     6
 40
31.75
 49
15.875
 49
-3.1749999999999989
 49
3.1749999999999989
 49
-3.1749999999999989
 49
3.1749999999999989
 49
-3.1749999999999989
  0
LTYPE
  2
CENTER2
 70
     0
  3
Center (.5x) ___ _ ___ _ ___ _ ___ _ ___ _ ___
 72
    65
 73
     4
 40
28.574999999999999
 49
19.050000000000001
 49
-3.1749999999999989
 49
3.1749999999999989
 49
-3.1749999999999989
  0
ENDTAB
  0
TABLE
  2
LAYER
 70
    41
  0
LAYER
  2
0
 70
     0
 62
     7
  6
CONTINUOUS
  0
LAYER
  2
1CENTER
 70
     0
 62
     7
  6
CENTER2
  0
LAYER
  2
1TEXT
 70
     0
 62
     7
  6
CONTINUOUS
  0
LAYER
  2
XREF1|1CENTER
 70
    48
 62
     7
  6
XREF1|CENTER2
  0
LAYER
  2
01
 70
     0
 62
     1
  6
CONTINUOUS
  0
LAYER
  2
1DIM
 70
     0
 62
     7
  6
CONTINUOUS
  0
LAYER
  2
A3WAKUDAKE|THICK
 70
    48
 62
     7
  6
CONTINUOUS
  0
LAYER
  2
A3WAKUDAKE|POINT
 70
    48
 62
     7
  6
CONTINUOUS
  0
LAYER
  2
A3WAKUDAKE|1CENTER
 70
    48
 62
     7
  6
A3WAKUDAKE|CENTER2
  0
LAYER
  2
A3WAKUDAKE|0-6
 70
    48
 62
     7
  6
CONTINUOUS
  0
LAYER
  2
A3WAKUDAKE|1DIM
 70
    48
 62
     7
  6
CONTINUOUS
  0
LAYER
  2
1HIDDEN
 70
     0
 62
     7
  6
HIDDEN
  0
LAYER
  2
1PHANTOM
 70
     0
 62
     7
  6
PHANTOM2
  0
LAYER
  2
1HATCH
 70
     0
 62
     7
  6
CONTINUOUS
  0
ENDTAB
  0
TABLE
  2
STYLE
 70
    20
  0
STYLE
  2
STANDARD
 70
     0
 40
0.0
 41
1.0
 50
0.0
 71
     0
 42
4.0
  3
txt.shx
  4
extfont.shx
  0
ENDTAB
  0
TABLE
  2
VIEW
 70
     0
  0
ENDTAB
  0
TABLE
  2
UCS
 70
     0
  0
ENDTAB
  0
TABLE
  2
APPID
 70
     8
  0
APPID
  2
ACAD
 70
     0
  0
APPID
  2
DRAWINGVARIABLESXDATA
 70
     0
  0
APPID
  2
CONTENTTABDATA
 70
     0
  0
APPID
  2
CONTENTCURRENTTAB
 70
     0
  0
APPID
  2
CONTENTBLOCKDESCRIPTION
 70
     0
  0
APPID
  2
CONTENTBLOCKICON
 70
     0
  0
APPID
  2
CONTENTLONGBLOCKNAME
 70
     0
  0
APPID
  2
ACAD_PSEXT
 70
     0
  0
ENDTAB
  0
TABLE
  2
DIMSTYLE
 70
     6
  0
DIMSTYLE
  2
NEWX10
 70
     0
  3
 
  4

  5

  6
OPEN30
  7
OPEN30
 40
1.0
 41
2.0
 42
0.0
 43
7.0
 44
1.0
 45
0.0
 46
0.0
 47
0.0
 48
0.0
140
3.5
141
0.0
142
0.0
143
25.399999999999999
144
1.0
145
0.0
146
0.7
147
0.7
 71
     0
 72
     0
 73
     0
 74
     0
 75
     0
 76
     0
 77
     1
 78
     8
170
     0
171
     2
172
     1
173
     1
174
     0
175
     0
176
   256
177
   256
178
   201
  0
ENDTAB
  0
ENDSEC
  0
SECTION
  2
BLOCKS
  0
BLOCK
  8
0
  2
$MODEL_SPACE
 70
     0
 10
0.0
 20
0.0
 30
0.0
  3
$MODEL_SPACE
  1

  0
ENDBLK
  5
1A
  8
0
  0
BLOCK
 67
     1
  8
0
  2
$PAPER_SPACE
 70
     0
 10
0.0
 20
0.0
 30
0.0
  3
$PAPER_SPACE
  1

  0
ENDBLK
  5
17
 67
     1
  8
0
  0
BLOCK
  8
0
  2
_OPEN30
 70
     0
 10
0.0
 20
0.0
 30
0.0
  3
_OPEN30
  1

  0
LINE
  5
44
  8
0
  6
BYBLOCK
 62
     0
 10
-1.0
 20
0.26794919
 30
0.0
 11
0.0
 21
0.0
 31
0.0
  0
LINE
  5
45
  8
0
  6
BYBLOCK
 62
     0
 10
0.0
 20
0.0
 30
0.0
 11
-1.0
 21
-0.26794919
 31
0.0
  0
LINE
  5
46
  8
0
  6
BYBLOCK
 62
     0
 10
0.0
 20
0.0
 30
0.0
 11
-1.0
 21
0.0
 31
0.0
  0
ENDBLK
  5
47
  8
0
  0
BLOCK
  8
0
  2
XREF1
 70
    36
 10
0.0
 20
0.0
 30
0.0
  3
XREF1
  1
D:\ACLT\FORMAT\KAWAJUN(9)É}û╩ùp.dwg
  0
ENDBLK
  5
5D
  8
0
  0
BLOCK
  8
0
  2
A3WAKUDAKE
 70
    36
 10
0.0
 20
0.0
 30
0.0
  3
A3WAKUDAKE
  1
D:\ACLT\FORMAT\A3WAKUdake.dwg
  0
ENDBLK
  5
6A0
  8
0
  0
BLOCK
  8
0
  2
*U44
 70
     1
 10
0.0
 20
0.0
 30
0.0
  3
*U44
  1

  0
TEXT
  5
C12C
  8
1DIM
 62
   201
 10
831.89600249965827
 20
-2056.3240815977451
 30
0.0
 40
4.5499999999999989
  1
25 
  0
ENDBLK
  5
C12E
  8
0
  0
BLOCK
  8
0
  2
*U45
 70
     1
 10
0.0
 20
0.0
 30
0.0
  3
*U45
  1

  0
TEXT
  5
C130
  8
1DIM
 62
   201
 10
945.41266516632527
 20
-2056.3240815977451
 30
0.0
 40
4.5499999999999989
  1
11 
  0
ENDBLK
  5
C132
  8
0
  0
BLOCK
  8
0
  2
*U46
 70
     1
 10
0.0
 20
0.0
 30
0.0
  3
*U46
  1

  0
TEXT
  5
C134
  8
1DIM
 62
   201
 10
975.65433183299194
 20
-2056.3240815977451
 30
0.0
 40
4.5499999999999989
  1
51 
  0
ENDBLK
  5
C136
  8
0
  0
BLOCK
  8
0
  2
*U47
 70
     1
 10
0.0
 20
0.0
 30
0.0
  3
*U47
  1

  0
TEXT
  5
C138
  8
1DIM
 62
   201
 10
1048.277665166326
 20
-1892.767414932106
 30
0.0
 40
4.5499999999999989
  1
19 
 50
90.0
  0
ENDBLK
  5
C13A
  8
0
  0
BLOCK
  8
0
  2
*U48
 70
     1
 10
0.0
 20
0.0
 30
0.0
  3
*U48
  1

  0
TEXT
  5
C13C
  8
1DIM
 62
   201
 10
879.28126020288175
 20
-2128.9703609174289
 30
0.0
 40
4.5499999999999989
  1
114 
 50
90.0
  0
ENDBLK
  5
C13E
  8
0
  0
BLOCK
  8
0
  2
*U49
 70
     1
 10
0.0
 20
0.0
 30
0.0
  3
*U49
  1

  0
TEXT
  5
C140
  8
1DIM
 62
   201
 10
889.28126020288175
 20
-2129.349527584096
 30
0.0
 40
4.5499999999999989
  1
130 
 50
90.0
  0
ENDBLK
  5
C142
  8
0
  0
BLOCK
  8
0
  2
*U50
 70
     1
 10
0.0
 20
0.0
 30
0.0
  3
*U50
  1

  0
TEXT
  5
C144
  8
1DIM
 62
   201
 10
1048.277665166326
 20
-2140.5091664423048
 30
0.0
 40
4.5499999999999989
  1
74 
 50
90.0
  0
ENDBLK
  5
C146
  8
0
  0
BLOCK
  8
0
  2
*U51
 70
     1
 10
0.0
 20
0.0
 30
0.0
  3
*U51
  1

  0
TEXT
  5
C148
  8
1DIM
 62
   201
 10
983.89599849965896
 20
-2046.324081597744
 30
0.0
 40
4.5499999999999989
  1
69 
  0
ENDBLK
  5
C14A
  8
0
  0
BLOCK
  8
0
  2
*U52
 70
     1
 10
0.0
 20
0.0
 30
0.0
  3
*U52
  1

  0
TEXT
  5
C14C
  8
1DIM
 62
   201
 10
1111.277781506782
 20
-1923.384997598969
 30
0.0
 40
4.5499999999999989
  1
20 
 50
90.0
  0
ENDBLK
  5
C14E
  8
0
  0
BLOCK
  8
0
  2
*U53
 70
     1
 10
0.0
 20
0.0
 30
0.0
  3
*U53
  1

  0
TEXT
  5
C150
  8
1DIM
 62
   201
 10
1121.277781506782
 20
-1938.267409905907
 30
0.0
 40
4.5499999999999989
  1
51 
 50
90.0
  0
ENDBLK
  5
C152
  8
0
  0
BLOCK
  8
0
  2
*U54
 70
     1
 10
0.0
 20
0.0
 30
0.0
  3
*U54
  1

  0
TEXT
  5
C154
  8
1DIM
 62
   201
 10
1131.277781506782
 20
-1948.3437417309369
 30
0.0
 40
4.5499999999999989
  1
70 
 50
90.0
  0
ENDBLK
  5
C156
  8
0
  0
BLOCK
  8
0
  2
*U55
 70
     1
 10
0.0
 20
0.0
 30
0.0
  3
*U55
  1

  0
TEXT
  5
C158
  8
1DIM
 62
   201
 10
1043.8961148394039
 20
-1994.6107196228049
 30
0.0
 40
4.5499999999999989
  1
87 
  0
ENDBLK
  5
C15A
  8
0
  0
BLOCK
  8
0
  2
*U56
 70
     1
 10
0.0
 20
0.0
 30
0.0
  3
*U56
  1

  0
TEXT
  5
C15C
  8
1DIM
 62
   201
 10
1033.7586148394039
 20
-2004.6107196228049
 30
0.0
 40
4.5499999999999989
  1
105 
  0
ENDBLK
  5
C15E
  8
0
  0
BLOCK
  8
0
  2
*U57
 70
     1
 10
0.0
 20
0.0
 30
0.0
  3
*U57
  1

  0
TEXT
  5
C160
  8
1DIM
 62
   201
 10
968.27766516632551
 20
-2170.210748264411
 30
0.0
 40
4.5499999999999989
  1
âË53
 50
90.0
  0
ENDBLK
  5
C162
  8
0
  0
BLOCK
  8
0
  2
*U58
 70
     1
 10
0.0
 20
0.0
 30
0.0
  3
*U58
  1

  0
TEXT
  5
C164
  8
1DIM
 62
   201
 10
1111.277665167037
 20
-2167.0257482644101
 30
0.0
 40
4.5499999999999989
  1
48 
 50
90.0
  0
ENDBLK
  5
C166
  8
0
  0
BLOCK
  8
0
  2
*U59
 70
     1
 10
0.0
 20
0.0
 30
0.0
  3
*U59
  1

  0
TEXT
  5
C168
  8
1DIM
 62
   201
 10
6122.8751595603781
 20
300.20869792335748
 30
0.0
 40
4.5499999999999989
  1
25 
  0
ENDBLK
  5
C16A
  8
0
  0
BLOCK
  8
0
  2
*U60
 70
     1
 10
0.0
 20
0.0
 30
0.0
  3
*U60
  1

  0
TEXT
  5
C16C
  8
1DIM
 62
   201
 10
6236.3918222270459
 20
300.20869792335748
 30
0.0
 40
4.5499999999999989
  1
11 
  0
ENDBLK
  5
C16E
  8
0
  0
BLOCK
  8
0
  2
*U61
 70
     1
 10
0.0
 20
0.0
 30
0.0
  3
*U61
  1

  0
TEXT
  5
C170
  8
1DIM
 62
   201
 10
6266.6334888937117
 20
300.20869792335748
 30
0.0
 40
4.5499999999999989
  1
51 
  0
ENDBLK
  5
C172
  8
0
  0
BLOCK
  8
0
  2
*U62
 70
     1
 10
0.0
 20
0.0
 30
0.0
  3
*U62
  1

  0
TEXT
  5
C174
  8
1DIM
 62
   201
 10
6339.2568222270447
 20
463.76536458899648
 30
0.0
 40
4.5499999999999989
  1
19 
 50
90.0
  0
ENDBLK
  5
C176
  8
0
  0
BLOCK
  8
0
  2
*U63
 70
     1
 10
0.0
 20
0.0
 30
0.0
  3
*U63
  1

  0
TEXT
  5
C178
  8
1DIM
 62
   201
 10
6170.260417263602
 20
227.5624186036724
 30
0.0
 40
4.5499999999999989
  1
114 
 50
90.0
  0
ENDBLK
  5
C17A
  8
0
  0
BLOCK
  8
0
  2
*U64
 70
     1
 10
0.0
 20
0.0
 30
0.0
  3
*U64
  1

  0
TEXT
  5
C17C
  8
1DIM
 62
   201
 10
6180.2604172636011
 20
227.18325193700571
 30
0.0
 40
4.5499999999999989
  1
130 
 50
90.0
  0
ENDBLK
  5
C17E
  8
0
  0
BLOCK
  8
0
  2
*U65
 70
     1
 10
0.0
 20
0.0
 30
0.0
  3
*U65
  1

  0
TEXT
  5
C180
  8
1DIM
 62
   201
 10
6339.2568222270456
 20
216.0236130787971
 30
0.0
 40
4.5499999999999989
  1
74 
 50
90.0
  0
ENDBLK
  5
C182
  8
0
  0
BLOCK
  8
0
  2
*U66
 70
     1
 10
0.0
 20
0.0
 30
0.0
  3
*U66
  1

  0
TEXT
  5
C184
  8
1DIM
 62
   201
 10
6274.8751555603803
 20
310.20869792335748
 30
0.0
 40
4.5499999999999989
  1
69 
  0
ENDBLK
  5
C186
  8
0
  0
BLOCK
  8
0
  2
*U67
 70
     1
 10
0.0
 20
0.0
 30
0.0
  3
*U67
  1

  0
TEXT
  5
C188
  8
1DIM
 62
   201
 10
5576.6850332181157
 20
380.78544475194337
 30
0.0
 40
4.5499999999999989
  1
24 
 50
90.0
  0
ENDBLK
  5
C18A
  8
0
  0
BLOCK
  8
0
  2
*U68
 70
     1
 10
0.0
 20
0.0
 30
0.0
  3
*U68
  1

  0
TEXT
  5
C18C
  8
1DIM
 62
   201
 10
5586.6850332181166
 20
364.64863787013161
 30
0.0
 40
4.5499999999999989
  1
56 
 50
90.0
  0
ENDBLK
  5
C18E
  8
0
  0
BLOCK
  8
0
  2
*U69
 70
     1
 10
0.0
 20
0.0
 30
0.0
  3
*U69
  1

  0
TEXT
  5
C190
  8
1DIM
 62
   201
 10
5596.6850332181166
 20
355.23933512525099
 30
0.0
 40
4.5499999999999989
  1
75 
 50
90.0
  0
ENDBLK
  5
C192
  8
0
  0
BLOCK
  8
0
  2
*U70
 70
     1
 10
0.0
 20
0.0
 30
0.0
  3
*U70
  1

  0
TEXT
  5
C194
  8
1DIM
 62
   201
 10
5512.3033665510939
 20
311.4569855247812
 30
0.0
 40
4.5499999999999989
  1
93 
  0
ENDBLK
  5
C196
  8
0
  0
BLOCK
  8
0
  2
*U71
 70
     1
 10
0.0
 20
0.0
 30
0.0
  3
*U71
  1

  0
TEXT
  5
C198
  8
1DIM
 62
   201
 10
5505.6658665512832
 20
301.45698552478109
 30
0.0
 40
4.5499999999999989
  1
104 
  0
ENDBLK
  5
C19A
  8
0
  0
BLOCK
  8
0
  2
*U72
 70
     1
 10
0.0
 20
0.0
 30
0.0
  3
*U72
  1

  0
TEXT
  5
C19C
  8
1DIM
 62
   201
 10
5754.9896944204093
 20
272.53740798385508
 30
0.0
 40
4.5499999999999989
  1
20 
 50
90.0
  0
ENDBLK
  5
C19E
  8
0
  0
BLOCK
  8
0
  2
*U73
 70
     1
 10
0.0
 20
0.0
 30
0.0
  3
*U73
  1

  0
TEXT
  5
C1A0
  8
1DIM
 62
   201
 10
5764.9896944204093
 20
257.654995676917
 30
0.0
 40
4.5499999999999989
  1
51 
 50
90.0
  0
ENDBLK
  5
C1A2
  8
0
  0
BLOCK
  8
0
  2
*U74
 70
     1
 10
0.0
 20
0.0
 30
0.0
  3
*U74
  1

  0
TEXT
  5
C1A4
  8
1DIM
 62
   201
 10
5774.9896944204093
 20
247.578663851887
 30
0.0
 40
4.5499999999999989
  1
70 
 50
90.0
  0
ENDBLK
  5
C1A6
  8
0
  0
BLOCK
  8
0
  2
*U75
 70
     1
 10
0.0
 20
0.0
 30
0.0
  3
*U75
  1

  0
TEXT
  5
C1A8
  8
1DIM
 62
   201
 10
5687.6080277530318
 20
201.311685960018
 30
0.0
 40
4.5499999999999989
  1
87 
  0
ENDBLK
  5
C1AA
  8
0
  0
BLOCK
  8
0
  2
*U76
 70
     1
 10
0.0
 20
0.0
 30
0.0
  3
*U76
  1

  0
TEXT
  5
C1AC
  8
1DIM
 62
   201
 10
5677.4705277530329
 20
191.31168596001791
 30
0.0
 40
4.5499999999999989
  1
105 
  0
ENDBLK
  5
C1AE
  8
0
  0
BLOCK
  8
0
  2
*U77
 70
     1
 10
0.0
 20
0.0
 30
0.0
  3
*U77
  1

  0
TEXT
  5
C1B0
  8
1DIM
 62
   201
 10
5831.6459814117961
 20
197.7513903588754
 30
0.0
 40
3.5
  1
R1 
 50
54.478408204101633
  0
ENDBLK
  5
C1B2
  8
0
  0
BLOCK
  8
0
  2
*U78
 70
     1
 10
0.0
 20
0.0
 30
0.0
  3
*U78
  1

  0
TEXT
  5
C1B4
  8
1DIM
 62
   201
 10
5404.6505457746316
 20
36.617902740567217
 30
0.0
 40
4.5499999999999989
  1
âË53
 50
90.0
  0
ENDBLK
  5
C1B6
  8
0
  0
BLOCK
  8
0
  2
*U79
 70
     1
 10
0.0
 20
0.0
 30
0.0
  3
*U79
  1

  0
TEXT
  5
C1B8
  8
1DIM
 62
   201
 10
5547.6505457753428
 20
39.802902740566971
 30
0.0
 40
4.5499999999999989
  1
37 
 50
90.0
  0
ENDBLK
  5
C1BA
  8
0
  0
BLOCK
  8
0
  2
*U80
 70
     1
 10
0.0
 20
0.0
 30
0.0
  3
*U80
  1

  0
TEXT
  5
C1BC
  8
1DIM
 62
   201
 10
5611.9896944200736
 20
129.21165731738449
 30
0.0
 40
4.5499999999999989
  1
âË53
 50
90.0
  0
ENDBLK
  5
C1BE
  8
0
  0
BLOCK
  8
0
  2
*U81
 70
     1
 10
0.0
 20
0.0
 30
0.0
  3
*U81
  1

  0
TEXT
  5
C1C0
  8
1DIM
 62
   201
 10
5754.9896944207849
 20
132.39665731738501
 30
0.0
 40
4.5499999999999989
  1
48 
 50
90.0
  0
ENDBLK
  5
C1C2
  8
0
  0
ENDSEC
  0
SECTION
  2
ENTITIES
  0
LINE
  5
A4A7
  8
1CENTER
 10
5641.8996944196988
 20
136.18832398405019
 30
0.0
 11
5653.8996944196988
 21
136.18832398405019
 31
0.0
  0
LINE
  5
A4AA
  8
01
 10
5607.8996944196988
 20
286.1883239840505
 30
0.0
 11
5702.8996944196988
 21
286.1883239840505
 31
0.0
  0
LINE
  5
A4AB
  8
01
 10
5497.8996944196979
 20
176.36464791757101
 30
0.0
 11
5497.8996944196979
 21
96.012000050530006
 31
0.0
  0
TEXT
  5
A548
  8
1TEXT
 10
5497.8996944196979
 20
286.1883239840505
 30
0.0
 40
10.0
  1
R3C
 41
1.017187499999999
  0
ARC
  5
A655
  8
1HIDDEN
 10
5647.8996944196988
 20
136.18832398405019
 30
0.0
 40
26.5
 50
295.08762784151372
 51
64.91237215849074
  0
LINE
  5
B9C6
  8
1CENTER
 10
5647.8996944196988
 20
142.1883239840501
 30
0.0
 11
5647.8996944196988
 21
130.1883239840501
 31
0.0
  0
LINE
  5
BAFF
  8
1CENTER
 10
5495.7714090372674
 20
136.1883239840505
 30
0.0
 11
5520.7290916340453
 21
136.1883239840505
 31
0.0
  0
LINE
  5
BB00
  8
1CENTER
 10
5515.8996944196979
 20
140.6883239840505
 30
0.0
 11
5515.8996944196979
 21
131.6883239840505
 31
0.0
  0
LINE
  5
BD91
  8
1CENTER
 10
5629.2618108082461
 20
268.18829298405183
 30
0.0
 11
5644.8844474196967
 21
268.18829298405183
 31
0.0
  0
POINT
  5
BDA2
  8
1HATCH
 10
5515.8996944196979
 20
136.1883239840505
 30
0.0
  0
LINE
  5
BDA3
  8
1HATCH
 10
5515.4996944096993
 20
134.4383239840505
 30
0.0
 11
5515.4996944096993
 21
135.28832400405059
 31
0.0
  0
LINE
  5
BDA4
  8
1HATCH
 10
5516.2996944296992
 20
134.4383239840505
 30
0.0
 11
5516.2996944296992
 21
135.28832400405059
 31
0.0
  0
LINE
  5
BDA5
  8
1HATCH
 10
5514.9996944396989
 20
135.78832397405051
 30
0.0
 11
5514.1496944196988
 21
135.78832397405051
 31
0.0
  0
LINE
  5
BDA6
  8
1HATCH
 10
5514.9996944396989
 20
136.5883239940504
 30
0.0
 11
5514.1496944196988
 21
136.5883239940504
 31
0.0
  0
LINE
  5
BDA7
  8
1HATCH
 10
5514.1496944196988
 20
135.78832397405051
 30
0.0
 11
5514.1496944196988
 21
136.5883239940504
 31
0.0
  0
LINE
  5
BDA8
  8
1HATCH
 10
5516.2996944296992
 20
134.4383239840505
 30
0.0
 11
5515.4996944096993
 21
134.4383239840505
 31
0.0
  0
LINE
  5
BDA9
  8
1HATCH
 10
5516.2996944296992
 20
137.9383239840505
 30
0.0
 11
5516.2996944296992
 21
137.08832396405029
 31
0.0
  0
LINE
  5
BDAA
  8
1HATCH
 10
5515.4996944096993
 20
137.9383239840505
 30
0.0
 11
5515.4996944096993
 21
137.08832396405029
 31
0.0
  0
LINE
  5
BDAB
  8
1HATCH
 10
5516.7996943996986
 20
136.5883239940504
 30
0.0
 11
5517.6496944196988
 21
136.5883239940504
 31
0.0
  0
LINE
  5
BDAC
  8
1HATCH
 10
5516.7996943996986
 20
135.78832397405051
 30
0.0
 11
5517.6496944196988
 21
135.78832397405051
 31
0.0
  0
LINE
  5
BDAD
  8
1HATCH
 10
5517.6496944196988
 20
136.5883239940504
 30
0.0
 11
5517.6496944196988
 21
135.78832397405051
 31
0.0
  0
LINE
  5
BDAE
  8
1HATCH
 10
5515.4996944096993
 20
137.9383239840505
 30
0.0
 11
5516.2996944296992
 21
137.9383239840505
 31
0.0
  0
CIRCLE
  5
BDAF
  8
1HATCH
 10
5515.8996944196979
 20
136.1883239840505
 30
0.0
 40
2.5
  0
ARC
  5
BDB0
  8
1HATCH
 10
5516.7996943996986
 20
137.08832396405029
 30
0.0
 40
0.5
 50
179.999989999999
 51
270.0
  0
ARC
  5
BDB1
  8
1HATCH
 10
5516.7996943996986
 20
135.28832400405059
 30
0.0
 40
0.5
 50
90.000002999984659
 51
180.00001000000091
  0
ARC
  5
BDB2
  8
1HATCH
 10
5514.9996944396989
 20
135.28832400405059
 30
0.0
 40
0.5
 50
0.0
 51
90.000002999984659
  0
ARC
  5
BDB3
  8
1HATCH
 10
5514.9996944396989
 20
137.08832396405029
 30
0.0
 40
0.5
 50
270.0
 51
0.0
  0
LINE
  5
BDB7
  8
1CENTER
 10
5647.8996944196988
 20
288.31660936648188
 30
0.0
 11
5647.8996944196988
 21
265.6883239840505
 31
0.0
  0
ARC
  5
BDC1
  8
01
 10
5647.8996944200753
 20
136.18832398405019
 30
0.0
 40
26.5
 50
64.912372158503743
 51
115.0876278414962
  0
ARC
  5
BDC3
  8
01
 10
5647.8996944200753
 20
136.18832398405019
 30
0.0
 40
26.5
 50
132.78469491064359
 51
227.21530508935629
  0
ARC
  5
BDC5
  8
01
 10
5647.8996944200753
 20
136.18832398405019
 30
0.0
 40
26.5
 50
244.91237215850381
 51
295.08762784149621
  0
ARC
  5
BDC8
  8
01
 10
5502.8996944196988
 20
157.6883239840505
 30
0.0
 40
5.0
 50
0.0
 51
90.0
  0
LINE
  5
BDC9
  8
01
 10
5497.8996944196979
 20
162.6883239840505
 30
0.0
 11
5497.8996944196979
 21
109.6883239840505
 31
0.0
  0
LINE
  5
BDCA
  8
01
 10
5507.8996944196979
 20
114.6883239840505
 30
0.0
 11
5507.8996944196979
 21
157.6883239840505
 31
0.0
  0
LINE
  5
BDCB
  8
01
 10
5497.8996944196979
 20
162.6883239840505
 30
0.0
 11
5502.8996944196988
 21
162.6883239840505
 31
0.0
  0
ARC
  5
BDCC
  8
01
 10
5502.8996944196988
 20
114.6883239840505
 30
0.0
 40
5.0
 50
270.0
 51
0.0
  0
LINE
  5
BDCD
  8
01
 10
5497.8996944196979
 20
109.6883239840505
 30
0.0
 11
5502.8996944196988
 21
109.6883239840505
 31
0.0
  0
ARC
  5
BDCE
  8
01
 10
5626.3996944196988
 20
281.1883239840505
 30
0.0
 40
5.0
 50
180.0
 51
270.0
  0
LINE
  5
BDCF
  8
01
 10
5621.3996944196988
 20
286.1883239840505
 30
0.0
 11
5674.3996944196979
 21
286.1883239840505
 31
0.0
  0
LINE
  5
BDD0
  8
01
 10
5669.3996944196979
 20
276.1883239840505
 30
0.0
 11
5626.3996944196988
 21
276.1883239840505
 31
0.0
  0
LINE
  5
BDD1
  8
01
 10
5621.3996944196988
 20
286.1883239840505
 30
0.0
 11
5621.3996944196988
 21
281.1883239840505
 31
0.0
  0
ARC
  5
BDD2
  8
01
 10
5669.3996944196979
 20
281.1883239840505
 30
0.0
 40
5.0
 50
270.0
 51
0.0
  0
LINE
  5
BDD3
  8
01
 10
5674.3996944196979
 20
286.1883239840505
 30
0.0
 11
5674.3996944196979
 21
281.1883239840505
 31
0.0
  0
LINE
  5
BDE3
  8
01
 10
5538.5547896745011
 20
148.1883241840502
 30
0.0
 11
5509.3996944196979
 21
148.1883241840502
 31
0.0
  0
LINE
  5
BDE4
  8
01
 10
5538.554789665639
 20
124.1883241840502
 30
0.0
 11
5509.3996944196979
 21
124.1883241840502
 31
0.0
  0
ARC
  5
BDE5
  8
01
 10
5500.3996944196988
 20
136.1883239840505
 30
0.0
 40
15.0
 50
299.99999999999892
 51
306.86990000001867
  0
ARC
  5
BDE6
  8
01
 10
5500.3996944196988
 20
136.1883239840505
 30
0.0
 40
15.0
 50
53.130099999981262
 51
60.000000000001087
  0
LINE
  5
BDE7
  8
01
 10
5630.8996944200762
 20
160.1883239840507
 30
0.0
 11
5733.8996944200753
 21
160.1883239840507
 31
0.0
  0
ARC
  5
BDE8
  8
01
 10
5733.8996944200753
 20
159.1883239840507
 30
0.0
 40
1.0
 50
0.0
 51
90.0
  0
LINE
  5
BDEA
  8
01
 10
5733.8996944200753
 20
112.1883239840507
 30
0.0
 11
5630.8996944200762
 21
112.1883239840507
 31
0.0
  0
ARC
  5
BDEB
  8
01
 10
5733.8996944200753
 20
113.1883239840507
 30
0.0
 40
1.0
 50
270.0
 51
0.0
  0
LINE
  5
BDEC
  8
01
 10
5542.8496867450631
 20
160.1883239840505
 30
0.0
 11
5547.4579522600152
 21
160.1883239840505
 31
0.0
  0
ARC
  5
BDED
  8
01
 10
5647.8996944196988
 20
283.68832403644581
 30
0.0
 40
15.0
 50
323.130099999994
 51
329.99999778722321
  0
LINE
  5
BDEE
  8
1HATCH
 10
5635.8996946324096
 20
274.6883237528304
 30
0.0
 11
5659.8996940499082
 21
274.6883235433923
 31
0.0
  0
LINE
  5
BDEF
  8
1HATCH
 10
5634.9093135216881
 20
276.18832376147333
 30
0.0
 11
5660.8900751868096
 21
276.18832353474937
 31
0.0
  0
ARC
  5
BDF0
  8
01
 10
5647.8996944196988
 20
283.68832403644581
 30
0.0
 40
15.0
 50
210.0000012127831
 51
216.869900000006
  0
LINE
  5
BDF1
  8
01
 10
5635.8996947894902
 20
274.68832354339008
 30
0.0
 11
5635.8996947894912
 21
245.68833403644641
 31
0.0
  0
ARC
  5
BDF2
  8
01
 10
5633.8996947894912
 20
245.68833403644641
 30
0.0
 40
2.0
 50
270.0
 51
0.0
  0
LINE
  5
BDF3
  8
01
 10
5659.8996940499064
 20
274.68832354339048
 30
0.0
 11
5659.8996940499064
 21
245.68833403644689
 31
0.0
  0
LINE
  5
BDF4
  8
01
 10
5630.8996944196988
 20
235.18833403644649
 30
0.0
 11
5732.3996944196997
 21
235.1883340364478
 31
0.0
  0
LINE
  5
BDF5
  8
01
 10
5629.8996944196979
 20
242.68833403644649
 30
0.0
 11
5629.8996944196997
 21
236.18833403644649
 31
0.0
  0
ARC
  5
BDF6
  8
01
 10
5630.8996944196988
 20
236.18833403644649
 30
0.0
 40
1.0
 50
180.0
 51
270.0
  0
LINE
  5
BDF7
  8
01
 10
5630.8996944196988
 20
235.18833403644649
 30
0.0
 11
5733.8996944196988
 21
235.18833403644831
 31
0.0
  0
LINE
  5
BDF8
  8
01
 10
5734.8996944196988
 20
236.18833403644831
 30
0.0
 11
5734.8996944196988
 21
242.68833403644831
 31
0.0
  0
ARC
  5
BDF9
  8
01
 10
5733.8996944196988
 20
236.18833403644831
 30
0.0
 40
1.0
 50
270.0
 51
0.0
  0
LINE
  5
BDFA
  8
01
 10
5733.8996944196988
 20
243.68833403644831
 30
0.0
 11
5630.8996944196988
 21
243.68833403644641
 31
0.0
  0
ARC
  5
BDFB
  8
01
 10
5661.8996940499073
 20
245.68833403644689
 30
0.0
 40
2.0
 50
180.0
 51
270.0
  0
ARC
  5
BDFC
  8
01
 10
5733.8996944196988
 20
242.68833403644831
 30
0.0
 40
1.0
 50
0.0
 51
90.0
  0
ARC
  5
BDFD
  8
01
 10
5630.8996944196988
 20
242.68833403644649
 30
0.0
 40
1.0
 50
90.0
 51
180.0
  0
ARC
  5
BDFE
  8
01
 10
4918.8997073516157
 20
136.1883239840505
 30
0.0
 40
630.0
 50
357.9055097513783
 51
2.0955433570653099
  0
ARC
  5
BDFF
  8
01
 10
5547.4794805896909
 20
113.19987740819541
 30
0.0
 40
1.0
 50
270.0
 51
357.9055097513783
  0
ARC
  5
BE00
  8
01
 10
5547.4790579510454
 20
159.1883239840505
 30
0.0
 40
1.0
 50
2.0955433570653099
 51
90.0
  0
ARC
  5
BE01
  8
01
 10
6170.3997073516166
 20
136.1883239840505
 30
0.0
 40
630.0
 50
177.90445664293469
 51
182.0944902486217
  0
ARC
  5
BE02
  8
01
 10
5538.554789665639
 20
122.1883241840502
 30
0.0
 40
2.0
 50
1.269314112106146
 51
90.0
  0
ARC
  5
BE03
  8
01
 10
5538.5547896745011
 20
150.1883241840502
 30
0.0
 40
2.0
 50
270.0
 51
358.73068585161673
  0
ARC
  5
BE04
  8
01
 10
5541.8199341135414
 20
113.19987740819541
 30
0.0
 40
1.0
 50
182.0944902485956
 51
270.0
  0
ARC
  5
BE05
  8
01
 10
5541.8203567521869
 20
159.1883239840505
 30
0.0
 40
1.0
 50
90.0
 51
177.90445664293469
  0
LINE
  5
BE06
  8
01
 10
5541.8203567521869
 20
160.1883239840505
 30
0.0
 11
5547.4790579510454
 21
160.1883239840505
 31
0.0
  0
LINE
  5
BE07
  8
01
 10
5541.8199341135414
 20
112.19987740819541
 30
0.0
 11
5547.4794805896909
 21
112.19987740819541
 31
0.0
  0
LINE
  5
BE08
  8
01
 10
5629.8996944200753
 20
113.1883239840507
 30
0.0
 11
5629.8996944200753
 21
159.1883239840507
 31
0.0
  0
ARC
  5
BE09
  8
01
 10
5630.8996944200762
 20
113.1883239840507
 30
0.0
 40
1.0
 50
180.0
 51
270.0
  0
LINE
  5
BE0A
  8
01
 10
5734.8996944200753
 20
113.1883239840507
 30
0.0
 11
5734.8996944200753
 21
159.1883239840507
 31
0.0
  0
LINE
  5
BE0B
  8
1DIM
 10
5509.3996944196979
 20
148.1883241840502
 30
0.0
 11
5509.3996944196242
 21
124.18832398399449
 31
0.0
  0
ARC
  5
BE31
  8
1PHANTOM
 10
5647.8996944196997
 20
283.68832403644262
 30
0.0
 40
15.0
 50
337.13009999998752
 51
343.99999778720132
  0
ARC
  5
BE32
  8
1PHANTOM
 10
5647.8996944196997
 20
283.68832403644262
 30
0.0
 40
15.0
 50
224.00000121280669
 51
230.86990000000711
  0
LINE
  5
BE33
  8
1PHANTOM
 10
5638.4334432428732
 20
272.05259936381327
 30
0.0
 11
5645.4491756767629
 21
243.91403348317809
 31
0.0
  0
ARC
  5
BE34
  8
1PHANTOM
 10
5643.5085842242106
 20
243.4301896919782
 30
0.0
 40
2.0
 50
283.99999999997749
 51
13.999999999998829
  0
LINE
  5
BE35
  8
1PHANTOM
 10
5661.7205399558816
 20
277.85872467928482
 30
0.0
 11
5668.7362723897722
 21
249.7201587986487
 31
0.0
  0
LINE
  5
BE36
  8
1PHANTOM
 10
5643.1378765903728
 20
232.51631878982101
 30
0.0
 11
5741.622892807387
 21
257.0713911931893
 31
0.0
  0
LINE
  5
BE37
  8
1PHANTOM
 10
5640.3531666470981
 20
239.5516148412911
 30
0.0
 11
5641.9256589684983
 21
233.2446926204978
 31
0.0
  0
ARC
  5
BE38
  8
1PHANTOM
 10
5642.8959546947744
 20
233.48661451609709
 30
0.0
 40
1.0
 50
193.99999999999881
 51
283.99999999997749
  0
LINE
  5
BE39
  8
1PHANTOM
 10
5643.1378765903728
 20
232.51631878982101
 30
0.0
 11
5743.0783363968003
 21
257.43427403658859
 31
0.0
  0
LINE
  5
BE3A
  8
1PHANTOM
 10
5743.8067102274772
 20
258.64649165846402
 30
0.0
 11
5742.2342179060788
 21
264.95341387925811
 31
0.0
  0
ARC
  5
BE3B
  8
1PHANTOM
 10
5742.8364145012001
 20
258.4045697628643
 30
0.0
 40
1.0
 50
283.99999999997749
 51
13.999999999998829
  0
LINE
  5
BE3C
  8
1PHANTOM
 10
5741.0220002842016
 20
265.68178770993461
 30
0.0
 11
5671.1607076335231
 21
248.2634111372966
 31
0.0
  0
LINE
  5
BE3D
  8
1PHANTOM
 10
5643.992428015411
 20
241.4895982394263
 30
0.0
 11
5641.0815404777759
 21
240.76383246316701
 31
0.0
  0
ARC
  5
BE3E
  8
1PHANTOM
 10
5670.6768638423246
 20
250.2040025898481
 30
0.0
 40
2.0
 50
193.99999999999881
 51
283.99999999997749
  0
ARC
  5
BE3F
  8
1PHANTOM
 10
5741.2639221798026
 20
264.71149198365799
 30
0.0
 40
1.0
 50
13.999999999998829
 51
103.9999999999775
  0
ARC
  5
BE40
  8
1PHANTOM
 10
5641.3234623733752
 20
239.79353673689039
 30
0.0
 40
1.0
 50
103.9999999999775
 51
193.99999999999881
  0
ARC
  5
BE41
  8
1PHANTOM
 10
5647.8996944196979
 20
283.68832403644308
 30
0.0
 40
15.0
 50
309.13009999999292
 51
315.99999778721889
  0
ARC
  5
BE42
  8
1PHANTOM
 10
5647.8996944196979
 20
283.68832403644308
 30
0.0
 40
15.0
 50
196.000001212802
 51
202.86990000001251
  0
LINE
  5
BE43
  8
1PHANTOM
 10
5634.0788488835151
 20
277.85872467928442
 30
0.0
 11
5627.0631164496253
 21
249.7201587986487
 31
0.0
  0
ARC
  5
BE44
  8
1PHANTOM
 10
5625.122524997073
 20
250.20400258984759
 30
0.0
 40
2.0
 50
256.00000000002251
 51
346.00000000000119
  0
LINE
  5
BE45
  8
1PHANTOM
 10
5657.3659455965244
 20
272.05259936381469
 30
0.0
 11
5650.3502131626337
 21
243.91403348317851
 31
0.0
  0
LINE
  5
BE46
  8
1PHANTOM
 10
5619.6714575556416
 20
240.7416632402095
 30
0.0
 11
5718.1564737726558
 21
216.18659083684491
 31
0.0
  0
LINE
  5
BE47
  8
1PHANTOM
 10
5620.5155760463631
 20
248.26080308287911
 30
0.0
 11
5618.9430837249656
 21
241.95388086208541
 31
0.0
  0
ARC
  5
BE48
  8
1PHANTOM
 10
5619.9133794512409
 20
241.71195896648561
 30
0.0
 40
1.0
 50
166.00000000000111
 51
256.00000000002251
  0
LINE
  5
BE49
  8
1PHANTOM
 10
5619.6714575556416
 20
240.7416632402095
 30
0.0
 11
5719.61191736207
 21
215.82370799344551
 31
0.0
  0
LINE
  5
BE4A
  8
1PHANTOM
 10
5720.8241349839464
 20
216.5520818241215
 30
0.0
 11
5722.3966273053438
 21
222.85900404491559
 31
0.0
  0
ARC
  5
BE4B
  8
1PHANTOM
 10
5719.8538392576702
 20
216.7940037197217
 30
0.0
 40
1.0
 50
256.00000000002251
 51
346.00000000000119
  0
LINE
  5
BE4C
  8
1PHANTOM
 10
5721.6682534746669
 20
224.0712216667915
 30
0.0
 11
5651.8069608239866
 21
241.48959823942769
 31
0.0
  0
LINE
  5
BE4D
  8
1PHANTOM
 10
5624.6386812058736
 20
248.26341113729569
 30
0.0
 11
5621.7277936682394
 21
248.9891769135555
 31
0.0
  0
ARC
  5
BE4E
  8
1PHANTOM
 10
5652.2908046151861
 20
243.43018969197911
 30
0.0
 40
2.0
 50
166.00000000000111
 51
256.00000000002251
  0
ARC
  5
BE4F
  8
1PHANTOM
 10
5721.4263315790668
 20
223.1009259405154
 30
0.0
 40
1.0
 50
346.00000000000119
 51
76.00000000002251
  0
ARC
  5
BE50
  8
1PHANTOM
 10
5621.4858717726393
 20
248.01888118727931
 30
0.0
 40
1.0
 50
76.00000000002251
 51
166.00000000000111
  0
ARC
  5
C059
  8
01
 10
5630.8996944200762
 20
159.1883239840507
 30
0.0
 40
1.0
 50
90.0
 51
180.0
  0
LINE
  5
C0BF
  8
1DIM
 10
5733.8996944200753
 20
160.1883239840507
 30
0.0
 11
5757.1996944207867
 21
160.1883239840507
 31
0.0
  0
LINE
  5
C0C0
  8
1DIM
 10
5733.8996944200753
 20
112.1883239840507
 30
0.0
 11
5757.1996944207867
 21
112.1883239840507
 31
0.0
  0
LINE
  5
C0C1
  8
1DIM
 10
5755.8996944207856
 20
157.5883239840507
 30
0.0
 11
5755.8996944207856
 21
114.78832398405071
 31
0.0
  0
LINE
  5
C0C5
  8
1DIM
 10
5647.8996944200753
 20
109.6883239842071
 30
0.0
 11
5611.5996944200751
 21
109.6883239842071
 31
0.0
  0
LINE
  5
C0C6
  8
1DIM
 10
5647.8996944200753
 20
162.68832398389341
 30
0.0
 11
5611.5996944200751
 21
162.68832398389341
 31
0.0
  0
LINE
  5
C0C7
  8
1DIM
 10
5612.8996944200753
 20
112.2883239842071
 30
0.0
 11
5612.8996944200753
 21
160.08832398389339
 31
0.0
  0
LINE
  5
C0CB
  8
1DIM
 10
5734.8996944196988
 20
236.18833403644831
 30
0.0
 11
5734.8996944196988
 21
189.1016859600179
 31
0.0
  0
LINE
  5
C0CC
  8
1DIM
 10
5629.8996944196997
 20
236.18833403644649
 30
0.0
 11
5629.8996944196997
 21
189.1016859600179
 31
0.0
  0
LINE
  5
C0CD
  8
1DIM
 10
5732.2996944196993
 20
190.401685960018
 30
0.0
 11
5632.4996944197001
 21
190.401685960018
 31
0.0
  0
LINE
  5
C0D1
  8
1DIM
 10
5647.8996944196988
 20
265.6883239840505
 30
0.0
 11
5647.8996944196988
 21
199.1016859600179
 31
0.0
  0
LINE
  5
C0D2
  8
1DIM
 10
5734.8996944196988
 20
235.18833403644831
 30
0.0
 11
5734.8996944196988
 21
199.1016859600179
 31
0.0
  0
LINE
  5
C0D3
  8
1DIM
 10
5650.4996944196992
 20
200.401685960018
 30
0.0
 11
5732.2996944196993
 21
200.401685960018
 31
0.0
  0
LINE
  5
C0D7
  8
1DIM
 10
5702.8996944196988
 20
286.1883239840505
 30
0.0
 11
5777.1996944204102
 21
286.1883239840505
 31
0.0
  0
LINE
  5
C0D8
  8
1DIM
 10
5719.8538392576702
 20
215.7940037197217
 30
0.0
 11
5777.1996944204102
 21
215.7940037197217
 31
0.0
  0
LINE
  5
C0D9
  8
1DIM
 10
5775.8996944204091
 20
283.58832398405042
 30
0.0
 11
5775.8996944204091
 21
218.3940037197217
 31
0.0
  0
LINE
  5
C0DD
  8
1DIM
 10
5702.8996944196988
 20
286.1883239840505
 30
0.0
 11
5767.1996944204102
 21
286.1883239840505
 31
0.0
  0
LINE
  5
C0DE
  8
1DIM
 10
5733.8996944196988
 20
235.18833403644831
 30
0.0
 11
5767.1996944204102
 21
235.18833403644831
 31
0.0
  0
LINE
  5
C0DF
  8
1DIM
 10
5765.89969442041
 20
283.58832398405042
 30
0.0
 11
5765.89969442041
 21
237.7883340364483
 31
0.0
  0
LINE
  5
C0E3
  8
1DIM
 10
5702.8996944196988
 20
286.1883239840505
 30
0.0
 11
5757.1996944204102
 21
286.1883239840505
 31
0.0
  0
LINE
  5
C0E4
  8
1DIM
 10
5741.2639221798026
 20
265.71149198365799
 30
0.0
 11
5757.1996944204102
 21
265.71149198365799
 31
0.0
  0
LINE
  5
C0E5
  8
1DIM
 10
5755.89969442041
 20
283.58832398405048
 30
0.0
 11
5755.89969442041
 21
268.31149198365802
 31
0.0
  0
CIRCLE
  5
C0E9
  8
1HATCH
 10
5515.8996944196979
 20
136.1883239840505
 30
0.0
 40
3.0
  0
TEXT
  5
C0EA
  8
1DIM
 10
5754.9896944204093
 20
272.53740798385508
 30
0.0
 40
4.5499999999999989
  1
20 
 50
90.0
  0
LINE
  5
C0EB
  8
0
  6
BYBLOCK
 10
5756.5963623144098
 20
268.31149198365802
 30
0.0
 11
5755.89969442041
 21
265.71149198365799
 31
0.0
  0
LINE
  5
C0EC
  8
0
  6
BYBLOCK
 10
5755.89969442041
 20
265.71149198365799
 30
0.0
 11
5755.2030265264102
 21
268.31149198365802
 31
0.0
  0
LINE
  5
C0ED
  8
0
  6
BYBLOCK
 10
5755.89969442041
 20
265.71149198365799
 30
0.0
 11
5755.89969442041
 21
268.31149198365802
 31
0.0
  0
LINE
  5
C0EE
  8
0
  6
BYBLOCK
 10
5755.2030265264102
 20
283.58832398405048
 30
0.0
 11
5755.89969442041
 21
286.1883239840505
 31
0.0
  0
LINE
  5
C0EF
  8
0
  6
BYBLOCK
 10
5755.89969442041
 20
286.1883239840505
 30
0.0
 11
5756.5963623144098
 21
283.58832398405048
 31
0.0
  0
LINE
  5
C0F0
  8
0
  6
BYBLOCK
 10
5755.89969442041
 20
286.1883239840505
 30
0.0
 11
5755.89969442041
 21
283.58832398405048
 31
0.0
  0
TEXT
  5
C0F1
  8
1DIM
 10
5764.9896944204093
 20
257.654995676917
 30
0.0
 40
4.5499999999999989
  1
51 
 50
90.0
  0
LINE
  5
C0F2
  8
0
  6
BYBLOCK
 10
5766.5963623144098
 20
237.7883340364483
 30
0.0
 11
5765.89969442041
 21
235.18833403644831
 31
0.0
  0
LINE
  5
C0F3
  8
0
  6
BYBLOCK
 10
5765.89969442041
 20
235.18833403644831
 30
0.0
 11
5765.2030265264102
 21
237.7883340364483
 31
0.0
  0
LINE
  5
C0F4
  8
0
  6
BYBLOCK
 10
5765.89969442041
 20
235.18833403644831
 30
0.0
 11
5765.89969442041
 21
237.7883340364483
 31
0.0
  0
LINE
  5
C0F5
  8
0
  6
BYBLOCK
 10
5765.2030265264102
 20
283.58832398405042
 30
0.0
 11
5765.89969442041
 21
286.1883239840505
 31
0.0
  0
LINE
  5
C0F6
  8
0
  6
BYBLOCK
 10
5765.89969442041
 20
286.1883239840505
 30
0.0
 11
5766.5963623144098
 21
283.58832398405042
 31
0.0
  0
LINE
  5
C0F7
  8
0
  6
BYBLOCK
 10
5765.89969442041
 20
286.1883239840505
 30
0.0
 11
5765.89969442041
 21
283.58832398405042
 31
0.0
  0
TEXT
  5
C0F8
  8
1DIM
 10
5774.9896944204093
 20
247.578663851887
 30
0.0
 40
4.5499999999999989
  1
70 
 50
90.0
  0
LINE
  5
C0F9
  8
0
  6
BYBLOCK
 10
5776.5963623144098
 20
218.3940037197217
 30
0.0
 11
5775.8996944204091
 21
215.7940037197217
 31
0.0
  0
LINE
  5
C0FA
  8
0
  6
BYBLOCK
 10
5775.8996944204091
 20
215.7940037197217
 30
0.0
 11
5775.2030265264102
 21
218.3940037197217
 31
0.0
  0
LINE
  5
C0FB
  8
0
  6
BYBLOCK
 10
5775.8996944204091
 20
215.7940037197217
 30
0.0
 11
5775.8996944204091
 21
218.3940037197217
 31
0.0
  0
LINE
  5
C0FC
  8
0
  6
BYBLOCK
 10
5775.2030265264102
 20
283.58832398405042
 30
0.0
 11
5775.8996944204091
 21
286.1883239840505
 31
0.0
  0
LINE
  5
C0FD
  8
0
  6
BYBLOCK
 10
5775.8996944204091
 20
286.1883239840505
 30
0.0
 11
5776.5963623144098
 21
283.58832398405042
 31
0.0
  0
LINE
  5
C0FE
  8
0
  6
BYBLOCK
 10
5775.8996944204091
 20
286.1883239840505
 30
0.0
 11
5775.8996944204091
 21
283.58832398405042
 31
0.0
  0
TEXT
  5
C0FF
  8
1DIM
 10
5687.6080277530318
 20
201.311685960018
 30
0.0
 40
4.5499999999999989
  1
87 
  0
LINE
  5
C100
  8
0
  6
BYBLOCK
 10
5732.2996944196993
 20
201.098353854018
 30
0.0
 11
5734.8996944196988
 21
200.401685960018
 31
0.0
  0
LINE
  5
C101
  8
0
  6
BYBLOCK
 10
5734.8996944196988
 20
200.401685960018
 30
0.0
 11
5732.2996944196993
 21
199.70501806601791
 31
0.0
  0
LINE
  5
C102
  8
0
  6
BYBLOCK
 10
5734.8996944196988
 20
200.401685960018
 30
0.0
 11
5732.2996944196993
 21
200.401685960018
 31
0.0
  0
LINE
  5
C103
  8
0
  6
BYBLOCK
 10
5650.4996944196992
 20
199.70501806601791
 30
0.0
 11
5647.8996944196988
 21
200.401685960018
 31
0.0
  0
LINE
  5
C104
  8
0
  6
BYBLOCK
 10
5647.8996944196988
 20
200.401685960018
 30
0.0
 11
5650.4996944196992
 21
201.098353854018
 31
0.0
  0
LINE
  5
C105
  8
0
  6
BYBLOCK
 10
5647.8996944196988
 20
200.401685960018
 30
0.0
 11
5650.4996944196992
 21
200.401685960018
 31
0.0
  0
TEXT
  5
C106
  8
1DIM
 10
5677.4705277530329
 20
191.31168596001791
 30
0.0
 40
4.5499999999999989
  1
105 
  0
LINE
  5
C107
  8
0
  6
BYBLOCK
 10
5632.4996944197001
 20
189.705018066018
 30
0.0
 11
5629.8996944196997
 21
190.401685960018
 31
0.0
  0
LINE
  5
C108
  8
0
  6
BYBLOCK
 10
5629.8996944196997
 20
190.401685960018
 30
0.0
 11
5632.4996944197001
 21
191.09835385401789
 31
0.0
  0
LINE
  5
C109
  8
0
  6
BYBLOCK
 10
5629.8996944196997
 20
190.401685960018
 30
0.0
 11
5632.4996944197001
 21
190.401685960018
 31
0.0
  0
LINE
  5
C10A
  8
0
  6
BYBLOCK
 10
5732.2996944196993
 20
191.09835385401789
 30
0.0
 11
5734.8996944196988
 21
190.401685960018
 31
0.0
  0
LINE
  5
C10B
  8
0
  6
BYBLOCK
 10
5734.8996944196988
 20
190.401685960018
 30
0.0
 11
5732.2996944196993
 21
189.705018066018
 31
0.0
  0
LINE
  5
C10C
  8
0
  6
BYBLOCK
 10
5734.8996944196988
 20
190.401685960018
 30
0.0
 11
5732.2996944196993
 21
190.401685960018
 31
0.0
  0
TEXT
  5
C10D
  8
1DIM
 10
5611.9896944200736
 20
129.21165731738449
 30
0.0
 40
4.5499999999999989
  1
âË53
 50
90.0
  0
LINE
  5
C10E
  8
0
  6
BYBLOCK
 10
5612.2030265260746
 20
160.08832398389339
 30
0.0
 11
5612.8996944200753
 21
162.68832398389341
 31
0.0
  0
LINE
  5
C10F
  8
0
  6
BYBLOCK
 10
5612.8996944200753
 20
162.68832398389341
 30
0.0
 11
5613.5963623140751
 21
160.08832398389339
 31
0.0
  0
LINE
  5
C110
  8
0
  6
BYBLOCK
 10
5612.8996944200753
 20
162.68832398389341
 30
0.0
 11
5612.8996944200753
 21
160.08832398389339
 31
0.0
  0
LINE
  5
C111
  8
0
  6
BYBLOCK
 10
5613.5963623140751
 20
112.2883239842071
 30
0.0
 11
5612.8996944200753
 21
109.6883239842071
 31
0.0
  0
LINE
  5
C112
  8
0
  6
BYBLOCK
 10
5612.8996944200753
 20
109.6883239842071
 30
0.0
 11
5612.2030265260746
 21
112.2883239842071
 31
0.0
  0
LINE
  5
C113
  8
0
  6
BYBLOCK
 10
5612.8996944200753
 20
109.6883239842071
 30
0.0
 11
5612.8996944200753
 21
112.2883239842071
 31
0.0
  0
TEXT
  5
C114
  8
1DIM
 10
5754.9896944207849
 20
132.39665731738501
 30
0.0
 40
4.5499999999999989
  1
48 
 50
90.0
  0
LINE
  5
C115
  8
0
  6
BYBLOCK
 10
5756.5963623147873
 20
114.78832398405071
 30
0.0
 11
5755.8996944207856
 21
112.1883239840507
 31
0.0
  0
LINE
  5
C116
  8
0
  6
BYBLOCK
 10
5755.8996944207856
 20
112.1883239840507
 30
0.0
 11
5755.2030265267858
 21
114.78832398405071
 31
0.0
  0
LINE
  5
C117
  8
0
  6
BYBLOCK
 10
5755.8996944207856
 20
112.1883239840507
 30
0.0
 11
5755.8996944207856
 21
114.78832398405071
 31
0.0
  0
LINE
  5
C118
  8
0
  6
BYBLOCK
 10
5755.2030265267858
 20
157.5883239840507
 30
0.0
 11
5755.8996944207856
 21
160.1883239840507
 31
0.0
  0
LINE
  5
C119
  8
0
  6
BYBLOCK
 10
5755.8996944207856
 20
160.1883239840507
 30
0.0
 11
5756.5963623147873
 21
157.5883239840507
 31
0.0
  0
LINE
  5
C11A
  8
0
  6
BYBLOCK
 10
5755.8996944207856
 20
160.1883239840507
 30
0.0
 11
5755.8996944207856
 21
157.5883239840507
 31
0.0
  0
VIEWPORT
  5
57
 67
     1
  8
0
 10
46.318400479525621
 20
143.11831739019689
 30
0.0
 40
897.79691150920223
 41
595.32199136713859
 68
     1
 69
     1
1001
ACAD
1000
MVIEW
1002
{
1070
    16
1010
0.0
1020
0.0
1030
0.0
1010
0.0
1020
0.0
1030
1.0
1040
0.0
1040
595.32199136713859
1040
46.318400479525621
1040
143.11831739019689
1040
50.0
1040
0.0
1040
0.0
1070
     0
1070
   100
1070
     1
1070
     1
1070
     0
1070
     0
1070
     0
1070
     0
1040
0.0
1040
0.0
1040
0.0
1040
10.0
1040
10.0
1040
10.0
1040
10.0
1070
     0
1002
{
1002
}
1002
}
  0
ENDSEC
  0
EOF
