  0
SECTION
  2
HEADER
  9
$ACADVER
  1
AC1009
  9
$INSBASE
 10
0.0
 20
0.0
 30
0.0
  9
$EXTMIN
 10
6031.0261608314659
 20
-35.070177253507751
 30
0.0
  9
$EXTMAX
 10
6317.4537039045017
 20
165.1061466800127
 30
0.0
  9
$LIMMIN
 10
0.0
 20
0.0
  9
$LIMMAX
 10
420.0
 20
297.0
  9
$ORTHOMODE
 70
     0
  9
$REGENMODE
 70
     1
  9
$FILLMODE
 70
     1
  9
$QTEXTMODE
 70
     0
  9
$MIRRTEXT
 70
     0
  9
$DRAGMODE
 70
     2
  9
$LTSCALE
 40
0.5
  9
$OSMODE
 70
  2175
  9
$ATTMODE
 70
     1
  9
$TEXTSIZE
 40
4.0
  9
$TRACEWID
 40
1.0
  9
$TEXTSTYLE
  7
STANDARD
  9
$CLAYER
  8
1TEXT
  9
$CELTYPE
  6
BYLAYER
  9
$CECOLOR
 62
   256
  9
$DIMSCALE
 40
1.0
  9
$DIMASZ
 40
2.0
  9
$DIMEXO
 40
0.0
  9
$DIMDLI
 40
7.0
  9
$DIMRND
 40
0.0
  9
$DIMDLE
 40
0.0
  9
$DIMEXE
 40
1.0
  9
$DIMTP
 40
0.0
  9
$DIMTM
 40
0.0
  9
$DIMTXT
 40
3.5
  9
$DIMCEN
 40
0.0
  9
$DIMTSZ
 40
0.0
  9
$DIMTOL
 70
     0
  9
$DIMLIM
 70
     0
  9
$DIMTIH
 70
     0
  9
$DIMTOH
 70
     0
  9
$DIMSE1
 70
     0
  9
$DIMSE2
 70
     0
  9
$DIMTAD
 70
     1
  9
$DIMZIN
 70
     8
  9
$DIMBLK
  1

  9
$DIMASO
 70
     1
  9
$DIMSHO
 70
     1
  9
$DIMPOST
  1
 
  9
$DIMAPOST
  1

  9
$DIMALT
 70
     0
  9
$DIMALTD
 70
     2
  9
$DIMALTF
 40
25.399999999999999
  9
$DIMLFAC
 40
1.0
  9
$DIMTOFL
 70
     1
  9
$DIMTVP
 40
0.0
  9
$DIMTIX
 70
     0
  9
$DIMSOXD
 70
     0
  9
$DIMSAH
 70
     1
  9
$DIMBLK1
  1
OPEN30
  9
$DIMBLK2
  1
OPEN30
  9
$DIMSTYLE
  2
NEWX10
  9
$DIMCLRD
 70
   256
  9
$DIMCLRE
 70
   256
  9
$DIMCLRT
 70
   201
  9
$DIMTFAC
 40
0.7
  9
$DIMGAP
 40
0.7
  9
$LUNITS
 70
     2
  9
$LUPREC
 70
     4
  9
$SKETCHINC
 40
1.0
  9
$FILLETRAD
 40
1.0
  9
$AUNITS
 70
     0
  9
$AUPREC
 70
     2
  9
$MENU
  1
acad
  9
$ELEVATION
 40
0.0
  9
$PELEVATION
 40
0.0
  9
$THICKNESS
 40
0.0
  9
$LIMCHECK
 70
     0
  9
$BLIPMODE
 70
     0
  9
$CHAMFERA
 40
10.0
  9
$CHAMFERB
 40
10.0
  9
$SKPOLY
 70
     0
  9
$TDCREATE
 40
2451318.621352917
  9
$TDUPDATE
 40
2455546.4558682288
  9
$TDINDWG
 40
0.5781487847
  9
$TDUSRTIMER
 40
0.5781487847
  9
$USRTIMER
 70
     1
  9
$ANGBASE
 50
0.0
  9
$ANGDIR
 70
     0
  9
$PDMODE
 70
     0
  9
$PDSIZE
 40
0.0
  9
$PLINEWID
 40
0.0
  9
$COORDS
 70
     2
  9
$SPLFRAME
 70
     0
  9
$SPLINETYPE
 70
     6
  9
$SPLINESEGS
 70
     8
  9
$ATTDIA
 70
     0
  9
$ATTREQ
 70
     1
  9
$HANDLING
 70
     1
  9
$HANDSEED
  5
D13F
  9
$SURFTAB1
 70
     6
  9
$SURFTAB2
 70
     6
  9
$SURFTYPE
 70
     6
  9
$SURFU
 70
     6
  9
$SURFV
 70
     6
  9
$UCSNAME
  2

  9
$UCSORG
 10
0.0
 20
0.0
 30
0.0
  9
$UCSXDIR
 10
1.0
 20
0.0
 30
0.0
  9
$UCSYDIR
 10
0.0
 20
1.0
 30
0.0
  9
$PUCSNAME
  2

  9
$PUCSORG
 10
0.0
 20
0.0
 30
0.0
  9
$PUCSXDIR
 10
1.0
 20
0.0
 30
0.0
  9
$PUCSYDIR
 10
0.0
 20
1.0
 30
0.0
  9
$USERI1
 70
     0
  9
$USERI2
 70
     0
  9
$USERI3
 70
     0
  9
$USERI4
 70
     0
  9
$USERI5
 70
     0
  9
$USERR1
 40
0.0
  9
$USERR2
 40
0.0
  9
$USERR3
 40
0.0
  9
$USERR4
 40
0.0
  9
$USERR5
 40
0.0
  9
$WORLDVIEW
 70
     1
  9
$SHADEDGE
 70
     3
  9
$SHADEDIF
 70
    70
  9
$TILEMODE
 70
     1
  9
$MAXACTVP
 70
    48
  9
$PLIMCHECK
 70
     0
  9
$PEXTMIN
 10
1.0000000000000000E+020
 20
1.0000000000000000E+020
 30
1.0000000000000000E+020
  9
$PEXTMAX
 10
-1.0000000000000000E+020
 20
-1.0000000000000000E+020
 30
-1.0000000000000000E+020
  9
$PLIMMIN
 10
0.0
 20
0.0
  9
$PLIMMAX
 10
420.0
 20
297.0
  9
$UNITMODE
 70
     0
  9
$VISRETAIN
 70
     1
  9
$PLINEGEN
 70
     0
  9
$PSLTSCALE
 70
     1
  0
ENDSEC
  0
SECTION
  2
TABLES
  0
TABLE
  2
VPORT
 70
     1
  0
VPORT
  2
*ACTIVE
 70
     0
 10
0.0
 20
0.0
 11
1.0
 21
1.0
 12
6174.2564339594883
 22
65.018052985247735
 13
0.0
 23
0.0
 14
10.0
 24
10.0
 15
10.0
 25
10.0
 16
0.0
 26
0.0
 36
1.0
 17
0.0
 27
0.0
 37
0.0
 40
214.881045997998
 41
1.4123581336696089
 42
50.0
 43
0.0
 44
0.0
 50
0.0
 51
0.0
 71
     0
 72
  1000
 73
     1
 74
     1
 75
     0
 76
     0
 77
     0
 78
     0
  0
ENDTAB
  0
TABLE
  2
LTYPE
 70
    14
  0
LTYPE
  2
CONTINUOUS
 70
     0
  3
Solid line
 72
    65
 73
     0
 40
0.0
  0
LTYPE
  2
XREF1|CENTER2
 70
    48
  3
Center (.5x) ___ _ ___ _ ___ _ ___ _ ___ _ ___
 72
    65
 73
     4
 40
28.574999999999999
 49
19.050000000000001
 49
-3.1749999999999989
 49
3.1749999999999989
 49
-3.1749999999999989
  0
LTYPE
  2
A3WAKUDAKE|CENTER2
 70
    48
  3
Center (.5x) ___ _ ___ _ ___ _ ___ _ ___ _ ___
 72
    65
 73
     4
 40
28.574999999999999
 49
19.050000000000001
 49
-3.1749999999999989
 49
3.1749999999999989
 49
-3.1749999999999989
  0
LTYPE
  2
HIDDEN
 70
     0
  3
Hidden __ __ __ __ __ __ __ __ __ __ __ __ __ _
 72
    65
 73
     2
 40
9.5249999999999986
 49
6.3499999999999988
 49
-3.1749999999999989
  0
LTYPE
  2
PHANTOM2
 70
     0
  3
Phantom (.5x) ___ _ _ ___ _ _ ___ _ _ ___ _ _
 72
    65
 73
     6
 40
31.75
 49
15.875
 49
-3.1749999999999989
 49
3.1749999999999989
 49
-3.1749999999999989
 49
3.1749999999999989
 49
-3.1749999999999989
  0
LTYPE
  2
CENTER2
 70
     0
  3
Center (.5x) ___ _ ___ _ ___ _ ___ _ ___ _ ___
 72
    65
 73
     4
 40
28.574999999999999
 49
19.050000000000001
 49
-3.1749999999999989
 49
3.1749999999999989
 49
-3.1749999999999989
  0
ENDTAB
  0
TABLE
  2
LAYER
 70
    47
  0
LAYER
  2
0
 70
     0
 62
     7
  6
CONTINUOUS
  0
LAYER
  2
1CENTER
 70
     0
 62
     7
  6
CENTER2
  0
LAYER
  2
1TEXT
 70
     0
 62
     7
  6
CONTINUOUS
  0
LAYER
  2
01
 70
     0
 62
     1
  6
CONTINUOUS
  0
LAYER
  2
1DIM
 70
     0
 62
     7
  6
CONTINUOUS
  0
LAYER
  2
A3WAKUDAKE|THICK
 70
    48
 62
     7
  6
CONTINUOUS
  0
LAYER
  2
A3WAKUDAKE|POINT
 70
    48
 62
     7
  6
CONTINUOUS
  0
LAYER
  2
A3WAKUDAKE|1CENTER
 70
    48
 62
     7
  6
A3WAKUDAKE|CENTER2
  0
LAYER
  2
A3WAKUDAKE|0-6
 70
    48
 62
     7
  6
CONTINUOUS
  0
LAYER
  2
1HIDDEN
 70
     0
 62
     7
  6
HIDDEN
  0
LAYER
  2
1PHANTOM
 70
     0
 62
     7
  6
PHANTOM2
  0
LAYER
  2
A3WAKUDAKE|1DIM
 70
    48
 62
     7
  6
CONTINUOUS
  0
LAYER
  2
XREF1|1CENTER
 70
    48
 62
     7
  6
XREF1|CENTER2
  0
ENDTAB
  0
TABLE
  2
STYLE
 70
    21
  0
STYLE
  2
STANDARD
 70
     0
 40
0.0
 41
1.0
 50
0.0
 71
     0
 42
4.0
  3
txt.shx
  4
extfont.shx
  0
ENDTAB
  0
TABLE
  2
VIEW
 70
     0
  0
ENDTAB
  0
TABLE
  2
UCS
 70
     0
  0
ENDTAB
  0
TABLE
  2
APPID
 70
    10
  0
APPID
  2
ACAD
 70
     0
  0
APPID
  2
DRAWINGVARIABLESXDATA
 70
     0
  0
APPID
  2
CONTENTTABDATA
 70
     0
  0
APPID
  2
CONTENTCURRENTTAB
 70
     0
  0
APPID
  2
CONTENTBLOCKDESCRIPTION
 70
     0
  0
APPID
  2
CONTENTBLOCKICON
 70
     0
  0
APPID
  2
CONTENTLONGBLOCKNAME
 70
     0
  0
APPID
  2
ACAD_PSEXT
 70
     0
  0
APPID
  2
ACAD_MLEADERVER
 70
     0
  0
APPID
  2
ACAD_DSTYLE_DIMRADIAL_EXTENSION
 70
     0
  0
ENDTAB
  0
TABLE
  2
DIMSTYLE
 70
     7
  0
DIMSTYLE
  2
NEWX10
 70
     0
  3
 
  4

  5

  6
OPEN30
  7
OPEN30
 40
1.0
 41
2.0
 42
0.0
 43
7.0
 44
1.0
 45
0.0
 46
0.0
 47
0.0
 48
0.0
140
3.5
141
0.0
142
0.0
143
25.399999999999999
144
1.0
145
0.0
146
0.7
147
0.7
 71
     0
 72
     0
 73
     0
 74
     0
 75
     0
 76
     0
 77
     1
 78
     8
170
     0
171
     2
172
     1
173
     1
174
     0
175
     0
176
   256
177
   256
178
   201
  0
ENDTAB
  0
ENDSEC
  0
SECTION
  2
BLOCKS
  0
BLOCK
  8
0
  2
$MODEL_SPACE
 70
     0
 10
0.0
 20
0.0
 30
0.0
  3
$MODEL_SPACE
  1

  0
ENDBLK
  5
1A
  8
0
  0
BLOCK
 67
     1
  8
0
  2
$PAPER_SPACE
 70
     0
 10
0.0
 20
0.0
 30
0.0
  3
$PAPER_SPACE
  1

  0
ENDBLK
  5
17
 67
     1
  8
0
  0
BLOCK
  8
0
  2
_OPEN30
 70
     0
 10
0.0
 20
0.0
 30
0.0
  3
_OPEN30
  1

  0
LINE
  5
44
  8
0
  6
BYBLOCK
 62
     0
 10
-1.0
 20
0.26794919
 30
0.0
 11
0.0
 21
0.0
 31
0.0
  0
LINE
  5
45
  8
0
  6
BYBLOCK
 62
     0
 10
0.0
 20
0.0
 30
0.0
 11
-1.0
 21
-0.26794919
 31
0.0
  0
LINE
  5
46
  8
0
  6
BYBLOCK
 62
     0
 10
0.0
 20
0.0
 30
0.0
 11
-1.0
 21
0.0
 31
0.0
  0
ENDBLK
  5
47
  8
0
  0
BLOCK
  8
0
  2
XREF1
 70
    36
 10
0.0
 20
0.0
 30
0.0
  3
XREF1
  1
D:\ACLT\FORMAT\KAWAJUN(9)図面用.dwg
  0
ENDBLK
  5
5D
  8
0
  0
BLOCK
  8
0
  2
A3WAKUDAKE
 70
    36
 10
0.0
 20
0.0
 30
0.0
  3
A3WAKUDAKE
  1
D:\ACLT\FORMAT\A3WAKUdake.dwg
  0
ENDBLK
  5
6A0
  8
0
  0
BLOCK
  8
0
  2
*U15
 70
     1
 10
0.0
 20
0.0
 30
0.0
  3
*U15
  1

  0
TEXT
  5
D120
  8
1DIM
 62
   201
 10
6139.689611382415
 20
-1.718853319986247
 30
0.0
 40
4.5499999999999989
  1
□55
 50
90.0
  0
ENDBLK
  5
D122
  8
0
  0
BLOCK
  8
0
  2
*U16
 70
     1
 10
0.0
 20
0.0
 30
0.0
  3
*U16
  1

  0
TEXT
  5
D124
  8
1DIM
 62
   201
 10
6295.2437039045008
 20
1.314480013347606
 30
0.0
 40
4.5499999999999989
  1
35
 50
90.0
  0
ENDBLK
  5
D126
  8
0
  0
BLOCK
  8
0
  2
*U17
 70
     1
 10
0.0
 20
0.0
 30
0.0
  3
*U17
  1

  0
TEXT
  5
D128
  8
1DIM
 62
   201
 10
6295.2437039045008
 20
143.14304993912711
 30
0.0
 40
4.5499999999999989
  1
18
 50
90.0
  0
ENDBLK
  5
D12A
  8
0
  0
BLOCK
  8
0
  2
*U18
 70
     1
 10
0.0
 20
0.0
 30
0.0
  3
*U18
  1

  0
TEXT
  5
D12C
  8
1DIM
 62
   201
 10
6305.2437039045008
 20
124.6973759412776
 30
0.0
 40
4.5499999999999989
  1
53
 50
90.0
  0
ENDBLK
  5
D12E
  8
0
  0
BLOCK
  8
0
  2
*U19
 70
     1
 10
0.0
 20
0.0
 30
0.0
  3
*U19
  1

  0
TEXT
  5
D130
  8
1DIM
 62
   201
 10
6315.2437039045017
 20
115.17063510853851
 30
0.0
 40
4.5499999999999989
  1
72
 50
90.0
  0
ENDBLK
  5
D132
  8
0
  0
BLOCK
  8
0
  2
*U20
 70
     1
 10
0.0
 20
0.0
 30
0.0
  3
*U20
  1

  0
TEXT
  5
D134
  8
1DIM
 62
   201
 10
6228.3624083925324
 20
53.728456870395668
 30
0.0
 40
4.5499999999999989
  1
98
  0
ENDBLK
  5
D136
  8
0
  0
BLOCK
  8
0
  2
*U21
 70
     1
 10
0.0
 20
0.0
 30
0.0
  3
*U21
  1

  0
TEXT
  5
D138
  8
1DIM
 62
   201
 10
6212.8461128805666
 20
43.728456870395668
 30
0.0
 40
4.5499999999999989
  1
126
  0
ENDBLK
  5
D13A
  8
0
  0
BLOCK
  8
0
  2
*U22
 70
     1
 10
0.0
 20
0.0
 30
0.0
  3
*U22
  1

  0
TEXT
  5
D13C
  8
1DIM
 62
   201
 10
6139.689611382415
 20
147.33114668001369
 30
0.0
 40
4.5499999999999989
  1
11
 50
90.0
  0
ENDBLK
  5
D13E
  8
0
  0
ENDSEC
  0
SECTION
  2
ENTITIES
  0
LINE
  5
CE4F
  8
1CENTER
 10
6183.1544462138972
 20
-0.8938533199872438
 30
0.0
 11
6183.1544462138972
 21
11.106146680012751
 31
0.0
  0
LINE
  5
CE50
  8
1CENTER
 10
6177.1544462138972
 20
5.1061466800127562
 30
0.0
 11
6189.1544462138982
 21
5.1061466800127562
 31
0.0
  0
LINE
  5
CE51
  8
1CENTER
 10
6031.0261608314659
 20
5.1061466800127562
 30
0.0
 11
6053.6544462138972
 21
5.1061466800127562
 31
0.0
  0
LINE
  5
CE52
  8
01
 10
6143.1544462138972
 20
155.1061466800127
 30
0.0
 11
6238.1544462138972
 21
155.1061466800127
 31
0.0
  0
LINE
  5
CE53
  8
01
 10
6033.1544462138972
 20
45.282470613533263
 30
0.0
 11
6033.1544462138972
 21
-35.070177253507751
 31
0.0
  0
LINE
  5
CE5F
  8
1CENTER
 10
6167.1544462138972
 20
137.10614668001301
 30
0.0
 11
6175.1544462138972
 21
137.10614668001301
 31
0.0
  0
LINE
  5
CE6D
  8
1CENTER
 10
6183.1544462138972
 20
157.23443206244411
 30
0.0
 11
6183.1544462138972
 21
134.6061466800127
 31
0.0
  0
POINT
  5
CE6E
  8
01
 10
6051.1544462138972
 20
5.1061466800127562
 30
0.0
  0
LINE
  5
CE6F
  8
01
 10
6050.7544462038977
 20
3.3561466800127562
 30
0.0
 11
6050.7544462038977
 21
4.2061467000129076
 31
0.0
  0
LINE
  5
CE70
  8
01
 10
6051.5544462238968
 20
3.3561466800127562
 30
0.0
 11
6051.5544462238968
 21
4.2061467000129076
 31
0.0
  0
LINE
  5
CE71
  8
01
 10
6050.2544462338974
 20
4.7061466700127701
 30
0.0
 11
6049.4044462138972
 21
4.7061466700127701
 31
0.0
  0
LINE
  5
CE72
  8
01
 10
6050.2544462338974
 20
5.5061466900127414
 30
0.0
 11
6049.4044462138972
 21
5.5061466900127414
 31
0.0
  0
LINE
  5
CE73
  8
01
 10
6049.4044462138972
 20
4.7061466700127701
 30
0.0
 11
6049.4044462138972
 21
5.5061466900127414
 31
0.0
  0
LINE
  5
CE74
  8
01
 10
6051.5544462238968
 20
3.3561466800127562
 30
0.0
 11
6050.7544462038977
 21
3.3561466800127562
 31
0.0
  0
LINE
  5
CE75
  8
01
 10
6051.5544462238968
 20
6.8561466800127562
 30
0.0
 11
6051.5544462238968
 21
6.006146660012603
 31
0.0
  0
LINE
  5
CE76
  8
01
 10
6050.7544462038977
 20
6.8561466800127562
 30
0.0
 11
6050.7544462038977
 21
6.006146660012603
 31
0.0
  0
LINE
  5
CE77
  8
01
 10
6052.0544461938971
 20
5.5061466900127414
 30
0.0
 11
6052.9044462138972
 21
5.5061466900127414
 31
0.0
  0
LINE
  5
CE78
  8
01
 10
6052.0544461938971
 20
4.7061466700127701
 30
0.0
 11
6052.9044462138972
 21
4.7061466700127701
 31
0.0
  0
LINE
  5
CE79
  8
01
 10
6052.9044462138972
 20
5.5061466900127414
 30
0.0
 11
6052.9044462138972
 21
4.7061466700127701
 31
0.0
  0
LINE
  5
CE7A
  8
01
 10
6050.7544462038977
 20
6.8561466800127562
 30
0.0
 11
6051.5544462238968
 21
6.8561466800127562
 31
0.0
  0
CIRCLE
  5
CE7B
  8
01
 10
6051.1544462138972
 20
5.1061466800127562
 30
0.0
 40
2.5
  0
ARC
  5
CE7C
  8
01
 10
6052.0544461938971
 20
6.006146660012603
 30
0.0
 40
0.5
 50
179.999989999999
 51
270.0
  0
ARC
  5
CE7D
  8
01
 10
6052.0544461938971
 20
4.2061467000129076
 30
0.0
 40
0.5
 50
90.000002999984659
 51
180.000010000001
  0
ARC
  5
CE7E
  8
01
 10
6050.2544462338974
 20
4.2061467000129076
 30
0.0
 40
0.5
 50
0.0
 51
90.000002999984659
  0
ARC
  5
CE7F
  8
01
 10
6050.2544462338974
 20
6.006146660012603
 30
0.0
 40
0.5
 50
270.0
 51
0.0
  0
TEXT
  5
CE87
  8
1TEXT
 10
6033.1544462138972
 20
155.1061466800127
 30
0.0
 40
10.0
  1
R5Ｔ
 41
1.017187499999999
  0
CIRCLE
  5
CE89
  8
1HIDDEN
 10
6183.1544462138972
 20
5.1061466800127562
 30
0.0
 40
15.30000000000021
  0
LINE
  5
CE8A
  8
01
 10
6210.6544462138972
 20
32.106146680012699
 30
0.0
 11
6210.6544462138972
 21
-21.893853319987301
 31
0.0
  0
LINE
  5
CE8B
  8
01
 10
6155.6544462138982
 20
-21.893853319987301
 30
0.0
 11
6155.6544462138982
 21
-12.011887308740899
 31
0.0
  0
LINE
  5
CE8C
  8
01
 10
6210.1544462138982
 20
32.606146680012699
 30
0.0
 11
6156.1544462138982
 21
32.606146680012699
 31
0.0
  0
ARC
  5
CE8D
  8
01
 10
6156.1544462138982
 20
32.106146680012699
 30
0.0
 40
0.5
 50
90.0
 51
180.0
  0
ARC
  5
CE8E
  8
01
 10
6210.1544462138982
 20
32.106146680012699
 30
0.0
 40
0.5
 50
0.0
 51
90.0
  0
LINE
  5
CE8F
  8
01
 10
6210.1544462138982
 20
-22.393853319987301
 30
0.0
 11
6156.1544462138972
 21
-22.393853319987301
 31
0.0
  0
ARC
  5
CE90
  8
01
 10
6156.1544462138982
 20
-21.893853319987251
 30
0.0
 40
0.5
 50
180.0
 51
270.0
  0
ARC
  5
CE91
  8
01
 10
6210.1544462138982
 20
-21.893853319987301
 30
0.0
 40
0.5
 50
270.0
 51
0.0
  0
LINE
  5
CE92
  8
01
 10
6033.1544462138972
 20
32.606146680012763
 30
0.0
 11
6033.1544462138972
 21
-22.39385331998724
 31
0.0
  0
LINE
  5
CE93
  8
01
 10
6044.6544462138972
 20
32.10614668001265
 30
0.0
 11
6044.6544462138972
 21
-21.893853319987361
 31
0.0
  0
LINE
  5
CE94
  8
01
 10
6044.1544462138982
 20
32.606146680012529
 30
0.0
 11
6033.1544462138991
 21
32.606146680012763
 31
0.0
  0
ARC
  5
CE95
  8
01
 10
6044.1544462138982
 20
32.10614668001265
 30
0.0
 40
0.5
 50
0.0
 51
90.0
  0
LINE
  5
CE96
  8
01
 10
6044.1544462138972
 20
-22.393853319987361
 30
0.0
 11
6033.1544462138972
 21
-22.39385331998724
 31
0.0
  0
ARC
  5
CE97
  8
01
 10
6044.1544462138972
 20
-21.893853319987361
 30
0.0
 40
0.5
 50
270.0
 51
0.0
  0
LINE
  5
CE98
  8
01
 10
6210.6544462138972
 20
155.1061466800127
 30
0.0
 11
6155.6544462138982
 21
155.1061466800127
 31
0.0
  0
LINE
  5
CE99
  8
01
 10
6210.1544462138982
 20
143.6061466800127
 30
0.0
 11
6156.1544462138972
 21
143.6061466800127
 31
0.0
  0
LINE
  5
CE9A
  8
01
 10
6210.6544462138963
 20
144.10614668001179
 30
0.0
 11
6210.6544462138972
 21
155.10614668001179
 31
0.0
  0
ARC
  5
CE9B
  8
01
 10
6210.1544462138982
 20
144.10614668001179
 30
0.0
 40
0.5
 50
270.0
 51
0.0
  0
LINE
  5
CE9C
  8
01
 10
6155.6544462138982
 20
144.1061466800127
 30
0.0
 11
6155.6544462138982
 21
155.1061466800127
 31
0.0
  0
ARC
  5
CE9D
  8
01
 10
6156.1544462138972
 20
144.1061466800127
 30
0.0
 40
0.5
 50
180.0
 51
270.0
  0
LINE
  5
CEB3
  8
1CENTER
 10
6183.1544462138972
 20
-0.8938533199870165
 30
0.0
 11
6183.1544462138972
 21
11.10614668001298
 31
0.0
  0
LINE
  5
CEB4
  8
1CENTER
 10
6177.1544462138972
 20
5.1061466800129827
 30
0.0
 11
6189.1544462138982
 21
5.1061466800129827
 31
0.0
  0
LINE
  5
CEB8
  8
01
 10
6155.1544462138918
 20
21.106146680013211
 30
0.0
 11
6155.1544462138918
 21
-10.893853319986791
 31
0.0
  0
ARC
  5
CEB9
  8
01
 10
6156.6544462138927
 20
-10.893853319986791
 30
0.0
 40
1.5
 50
180.0
 51
270.0
  0
LINE
  5
CEBA
  8
01
 10
6156.6544462138927
 20
-12.393853319986791
 30
0.0
 11
6279.6544462138927
 21
-12.39385331998667
 31
0.0
  0
LINE
  5
CEBB
  8
01
 10
6281.1544462138927
 20
-10.89385331998667
 30
0.0
 11
6281.1544462138927
 21
21.106146680013211
 31
0.0
  0
ARC
  5
CEBC
  8
01
 10
6279.6544462138927
 20
-10.89385331998667
 30
0.0
 40
1.5
 50
270.0
 51
0.0
  0
LINE
  5
CEBD
  8
01
 10
6279.6544462138927
 20
22.606146680013211
 30
0.0
 11
6156.6544462138927
 21
22.606146680013211
 31
0.0
  0
ARC
  5
CEBE
  8
01
 10
6156.6544462138927
 20
21.106146680013211
 30
0.0
 40
1.5
 50
90.0
 51
180.0
  0
ARC
  5
CEBF
  8
01
 10
6279.6544462138927
 20
21.106146680013211
 30
0.0
 40
1.5
 50
0.0
 51
90.0
  0
LINE
  5
CEC1
  8
1CENTER
 10
6183.1544462138972
 20
-0.8938533199871301
 30
0.0
 11
6183.1544462138972
 21
11.10614668001287
 31
0.0
  0
LINE
  5
CEC2
  8
1CENTER
 10
6177.1544462138972
 20
5.106146680012869
 30
0.0
 11
6189.1544462138982
 21
5.106146680012869
 31
0.0
  0
LINE
  5
CEED
  8
1CENTER
 10
6167.1544462138972
 20
137.1061466800129
 30
0.0
 11
6175.1544462138972
 21
137.1061466800129
 31
0.0
  0
ARC
  5
CEF1
  8
01
 10
6150.8230800979518
 20
37.233487312851757
 30
0.0
 40
80.0
 50
58.052493300227503
 51
86.896369952304696
  0
ARC
  5
CEF2
  8
01
 10
6155.679800697123
 20
117.5868460791261
 30
0.0
 40
0.5
 50
177.00000000002061
 51
266.54113436123862
  0
ARC
  5
CEF3
  8
01
 10
6192.7495675065456
 20
107.70454274397891
 30
0.0
 40
2.0
 50
239.24963059580261
 51
261.41594948663919
  0
ARC
  5
CEF4
  8
01
 10
6193.8562602843976
 20
107.0342423448771
 30
0.0
 40
2.0
 50
238.3455642752219
 51
261.6455840244908
  0
ARC
  5
CEF5
  8
01
 10
6150.8230800979518
 20
37.233487312851757
 30
0.0
 40
87.0
 50
57.994247127650162
 51
86.904708010132595
  0
LINE
  5
CEF6
  8
01
 10
6171.1544462139
 20
143.6161466800117
 30
0.0
 11
6195.1544462139009
 21
143.6161466800117
 31
0.0
  0
LINE
  5
CEF7
  8
01
 10
6195.1544462142783
 20
143.61614667993689
 30
0.0
 11
6195.1544462142783
 21
131.76640360551249
 31
0.0
  0
ARC
  5
CEF8
  8
01
 10
6183.1544462139009
 20
152.61614668001209
 30
0.0
 40
15.0
 50
323.13010235416118
 51
329.9558838782475
  0
ARC
  5
CEF9
  8
01
 10
6196.1544462142774
 20
143.2887676274481
 30
0.0
 40
1.0
 50
144.34091230618441
 51
180.0
  0
LINE
  5
CEFA
  8
01
 10
6171.1544462142774
 20
143.61614667993689
 30
0.0
 11
6171.1544462142774
 21
140.15796103567641
 31
0.0
  0
ARC
  5
CEFB
  8
01
 10
6159.1544462142774
 20
136.1058793746376
 30
0.0
 40
12.0
 50
270.0
 51
350.3382540381125
  0
ARC
  5
CEFC
  8
01
  6
BYBLOCK
 10
6171.2799798509568
 20
134.04155526593991
 30
0.0
 40
0.3
 50
160.98043439168649
 51
170.3382540381061
  0
ARC
  5
CEFD
  8
01
 10
6183.1544462139009
 20
152.61614668001209
 30
0.0
 40
15.0
 50
210.0441161217525
 51
216.86989764582711
  0
ARC
  5
CEFE
  8
01
 10
6170.1544462142783
 20
143.2887676263986
 30
0.0
 40
1.0
 50
0.0
 51
35.659087698462223
  0
LINE
  5
CEFF
  8
01
 10
6155.5334407490463
 20
124.1058793746376
 30
0.0
 11
6159.1544462142774
 21
124.1058793746376
 31
0.0
  0
ARC
  5
CF00
  8
01
 10
6156.4697271489295
 20
123.1058793746376
 30
0.0
 40
1.0
 50
90.0
 51
177.00000000000111
  0
ARC
  5
CF01
  8
01
 10
6237.1544462138991
 20
401.87193853587382
 30
0.0
 40
300.0
 50
261.56619590207112
 51
278.43380409792888
  0
ARC
  5
CF02
  8
01
 10
6280.5727352690628
 20
105.5358081441813
 30
0.0
 40
0.5
 50
278.33549827390249
 51
10.00000000000983
  0
ARC
  5
CF03
  8
01
 10
6237.1544462138991
 20
401.87193853587382
 30
0.0
 40
299.5
 50
261.34040001518929
 51
278.43380409792888
  0
ARC
  5
CF04
  8
01
 10
6280.4858744678668
 20
106.0284202268342
 30
0.0
 40
0.5
 50
278.33271404088822
 51
10.00000000000983
  0
ARC
  5
CF05
  8
01
 10
6237.1544462138991
 20
401.87193853587382
 30
0.0
 40
295.5
 50
263.82780705237639
 51
278.4099473201083
  0
ARC
  5
CF06
  8
01
 10
6265.4335334917587
 20
109.7374776745591
 30
0.0
 40
2.0
 50
240.0000000000002
 51
275.52909663923509
  0
ARC
  5
CF07
  8
01
 10
6270.8758626421377
 20
110.31556993097909
 30
0.0
 40
2.0
 50
276.5975165611203
 51
345.00000000000563
  0
ARC
  5
CF08
  8
01
 10
6237.1544462138991
 20
401.87193853587382
 30
0.0
 40
291.0
 50
265.34355794616363
 51
274.13834422035109
  0
ARC
  5
CF09
  8
01
 10
6257.9201109191254
 20
110.61125260426709
 30
0.0
 40
1.0
 50
60.000000000000277
 51
94.078048295476975
  0
ARC
  5
CF0A
  8
01
 10
6237.1544462138991
 20
401.87193853587382
 30
0.0
 40
291.0
 50
277.10634339786742
 51
277.74932952358142
  0
ARC
  5
CF0B
  8
01
 10
6275.8571227131042
 20
111.9437528901905
 30
0.0
 40
1.5
 50
44.999999999998849
 51
97.603494382054436
  0
ARC
  5
CF0C
  8
01
 10
6274.1544462139018
 20
112.2256024637603
 30
0.0
 40
1.0
 50
97.279651374046495
 51
180.0
  0
ARC
  5
CF0D
  8
01
 10
6215.1544462142783
 20
131.76640360551249
 30
0.0
 40
20.0
 50
180.0
 51
265.34355794616363
  0
ARC
  5
CF0E
  8
01
 10
6207.5335520917743
 20
127.9689399553437
 30
0.0
 40
20.0
 50
237.9942471276502
 51
263.82780705237639
  0
LINE
  5
CF0F
  8
01
 10
6281.1544462139027
 20
105.1161466800115
 30
0.0
 11
6280.3727329296371
 21
109.5494630172163
 31
0.0
  0
LINE
  5
CF10
  8
01
 10
6155.1544462139063
 20
117.1161466800109
 30
0.0
 11
6155.5207984586241
 21
124.1065639373377
 31
0.0
  0
LINE
  5
CF11
  8
01
 10
6273.1544462139027
 20
111.0919529797842
 30
0.0
 11
6272.8077142947159
 21
109.7979318407742
 31
0.0
  0
LINE
  5
CF12
  8
01
 10
6258.1544462139018
 20
111.6306595971264
 30
0.0
 11
6264.9874137409852
 21
107.6856439560004
 31
0.0
  0
LINE
  5
CF13
  8
01
 10
6280.372732929638
 20
109.5494630172163
 30
0.0
 11
6276.3926927370794
 21
113.52950320977421
 31
0.0
  0
ARC
  5
CF14
  8
01
 10
6278.5126195438324
 20
108.581149278276
 30
0.0
 40
2.0
 50
9.9999999999986091
 51
44.999999999998849
  0
LINE
  5
CF15
  8
01
 10
6273.1544462139027
 20
111.0919529797842
 30
0.0
 11
6273.1544462139027
 21
113.107328515879
 31
0.0
  0
ARC
  5
CF16
  8
01
 10
6161.5999247138507
 20
137.3783634848121
 30
0.0
 40
9.9390310355498492
 50
340.98043439169572
 51
15.751804477415821
  0
ARC
  5
CF17
  8
01
 10
6171.4544462142767
 20
140.15796103567649
 30
0.0
 40
0.3
 50
180.0000000000195
 51
195.75180447740951
  0
ARC
  5
CF18
  8
1PHANTOM
 10
6179.694632301409
 20
32.838882988863531
 30
0.0
 40
80.0
 50
72.052493300224853
 51
100.8963699523016
  0
ARC
  5
CF19
  8
1PHANTOM
 10
6164.9678506719629
 20
111.9803506454508
 30
0.0
 40
0.5
 50
191.00000000002549
 51
280.54113436123828
  0
ARC
  5
CF1A
  8
1PHANTOM
 10
6179.694632301409
 20
32.838882988863531
 30
0.0
 40
87.0
 50
71.994247127649857
 51
100.90470801013259
  0
LINE
  5
CF1B
  8
1PHANTOM
 10
6173.68577534003
 20
140.9801253535949
 30
0.0
 11
6196.9728727706542
 21
146.78625084798719
 31
0.0
  0
LINE
  5
CF1C
  8
1PHANTOM
 10
6196.9728727710381
 20
146.78625084800561
 30
0.0
 11
6199.8395850779698
 21
135.28849578542321
 31
0.0
  0
ARC
  5
CF1D
  8
1PHANTOM
 10
6198.0223686582704
 20
146.71051824810331
 30
0.0
 40
1.0
 50
158.34091230618009
 51
194.0000000000035
  0
LINE
  5
CF1E
  8
1PHANTOM
 10
6173.6857753404129
 20
140.98012535361349
 30
0.0
 11
6174.5223861668092
 21
137.62466260231861
 31
0.0
  0
ARC
  5
CF1F
  8
1PHANTOM
 10
6163.8591247280592
 20
130.7898823368954
 30
0.0
 40
12.0
 50
284.00000000000279
 51
4.3382540381181451
  0
ARC
  5
CF20
  8
01
  6
BYBLOCK
 10
6176.1238833960551
 20
131.72030955912069
 30
0.0
 40
0.3
 50
174.980434391682
 51
184.33825403810511
  0
ARC
  5
CF21
  8
1PHANTOM
 10
6172.7946797753502
 20
140.42054896149341
 30
0.0
 40
1.0
 50
14.00000000000356
 51
49.659087698456318
  0
LINE
  5
CF22
  8
1PHANTOM
 10
6163.2487413475192
 20
118.2703331154577
 30
0.0
 11
6166.7621874752558
 21
119.14633362158349
 31
0.0
  0
ARC
  5
CF23
  8
1PHANTOM
 10
6164.3991379354957
 20
117.5265455698656
 30
0.0
 40
1.0
 50
104.0000000000028
 51
190.99999999999869
  0
ARC
  5
CF24
  8
1PHANTOM
 10
6175.2475625588804
 20
407.53146158693869
 30
0.0
 40
300.0
 50
275.56619590207072
 51
292.43380409792752
  0
ARC
  5
CF25
  8
1PHANTOM
 10
6289.0663412703489
 20
130.501615518633
 30
0.0
 40
0.5
 50
292.33549827390129
 51
24.000000000003581
  0
ARC
  5
CF26
  8
1PHANTOM
 10
6175.2475625588804
 20
407.53146158693869
 30
0.0
 40
299.5
 50
275.34040001518991
 51
292.43380409792752
  0
ARC
  5
CF27
  8
1PHANTOM
 10
6288.8628869573386
 20
130.95858138746431
 30
0.0
 40
0.5
 50
292.33271404088799
 51
24.000000000003581
  0
ARC
  5
CF28
  8
1PHANTOM
 10
6175.2475625588804
 20
407.53146158693869
 30
0.0
 40
295.5
 50
277.82780705237849
 51
292.40994732010711
  0
ARC
  5
CF29
  8
1PHANTOM
 10
6273.3603626291297
 20
130.91597311535151
 30
0.0
 40
2.0
 50
253.99999999999841
 51
289.5290966392364
  0
ARC
  5
CF2A
  8
1PHANTOM
 10
6278.5011781702251
 20
132.7935121456859
 30
0.0
 40
2.0
 50
290.59751656112007
 51
359.00000000001131
  0
ARC
  5
CF2B
  8
1PHANTOM
 10
6175.2475625588804
 20
407.53146158693869
 30
0.0
 40
291.0
 50
279.34355794615999
 51
288.1383442203533
  0
ARC
  5
CF2C
  8
1PHANTOM
 10
6265.858735529876
 20
129.94613176416121
 30
0.0
 40
1.0
 50
73.999999999998337
 51
108.07804829547339
  0
ARC
  5
CF2D
  8
1PHANTOM
 10
6175.2475625588804
 20
407.53146158693869
 30
0.0
 40
291.0
 50
291.10634339786913
 51
291.74932952357932
  0
ARC
  5
CF2E
  8
1PHANTOM
 10
6282.9405804206781
 20
135.5784069914472
 30
0.0
 40
1.5
 50
58.999999999997137
 51
111.60349438205731
  0
ARC
  5
CF2F
  8
1PHANTOM
 10
6281.2202951071604
 20
135.43996970185501
 30
0.0
 40
1.0
 50
111.27965137404451
 51
194.0000000000035
  0
ARC
  5
CF30
  8
1PHANTOM
 10
6219.2454996034912
 20
140.1269336974164
 30
0.0
 40
20.0
 50
194.0000000000035
 51
279.34355794615999
  0
ARC
  5
CF31
  8
1PHANTOM
 10
6212.7696682107426
 20
134.598609794689
 30
0.0
 40
20.0
 50
251.9942471276498
 51
277.82780705237849
  0
LINE
  5
CF32
  8
1PHANTOM
 10
6289.732298210979
 20
130.23514840793311
 30
0.0
 11
6287.9012888599927
 21
134.3476627436072
 31
0.0
  0
LINE
  5
CF33
  8
1PHANTOM
 10
6164.5719739530114
 20
111.396538277687
 30
0.0
 11
6163.2363089764467
 21
118.26793889685651
 31
0.0
  0
LINE
  5
CF34
  8
1PHANTOM
 10
6280.524254012993
 20
134.09807255685811
 30
0.0
 11
6280.5008735605379
 21
132.75860733281129
 31
0.0
  0
LINE
  5
CF35
  8
1PHANTOM
 10
6265.8394931928124
 20
130.99194885138689
 30
0.0
 11
6273.4238780441983
 21
128.8171614914335
 31
0.0
  0
LINE
  5
CF36
  8
1PHANTOM
 10
6287.9012888599937
 20
134.34766274360749
 30
0.0
 11
6283.0766140028009
 21
137.24661986490639
 31
0.0
  0
ARC
  5
CF37
  8
1PHANTOM
 10
6286.3306850866184
 20
132.95810990469491
 30
0.0
 40
2.0
 50
24.000000000003581
 51
58.999999999997137
  0
LINE
  5
CF38
  8
1PHANTOM
 10
6280.524254012993
 20
134.09807255685811
 30
0.0
 11
6280.0366905429564
 21
136.05358282637201
 31
0.0
  0
ARC
  5
CF39
  8
1PHANTOM
 10
6165.9241202968424
 20
132.6161830250168
 30
0.0
 40
9.9390310355498492
 50
354.98043439169498
 51
29.751804477413721
  0
ARC
  5
CF3A
  8
1PHANTOM
 10
6123.8722873924526
 20
48.48221374505664
 30
0.0
 40
80.0
 50
44.052493300231589
 51
72.896369952306372
  0
ARC
  5
CF3B
  8
1PHANTOM
 10
6148.0239795040816
 20
125.2737872941449
 30
0.0
 40
0.5
 50
163.00000000001921
 51
252.5411343612401
  0
ARC
  5
CF3C
  8
1PHANTOM
 10
6123.8722873924526
 20
48.48221374505664
 30
0.0
 40
87.0
 50
43.994247127655584
 51
72.904708010131117
  0
LINE
  5
CF3D
  8
1PHANTOM
 10
6169.3360196571484
 20
146.7862508479854
 30
0.0
 11
6192.6231170877718
 21
140.98012535359351
 31
0.0
  0
LINE
  5
CF3E
  8
1PHANTOM
 10
6192.6231170881183
 20
140.9801253534298
 30
0.0
 11
6189.7564047811848
 21
129.4823702908474
 31
0.0
  0
ARC
  5
CF3F
  8
1PHANTOM
 10
6193.5142126534374
 20
140.4205489623281
 30
0.0
 40
1.0
 50
130.34091230619151
 51
165.99999999999639
  0
LINE
  5
CF40
  8
1PHANTOM
 10
6169.3360196574949
 20
146.78625084782189
 30
0.0
 11
6168.4994088311014
 21
143.43078809652701
 31
0.0
  0
ARC
  5
CF41
  8
1PHANTOM
 10
6155.8755728392252
 20
142.40213332549561
 30
0.0
 40
12.0
 50
255.99999999999719
 51
336.33825403811932
  0
ARC
  5
CF42
  8
1PHANTOM
 10
6168.2865237700071
 20
146.71051824690099
 30
0.0
 40
1.0
 50
345.99999999999642
 51
21.659087698459821
  0
LINE
  5
CF43
  8
1PHANTOM
 10
6149.459063964292
 20
131.6345851163093
 30
0.0
 11
6152.9725100920286
 21
130.7585846101837
 31
0.0
  0
ARC
  5
CF44
  8
1PHANTOM
 10
6150.1256167610691
 20
130.43778120934951
 30
0.0
 40
1.0
 50
75.999999999997215
 51
163.00000000000489
  0
ARC
  5
CF45
  8
1PHANTOM
 10
6295.8532683067242
 20
381.40389686217441
 30
0.0
 40
300.0
 50
247.56619590207299
 51
264.43380409792928
  0
ARC
  5
CF46
  8
1PHANTOM
 10
6266.2916502201379
 20
83.366381210029147
 30
0.0
 40
0.5
 50
264.33549827389982
 51
356.00000000001648
  0
ARC
  5
CF47
  8
1PHANTOM
 10
6295.8532683067242
 20
381.40389686217441
 30
0.0
 40
299.5
 50
247.34040001519091
 51
264.43380409792928
  0
ARC
  5
CF48
  8
1PHANTOM
 10
6266.3265432047883
 20
83.865374138217405
 30
0.0
 40
0.5
 50
264.33271404088941
 51
356.00000000001648
  0
ARC
  5
CF49
  8
1PHANTOM
 10
6295.8532683067242
 20
381.40389686217441
 30
0.0
 40
295.5
 50
249.8278070523746
 51
264.4099473201116
  0
ARC
  5
CF4A
  8
1PHANTOM
 10
6252.6186232938617
 20
91.105747590409862
 30
0.0
 40
2.0
 50
226.0000000000056
 51
261.52909663923612
  0
ARC
  5
CF4B
  8
1PHANTOM
 10
6258.039145183966
 20
90.350049451670586
 30
0.0
 40
2.0
 50
262.5975165611174
 51
331.00000000000239
  0
ARC
  5
CF4C
  8
1PHANTOM
 10
6295.8532683067242
 20
381.40389686217441
 30
0.0
 40
291.0
 50
251.3435579461601
 51
260.13834422034921
  0
ARC
  5
CF4D
  8
1PHANTOM
 10
6295.8532683067242
 20
381.40389686217441
 30
0.0
 40
291.0
 50
263.10634339786537
 51
263.74932952358017
  0
ARC
  5
CF4E
  8
1PHANTOM
 10
6263.2663336501701
 20
90.724792539745678
 30
0.0
 40
1.5
 50
31.000000000000341
 51
83.603494382055246
  0
ARC
  5
CF4F
  8
1PHANTOM
 10
6261.6824195028767
 20
91.410184702712911
 30
0.0
 40
1.0
 50
83.279651374046509
 51
165.99999999999639
  0
ARC
  5
CF50
  8
1PHANTOM
 10
6209.1623193067062
 20
124.643932378854
 30
0.0
 40
20.0
 50
165.99999999999639
 51
251.3435579461601
  0
ARC
  5
CF51
  8
1PHANTOM
 10
6200.8491087045177
 20
122.80293078068701
 30
0.0
 40
20.0
 50
223.9942471276556
 51
249.8278070523746
  0
LINE
  5
CF52
  8
1PHANTOM
 10
6266.7545565669216
 20
82.818456870395664
 30
0.0
 11
6267.068579800115
 21
87.309198325159926
 31
0.0
  0
LINE
  5
CF53
  8
1PHANTOM
 10
6147.4003578033462
 20
124.9441644312643
 30
0.0
 11
6149.4469628146317
 21
131.6383077914353
 31
0.0
  0
LINE
  5
CF54
  8
1PHANTOM
 10
6260.4378691444908
 20
90.552131348915452
 30
0.0
 11
6259.788384598246
 21
89.380430211178194
 31
0.0
  0
LINE
  5
CF55
  8
1PHANTOM
 10
6246.0137581763902
 20
94.703664511434624
 30
0.0
 11
6251.689371703631
 21
89.22278823803498
 31
0.0
  0
LINE
  5
CF56
  8
1PHANTOM
 10
6267.0685798001159
 20
87.309198325159684
 30
0.0
 11
6264.1696226788163
 21
92.133873182351806
 31
0.0
  0
ARC
  5
CF57
  8
1PHANTOM
 10
6265.0294634362199
 20
86.819649798896023
 30
0.0
 40
2.0
 50
356.00000000000352
 51
31.000000000000341
  0
LINE
  5
CF58
  8
1PHANTOM
 10
6260.4378691444908
 20
90.552131348915452
 30
0.0
 11
6260.9254326145283
 21
92.507641618429417
 31
0.0
  0
ARC
  5
CF59
  8
1PHANTOM
 10
6158.5562519441146
 20
143.04520442508709
 30
0.0
 40
9.9390310355498492
 50
326.98043439168907
 51
1.7518044774161741
  0
POINT
  5
CFC8
  8
01
 10
6051.1544462138972
 20
5.1061466800127562
 30
0.0
  0
LINE
  5
CFC9
  8
01
 10
6050.7544462038977
 20
3.3561466800127562
 30
0.0
 11
6050.7544462038977
 21
4.2061467000129076
 31
0.0
  0
LINE
  5
CFCA
  8
01
 10
6051.5544462238968
 20
3.3561466800127562
 30
0.0
 11
6051.5544462238968
 21
4.2061467000129076
 31
0.0
  0
LINE
  5
CFCB
  8
01
 10
6050.2544462338974
 20
4.7061466700127701
 30
0.0
 11
6049.4044462138972
 21
4.7061466700127701
 31
0.0
  0
LINE
  5
CFCC
  8
01
 10
6050.2544462338974
 20
5.5061466900127414
 30
0.0
 11
6049.4044462138972
 21
5.5061466900127414
 31
0.0
  0
LINE
  5
CFCD
  8
01
 10
6049.4044462138972
 20
4.7061466700127701
 30
0.0
 11
6049.4044462138972
 21
5.5061466900127414
 31
0.0
  0
LINE
  5
CFCE
  8
01
 10
6051.5544462238968
 20
3.3561466800127562
 30
0.0
 11
6050.7544462038977
 21
3.3561466800127562
 31
0.0
  0
LINE
  5
CFCF
  8
01
 10
6051.5544462238968
 20
6.8561466800127562
 30
0.0
 11
6051.5544462238968
 21
6.006146660012603
 31
0.0
  0
LINE
  5
CFD0
  8
01
 10
6050.7544462038977
 20
6.8561466800127562
 30
0.0
 11
6050.7544462038977
 21
6.006146660012603
 31
0.0
  0
LINE
  5
CFD1
  8
01
 10
6052.0544461938971
 20
5.5061466900127414
 30
0.0
 11
6052.9044462138972
 21
5.5061466900127414
 31
0.0
  0
LINE
  5
CFD2
  8
01
 10
6052.0544461938971
 20
4.7061466700127701
 30
0.0
 11
6052.9044462138972
 21
4.7061466700127701
 31
0.0
  0
LINE
  5
CFD3
  8
01
 10
6052.9044462138972
 20
5.5061466900127414
 30
0.0
 11
6052.9044462138972
 21
4.7061466700127701
 31
0.0
  0
LINE
  5
CFD4
  8
01
 10
6050.7544462038977
 20
6.8561466800127562
 30
0.0
 11
6051.5544462238968
 21
6.8561466800127562
 31
0.0
  0
LINE
  5
CFDB
  8
01
 10
6044.9718252664616
 20
17.106146680392921
 30
0.0
 11
6049.7444462138974
 21
17.106146680392921
 31
0.0
  0
ARC
  5
CFDD
  8
01
 10
6044.9718252664616
 20
18.106146680392921
 30
0.0
 40
1.0
 50
251.49550507686411
 51
270.0
  0
LINE
  5
CFDE
  8
01
 10
6044.971825267593
 20
-6.8938533196561869
 30
0.0
 11
6049.7444462138974
 21
-6.8938533203674117
 31
0.0
  0
ARC
  5
CFE0
  8
01
 10
6044.9718252674438
 20
-7.8938533196561869
 30
0.0
 40
1.0
 50
89.999999991453919
 51
108.5044949824283
  0
LINE
  5
CFE1
  8
01
 10
6071.1444462140707
 20
-12.39385331998724
 30
0.0
 11
6071.1444462140707
 21
22.606146680012749
 31
0.0
  0
LINE
  5
CFE2
  8
01
 10
6064.1540289565728
 20
-12.39385331998724
 30
0.0
 11
6064.1540289565728
 21
22.606146680012749
 31
0.0
  0
LINE
  5
CFE3
  8
01
 10
6085.8886299709193
 20
-12.39385331998815
 30
0.0
 11
6064.1540289565728
 21
-12.39385331998724
 31
0.0
  0
LINE
  5
CFE4
  8
01
 10
6085.8886299709193
 20
22.606146680012749
 30
0.0
 11
6064.1540289565728
 21
22.606146680012749
 31
0.0
  0
ARC
  5
CFE5
  8
01
 10
6070.6444462140707
 20
22.10614668001276
 30
0.0
 40
0.5
 50
0.0
 51
90.0
  0
ARC
  5
CFE6
  8
01
 10
5779.8886299743526
 20
5.1061466800127562
 30
0.0
 40
306.49999999657251
 50
356.72684591673169
 51
3.2731540832683002
  0
ARC
  5
CFE7
  8
01
 10
6085.4160428163141
 20
-11.893853319989971
 30
0.0
 40
0.5
 50
270.0
 51
356.81526146327542
  0
ARC
  5
CFE8
  8
01
 10
6085.4160428163141
 20
22.106146680008209
 30
0.0
 40
0.5
 50
3.1847385367245842
 51
90.0
  0
ARC
  5
CFE9
  8
01
 10
5776.6444462172694
 20
5.1061466800127562
 30
0.0
 40
306.49999999657251
 50
356.72684591673169
 51
3.2731540832683002
  0
ARC
  5
CFEA
  8
01
 10
6082.1718590592291
 20
22.10614668001276
 30
0.0
 40
0.5
 50
3.1847385367245842
 51
90.0
  0
LINE
  5
CFEB
  8
01
 10
6077.043686293774
 20
-12.39385331998724
 30
0.0
 11
6077.043686293774
 21
22.606146680012749
 31
0.0
  0
ARC
  5
CFED
  8
01
 10
6049.7444462138974
 20
38.732153483143378
 30
0.0
 40
21.626006802750751
 50
270.0
 51
311.78275497264133
  0
ARC
  5
CFEE
  8
01
 10
6064.5307937959524
 20
21.60614668001276
 30
0.0
 40
1.0
 50
90.0
 51
130.80685316048371
  0
ARC
  5
CFEF
  8
01
 10
6049.7444462138974
 20
-28.519860123117869
 30
0.0
 40
21.626006802750751
 50
48.217245027358743
 51
90.0
  0
ARC
  5
CFF0
  8
01
 10
6064.5307937959506
 20
-11.39385331998724
 30
0.0
 40
1.0
 50
229.1931468395162
 51
270.0
  0
LINE
  5
CFF2
  8
1CENTER
 10
6051.1444462139743
 20
1.2594303829381199
 30
0.0
 11
6051.1444462139743
 21
8.9528629770873902
 31
0.0
  0
LINE
  5
CFF3
  8
01
 10
6155.6544462138982
 20
22.22418066876784
 30
0.0
 11
6155.6544462138982
 21
32.106146680012699
 31
0.0
  0
CIRCLE
  5
D0A4
  8
01
 10
6051.1544462138972
 20
5.1061466800127562
 30
0.0
 40
3.0
  0
LINE
  5
D0A5
  8
1DIM
 10
6143.1544462138972
 20
155.1061466800127
 30
0.0
 11
6139.2996113824147
 21
155.1061466800127
 31
0.0
  0
LINE
  5
D0A6
  8
1DIM
 10
6155.6544462138982
 20
144.1061466800127
 30
0.0
 11
6139.2996113824147
 21
144.1061466800127
 31
0.0
  0
LINE
  5
D0A7
  8
1DIM
 10
6140.5996113824149
 20
152.50614668001271
 30
0.0
 11
6140.5996113824149
 21
146.70614668001269
 31
0.0
  0
LINE
  5
D0AB
  8
1DIM
 10
6281.1544462139027
 20
105.1161466800115
 30
0.0
 11
6281.1544462139027
 21
41.518456870395667
 31
0.0
  0
LINE
  5
D0AC
  8
1DIM
 10
6155.1544462139
 20
117.1161466800111
 30
0.0
 11
6155.1544462139
 21
41.518456870395667
 31
0.0
  0
LINE
  5
D0AD
  8
1DIM
 10
6278.5544462139023
 20
42.818456870395657
 30
0.0
 11
6157.7544462139003
 21
42.818456870395657
 31
0.0
  0
LINE
  5
D0B1
  8
1DIM
 10
6281.1537039045006
 20
105.1203565258229
 30
0.0
 11
6281.1537039045006
 21
51.518456870395667
 31
0.0
  0
LINE
  5
D0B2
  8
1DIM
 10
6183.1544462138972
 20
134.6061466800127
 30
0.0
 11
6183.1544462138972
 21
51.518456870395667
 31
0.0
  0
LINE
  5
D0B3
  8
1DIM
 10
6278.5537039045012
 20
52.818456870395671
 30
0.0
 11
6185.7544462138976
 21
52.818456870395671
 31
0.0
  0
LINE
  5
D0B7
  8
1DIM
 10
6266.7545565669216
 20
82.818456870395664
 30
0.0
 11
6317.4537039045017
 21
82.81845687039565
 31
0.0
  0
LINE
  5
D0B8
  8
1DIM
 10
6238.1544462138972
 20
155.1061466800127
 30
0.0
 11
6317.4537039045017
 21
155.1061466800127
 31
0.0
  0
LINE
  5
D0B9
  8
1DIM
 10
6316.1537039045006
 20
85.418456870395644
 30
0.0
 11
6316.1537039045006
 21
152.50614668001259
 31
0.0
  0
LINE
  5
D0BD
  8
1DIM
 10
6237.1544462138991
 20
101.87193853587389
 30
0.0
 11
6307.4537039045017
 21
101.8719385358738
 31
0.0
  0
LINE
  5
D0BE
  8
1DIM
 10
6238.1544462138972
 20
155.1061466800127
 30
0.0
 11
6307.4537039045017
 21
155.1061466800127
 31
0.0
  0
LINE
  5
D0BF
  8
1DIM
 10
6306.1537039045006
 20
104.4719385358738
 30
0.0
 11
6306.1537039045006
 21
152.50614668001259
 31
0.0
  0
LINE
  5
D0C3
  8
1DIM
 10
6283.0766140028009
 20
137.24661986490639
 30
0.0
 11
6297.4537039045008
 21
137.24661986490639
 31
0.0
  0
LINE
  5
D0C4
  8
1DIM
 10
6238.1544462138972
 20
155.1061466800127
 30
0.0
 11
6297.4537039045008
 21
155.1061466800127
 31
0.0
  0
LINE
  5
D0C5
  8
1DIM
 10
6296.1537039045024
 20
139.84661986490639
 30
0.0
 11
6296.1537039045024
 21
152.50614668001259
 31
0.0
  0
LINE
  5
D0C9
  8
1DIM
 10
6279.6544462138927
 20
22.606146680013211
 30
0.0
 11
6297.4537039045008
 21
22.6061466800132
 31
0.0
  0
LINE
  5
D0CA
  8
1DIM
 10
6279.6544462138927
 20
-12.39385331998667
 30
0.0
 11
6297.4537039045008
 21
-12.393853319986681
 31
0.0
  0
LINE
  5
D0CB
  8
1DIM
 10
6296.1537039045024
 20
20.006146680013199
 30
0.0
 11
6296.1537039045024
 21
-9.7938533199866811
 31
0.0
  0
LINE
  5
D0CF
  8
1DIM
 10
6156.1544462138982
 20
-22.393853319987301
 30
0.0
 11
6139.2996113824147
 21
-22.393853319987301
 31
0.0
  0
LINE
  5
D0D0
  8
1DIM
 10
6156.1544462138982
 20
32.606146680012699
 30
0.0
 11
6139.2996113824147
 21
32.606146680012699
 31
0.0
  0
LINE
  5
D0D1
  8
1DIM
 10
6140.5996113824149
 20
-19.793853319987289
 30
0.0
 11
6140.5996113824149
 21
30.006146680012701
 31
0.0
  0
TEXT
  5
D0D5
  8
1DIM
 10
6139.689611382415
 20
-1.718853319986247
 30
0.0
 40
4.5499999999999989
  1
□55
 50
90.0
  0
LINE
  5
D0D6
  8
0
  6
BYBLOCK
 10
6139.9029434884151
 20
30.006146680012701
 30
0.0
 11
6140.5996113824149
 21
32.606146680012699
 31
0.0
  0
LINE
  5
D0D7
  8
0
  6
BYBLOCK
 10
6140.5996113824149
 20
32.606146680012699
 30
0.0
 11
6141.2962792764138
 21
30.006146680012701
 31
0.0
  0
LINE
  5
D0D8
  8
0
  6
BYBLOCK
 10
6140.5996113824149
 20
32.606146680012699
 30
0.0
 11
6140.5996113824149
 21
30.006146680012701
 31
0.0
  0
LINE
  5
D0D9
  8
0
  6
BYBLOCK
 10
6141.2962792764138
 20
-19.793853319987289
 30
0.0
 11
6140.5996113824149
 21
-22.393853319987301
 31
0.0
  0
LINE
  5
D0DA
  8
0
  6
BYBLOCK
 10
6140.5996113824149
 20
-22.393853319987301
 30
0.0
 11
6139.9029434884151
 21
-19.793853319987289
 31
0.0
  0
LINE
  5
D0DB
  8
0
  6
BYBLOCK
 10
6140.5996113824149
 20
-22.393853319987301
 30
0.0
 11
6140.5996113824149
 21
-19.793853319987289
 31
0.0
  0
TEXT
  5
D0DC
  8
1DIM
 10
6295.2437039045008
 20
1.314480013347606
 30
0.0
 40
4.5499999999999989
  1
35
 50
90.0
  0
LINE
  5
D0DD
  8
0
  6
BYBLOCK
 10
6296.8503717985022
 20
-9.7938533199866811
 30
0.0
 11
6296.1537039045024
 21
-12.393853319986681
 31
0.0
  0
LINE
  5
D0DE
  8
0
  6
BYBLOCK
 10
6296.1537039045024
 20
-12.393853319986681
 30
0.0
 11
6295.4570360105008
 21
-9.7938533199866811
 31
0.0
  0
LINE
  5
D0DF
  8
0
  6
BYBLOCK
 10
6296.1537039045024
 20
-12.393853319986681
 30
0.0
 11
6296.1537039045024
 21
-9.7938533199866811
 31
0.0
  0
LINE
  5
D0E0
  8
0
  6
BYBLOCK
 10
6295.4570360105008
 20
20.006146680013199
 30
0.0
 11
6296.1537039045024
 21
22.6061466800132
 31
0.0
  0
LINE
  5
D0E1
  8
0
  6
BYBLOCK
 10
6296.1537039045024
 20
22.6061466800132
 30
0.0
 11
6296.8503717985022
 21
20.006146680013199
 31
0.0
  0
LINE
  5
D0E2
  8
0
  6
BYBLOCK
 10
6296.1537039045024
 20
22.6061466800132
 30
0.0
 11
6296.1537039045024
 21
20.006146680013199
 31
0.0
  0
TEXT
  5
D0E3
  8
1DIM
 10
6295.2437039045008
 20
143.14304993912711
 30
0.0
 40
4.5499999999999989
  1
18
 50
90.0
  0
LINE
  5
D0E4
  8
0
  6
BYBLOCK
 10
6295.4570360105008
 20
152.50614668001259
 30
0.0
 11
6296.1537039045024
 21
155.1061466800127
 31
0.0
  0
LINE
  5
D0E5
  8
0
  6
BYBLOCK
 10
6296.1537039045024
 20
155.1061466800127
 30
0.0
 11
6296.8503717985022
 21
152.50614668001259
 31
0.0
  0
LINE
  5
D0E6
  8
0
  6
BYBLOCK
 10
6296.1537039045024
 20
155.1061466800127
 30
0.0
 11
6296.1537039045024
 21
152.50614668001259
 31
0.0
  0
LINE
  5
D0E7
  8
0
  6
BYBLOCK
 10
6296.8503717985022
 20
139.84661986490639
 30
0.0
 11
6296.1537039045024
 21
137.24661986490639
 31
0.0
  0
LINE
  5
D0E8
  8
0
  6
BYBLOCK
 10
6296.1537039045024
 20
137.24661986490639
 30
0.0
 11
6295.4570360105008
 21
139.84661986490639
 31
0.0
  0
LINE
  5
D0E9
  8
0
  6
BYBLOCK
 10
6296.1537039045024
 20
137.24661986490639
 30
0.0
 11
6296.1537039045024
 21
139.84661986490639
 31
0.0
  0
TEXT
  5
D0EA
  8
1DIM
 10
6305.2437039045008
 20
124.6973759412776
 30
0.0
 40
4.5499999999999989
  1
53
 50
90.0
  0
LINE
  5
D0EB
  8
0
  6
BYBLOCK
 10
6305.4570360105008
 20
152.50614668001259
 30
0.0
 11
6306.1537039045006
 21
155.1061466800127
 31
0.0
  0
LINE
  5
D0EC
  8
0
  6
BYBLOCK
 10
6306.1537039045006
 20
155.1061466800127
 30
0.0
 11
6306.8503717985022
 21
152.50614668001259
 31
0.0
  0
LINE
  5
D0ED
  8
0
  6
BYBLOCK
 10
6306.1537039045006
 20
155.1061466800127
 30
0.0
 11
6306.1537039045006
 21
152.50614668001259
 31
0.0
  0
LINE
  5
D0EE
  8
0
  6
BYBLOCK
 10
6306.8503717985022
 20
104.4719385358738
 30
0.0
 11
6306.1537039045006
 21
101.8719385358738
 31
0.0
  0
LINE
  5
D0EF
  8
0
  6
BYBLOCK
 10
6306.1537039045006
 20
101.8719385358738
 30
0.0
 11
6305.4570360105008
 21
104.4719385358738
 31
0.0
  0
LINE
  5
D0F0
  8
0
  6
BYBLOCK
 10
6306.1537039045006
 20
101.8719385358738
 30
0.0
 11
6306.1537039045006
 21
104.4719385358738
 31
0.0
  0
TEXT
  5
D0F1
  8
1DIM
 10
6315.2437039045017
 20
115.17063510853851
 30
0.0
 40
4.5499999999999989
  1
72
 50
90.0
  0
LINE
  5
D0F2
  8
0
  6
BYBLOCK
 10
6315.4570360105017
 20
152.50614668001259
 30
0.0
 11
6316.1537039045006
 21
155.1061466800127
 31
0.0
  0
LINE
  5
D0F3
  8
0
  6
BYBLOCK
 10
6316.1537039045006
 20
155.1061466800127
 30
0.0
 11
6316.8503717985013
 21
152.50614668001259
 31
0.0
  0
LINE
  5
D0F4
  8
0
  6
BYBLOCK
 10
6316.1537039045006
 20
155.1061466800127
 30
0.0
 11
6316.1537039045006
 21
152.50614668001259
 31
0.0
  0
LINE
  5
D0F5
  8
0
  6
BYBLOCK
 10
6316.8503717985013
 20
85.418456870395644
 30
0.0
 11
6316.1537039045006
 21
82.81845687039565
 31
0.0
  0
LINE
  5
D0F6
  8
0
  6
BYBLOCK
 10
6316.1537039045006
 20
82.81845687039565
 30
0.0
 11
6315.4570360105017
 21
85.418456870395644
 31
0.0
  0
LINE
  5
D0F7
  8
0
  6
BYBLOCK
 10
6316.1537039045006
 20
82.81845687039565
 30
0.0
 11
6316.1537039045006
 21
85.418456870395644
 31
0.0
  0
TEXT
  5
D0F8
  8
1DIM
 10
6228.3624083925324
 20
53.728456870395668
 30
0.0
 40
4.5499999999999989
  1
98
  0
LINE
  5
D0F9
  8
0
  6
BYBLOCK
 10
6185.7544462138976
 20
52.121788976395663
 30
0.0
 11
6183.1544462138972
 21
52.818456870395671
 31
0.0
  0
LINE
  5
D0FA
  8
0
  6
BYBLOCK
 10
6183.1544462138972
 20
52.818456870395671
 30
0.0
 11
6185.7544462138976
 21
53.515124764395658
 31
0.0
  0
LINE
  5
D0FB
  8
0
  6
BYBLOCK
 10
6183.1544462138972
 20
52.818456870395671
 30
0.0
 11
6185.7544462138976
 21
52.818456870395671
 31
0.0
  0
LINE
  5
D0FC
  8
0
  6
BYBLOCK
 10
6278.5537039045012
 20
53.515124764395658
 30
0.0
 11
6281.1537039045006
 21
52.818456870395671
 31
0.0
  0
LINE
  5
D0FD
  8
0
  6
BYBLOCK
 10
6281.1537039045006
 20
52.818456870395671
 30
0.0
 11
6278.5537039045012
 21
52.121788976395663
 31
0.0
  0
LINE
  5
D0FE
  8
0
  6
BYBLOCK
 10
6281.1537039045006
 20
52.818456870395671
 30
0.0
 11
6278.5537039045012
 21
52.818456870395671
 31
0.0
  0
TEXT
  5
D0FF
  8
1DIM
 10
6212.8461128805666
 20
43.728456870395668
 30
0.0
 40
4.5499999999999989
  1
126
  0
LINE
  5
D100
  8
0
  6
BYBLOCK
 10
6157.7544462139003
 20
42.121788976395663
 30
0.0
 11
6155.1544462139
 21
42.818456870395657
 31
0.0
  0
LINE
  5
D101
  8
0
  6
BYBLOCK
 10
6155.1544462139
 20
42.818456870395657
 30
0.0
 11
6157.7544462139003
 21
43.515124764395658
 31
0.0
  0
LINE
  5
D102
  8
0
  6
BYBLOCK
 10
6155.1544462139
 20
42.818456870395657
 30
0.0
 11
6157.7544462139003
 21
42.818456870395657
 31
0.0
  0
LINE
  5
D103
  8
0
  6
BYBLOCK
 10
6278.5544462139023
 20
43.515124764395658
 30
0.0
 11
6281.1544462139027
 21
42.818456870395657
 31
0.0
  0
LINE
  5
D104
  8
0
  6
BYBLOCK
 10
6281.1544462139027
 20
42.818456870395657
 30
0.0
 11
6278.5544462139023
 21
42.121788976395663
 31
0.0
  0
LINE
  5
D105
  8
0
  6
BYBLOCK
 10
6281.1544462139027
 20
42.818456870395657
 30
0.0
 11
6278.5544462139023
 21
42.818456870395657
 31
0.0
  0
TEXT
  5
D106
  8
1DIM
 10
6139.689611382415
 20
147.33114668001369
 30
0.0
 40
4.5499999999999989
  1
11
 50
90.0
  0
LINE
  5
D107
  8
0
  6
BYBLOCK
 10
6141.2962792764138
 20
146.70614668001269
 30
0.0
 11
6140.5996113824149
 21
144.1061466800127
 31
0.0
  0
LINE
  5
D108
  8
0
  6
BYBLOCK
 10
6140.5996113824149
 20
144.1061466800127
 30
0.0
 11
6139.9029434884151
 21
146.70614668001269
 31
0.0
  0
LINE
  5
D109
  8
0
  6
BYBLOCK
 10
6140.5996113824149
 20
144.1061466800127
 30
0.0
 11
6140.5996113824149
 21
146.70614668001269
 31
0.0
  0
LINE
  5
D10A
  8
0
  6
BYBLOCK
 10
6139.9029434884151
 20
152.50614668001271
 30
0.0
 11
6140.5996113824149
 21
155.1061466800127
 31
0.0
  0
LINE
  5
D10B
  8
0
  6
BYBLOCK
 10
6140.5996113824149
 20
155.1061466800127
 30
0.0
 11
6141.2962792764138
 21
152.50614668001271
 31
0.0
  0
LINE
  5
D10C
  8
0
  6
BYBLOCK
 10
6140.5996113824149
 20
155.1061466800127
 30
0.0
 11
6140.5996113824149
 21
152.50614668001271
 31
0.0
  0
VIEWPORT
  5
57
 67
     1
  8
0
 10
-12.71820606546885
 20
36.174098768480462
 30
0.0
 40
473.43432389505972
 41
335.20840968641278
 68
     1
 69
     1
1001
ACAD
1000
MVIEW
1002
{
1070
    16
1010
0.0
1020
0.0
1030
0.0
1010
0.0
1020
0.0
1030
1.0
1040
0.0
1040
335.20840968641278
1040
-12.71820606546885
1040
36.174098768480462
1040
50.0
1040
0.0
1040
0.0
1070
     0
1070
   100
1070
     1
1070
     1
1070
     0
1070
     0
1070
     0
1070
     0
1040
0.0
1040
0.0
1040
0.0
1040
10.0
1040
10.0
1040
10.0
1040
10.0
1070
     0
1002
{
1002
}
1002
}
  0
ENDSEC
  0
EOF
