  0
SECTION
  2
HEADER
  9
$ACADVER
  1
AC1009
  9
$INSBASE
 10
0.0
 20
0.0
 30
0.0
  9
$EXTMIN
 10
5704.4149075562191
 20
467.60405480510678
 30
0.0
  9
$EXTMAX
 10
6007.8431929386506
 20
639.97827873862718
 30
0.0
  9
$LIMMIN
 10
0.0
 20
0.0
  9
$LIMMAX
 10
420.0
 20
297.0
  9
$ORTHOMODE
 70
     0
  9
$REGENMODE
 70
     1
  9
$FILLMODE
 70
     1
  9
$QTEXTMODE
 70
     0
  9
$MIRRTEXT
 70
     0
  9
$DRAGMODE
 70
     2
  9
$LTSCALE
 40
0.5
  9
$OSMODE
 70
  2175
  9
$ATTMODE
 70
     1
  9
$TEXTSIZE
 40
4.0
  9
$TRACEWID
 40
1.0
  9
$TEXTSTYLE
  7
STANDARD
  9
$CLAYER
  8
1TEXT
  9
$CELTYPE
  6
BYLAYER
  9
$CECOLOR
 62
   256
  9
$DIMSCALE
 40
1.3
  9
$DIMASZ
 40
2.0
  9
$DIMEXO
 40
0.0
  9
$DIMDLI
 40
7.0
  9
$DIMRND
 40
0.0
  9
$DIMDLE
 40
0.0
  9
$DIMEXE
 40
1.0
  9
$DIMTP
 40
0.0
  9
$DIMTM
 40
0.0
  9
$DIMTXT
 40
3.5
  9
$DIMCEN
 40
0.0
  9
$DIMTSZ
 40
0.0
  9
$DIMTOL
 70
     0
  9
$DIMLIM
 70
     0
  9
$DIMTIH
 70
     0
  9
$DIMTOH
 70
     0
  9
$DIMSE1
 70
     0
  9
$DIMSE2
 70
     0
  9
$DIMTAD
 70
     1
  9
$DIMZIN
 70
     8
  9
$DIMBLK
  1

  9
$DIMASO
 70
     1
  9
$DIMSHO
 70
     1
  9
$DIMPOST
  1
 
  9
$DIMAPOST
  1

  9
$DIMALT
 70
     0
  9
$DIMALTD
 70
     2
  9
$DIMALTF
 40
25.399999999999999
  9
$DIMLFAC
 40
1.0
  9
$DIMTOFL
 70
     1
  9
$DIMTVP
 40
0.0
  9
$DIMTIX
 70
     0
  9
$DIMSOXD
 70
     0
  9
$DIMSAH
 70
     1
  9
$DIMBLK1
  1
OPEN30
  9
$DIMBLK2
  1
OPEN30
  9
$DIMSTYLE
  2
NEWX10
  9
$DIMCLRD
 70
   256
  9
$DIMCLRE
 70
   256
  9
$DIMCLRT
 70
   201
  9
$DIMTFAC
 40
0.7
  9
$DIMGAP
 40
0.7
  9
$LUNITS
 70
     2
  9
$LUPREC
 70
     4
  9
$SKETCHINC
 40
1.0
  9
$FILLETRAD
 40
0.0
  9
$AUNITS
 70
     0
  9
$AUPREC
 70
     2
  9
$MENU
  1
acad
  9
$ELEVATION
 40
0.0
  9
$PELEVATION
 40
0.0
  9
$THICKNESS
 40
0.0
  9
$LIMCHECK
 70
     0
  9
$BLIPMODE
 70
     0
  9
$CHAMFERA
 40
10.0
  9
$CHAMFERB
 40
10.0
  9
$SKPOLY
 70
     0
  9
$TDCREATE
 40
2451318.621352917
  9
$TDUPDATE
 40
2456643.4260215862
  9
$TDINDWG
 40
0.4356182407
  9
$TDUSRTIMER
 40
0.4356182407
  9
$USRTIMER
 70
     1
  9
$ANGBASE
 50
0.0
  9
$ANGDIR
 70
     0
  9
$PDMODE
 70
     0
  9
$PDSIZE
 40
0.0
  9
$PLINEWID
 40
0.0
  9
$COORDS
 70
     0
  9
$SPLFRAME
 70
     0
  9
$SPLINETYPE
 70
     6
  9
$SPLINESEGS
 70
     8
  9
$ATTDIA
 70
     0
  9
$ATTREQ
 70
     1
  9
$HANDLING
 70
     1
  9
$HANDSEED
  5
9AB4
  9
$SURFTAB1
 70
     6
  9
$SURFTAB2
 70
     6
  9
$SURFTYPE
 70
     6
  9
$SURFU
 70
     6
  9
$SURFV
 70
     6
  9
$UCSNAME
  2

  9
$UCSORG
 10
0.0
 20
0.0
 30
0.0
  9
$UCSXDIR
 10
1.0
 20
0.0
 30
0.0
  9
$UCSYDIR
 10
0.0
 20
1.0
 30
0.0
  9
$PUCSNAME
  2

  9
$PUCSORG
 10
0.0
 20
0.0
 30
0.0
  9
$PUCSXDIR
 10
1.0
 20
0.0
 30
0.0
  9
$PUCSYDIR
 10
0.0
 20
1.0
 30
0.0
  9
$USERI1
 70
     0
  9
$USERI2
 70
     0
  9
$USERI3
 70
     0
  9
$USERI4
 70
     0
  9
$USERI5
 70
     0
  9
$USERR1
 40
0.0
  9
$USERR2
 40
0.0
  9
$USERR3
 40
0.0
  9
$USERR4
 40
0.0
  9
$USERR5
 40
0.0
  9
$WORLDVIEW
 70
     1
  9
$SHADEDGE
 70
     3
  9
$SHADEDIF
 70
    70
  9
$TILEMODE
 70
     1
  9
$MAXACTVP
 70
    48
  9
$PLIMCHECK
 70
     0
  9
$PEXTMIN
 10
1.0000000000000000E+020
 20
1.0000000000000000E+020
 30
1.0000000000000000E+020
  9
$PEXTMAX
 10
-1.0000000000000000E+020
 20
-1.0000000000000000E+020
 30
-1.0000000000000000E+020
  9
$PLIMMIN
 10
0.0
 20
0.0
  9
$PLIMMAX
 10
420.0
 20
297.0
  9
$UNITMODE
 70
     0
  9
$VISRETAIN
 70
     1
  9
$PLINEGEN
 70
     0
  9
$PSLTSCALE
 70
     1
  0
ENDSEC
  0
SECTION
  2
TABLES
  0
TABLE
  2
VPORT
 70
     1
  0
VPORT
  2
*ACTIVE
 70
     0
 10
0.0
 20
0.0
 11
1.0
 21
1.0
 12
5856.0795321784044
 22
553.79468218838224
 13
0.0
 23
0.0
 14
10.0
 24
10.0
 15
10.0
 25
10.0
 16
0.0
 26
0.0
 36
1.0
 17
0.0
 27
0.0
 37
0.0
 40
182.81796320835809
 41
2.1771217712177111
 42
50.0
 43
0.0
 44
0.0
 50
0.0
 51
0.0
 71
     0
 72
   100
 73
     1
 74
     1
 75
     0
 76
     0
 77
     0
 78
     0
  0
ENDTAB
  0
TABLE
  2
LTYPE
 70
    13
  0
LTYPE
  2
CONTINUOUS
 70
     0
  3
Solid line
 72
    65
 73
     0
 40
0.0
  0
LTYPE
  2
XREF1|CENTER2
 70
    48
  3
Center (.5x) ___ _ ___ _ ___ _ ___ _ ___ _ ___
 72
    65
 73
     4
 40
28.574999999999999
 49
19.050000000000001
 49
-3.1749999999999989
 49
3.1749999999999989
 49
-3.1749999999999989
  0
LTYPE
  2
A3WAKUDAKE|CENTER2
 70
    48
  3
Center (.5x) ___ _ ___ _ ___ _ ___ _ ___ _ ___
 72
    65
 73
     4
 40
28.574999999999999
 49
19.050000000000001
 49
-3.1749999999999989
 49
3.1749999999999989
 49
-3.1749999999999989
  0
ENDTAB
  0
TABLE
  2
LAYER
 70
    41
  0
LAYER
  2
0
 70
     0
 62
     7
  6
CONTINUOUS
  0
LAYER
  2
1TEXT
 70
     0
 62
     7
  6
CONTINUOUS
  0
LAYER
  2
XREF1|1CENTER
 70
    48
 62
     7
  6
XREF1|CENTER2
  0
LAYER
  2
01
 70
     0
 62
     1
  6
CONTINUOUS
  0
LAYER
  2
A3WAKUDAKE|THICK
 70
    48
 62
     7
  6
CONTINUOUS
  0
LAYER
  2
A3WAKUDAKE|POINT
 70
    48
 62
     7
  6
CONTINUOUS
  0
LAYER
  2
A3WAKUDAKE|1CENTER
 70
    48
 62
     7
  6
A3WAKUDAKE|CENTER2
  0
LAYER
  2
A3WAKUDAKE|0-6
 70
    48
 62
     7
  6
CONTINUOUS
  0
LAYER
  2
A3WAKUDAKE|1DIM
 70
    48
 62
     7
  6
CONTINUOUS
  0
ENDTAB
  0
TABLE
  2
STYLE
 70
     4
  0
STYLE
  2
STANDARD
 70
     0
 40
0.0
 41
1.0
 50
0.0
 71
     0
 42
4.0
  3
romans.shx
  4
extfont2.shx
  0
ENDTAB
  0
TABLE
  2
VIEW
 70
     5
  0
ENDTAB
  0
TABLE
  2
UCS
 70
     0
  0
ENDTAB
  0
TABLE
  2
APPID
 70
    14
  0
APPID
  2
ACAD
 70
     0
  0
APPID
  2
DRAWINGVARIABLESXDATA
 70
     0
  0
APPID
  2
CONTENTTABDATA
 70
     0
  0
APPID
  2
CONTENTCURRENTTAB
 70
     0
  0
APPID
  2
CONTENTBLOCKDESCRIPTION
 70
     0
  0
APPID
  2
CONTENTBLOCKICON
 70
     0
  0
APPID
  2
CONTENTLONGBLOCKNAME
 70
     0
  0
APPID
  2
ACAD_PSEXT
 70
     0
  0
APPID
  2
ACAD_MLEADERVER
 70
     0
  0
APPID
  2
ACAD_DIMASSOC_CALC_DIMLFAC
 70
     0
  0
APPID
  2
ACAD_DIMASSOC_DIMLFAC
 70
     0
  0
APPID
  2
ACAD_DIMASSOC_OVERRIDDEN_D
 70
     0
  0
APPID
  2
ACAECLAYERSTANDARD
 70
     0
  0
APPID
  2
ACAD_EXEMPT_FROM_CAD_STANDARDS
 70
     0
  0
ENDTAB
  0
TABLE
  2
DIMSTYLE
 70
     6
  0
DIMSTYLE
  2
NEWX10
 70
     0
  3
 
  4

  5

  6
OPEN30
  7
OPEN30
 40
1.0
 41
2.0
 42
0.0
 43
7.0
 44
1.0
 45
0.0
 46
0.0
 47
0.0
 48
0.0
140
3.5
141
0.0
142
0.0
143
25.399999999999999
144
1.0
145
0.0
146
0.7
147
0.7
 71
     0
 72
     0
 73
     0
 74
     0
 75
     0
 76
     0
 77
     1
 78
     8
170
     0
171
     2
172
     1
173
     1
174
     0
175
     0
176
   256
177
   256
178
   201
  0
ENDTAB
  0
ENDSEC
  0
SECTION
  2
BLOCKS
  0
BLOCK
  8
0
  2
$MODEL_SPACE
 70
     0
 10
0.0
 20
0.0
 30
0.0
  3
$MODEL_SPACE
  1

  0
ENDBLK
  5
1A
  8
0
  0
BLOCK
 67
     1
  8
0
  2
$PAPER_SPACE
 70
     0
 10
0.0
 20
0.0
 30
0.0
  3
$PAPER_SPACE
  1

  0
ENDBLK
  5
17
 67
     1
  8
0
  0
BLOCK
  8
0
  2
_OPEN30
 70
     0
 10
0.0
 20
0.0
 30
0.0
  3
_OPEN30
  1

  0
LINE
  5
44
  8
0
  6
BYBLOCK
 62
     0
 10
-1.0
 20
0.26794919
 30
0.0
 11
0.0
 21
0.0
 31
0.0
  0
LINE
  5
45
  8
0
  6
BYBLOCK
 62
     0
 10
0.0
 20
0.0
 30
0.0
 11
-1.0
 21
-0.26794919
 31
0.0
  0
LINE
  5
46
  8
0
  6
BYBLOCK
 62
     0
 10
0.0
 20
0.0
 30
0.0
 11
-1.0
 21
0.0
 31
0.0
  0
ENDBLK
  5
47
  8
0
  0
BLOCK
  8
0
  2
XREF1
 70
    36
 10
0.0
 20
0.0
 30
0.0
  3
XREF1
  1
D:\ACLT\FORMAT\KAWAJUN(9)図面用.dwg
  0
ENDBLK
  5
5D
  8
0
  0
BLOCK
  8
0
  2
A3WAKUDAKE
 70
    36
 10
0.0
 20
0.0
 30
0.0
  3
A3WAKUDAKE
  1
D:\ACLT\FORMAT\A3WAKUdake.dwg
  0
ENDBLK
  5
6A0
  8
0
  0
BLOCK
  8
0
  2
*U29
 70
     1
 10
0.0
 20
0.0
 30
0.0
  3
*U29
  1

  0
TEXT
  5
9A54
  8
1TEXT
 62
   201
 10
5819.1331889386511
 20
502.10729944313903
 30
0.0
 40
4.5499999999999989
  1
53
 50
90.0
  0
ENDBLK
  5
9A56
  8
0
  0
BLOCK
  8
0
  2
*U30
 70
     1
 10
0.0
 20
0.0
 30
0.0
  3
*U30
  1

  0
TEXT
  5
9A7B
  8
1TEXT
 62
   201
 10
5864.209855605317
 20
467.19037873862698
 30
0.0
 40
4.5499999999999989
  1
80
  0
ENDBLK
  5
9A7D
  8
0
  0
BLOCK
  8
0
  2
*U31
 70
     1
 10
0.0
 20
0.0
 30
0.0
  3
*U31
  1

  0
TEXT
  5
9A85
  8
1TEXT
 62
   201
 10
852.13181084106122
 20
1925.3057174473231
 30
0.0
 40
4.5499999999999989
  1
□53
 50
90.0
  0
ENDBLK
  5
9A87
  8
0
  0
BLOCK
  8
0
  2
*U32
 70
     1
 10
0.0
 20
0.0
 30
0.0
  3
*U32
  1

  0
TEXT
  5
9A89
  8
1TEXT
 62
   201
 10
948.71681084106137
 20
2039.597130076145
 30
0.0
 40
4.5499999999999989
  1
135
  0
ENDBLK
  5
9A8B
  8
0
  0
BLOCK
  8
0
  2
*U33
 70
     1
 10
0.0
 20
0.0
 30
0.0
  3
*U33
  1

  0
TEXT
  5
9A8D
  8
1TEXT
 62
   201
 10
942.71681084106126
 20
2029.597130076145
 30
0.0
 40
4.5499999999999989
  1
147
  0
ENDBLK
  5
9A8F
  8
0
  0
BLOCK
  8
0
  2
*U34
 70
     1
 10
0.0
 20
0.0
 30
0.0
  3
*U34
  1

  0
TEXT
  5
9A91
  8
1TEXT
 62
   201
 10
1042.131810841061
 20
2099.353796742811
 30
0.0
 40
4.5499999999999989
  1
40
 50
90.0
  0
ENDBLK
  5
9A93
  8
0
  0
BLOCK
  8
0
  2
*U35
 70
     1
 10
0.0
 20
0.0
 30
0.0
  3
*U35
  1

  0
TEXT
  5
9A95
  8
1TEXT
 62
   201
 10
1052.131810841061
 20
2089.2454634094779
 30
0.0
 40
4.5499999999999989
  1
60
 50
90.0
  0
ENDBLK
  5
9A97
  8
0
  0
BLOCK
  8
0
  2
*U36
 70
     1
 10
0.0
 20
0.0
 30
0.0
  3
*U36
  1

  0
TEXT
  5
9A99
  8
1TEXT
 62
   201
 10
1042.131810841061
 20
1929.028796742811
 30
0.0
 40
4.5499999999999989
  1
15
 50
90.0
  0
ENDBLK
  5
9A9B
  8
0
  0
BLOCK
  8
0
  2
*U37
 70
     1
 10
0.0
 20
0.0
 30
0.0
  3
*U37
  1

  0
TEXT
  5
9A9D
  8
1TEXT
 62
   201
 10
6272.2120432267366
 20
602.16123240829018
 30
0.0
 40
4.5499999999999989
  1
135
  0
ENDBLK
  5
9A9F
  8
0
  0
BLOCK
  8
0
  2
*U38
 70
     1
 10
0.0
 20
0.0
 30
0.0
  3
*U38
  1

  0
TEXT
  5
9AA1
  8
1TEXT
 62
   201
 10
6266.2120432267366
 20
592.16123240829006
 30
0.0
 40
4.5499999999999989
  1
147
  0
ENDBLK
  5
9AA3
  8
0
  0
BLOCK
  8
0
  2
*U39
 70
     1
 10
0.0
 20
0.0
 30
0.0
  3
*U39
  1

  0
TEXT
  5
9AA5
  8
1TEXT
 62
   201
 10
6365.6270432267374
 20
661.91789907495786
 30
0.0
 40
4.5499999999999989
  1
40
 50
90.0
  0
ENDBLK
  5
9AA7
  8
0
  0
BLOCK
  8
0
  2
*U40
 70
     1
 10
0.0
 20
0.0
 30
0.0
  3
*U40
  1

  0
TEXT
  5
9AA9
  8
1TEXT
 62
   201
 10
6375.6270432267356
 20
651.80956574162451
 30
0.0
 40
4.5499999999999989
  1
60
 50
90.0
  0
ENDBLK
  5
9AAB
  8
0
  0
BLOCK
  8
0
  2
*U41
 70
     1
 10
0.0
 20
0.0
 30
0.0
  3
*U41
  1

  0
TEXT
  5
9AAD
  8
1TEXT
 62
   201
 10
6365.6270432267374
 20
491.59289907495781
 30
0.0
 40
4.5499999999999989
  1
15
 50
90.0
  0
ENDBLK
  5
9AAF
  8
0
  0
BLOCK
  8
0
  2
*U42
 70
     1
 10
0.0
 20
0.0
 30
0.0
  3
*U42
  1

  0
TEXT
  5
9AB1
  8
1TEXT
 62
   201
 10
6175.6270432267356
 20
487.8698197794688
 30
0.0
 40
4.5499999999999989
  1
□53
 50
90.0
  0
ENDBLK
  5
9AB3
  8
0
  0
ENDSEC
  0
SECTION
  2
ENTITIES
  0
LINE
  5
71BC
  8
01
 10
5856.5431929386514
 20
501.78037873862741
 30
0.0
 11
5856.5431929386514
 21
513.78037873862741
 31
0.0
  0
LINE
  5
71BD
  8
01
 10
5850.5431929386496
 20
507.78037873862729
 30
0.0
 11
5862.5431929386514
 21
507.78037873862729
 31
0.0
  0
LINE
  5
71C0
  8
01
 10
5856.5431929386514
 20
632.81535423421133
 30
0.0
 11
5856.5431929386514
 21
610.18706885177994
 31
0.0
  0
LINE
  5
7206
  8
01
 10
5706.5431929386496
 20
532.78037873862729
 30
0.0
 11
5706.5431929386496
 21
482.78037873862729
 31
0.0
  0
LINE
  5
78AF
  8
01
 10
5721.0431929386514
 20
501.78037873862741
 30
0.0
 11
5721.0431929386514
 21
513.78037873862741
 31
0.0
  0
LINE
  5
78B0
  8
01
 10
5704.4149075562191
 20
507.78037873862729
 30
0.0
 11
5727.0431929386496
 21
507.78037873862729
 31
0.0
  0
TEXT
  5
78D4
  8
01
 10
5706.5431929386496
 20
629.9782787386273
 30
0.0
 40
10.0
  1
RBT
 41
1.017187499999999
  0
LINE
  5
8262
  8
01
 10
5816.5431929386514
 20
629.9782787386273
 30
0.0
 11
5959.2983409359977
 21
629.9782787386273
 31
0.0
  0
LINE
  5
88CA
  8
01
 10
5706.5431929386496
 20
547.95670267214791
 30
0.0
 11
5706.5431929386496
 21
467.60405480510678
 31
0.0
  0
ARC
  5
9150
  8
01
 10
5868.0431929386496
 20
584.27827873862702
 30
0.0
 40
0.5
 50
270.0
 51
0.0
  0
ARC
  5
9151
  8
01
 10
5845.0431929386496
 20
584.27827873862725
 30
0.0
 40
0.5
 50
180.0
 51
270.0
  0
LINE
  5
9152
  8
01
 10
5845.0431929386496
 20
583.77827873862748
 30
0.0
 11
5868.0431929386496
 21
583.77827873862702
 31
0.0
  0
LINE
  5
9155
  8
01
 10
5844.5431929386514
 20
620.77827873862805
 30
0.0
 11
5844.5431929386486
 21
584.27827873862725
 31
0.0
  0
ARC
  5
9158
  8
01
 10
5869.0431929386496
 20
584.27827873862725
 30
0.0
 40
0.5
 50
180.0
 51
270.0
  0
ARC
  5
9159
  8
01
 10
5981.0431929386496
 20
601.27827873862725
 30
0.0
 40
0.5
 50
0.0
 51
90.0
  0
ARC
  5
915A
  8
01
 10
5973.0431929386496
 20
601.27827873862736
 30
0.0
 40
0.5
 50
90.0
 51
180.0
  0
ARC
  5
915B
  8
01
 10
5968.5431929386496
 20
596.77827873862725
 30
0.0
 40
4.0
 50
270.0
 51
0.0
  0
ARC
  5
915C
  8
01
 10
5881.5431929386496
 20
596.77827873862725
 30
0.0
 40
4.0
 50
180.0
 51
270.0
  0
LINE
  5
915D
  8
01
 10
5877.0431929386496
 20
620.77827873862725
 30
0.0
 11
5844.5431929386514
 21
620.77827873862805
 31
0.0
  0
ARC
  5
915E
  8
01
 10
5877.0431929386496
 20
620.27827873862725
 30
0.0
 40
0.5
 50
0.0
 51
90.0
  0
LINE
  5
915F
  8
01
 10
5971.5431929386496
 20
583.77827873862725
 30
0.0
 11
5869.0431929386496
 21
583.77827873862725
 31
0.0
  0
ARC
  5
9160
  8
01
 10
5971.5431929386496
 20
593.77827873862725
 30
0.0
 40
10.0
 50
270.0
 51
0.0
  0
LINE
  5
9161
  8
01
 10
5981.5431929386514
 20
601.27827873862725
 30
0.0
 11
5981.5431929386514
 21
593.77827873862725
 31
0.0
  0
LINE
  5
9162
  8
01
 10
5973.0431929386496
 20
601.77827873862736
 30
0.0
 11
5981.0431929386496
 21
601.77827873862725
 31
0.0
  0
LINE
  5
9163
  8
01
 10
5972.5431929386496
 20
596.77827873862725
 30
0.0
 11
5972.5431929386496
 21
601.27827873862736
 31
0.0
  0
LINE
  5
9164
  8
01
 10
5881.5431929386496
 20
592.77827873862725
 30
0.0
 11
5968.5431929386496
 21
592.77827873862725
 31
0.0
  0
LINE
  5
9165
  8
01
 10
5877.5431929386496
 20
620.27827873862725
 30
0.0
 11
5877.5431929386514
 21
596.77827873862725
 31
0.0
  0
LINE
  5
9166
  8
01
 10
5868.5431929386496
 20
584.27827873862702
 30
0.0
 11
5868.5431929386496
 21
620.77827873862748
 31
0.0
  0
ARC
  5
9168
  8
01
 10
5868.0431929386496
 20
496.2803787386278
 30
0.0
 40
0.5
 50
270.0
 51
0.0
  0
ARC
  5
9169
  8
01
 10
5845.0431929386496
 20
496.28037873862758
 30
0.0
 40
0.5
 50
180.0
 51
270.0
  0
ARC
  5
916A
  8
01
 10
5845.0431929386496
 20
519.28037873862775
 30
0.0
 40
0.5
 50
90.0
 51
180.0
  0
ARC
  5
916B
  8
01
 10
5868.0431929386496
 20
519.28037873862775
 30
0.0
 40
0.5
 50
0.0
 51
90.0
  0
LINE
  5
916C
  8
01
 10
5868.0431929386496
 20
495.78037873862792
 30
0.0
 11
5845.0431929386496
 21
495.78037873862741
 31
0.0
  0
LINE
  5
916D
  8
01
 10
5845.0431929386496
 20
519.78037873862775
 30
0.0
 11
5868.0431929386496
 21
519.78037873862775
 31
0.0
  0
LINE
  5
916E
  8
01
 10
5844.5431929386514
 20
519.28037873862775
 30
0.0
 11
5844.5431929386514
 21
496.28037873862741
 31
0.0
  0
LINE
  5
916F
  8
01
 10
5868.5431929386496
 20
519.28037873862775
 30
0.0
 11
5868.5431929386496
 21
496.2803787386278
 31
0.0
  0
ARC
  5
9170
  8
01
 10
5981.0431929386496
 20
496.2803787386278
 30
0.0
 40
0.5
 50
270.0
 51
0.0
  0
ARC
  5
9171
  8
01
 10
5981.0431929386496
 20
519.28037873862775
 30
0.0
 40
0.5
 50
0.0
 51
90.0
  0
ARC
  5
9172
  8
01
 10
5869.0431929386514
 20
519.28037873862775
 30
0.0
 40
0.5
 50
90.0
 51
180.0
  0
ARC
  5
9173
  8
01
 10
5869.0431929386514
 20
496.2803787386278
 30
0.0
 40
0.5
 50
180.0
 51
270.0
  0
LINE
  5
9174
  8
01
 10
5981.5431929386514
 20
519.28037873862775
 30
0.0
 11
5981.5431929386514
 21
496.2803787386278
 31
0.0
  0
LINE
  5
9175
  8
01
 10
5868.5431929386496
 20
519.28037873862775
 30
0.0
 11
5868.5431929386496
 21
496.2803787386278
 31
0.0
  0
LINE
  5
9176
  8
01
 10
5869.0431929386514
 20
495.78037873862792
 30
0.0
 11
5981.0431929386496
 21
495.78037873862792
 31
0.0
  0
LINE
  5
9177
  8
01
 10
5869.0431929386514
 20
519.78037873862775
 30
0.0
 11
5981.0431929386496
 21
519.78037873862775
 31
0.0
  0
ARC
  5
91AC
  8
01
 10
5752.2431929386503
 20
496.28037873862741
 30
0.0
 40
0.5
 50
270.0
 51
0.0
  0
ARC
  5
91AD
  8
01
 10
5752.2431929386503
 20
519.28037873862741
 30
0.0
 40
0.5
 50
0.0
 51
90.0
  0
LINE
  5
91AE
  8
01
 10
5752.7431929386494
 20
519.28037873862741
 30
0.0
 11
5752.7431929386503
 21
496.28037873862741
 31
0.0
  0
LINE
  5
91B2
  8
01
 10
5715.7431929386503
 20
495.78037873862741
 30
0.0
 11
5752.2431929386503
 21
495.78037873862741
 31
0.0
  0
LINE
  5
91B3
  8
01
 10
5715.7431929386503
 20
519.78037873862763
 30
0.0
 11
5752.2431929386503
 21
519.78037873862729
 31
0.0
  0
LINE
  5
91B4
  8
01
 10
5715.7431929386503
 20
519.78037873862763
 30
0.0
 11
5715.7431929386503
 21
495.78037873862741
 31
0.0
  0
LINE
  5
9248
  8
01
 10
5840.4595143747074
 20
615.27828277188723
 30
0.0
 11
5848.5931867365553
 21
615.27827473863658
 31
0.0
  0
LINE
  5
95C7
  8
01
 10
5706.5431929386496
 20
534.28037873862695
 30
0.0
 11
5706.5431929386496
 21
481.28037873862701
 31
0.0
  0
LINE
  5
95C8
  8
01
 10
5715.0431929386514
 20
481.78037873862701
 30
0.0
 11
5715.0431929386514
 21
533.78037873862695
 31
0.0
  0
ARC
  5
95C9
  8
01
 10
5714.5431929386496
 20
481.78037873862701
 30
0.0
 40
0.5
 50
270.0
 51
0.0
  0
LINE
  5
95CA
  8
01
 10
5706.5431929386496
 20
481.28037873862701
 30
0.0
 11
5714.5431929386496
 21
481.28037873862701
 31
0.0
  0
LINE
  5
95CB
  8
01
 10
5706.5431929386496
 20
534.28037873862695
 30
0.0
 11
5714.5431929386496
 21
534.28037873862695
 31
0.0
  0
ARC
  5
95CC
  8
01
 10
5714.5431929386496
 20
533.78037873862695
 30
0.0
 40
0.5
 50
0.0
 51
90.0
  0
LINE
  5
9933
  8
01
 10
5882.5431929386496
 20
534.28037873862547
 30
0.0
 11
5830.5431929386541
 21
534.28037873862547
 31
0.0
  0
LINE
  5
9934
  8
01
 10
5830.5431929386541
 20
481.28037873862547
 30
0.0
 11
5882.5431929386496
 21
481.28037873862547
 31
0.0
  0
LINE
  5
9935
  8
01
 10
5830.0431929386541
 20
533.78037873862547
 30
0.0
 11
5830.0431929386541
 21
481.78037873862547
 31
0.0
  0
ARC
  5
9936
  8
01
 10
5830.5431929386541
 20
481.78037873862547
 30
0.0
 40
0.5
 50
180.0
 51
270.0
  0
ARC
  5
9937
  8
01
 10
5830.5431929386541
 20
533.78037873862547
 30
0.0
 40
0.5
 50
90.0
 51
180.0
  0
LINE
  5
9938
  8
01
 10
5883.0431929386496
 20
533.78037873862547
 30
0.0
 11
5883.0431929386496
 21
519.78037873862775
 31
0.0
  0
ARC
  5
9939
  8
01
 10
5882.5431929386496
 20
481.78037873862547
 30
0.0
 40
0.5
 50
270.0
 51
0.0
  0
ARC
  5
993A
  8
01
 10
5882.5431929386496
 20
533.78037873862547
 30
0.0
 40
0.5
 50
0.0
 51
90.0
  0
LINE
  5
993B
  8
01
 10
5830.0431929386541
 20
629.9782787386273
 30
0.0
 11
5883.0431929386496
 21
629.9782787386273
 31
0.0
  0
LINE
  5
993C
  8
01
 10
5830.5431929386541
 20
621.4782787386273
 30
0.0
 11
5882.5431929386496
 21
621.4782787386273
 31
0.0
  0
LINE
  5
993D
  8
01
 10
5883.0431929386496
 20
629.9782787386273
 30
0.0
 11
5883.0431929386496
 21
621.97827873862718
 31
0.0
  0
LINE
  5
993E
  8
01
 10
5830.0431929386541
 20
629.9782787386273
 30
0.0
 11
5830.0431929386541
 21
621.97827873862718
 31
0.0
  0
ARC
  5
993F
  8
01
 10
5830.5431929386541
 20
621.97827873862718
 30
0.0
 40
0.5
 50
180.0
 51
270.0
  0
ARC
  5
9940
  8
01
 10
5882.5431929386496
 20
621.97827873862718
 30
0.0
 40
0.5
 50
270.0
 51
0.0
  0
LINE
  5
9968
  8
01
 10
5883.0431929386496
 20
495.78037873862792
 30
0.0
 11
5883.0431929386496
 21
481.78037873862547
 31
0.0
  0
LINE
  5
99C8
  8
01
 10
5830.5431929386541
 20
534.28037873862547
 30
0.0
 11
5820.2431929386512
 21
534.28037873862547
 31
0.0
  0
LINE
  5
99C9
  8
01
 10
5830.5431929386541
 20
481.28037873862547
 30
0.0
 11
5820.2431929386512
 21
481.28037873862547
 31
0.0
  0
LINE
  5
99CA
  8
01
 10
5821.5431929386496
 20
531.68037873862545
 30
0.0
 11
5821.5431929386496
 21
483.8803787386255
 31
0.0
  0
LINE
  5
99CE
  8
01
 10
5981.0431929386496
 20
519.78037873862775
 30
0.0
 11
5997.8431929386506
 21
519.78037873862775
 31
0.0
  0
LINE
  5
99CF
  8
01
 10
5981.0431929386496
 20
495.78037873862792
 30
0.0
 11
5997.8431929386506
 21
495.78037873862792
 31
0.0
  0
LINE
  5
99D0
  8
01
 10
5996.5431929386496
 20
517.18037873862784
 30
0.0
 11
5996.5431929386496
 21
498.38037873862783
 31
0.0
  0
LINE
  5
99D4
  8
01
 10
5986.5431929386514
 20
629.9782787386273
 30
0.0
 11
6007.8431929386506
 21
629.9782787386273
 31
0.0
  0
LINE
  5
99D5
  8
01
 10
5971.5431929386496
 20
583.77827873862725
 30
0.0
 11
6007.8431929386506
 21
583.77827873862725
 31
0.0
  0
LINE
  5
99D6
  8
01
 10
6006.5431929386496
 20
627.37827873862727
 30
0.0
 11
6006.5431929386496
 21
586.37827873862727
 31
0.0
  0
LINE
  5
99DA
  8
01
 10
5959.2983409359977
 20
629.9782787386273
 30
0.0
 11
5997.8431929386506
 21
629.9782787386273
 31
0.0
  0
LINE
  5
99DB
  8
01
 10
5981.0431929386496
 20
601.77827873862725
 30
0.0
 11
5997.8431929386506
 21
601.77827873862725
 31
0.0
  0
LINE
  5
99DC
  8
01
 10
5996.5431929386496
 20
627.37827873862727
 30
0.0
 11
5996.5431929386496
 21
604.37827873862716
 31
0.0
  0
LINE
  5
99E0
  8
01
 10
5981.5431929386514
 20
573.77827873862725
 30
0.0
 11
5981.5431929386514
 21
557.4782787386273
 31
0.0
  0
LINE
  5
99E1
  8
01
 10
5844.5431929386486
 20
584.27827873862725
 30
0.0
 11
5844.5431929386486
 21
557.4782787386273
 31
0.0
  0
LINE
  5
99E2
  8
01
 10
5978.9431929386501
 20
558.77827873862725
 30
0.0
 11
5847.143192938649
 21
558.77827873862725
 31
0.0
  0
LINE
  5
99E6
  8
01
 10
5856.5431929386514
 20
610.18706885177994
 30
0.0
 11
5856.5431929386514
 21
567.4782787386273
 31
0.0
  0
LINE
  5
99E7
  8
01
 10
5981.5431929386514
 20
593.77827873862725
 30
0.0
 11
5981.5431929386514
 21
567.4782787386273
 31
0.0
  0
LINE
  5
99E8
  8
01
 10
5859.1431929386508
 20
568.77827873862725
 30
0.0
 11
5978.9431929386501
 21
568.77827873862725
 31
0.0
  0
POINT
  5
99EC
  8
01
 10
5721.0431929386514
 20
507.78037873862729
 30
0.0
  0
LINE
  5
99ED
  8
01
 10
5720.64319292865
 20
506.03037873862729
 30
0.0
 11
5720.64319292865
 21
506.8803787586275
 31
0.0
  0
LINE
  5
99EE
  8
01
 10
5721.4431929486509
 20
506.03037873862729
 30
0.0
 11
5721.4431929486509
 21
506.8803787586275
 31
0.0
  0
LINE
  5
99EF
  8
01
 10
5720.1431929586506
 20
507.38037872862742
 30
0.0
 11
5719.2931929386496
 21
507.38037872862742
 31
0.0
  0
LINE
  5
99F0
  8
01
 10
5720.1431929586506
 20
508.18037874862739
 30
0.0
 11
5719.2931929386496
 21
508.18037874862739
 31
0.0
  0
LINE
  5
99F1
  8
01
 10
5719.2931929386496
 20
507.38037872862742
 30
0.0
 11
5719.2931929386496
 21
508.18037874862739
 31
0.0
  0
LINE
  5
99F2
  8
01
 10
5721.4431929486509
 20
506.03037873862729
 30
0.0
 11
5720.64319292865
 21
506.03037873862729
 31
0.0
  0
LINE
  5
99F3
  8
01
 10
5721.4431929486509
 20
509.53037873862729
 30
0.0
 11
5721.4431929486509
 21
508.6803787186272
 31
0.0
  0
LINE
  5
99F4
  8
01
 10
5720.64319292865
 20
509.53037873862729
 30
0.0
 11
5720.64319292865
 21
508.6803787186272
 31
0.0
  0
LINE
  5
99F5
  8
01
 10
5721.9431929186512
 20
508.18037874862739
 30
0.0
 11
5722.7931929386514
 21
508.18037874862739
 31
0.0
  0
LINE
  5
99F6
  8
01
 10
5721.9431929186512
 20
507.38037872862742
 30
0.0
 11
5722.7931929386514
 21
507.38037872862742
 31
0.0
  0
LINE
  5
99F7
  8
01
 10
5722.7931929386514
 20
508.18037874862739
 30
0.0
 11
5722.7931929386514
 21
507.38037872862742
 31
0.0
  0
LINE
  5
99F8
  8
01
 10
5720.64319292865
 20
509.53037873862729
 30
0.0
 11
5721.4431929486509
 21
509.53037873862729
 31
0.0
  0
CIRCLE
  5
99F9
  8
01
 10
5721.0431929386514
 20
507.78037873862729
 30
0.0
 40
2.5
  0
ARC
  5
99FA
  8
01
 10
5721.9431929186512
 20
508.6803787186272
 30
0.0
 40
0.5
 50
179.999989999999
 51
270.0
  0
ARC
  5
99FB
  8
01
 10
5721.9431929186512
 20
506.8803787586275
 30
0.0
 40
0.5
 50
90.000002999984659
 51
180.000010000001
  0
ARC
  5
99FC
  8
01
 10
5720.1431929586506
 20
506.8803787586275
 30
0.0
 40
0.5
 50
0.0
 51
90.000002999984659
  0
ARC
  5
99FD
  8
01
 10
5720.1431929586506
 20
508.6803787186272
 30
0.0
 40
0.5
 50
270.0
 51
0.0
  0
CIRCLE
  5
99FF
  8
01
 10
5721.0431929386514
 20
507.78037873862729
 30
0.0
 40
3.0
  0
TEXT
  5
9A00
  8
01
 10
5912.2181929386506
 20
569.68827873862722
 30
0.0
 40
4.5499999999999989
  1
125
  0
LINE
  5
9A01
  8
01
  6
BYBLOCK
 10
5978.9431929386501
 20
569.47494663262717
 30
0.0
 11
5981.5431929386514
 21
568.77827873862725
 31
0.0
  0
LINE
  5
9A02
  8
01
  6
BYBLOCK
 10
5981.5431929386514
 20
568.77827873862725
 30
0.0
 11
5978.9431929386501
 21
568.08161084462722
 31
0.0
  0
LINE
  5
9A03
  8
01
  6
BYBLOCK
 10
5981.5431929386514
 20
568.77827873862725
 30
0.0
 11
5978.9431929386501
 21
568.77827873862725
 31
0.0
  0
LINE
  5
9A04
  8
01
  6
BYBLOCK
 10
5859.1431929386508
 20
568.08161084462722
 30
0.0
 11
5856.5431929386514
 21
568.77827873862725
 31
0.0
  0
LINE
  5
9A05
  8
01
  6
BYBLOCK
 10
5856.5431929386514
 20
568.77827873862725
 30
0.0
 11
5859.1431929386508
 21
569.47494663262717
 31
0.0
  0
LINE
  5
9A06
  8
01
  6
BYBLOCK
 10
5856.5431929386514
 20
568.77827873862725
 30
0.0
 11
5859.1431929386508
 21
568.77827873862725
 31
0.0
  0
TEXT
  5
9A07
  8
01
 10
5906.2181929386497
 20
559.68827873862722
 30
0.0
 40
4.5499999999999989
  1
137
  0
LINE
  5
9A08
  8
01
  6
BYBLOCK
 10
5847.143192938649
 20
558.08161084462711
 30
0.0
 11
5844.5431929386486
 21
558.77827873862725
 31
0.0
  0
LINE
  5
9A09
  8
01
  6
BYBLOCK
 10
5844.5431929386486
 20
558.77827873862725
 30
0.0
 11
5847.143192938649
 21
559.47494663262717
 31
0.0
  0
LINE
  5
9A0A
  8
01
  6
BYBLOCK
 10
5844.5431929386486
 20
558.77827873862725
 30
0.0
 11
5847.143192938649
 21
558.77827873862725
 31
0.0
  0
LINE
  5
9A0B
  8
01
  6
BYBLOCK
 10
5978.9431929386501
 20
559.47494663262717
 30
0.0
 11
5981.5431929386514
 21
558.77827873862725
 31
0.0
  0
LINE
  5
9A0C
  8
01
  6
BYBLOCK
 10
5981.5431929386514
 20
558.77827873862725
 30
0.0
 11
5978.9431929386501
 21
558.08161084462711
 31
0.0
  0
LINE
  5
9A0D
  8
01
  6
BYBLOCK
 10
5981.5431929386514
 20
558.77827873862725
 30
0.0
 11
5978.9431929386501
 21
558.77827873862725
 31
0.0
  0
TEXT
  5
9A0E
  8
01
 10
5995.6331929386506
 20
611.54494540529504
 30
0.0
 40
4.5499999999999989
  1
28
 50
90.0
  0
LINE
  5
9A0F
  8
01
  6
BYBLOCK
 10
5997.2398608326503
 20
604.37827873862716
 30
0.0
 11
5996.5431929386496
 21
601.77827873862725
 31
0.0
  0
LINE
  5
9A10
  8
01
  6
BYBLOCK
 10
5996.5431929386496
 20
601.77827873862725
 30
0.0
 11
5995.8465250446507
 21
604.37827873862716
 31
0.0
  0
LINE
  5
9A11
  8
01
  6
BYBLOCK
 10
5996.5431929386496
 20
601.77827873862725
 30
0.0
 11
5996.5431929386496
 21
604.37827873862716
 31
0.0
  0
LINE
  5
9A12
  8
01
  6
BYBLOCK
 10
5995.8465250446507
 20
627.37827873862727
 30
0.0
 11
5996.5431929386496
 21
629.9782787386273
 31
0.0
  0
LINE
  5
9A13
  8
01
  6
BYBLOCK
 10
5996.5431929386496
 20
629.9782787386273
 30
0.0
 11
5997.2398608326503
 21
627.37827873862727
 31
0.0
  0
LINE
  5
9A14
  8
01
  6
BYBLOCK
 10
5996.5431929386496
 20
629.9782787386273
 30
0.0
 11
5996.5431929386496
 21
627.37827873862727
 31
0.0
  0
TEXT
  5
9A15
  8
01
 10
6005.6331929386506
 20
602.54494540529504
 30
0.0
 40
4.5499999999999989
  1
46
 50
90.0
  0
LINE
  5
9A16
  8
01
  6
BYBLOCK
 10
6007.2398608326503
 20
586.37827873862727
 30
0.0
 11
6006.5431929386496
 21
583.77827873862725
 31
0.0
  0
LINE
  5
9A17
  8
01
  6
BYBLOCK
 10
6006.5431929386496
 20
583.77827873862725
 30
0.0
 11
6005.8465250446507
 21
586.37827873862727
 31
0.0
  0
LINE
  5
9A18
  8
01
  6
BYBLOCK
 10
6006.5431929386496
 20
583.77827873862725
 30
0.0
 11
6006.5431929386496
 21
586.37827873862727
 31
0.0
  0
LINE
  5
9A19
  8
01
  6
BYBLOCK
 10
6005.8465250446507
 20
627.37827873862727
 30
0.0
 11
6006.5431929386496
 21
629.9782787386273
 31
0.0
  0
LINE
  5
9A1A
  8
01
  6
BYBLOCK
 10
6006.5431929386496
 20
629.9782787386273
 30
0.0
 11
6007.2398608326503
 21
627.37827873862727
 31
0.0
  0
LINE
  5
9A1B
  8
01
  6
BYBLOCK
 10
6006.5431929386496
 20
629.9782787386273
 30
0.0
 11
6006.5431929386496
 21
627.37827873862727
 31
0.0
  0
TEXT
  5
9A1C
  8
01
 10
5995.6331929386506
 20
503.33871207196222
 30
0.0
 40
4.5499999999999989
  1
24
 50
90.0
  0
LINE
  5
9A1D
  8
01
  6
BYBLOCK
 10
5997.2398608326503
 20
498.38037873862783
 30
0.0
 11
5996.5431929386496
 21
495.78037873862792
 31
0.0
  0
LINE
  5
9A1E
  8
01
  6
BYBLOCK
 10
5996.5431929386496
 20
495.78037873862792
 30
0.0
 11
5995.8465250446507
 21
498.38037873862783
 31
0.0
  0
LINE
  5
9A1F
  8
01
  6
BYBLOCK
 10
5996.5431929386496
 20
495.78037873862792
 30
0.0
 11
5996.5431929386496
 21
498.38037873862783
 31
0.0
  0
LINE
  5
9A20
  8
01
  6
BYBLOCK
 10
5995.8465250446507
 20
517.18037873862784
 30
0.0
 11
5996.5431929386496
 21
519.78037873862775
 31
0.0
  0
LINE
  5
9A21
  8
01
  6
BYBLOCK
 10
5996.5431929386496
 20
519.78037873862775
 30
0.0
 11
5997.2398608326503
 21
517.18037873862784
 31
0.0
  0
LINE
  5
9A22
  8
01
  6
BYBLOCK
 10
5996.5431929386496
 20
519.78037873862775
 30
0.0
 11
5996.5431929386496
 21
517.18037873862784
 31
0.0
  0
TEXT
  5
9A23
  8
01
 10
5820.6331929386497
 20
499.39896610980588
 30
0.0
 40
4.5499999999999989
  1
□53
 50
90.0
  0
LINE
  5
9A24
  8
01
  6
BYBLOCK
 10
5822.2398608326503
 20
483.8803787386255
 30
0.0
 11
5821.5431929386496
 21
481.28037873862547
 31
0.0
  0
LINE
  5
9A25
  8
01
  6
BYBLOCK
 10
5821.5431929386496
 20
481.28037873862547
 30
0.0
 11
5820.8465250446498
 21
483.8803787386255
 31
0.0
  0
LINE
  5
9A26
  8
01
  6
BYBLOCK
 10
5821.5431929386496
 20
481.28037873862547
 30
0.0
 11
5821.5431929386496
 21
483.8803787386255
 31
0.0
  0
LINE
  5
9A27
  8
01
  6
BYBLOCK
 10
5820.8465250446498
 20
531.68037873862545
 30
0.0
 11
5821.5431929386496
 21
534.28037873862547
 31
0.0
  0
LINE
  5
9A28
  8
01
  6
BYBLOCK
 10
5821.5431929386496
 20
534.28037873862547
 30
0.0
 11
5822.2398608326503
 21
531.68037873862545
 31
0.0
  0
LINE
  5
9A29
  8
01
  6
BYBLOCK
 10
5821.5431929386496
 20
534.28037873862547
 30
0.0
 11
5821.5431929386496
 21
531.68037873862545
 31
0.0
  0
VIEWPORT
  5
57
 67
     1
  8
0
 10
75.144607247197655
 20
10.083731670551
 30
0.0
 40
616.14276883343712
 41
283.00794975230758
 68
     1
 69
     1
1001
ACAD
1000
MVIEW
1002
{
1070
    16
1010
0.0
1020
0.0
1030
0.0
1010
0.0
1020
0.0
1030
1.0
1040
0.0
1040
283.00794975230758
1040
75.144607247197655
1040
10.083731670551
1040
50.0
1040
0.0
1040
0.0
1070
     0
1070
   100
1070
     1
1070
     1
1070
     0
1070
     0
1070
     0
1070
     0
1040
0.0
1040
0.0
1040
0.0
1040
10.0
1040
10.0
1040
10.0
1040
10.0
1070
     0
1002
{
1002
}
1002
}
  0
ENDSEC
  0
EOF
