  0
SECTION
  2
HEADER
  9
$ACADVER
  1
AC1009
  9
$INSBASE
 10
0.0
 20
0.0
 30
0.0
  9
$EXTMIN
 10
6617.4088919636524
 20
366.3578561647164
 30
0.0
  9
$EXTMAX
 10
6916.4222803787643
 20
541.73208009823668
 30
0.0
  9
$LIMMIN
 10
0.0
 20
0.0
  9
$LIMMAX
 10
420.0
 20
297.0
  9
$ORTHOMODE
 70
     0
  9
$REGENMODE
 70
     1
  9
$FILLMODE
 70
     1
  9
$QTEXTMODE
 70
     0
  9
$MIRRTEXT
 70
     0
  9
$DRAGMODE
 70
     2
  9
$LTSCALE
 40
0.5
  9
$OSMODE
 70
  2175
  9
$ATTMODE
 70
     1
  9
$TEXTSIZE
 40
4.0
  9
$TRACEWID
 40
1.0
  9
$TEXTSTYLE
  7
STANDARD
  9
$CLAYER
  8
1TEXT
  9
$CELTYPE
  6
BYLAYER
  9
$CECOLOR
 62
   256
  9
$DIMSCALE
 40
1.0
  9
$DIMASZ
 40
2.0
  9
$DIMEXO
 40
0.0
  9
$DIMDLI
 40
7.0
  9
$DIMRND
 40
0.0
  9
$DIMDLE
 40
0.0
  9
$DIMEXE
 40
1.0
  9
$DIMTP
 40
0.0
  9
$DIMTM
 40
0.0
  9
$DIMTXT
 40
3.5
  9
$DIMCEN
 40
0.0
  9
$DIMTSZ
 40
0.0
  9
$DIMTOL
 70
     0
  9
$DIMLIM
 70
     0
  9
$DIMTIH
 70
     0
  9
$DIMTOH
 70
     0
  9
$DIMSE1
 70
     0
  9
$DIMSE2
 70
     0
  9
$DIMTAD
 70
     1
  9
$DIMZIN
 70
     8
  9
$DIMBLK
  1

  9
$DIMASO
 70
     1
  9
$DIMSHO
 70
     1
  9
$DIMPOST
  1
 
  9
$DIMAPOST
  1

  9
$DIMALT
 70
     0
  9
$DIMALTD
 70
     2
  9
$DIMALTF
 40
25.399999999999999
  9
$DIMLFAC
 40
1.0
  9
$DIMTOFL
 70
     1
  9
$DIMTVP
 40
0.0
  9
$DIMTIX
 70
     0
  9
$DIMSOXD
 70
     0
  9
$DIMSAH
 70
     1
  9
$DIMBLK1
  1
OPEN30
  9
$DIMBLK2
  1
OPEN30
  9
$DIMSTYLE
  2
NEWX10
  9
$DIMCLRD
 70
   256
  9
$DIMCLRE
 70
   256
  9
$DIMCLRT
 70
   201
  9
$DIMTFAC
 40
0.7
  9
$DIMGAP
 40
0.7
  9
$LUNITS
 70
     2
  9
$LUPREC
 70
     4
  9
$SKETCHINC
 40
1.0
  9
$FILLETRAD
 40
0.0
  9
$AUNITS
 70
     0
  9
$AUPREC
 70
     2
  9
$MENU
  1
acad
  9
$ELEVATION
 40
0.0
  9
$PELEVATION
 40
0.0
  9
$THICKNESS
 40
0.0
  9
$LIMCHECK
 70
     0
  9
$BLIPMODE
 70
     0
  9
$CHAMFERA
 40
10.0
  9
$CHAMFERB
 40
10.0
  9
$SKPOLY
 70
     0
  9
$TDCREATE
 40
2451318.621352917
  9
$TDUPDATE
 40
2456643.4256213768
  9
$TDINDWG
 40
0.4338945833
  9
$TDUSRTIMER
 40
0.4338945833
  9
$USRTIMER
 70
     1
  9
$ANGBASE
 50
0.0
  9
$ANGDIR
 70
     0
  9
$PDMODE
 70
     0
  9
$PDSIZE
 40
0.0
  9
$PLINEWID
 40
0.0
  9
$COORDS
 70
     0
  9
$SPLFRAME
 70
     0
  9
$SPLINETYPE
 70
     6
  9
$SPLINESEGS
 70
     8
  9
$ATTDIA
 70
     0
  9
$ATTREQ
 70
     1
  9
$HANDLING
 70
     1
  9
$HANDSEED
  5
9A5E
  9
$SURFTAB1
 70
     6
  9
$SURFTAB2
 70
     6
  9
$SURFTYPE
 70
     6
  9
$SURFU
 70
     6
  9
$SURFV
 70
     6
  9
$UCSNAME
  2

  9
$UCSORG
 10
0.0
 20
0.0
 30
0.0
  9
$UCSXDIR
 10
1.0
 20
0.0
 30
0.0
  9
$UCSYDIR
 10
0.0
 20
1.0
 30
0.0
  9
$PUCSNAME
  2

  9
$PUCSORG
 10
0.0
 20
0.0
 30
0.0
  9
$PUCSXDIR
 10
1.0
 20
0.0
 30
0.0
  9
$PUCSYDIR
 10
0.0
 20
1.0
 30
0.0
  9
$USERI1
 70
     0
  9
$USERI2
 70
     0
  9
$USERI3
 70
     0
  9
$USERI4
 70
     0
  9
$USERI5
 70
     0
  9
$USERR1
 40
0.0
  9
$USERR2
 40
0.0
  9
$USERR3
 40
0.0
  9
$USERR4
 40
0.0
  9
$USERR5
 40
0.0
  9
$WORLDVIEW
 70
     1
  9
$SHADEDGE
 70
     3
  9
$SHADEDIF
 70
    70
  9
$TILEMODE
 70
     1
  9
$MAXACTVP
 70
    48
  9
$PLIMCHECK
 70
     0
  9
$PEXTMIN
 10
1.0000000000000000E+020
 20
1.0000000000000000E+020
 30
1.0000000000000000E+020
  9
$PEXTMAX
 10
-1.0000000000000000E+020
 20
-1.0000000000000000E+020
 30
-1.0000000000000000E+020
  9
$PLIMMIN
 10
0.0
 20
0.0
  9
$PLIMMAX
 10
420.0
 20
297.0
  9
$UNITMODE
 70
     0
  9
$VISRETAIN
 70
     1
  9
$PLINEGEN
 70
     0
  9
$PSLTSCALE
 70
     1
  0
ENDSEC
  0
SECTION
  2
TABLES
  0
TABLE
  2
VPORT
 70
     1
  0
VPORT
  2
*ACTIVE
 70
     0
 10
0.0
 20
0.0
 11
1.0
 21
1.0
 12
6766.7719281175378
 22
454.04449145924559
 13
0.0
 23
0.0
 14
10.0
 24
10.0
 15
10.0
 25
10.0
 16
0.0
 26
0.0
 36
1.0
 17
0.0
 27
0.0
 37
0.0
 40
186.00124206945051
 41
2.1771217712177111
 42
50.0
 43
0.0
 44
0.0
 50
0.0
 51
0.0
 71
     0
 72
   100
 73
     1
 74
     1
 75
     0
 76
     0
 77
     0
 78
     0
  0
ENDTAB
  0
TABLE
  2
LTYPE
 70
    14
  0
LTYPE
  2
CONTINUOUS
 70
     0
  3
Solid line
 72
    65
 73
     0
 40
0.0
  0
LTYPE
  2
XREF1|CENTER2
 70
    48
  3
Center (.5x) ___ _ ___ _ ___ _ ___ _ ___ _ ___
 72
    65
 73
     4
 40
28.574999999999999
 49
19.050000000000001
 49
-3.1749999999999989
 49
3.1749999999999989
 49
-3.1749999999999989
  0
LTYPE
  2
A3WAKUDAKE|CENTER2
 70
    48
  3
Center (.5x) ___ _ ___ _ ___ _ ___ _ ___ _ ___
 72
    65
 73
     4
 40
28.574999999999999
 49
19.050000000000001
 49
-3.1749999999999989
 49
3.1749999999999989
 49
-3.1749999999999989
  0
ENDTAB
  0
TABLE
  2
LAYER
 70
    44
  0
LAYER
  2
0
 70
     0
 62
     7
  6
CONTINUOUS
  0
LAYER
  2
1TEXT
 70
     0
 62
     7
  6
CONTINUOUS
  0
LAYER
  2
XREF1|1CENTER
 70
    48
 62
     7
  6
XREF1|CENTER2
  0
LAYER
  2
01
 70
     0
 62
     1
  6
CONTINUOUS
  0
LAYER
  2
A3WAKUDAKE|THICK
 70
    48
 62
     7
  6
CONTINUOUS
  0
LAYER
  2
A3WAKUDAKE|POINT
 70
    48
 62
     7
  6
CONTINUOUS
  0
LAYER
  2
A3WAKUDAKE|1CENTER
 70
    48
 62
     7
  6
A3WAKUDAKE|CENTER2
  0
LAYER
  2
A3WAKUDAKE|0-6
 70
    48
 62
     7
  6
CONTINUOUS
  0
LAYER
  2
A3WAKUDAKE|1DIM
 70
    48
 62
     7
  6
CONTINUOUS
  0
ENDTAB
  0
TABLE
  2
STYLE
 70
     6
  0
STYLE
  2
STANDARD
 70
     0
 40
0.0
 41
1.0
 50
0.0
 71
     0
 42
4.0
  3
romans.shx
  4
extfont.shx
  0
ENDTAB
  0
TABLE
  2
VIEW
 70
     5
  0
ENDTAB
  0
TABLE
  2
UCS
 70
     0
  0
ENDTAB
  0
TABLE
  2
APPID
 70
    11
  0
APPID
  2
ACAD
 70
     0
  0
APPID
  2
DRAWINGVARIABLESXDATA
 70
     0
  0
APPID
  2
CONTENTTABDATA
 70
     0
  0
APPID
  2
CONTENTCURRENTTAB
 70
     0
  0
APPID
  2
CONTENTBLOCKDESCRIPTION
 70
     0
  0
APPID
  2
CONTENTBLOCKICON
 70
     0
  0
APPID
  2
CONTENTLONGBLOCKNAME
 70
     0
  0
APPID
  2
ACAD_PSEXT
 70
     0
  0
APPID
  2
ACAD_MLEADERVER
 70
     0
  0
APPID
  2
ACAECLAYERSTANDARD
 70
     0
  0
APPID
  2
ACAD_EXEMPT_FROM_CAD_STANDARDS
 70
     0
  0
ENDTAB
  0
TABLE
  2
DIMSTYLE
 70
     6
  0
DIMSTYLE
  2
NEWX10
 70
     0
  3
 
  4

  5

  6
OPEN30
  7
OPEN30
 40
1.0
 41
2.0
 42
0.0
 43
7.0
 44
1.0
 45
0.0
 46
0.0
 47
0.0
 48
0.0
140
3.5
141
0.0
142
0.0
143
25.399999999999999
144
1.0
145
0.0
146
0.7
147
0.7
 71
     0
 72
     0
 73
     0
 74
     0
 75
     0
 76
     0
 77
     1
 78
     8
170
     0
171
     2
172
     1
173
     1
174
     0
175
     0
176
   256
177
   256
178
   201
  0
ENDTAB
  0
ENDSEC
  0
SECTION
  2
BLOCKS
  0
BLOCK
  8
0
  2
$MODEL_SPACE
 70
     0
 10
0.0
 20
0.0
 30
0.0
  3
$MODEL_SPACE
  1

  0
ENDBLK
  5
1A
  8
0
  0
BLOCK
 67
     1
  8
0
  2
$PAPER_SPACE
 70
     0
 10
0.0
 20
0.0
 30
0.0
  3
$PAPER_SPACE
  1

  0
ENDBLK
  5
17
 67
     1
  8
0
  0
BLOCK
  8
0
  2
_OPEN30
 70
     0
 10
0.0
 20
0.0
 30
0.0
  3
_OPEN30
  1

  0
LINE
  5
44
  8
0
  6
BYBLOCK
 62
     0
 10
-1.0
 20
0.26794919
 30
0.0
 11
0.0
 21
0.0
 31
0.0
  0
LINE
  5
45
  8
0
  6
BYBLOCK
 62
     0
 10
0.0
 20
0.0
 30
0.0
 11
-1.0
 21
-0.26794919
 31
0.0
  0
LINE
  5
46
  8
0
  6
BYBLOCK
 62
     0
 10
0.0
 20
0.0
 30
0.0
 11
-1.0
 21
0.0
 31
0.0
  0
ENDBLK
  5
47
  8
0
  0
BLOCK
  8
0
  2
XREF1
 70
    36
 10
0.0
 20
0.0
 30
0.0
  3
XREF1
  1
D:\ACLT\FORMAT\KAWAJUN(9)図面用.dwg
  0
ENDBLK
  5
5D
  8
0
  0
BLOCK
  8
0
  2
A3WAKUDAKE
 70
    36
 10
0.0
 20
0.0
 30
0.0
  3
A3WAKUDAKE
  1
D:\ACLT\FORMAT\A3WAKUdake.dwg
  0
ENDBLK
  5
6A0
  8
0
  0
BLOCK
  8
0
  2
*U28
 70
     1
 10
0.0
 20
0.0
 30
0.0
  3
*U28
  1

  0
TEXT
  5
99FE
  8
1TEXT
 62
   201
 10
6732.1271733460826
 20
400.86110080274852
 30
0.0
 40
4.5499999999999989
  1
53
 50
90.0
  0
ENDBLK
  5
9A00
  8
0
  0
BLOCK
  8
0
  2
*U29
 70
     1
 10
0.0
 20
0.0
 30
0.0
  3
*U29
  1

  0
TEXT
  5
9A25
  8
1TEXT
 62
   201
 10
6777.2038400127503
 20
365.94418009823647
 30
0.0
 40
4.5499999999999989
  1
80
  0
ENDBLK
  5
9A27
  8
0
  0
BLOCK
  8
0
  2
*U30
 70
     1
 10
0.0
 20
0.0
 30
0.0
  3
*U30
  1

  0
TEXT
  5
9A2F
  8
1TEXT
 62
   201
 10
852.13181084106122
 20
1925.3057174473231
 30
0.0
 40
4.5499999999999989
  1
□53
 50
90.0
  0
ENDBLK
  5
9A31
  8
0
  0
BLOCK
  8
0
  2
*U31
 70
     1
 10
0.0
 20
0.0
 30
0.0
  3
*U31
  1

  0
TEXT
  5
9A33
  8
1TEXT
 62
   201
 10
948.71681084106137
 20
2039.597130076145
 30
0.0
 40
4.5499999999999989
  1
135
  0
ENDBLK
  5
9A35
  8
0
  0
BLOCK
  8
0
  2
*U32
 70
     1
 10
0.0
 20
0.0
 30
0.0
  3
*U32
  1

  0
TEXT
  5
9A37
  8
1TEXT
 62
   201
 10
942.71681084106126
 20
2029.597130076145
 30
0.0
 40
4.5499999999999989
  1
147
  0
ENDBLK
  5
9A39
  8
0
  0
BLOCK
  8
0
  2
*U33
 70
     1
 10
0.0
 20
0.0
 30
0.0
  3
*U33
  1

  0
TEXT
  5
9A3B
  8
1TEXT
 62
   201
 10
1042.131810841061
 20
2099.353796742811
 30
0.0
 40
4.5499999999999989
  1
40
 50
90.0
  0
ENDBLK
  5
9A3D
  8
0
  0
BLOCK
  8
0
  2
*U34
 70
     1
 10
0.0
 20
0.0
 30
0.0
  3
*U34
  1

  0
TEXT
  5
9A3F
  8
1TEXT
 62
   201
 10
1052.131810841061
 20
2089.2454634094779
 30
0.0
 40
4.5499999999999989
  1
60
 50
90.0
  0
ENDBLK
  5
9A41
  8
0
  0
BLOCK
  8
0
  2
*U35
 70
     1
 10
0.0
 20
0.0
 30
0.0
  3
*U35
  1

  0
TEXT
  5
9A43
  8
1TEXT
 62
   201
 10
1042.131810841061
 20
1929.028796742811
 30
0.0
 40
4.5499999999999989
  1
15
 50
90.0
  0
ENDBLK
  5
9A45
  8
0
  0
BLOCK
  8
0
  2
*U36
 70
     1
 10
0.0
 20
0.0
 30
0.0
  3
*U36
  1

  0
TEXT
  5
9A47
  8
1TEXT
 62
   201
 10
7188.9404585884704
 20
510.98922995663071
 30
0.0
 40
4.5499999999999989
  1
135
  0
ENDBLK
  5
9A49
  8
0
  0
BLOCK
  8
0
  2
*U37
 70
     1
 10
0.0
 20
0.0
 30
0.0
  3
*U37
  1

  0
TEXT
  5
9A4B
  8
1TEXT
 62
   201
 10
7182.9404585884704
 20
500.98922995663071
 30
0.0
 40
4.5499999999999989
  1
147
  0
ENDBLK
  5
9A4D
  8
0
  0
BLOCK
  8
0
  2
*U38
 70
     1
 10
0.0
 20
0.0
 30
0.0
  3
*U38
  1

  0
TEXT
  5
9A4F
  8
1TEXT
 62
   201
 10
7282.3554585884713
 20
570.74589662329856
 30
0.0
 40
4.5499999999999989
  1
40
 50
90.0
  0
ENDBLK
  5
9A51
  8
0
  0
BLOCK
  8
0
  2
*U39
 70
     1
 10
0.0
 20
0.0
 30
0.0
  3
*U39
  1

  0
TEXT
  5
9A53
  8
1TEXT
 62
   201
 10
7292.3554585884704
 20
560.63756328996521
 30
0.0
 40
4.5499999999999989
  1
60
 50
90.0
  0
ENDBLK
  5
9A55
  8
0
  0
BLOCK
  8
0
  2
*U40
 70
     1
 10
0.0
 20
0.0
 30
0.0
  3
*U40
  1

  0
TEXT
  5
9A57
  8
1TEXT
 62
   201
 10
7282.3554585884713
 20
400.42089662329852
 30
0.0
 40
4.5499999999999989
  1
15
 50
90.0
  0
ENDBLK
  5
9A59
  8
0
  0
BLOCK
  8
0
  2
*U41
 70
     1
 10
0.0
 20
0.0
 30
0.0
  3
*U41
  1

  0
TEXT
  5
9A5B
  8
1TEXT
 62
   201
 10
7092.3554585884704
 20
396.6978173278095
 30
0.0
 40
4.5499999999999989
  1
□53
 50
90.0
  0
ENDBLK
  5
9A5D
  8
0
  0
ENDSEC
  0
SECTION
  2
ENTITIES
  0
ARC
  5
8DD2
  8
01
 10
6772.3937609471586
 20
490.53208009823669
 30
0.0
 40
8.0
 50
194.9999999999944
 51
270.0
  0
LINE
  5
8DD3
  8
01
 10
6755.5371773460829
 20
417.03418009823679
 30
0.0
 11
6755.5371773460829
 21
396.03418009823702
 31
0.0
  0
LINE
  5
8DD4
  8
01
 10
6890.1222803787632
 20
417.03418009823679
 30
0.0
 11
6890.1222803787632
 21
396.0341800982369
 31
0.0
  0
LINE
  5
8DD5
  8
01
 10
6756.0371773460829
 20
395.53418009823702
 30
0.0
 11
6889.6222803787632
 21
395.5341800982369
 31
0.0
  0
LINE
  5
8DD6
  8
01
 10
6756.0371773460829
 20
417.53418009823679
 30
0.0
 11
6889.6222803787632
 21
417.53418009823667
 31
0.0
  0
LINE
  5
8DD8
  8
01
 10
6755.5371773460829
 20
522.53208009823675
 30
0.0
 11
6785.5371773460829
 21
522.53208009823675
 31
0.0
  0
LINE
  5
8DD9
  8
01
 10
6785.5371773460829
 20
522.53208009823675
 30
0.0
 11
6793.0492069582069
 21
494.4968039178267
 31
0.0
  0
LINE
  5
8DDA
  8
01
 10
6755.5371773460829
 20
522.53208009823675
 30
0.0
 11
6764.6663543368468
 21
488.46152773741659
 31
0.0
  0
LINE
  5
8DDB
  8
01
 10
6796.9129102633633
 20
491.53208009823669
 30
0.0
 11
6866.9158137397599
 21
491.53208009823669
 31
0.0
  0
LINE
  5
8DDC
  8
01
 10
6772.3937609471586
 20
482.53208009823669
 30
0.0
 11
6866.9158137397599
 21
482.53208009823669
 31
0.0
  0
ARC
  5
8DDD
  8
01
 10
6866.9158137397599
 20
506.53208009823669
 30
0.0
 40
24.0
 50
270.0
 51
343.78084886597588
  0
LINE
  5
8DDE
  8
01
 10
6881.8798722953161
 20
502.5224726927832
 30
0.0
 11
6889.6099321726169
 21
500.45120939121671
 31
0.0
  0
ARC
  5
8DE3
  8
01
 10
6889.4805226500648
 20
499.96824647807199
 30
0.0
 40
0.5
 50
343.78084886597588
 51
75.000000000005556
  0
ARC
  5
8DE6
  8
01
 10
6796.9129102633633
 20
495.53208009823669
 30
0.0
 40
4.0
 50
194.99999999999989
 51
270.0
  0
ARC
  5
8DE7
  8
01
 10
6866.9158137397599
 20
506.53208009823669
 30
0.0
 40
15.0
 50
270.0
 51
343.15142835477093
  0
ARC
  5
8DE8
  8
01
 10
6881.750462772764
 20
502.03950977963848
 30
0.0
 40
0.5
 50
75.00000000000513
 51
163.15142835477079
  0
ARC
  5
8DEA
  8
01
 10
6756.0371773460829
 20
396.03418009823702
 30
0.0
 40
0.5
 50
180.0
 51
270.0
  0
ARC
  5
8DEB
  8
01
 10
6756.0371773460829
 20
417.03418009823679
 30
0.0
 40
0.5
 50
90.0
 51
180.0
  0
ARC
  5
8DEC
  8
01
 10
6889.6222803787632
 20
417.03418009823679
 30
0.0
 40
0.5
 50
0.0
 51
90.0
  0
ARC
  5
8DED
  8
01
 10
6889.6222803787632
 20
396.0341800982369
 30
0.0
 40
0.5
 50
270.0
 51
0.0
  0
ARC
  5
8E7D
  8
01
 10
6665.2371773460827
 20
395.0341800982369
 30
0.0
 40
0.5
 50
270.0
 51
0.0
  0
ARC
  5
8E7E
  8
01
 10
6665.2371773460827
 20
418.03418009823679
 30
0.0
 40
0.5
 50
0.0
 51
90.0
  0
LINE
  5
8E7F
  8
01
 10
6665.7371773460818
 20
418.03418009823679
 30
0.0
 11
6665.7371773460818
 21
395.0341800982369
 31
0.0
  0
LINE
  5
8E83
  8
01
 10
6628.7371773460827
 20
394.5341800982369
 30
0.0
 11
6665.2371773460827
 21
394.5341800982369
 31
0.0
  0
LINE
  5
8E84
  8
01
 10
6628.7371773460827
 20
418.53418009823707
 30
0.0
 11
6665.2371773460827
 21
418.5341800982369
 31
0.0
  0
LINE
  5
8E85
  8
01
 10
6628.7371773460827
 20
418.53418009823707
 30
0.0
 11
6628.7371773460827
 21
394.5341800982369
 31
0.0
  0
LINE
  5
903D
  8
01
 10
6769.5371773460838
 20
400.53418009823679
 30
0.0
 11
6769.5371773460838
 21
412.5341800982369
 31
0.0
  0
LINE
  5
903E
  8
01
 10
6763.5371773460829
 20
406.5341800982369
 30
0.0
 11
6775.5371773460838
 21
406.5341800982369
 31
0.0
  0
LINE
  5
903F
  8
01
 10
6769.5371773460838
 20
534.56915559382082
 30
0.0
 11
6769.5371773460838
 21
511.94087021138938
 31
0.0
  0
LINE
  5
9057
  8
01
 10
6619.5371773460829
 20
431.5341800982369
 30
0.0
 11
6619.5371773460829
 21
381.5341800982369
 31
0.0
  0
LINE
  5
9061
  8
01
 10
6634.0371773460829
 20
400.53418009823679
 30
0.0
 11
6634.0371773460829
 21
412.5341800982369
 31
0.0
  0
LINE
  5
9062
  8
01
 10
6617.4088919636524
 20
406.5341800982369
 30
0.0
 11
6640.0371773460838
 21
406.5341800982369
 31
0.0
  0
TEXT
  5
9065
  8
01
 10
6619.5371773460829
 20
531.73208009823679
 30
0.0
 40
10.0
  1
RST
 41
1.017187499999999
  0
LINE
  5
9089
  8
01
 10
6729.5371773460829
 20
531.73208009823679
 30
0.0
 11
6872.2923253434301
 21
531.73208009823679
 31
0.0
  0
LINE
  5
90CB
  8
01
 10
6619.5371773460829
 20
446.71050403175741
 30
0.0
 11
6619.5371773460829
 21
366.3578561647164
 31
0.0
  0
LINE
  5
92FF
  8
01
 10
6752.9272193405122
 20
517.0320841314965
 30
0.0
 11
6761.0608917023601
 21
517.03207609824585
 31
0.0
  0
LINE
  5
95F3
  8
01
 10
6619.5371773460829
 20
433.0341800982365
 30
0.0
 11
6619.5371773460829
 21
380.03418009823662
 31
0.0
  0
LINE
  5
95F4
  8
01
 10
6628.0371773460829
 20
380.53418009823662
 30
0.0
 11
6628.0371773460829
 21
432.5341800982365
 31
0.0
  0
ARC
  5
95F5
  8
01
 10
6627.5371773460829
 20
380.53418009823662
 30
0.0
 40
0.5
 50
270.0
 51
0.0
  0
LINE
  5
95F6
  8
01
 10
6619.5371773460829
 20
380.03418009823662
 30
0.0
 11
6627.5371773460829
 21
380.03418009823662
 31
0.0
  0
LINE
  5
95F7
  8
01
 10
6619.5371773460829
 20
433.0341800982365
 30
0.0
 11
6627.5371773460829
 21
433.0341800982365
 31
0.0
  0
ARC
  5
95F8
  8
01
 10
6627.5371773460829
 20
432.5341800982365
 30
0.0
 40
0.5
 50
0.0
 51
90.0
  0
LINE
  5
991A
  8
01
 10
6795.5371773460829
 20
433.03418009823508
 30
0.0
 11
6743.5371773460874
 21
433.03418009823508
 31
0.0
  0
LINE
  5
991B
  8
01
 10
6743.5371773460874
 20
380.03418009823508
 30
0.0
 11
6795.5371773460829
 21
380.03418009823508
 31
0.0
  0
LINE
  5
991C
  8
01
 10
6743.0371773460856
 20
432.53418009823503
 30
0.0
 11
6743.0371773460856
 21
380.53418009823508
 31
0.0
  0
ARC
  5
991D
  8
01
 10
6743.5371773460874
 20
380.53418009823508
 30
0.0
 40
0.5
 50
180.0
 51
270.0
  0
ARC
  5
991E
  8
01
 10
6743.5371773460874
 20
432.53418009823503
 30
0.0
 40
0.5
 50
90.0
 51
180.0
  0
LINE
  5
991F
  8
01
 10
6796.0371773460829
 20
432.53418009823503
 30
0.0
 11
6796.0371773460829
 21
380.53418009823508
 31
0.0
  0
ARC
  5
9920
  8
01
 10
6795.5371773460829
 20
380.53418009823508
 30
0.0
 40
0.5
 50
270.0
 51
0.0
  0
ARC
  5
9921
  8
01
 10
6795.5371773460829
 20
432.53418009823503
 30
0.0
 40
0.5
 50
0.0
 51
90.0
  0
LINE
  5
9922
  8
01
 10
6743.0371773460856
 20
531.73208009823679
 30
0.0
 11
6796.0371773460829
 21
531.73208009823679
 31
0.0
  0
LINE
  5
9923
  8
01
 10
6743.5371773460874
 20
523.23208009823679
 30
0.0
 11
6795.5371773460829
 21
523.23208009823679
 31
0.0
  0
LINE
  5
9924
  8
01
 10
6796.0371773460829
 20
531.73208009823679
 30
0.0
 11
6796.0371773460829
 21
523.73208009823668
 31
0.0
  0
LINE
  5
9925
  8
01
 10
6743.0371773460856
 20
531.73208009823679
 30
0.0
 11
6743.0371773460856
 21
523.73208009823668
 31
0.0
  0
ARC
  5
9926
  8
01
 10
6743.5371773460874
 20
523.73208009823668
 30
0.0
 40
0.5
 50
180.0
 51
270.0
  0
ARC
  5
9927
  8
01
 10
6795.5371773460829
 20
523.73208009823668
 30
0.0
 40
0.5
 50
270.0
 51
0.0
  0
LINE
  5
997F
  8
01
 10
6889.6222803787632
 20
417.53418009823667
 30
0.0
 11
6906.4222803787616
 21
417.53418009823667
 31
0.0
  0
LINE
  5
9980
  8
01
 10
6889.6222803787632
 20
395.5341800982369
 30
0.0
 11
6906.4222803787616
 21
395.5341800982369
 31
0.0
  0
LINE
  5
9981
  8
01
 10
6905.1222803787641
 20
414.93418009823682
 30
0.0
 11
6905.1222803787641
 21
398.13418009823693
 31
0.0
  0
LINE
  5
9985
  8
01
 10
6899.5371773460829
 20
531.73208009823679
 30
0.0
 11
6916.4222803787643
 21
531.73208009823668
 31
0.0
  0
LINE
  5
9986
  8
01
 10
6866.9158137397599
 20
482.53208009823669
 30
0.0
 11
6916.4222803787643
 21
482.53208009823669
 31
0.0
  0
LINE
  5
9987
  8
01
 10
6915.1222803787632
 20
529.13208009823666
 30
0.0
 11
6915.1222803787632
 21
485.13208009823671
 31
0.0
  0
LINE
  5
998B
  8
01
 10
6872.2923253434301
 20
531.73208009823679
 30
0.0
 11
6906.4222803787616
 21
531.73208009823679
 31
0.0
  0
LINE
  5
998C
  8
01
 10
6881.750462772764
 20
502.53950977963848
 30
0.0
 11
6906.4222803787616
 21
502.53950977963848
 31
0.0
  0
LINE
  5
998D
  8
01
 10
6905.1222803787641
 20
529.13208009823677
 30
0.0
 11
6905.1222803787641
 21
505.13950977963862
 31
0.0
  0
LINE
  5
9991
  8
01
 10
6755.5371773460829
 20
522.53208009823675
 30
0.0
 11
6755.5371773460829
 21
461.23208009823668
 31
0.0
  0
LINE
  5
9992
  8
01
 10
6889.9805226500639
 20
472.53208009823669
 30
0.0
 11
6889.9805226500639
 21
461.23208009823668
 31
0.0
  0
LINE
  5
9993
  8
01
 10
6758.1371773460833
 20
462.53208009823669
 30
0.0
 11
6887.3805226500654
 21
462.53208009823669
 31
0.0
  0
LINE
  5
9997
  8
01
 10
6769.5371773460838
 20
511.94087021138938
 30
0.0
 11
6769.5371773460838
 21
471.23208009823668
 31
0.0
  0
LINE
  5
9998
  8
01
 10
6889.9805226500639
 20
499.96824647807199
 30
0.0
 11
6889.9805226500639
 21
471.23208009823668
 31
0.0
  0
LINE
  5
9999
  8
01
 10
6772.1371773460833
 20
472.53208009823669
 30
0.0
 11
6887.3805226500654
 21
472.53208009823669
 31
0.0
  0
POINT
  5
999D
  8
01
 10
6634.0371773460829
 20
406.5341800982369
 30
0.0
  0
LINE
  5
999E
  8
01
 10
6633.6371773360815
 20
404.7841800982369
 30
0.0
 11
6633.6371773360815
 21
405.634180118237
 31
0.0
  0
LINE
  5
999F
  8
01
 10
6634.4371773560833
 20
404.7841800982369
 30
0.0
 11
6634.4371773560833
 21
405.634180118237
 31
0.0
  0
LINE
  5
99A0
  8
01
 10
6633.137177366084
 20
406.1341800882368
 30
0.0
 11
6632.2871773460829
 21
406.1341800882368
 31
0.0
  0
LINE
  5
99A1
  8
01
 10
6633.137177366084
 20
406.93418010823677
 30
0.0
 11
6632.2871773460829
 21
406.93418010823677
 31
0.0
  0
LINE
  5
99A2
  8
01
 10
6632.2871773460829
 20
406.1341800882368
 30
0.0
 11
6632.2871773460829
 21
406.93418010823677
 31
0.0
  0
LINE
  5
99A3
  8
01
 10
6634.4371773560833
 20
404.7841800982369
 30
0.0
 11
6633.6371773360815
 21
404.7841800982369
 31
0.0
  0
LINE
  5
99A4
  8
01
 10
6634.4371773560833
 20
408.2841800982369
 30
0.0
 11
6634.4371773560833
 21
407.43418007823669
 31
0.0
  0
LINE
  5
99A5
  8
01
 10
6633.6371773360815
 20
408.2841800982369
 30
0.0
 11
6633.6371773360815
 21
407.43418007823669
 31
0.0
  0
LINE
  5
99A6
  8
01
 10
6634.9371773260827
 20
406.93418010823677
 30
0.0
 11
6635.7871773460829
 21
406.93418010823677
 31
0.0
  0
LINE
  5
99A7
  8
01
 10
6634.9371773260827
 20
406.1341800882368
 30
0.0
 11
6635.7871773460829
 21
406.1341800882368
 31
0.0
  0
LINE
  5
99A8
  8
01
 10
6635.7871773460829
 20
406.93418010823677
 30
0.0
 11
6635.7871773460829
 21
406.1341800882368
 31
0.0
  0
LINE
  5
99A9
  8
01
 10
6633.6371773360815
 20
408.2841800982369
 30
0.0
 11
6634.4371773560833
 21
408.2841800982369
 31
0.0
  0
CIRCLE
  5
99AA
  8
01
 10
6634.0371773460829
 20
406.5341800982369
 30
0.0
 40
2.5
  0
ARC
  5
99AB
  8
01
 10
6634.9371773260827
 20
407.43418007823669
 30
0.0
 40
0.5
 50
179.999989999999
 51
270.0
  0
ARC
  5
99AC
  8
01
 10
6634.9371773260827
 20
405.634180118237
 30
0.0
 40
0.5
 50
90.000002999984659
 51
180.000010000001
  0
ARC
  5
99AD
  8
01
 10
6633.137177366084
 20
405.634180118237
 30
0.0
 40
0.5
 50
0.0
 51
90.000002999984659
  0
ARC
  5
99AE
  8
01
 10
6633.137177366084
 20
407.43418007823669
 30
0.0
 40
0.5
 50
270.0
 51
0.0
  0
CIRCLE
  5
99B0
  8
01
 10
6634.0371773460829
 20
406.5341800982369
 30
0.0
 40
3.0
  0
TEXT
  5
99B1
  8
01
 10
6822.933849998074
 20
473.44208009823672
 30
0.0
 40
4.5499999999999989
  1
120
  0
LINE
  5
99B2
  8
01
  6
BYBLOCK
 10
6887.3805226500654
 20
473.22874799223672
 30
0.0
 11
6889.9805226500639
 21
472.53208009823669
 31
0.0
  0
LINE
  5
99B3
  8
01
  6
BYBLOCK
 10
6889.9805226500639
 20
472.53208009823669
 30
0.0
 11
6887.3805226500654
 21
471.83541220423672
 31
0.0
  0
LINE
  5
99B4
  8
01
  6
BYBLOCK
 10
6889.9805226500639
 20
472.53208009823669
 30
0.0
 11
6887.3805226500654
 21
472.53208009823669
 31
0.0
  0
LINE
  5
99B5
  8
01
  6
BYBLOCK
 10
6772.1371773460833
 20
471.83541220423672
 30
0.0
 11
6769.5371773460838
 21
472.53208009823669
 31
0.0
  0
LINE
  5
99B6
  8
01
  6
BYBLOCK
 10
6769.5371773460838
 20
472.53208009823669
 30
0.0
 11
6772.1371773460833
 21
473.22874799223672
 31
0.0
  0
LINE
  5
99B7
  8
01
  6
BYBLOCK
 10
6769.5371773460838
 20
472.53208009823669
 30
0.0
 11
6772.1371773460833
 21
472.53208009823669
 31
0.0
  0
TEXT
  5
99B8
  8
01
 10
6815.8255166647414
 20
463.44208009823672
 30
0.0
 40
4.5499999999999989
  1
134
  0
LINE
  5
99B9
  8
01
  6
BYBLOCK
 10
6887.3805226500654
 20
463.22874799223672
 30
0.0
 11
6889.9805226500639
 21
462.53208009823669
 31
0.0
  0
LINE
  5
99BA
  8
01
  6
BYBLOCK
 10
6889.9805226500639
 20
462.53208009823669
 30
0.0
 11
6887.3805226500654
 21
461.83541220423677
 31
0.0
  0
LINE
  5
99BB
  8
01
  6
BYBLOCK
 10
6889.9805226500639
 20
462.53208009823669
 30
0.0
 11
6887.3805226500654
 21
462.53208009823669
 31
0.0
  0
LINE
  5
99BC
  8
01
  6
BYBLOCK
 10
6758.1371773460833
 20
461.83541220423677
 30
0.0
 11
6755.5371773460829
 21
462.53208009823669
 31
0.0
  0
LINE
  5
99BD
  8
01
  6
BYBLOCK
 10
6755.5371773460829
 20
462.53208009823669
 30
0.0
 11
6758.1371773460833
 21
463.22874799223672
 31
0.0
  0
LINE
  5
99BE
  8
01
  6
BYBLOCK
 10
6755.5371773460829
 20
462.53208009823669
 30
0.0
 11
6758.1371773460833
 21
462.53208009823669
 31
0.0
  0
TEXT
  5
99BF
  8
01
 10
6904.2122803787634
 20
512.91079493893858
 30
0.0
 40
4.5499999999999989
  1
29
 50
90.0
  0
LINE
  5
99C0
  8
01
  6
BYBLOCK
 10
6905.818948272763
 20
505.13950977963862
 30
0.0
 11
6905.1222803787641
 21
502.53950977963848
 31
0.0
  0
LINE
  5
99C1
  8
01
  6
BYBLOCK
 10
6905.1222803787641
 20
502.53950977963848
 30
0.0
 11
6904.4256124847643
 21
505.13950977963862
 31
0.0
  0
LINE
  5
99C2
  8
01
  6
BYBLOCK
 10
6905.1222803787641
 20
502.53950977963848
 30
0.0
 11
6905.1222803787641
 21
505.13950977963862
 31
0.0
  0
LINE
  5
99C3
  8
01
  6
BYBLOCK
 10
6904.4256124847643
 20
529.13208009823677
 30
0.0
 11
6905.1222803787641
 21
531.73208009823679
 31
0.0
  0
LINE
  5
99C4
  8
01
  6
BYBLOCK
 10
6905.1222803787641
 20
531.73208009823679
 30
0.0
 11
6905.818948272763
 21
529.13208009823677
 31
0.0
  0
LINE
  5
99C5
  8
01
  6
BYBLOCK
 10
6905.1222803787641
 20
531.73208009823679
 30
0.0
 11
6905.1222803787641
 21
529.13208009823677
 31
0.0
  0
TEXT
  5
99C6
  8
01
 10
6914.2122803787624
 20
502.90708009823788
 30
0.0
 40
4.5499999999999989
  1
49
 50
90.0
  0
LINE
  5
99C7
  8
01
  6
BYBLOCK
 10
6915.8189482727639
 20
485.13208009823671
 30
0.0
 11
6915.1222803787632
 21
482.53208009823669
 31
0.0
  0
LINE
  5
99C8
  8
01
  6
BYBLOCK
 10
6915.1222803787632
 20
482.53208009823669
 30
0.0
 11
6914.4256124847616
 21
485.13208009823671
 31
0.0
  0
LINE
  5
99C9
  8
01
  6
BYBLOCK
 10
6915.1222803787632
 20
482.53208009823669
 30
0.0
 11
6915.1222803787632
 21
485.13208009823671
 31
0.0
  0
LINE
  5
99CA
  8
01
  6
BYBLOCK
 10
6914.4256124847616
 20
529.13208009823666
 30
0.0
 11
6915.1222803787632
 21
531.73208009823668
 31
0.0
  0
LINE
  5
99CB
  8
01
  6
BYBLOCK
 10
6915.1222803787632
 20
531.73208009823668
 30
0.0
 11
6915.8189482727639
 21
529.13208009823666
 31
0.0
  0
LINE
  5
99CC
  8
01
  6
BYBLOCK
 10
6915.1222803787632
 20
531.73208009823668
 30
0.0
 11
6915.1222803787632
 21
529.13208009823666
 31
0.0
  0
TEXT
  5
99CD
  8
01
 10
6904.2122803787634
 20
402.20084676490472
 30
0.0
 40
4.5499999999999989
  1
22
 50
90.0
  0
LINE
  5
99CE
  8
01
  6
BYBLOCK
 10
6905.818948272763
 20
398.13418009823693
 30
0.0
 11
6905.1222803787641
 21
395.5341800982369
 31
0.0
  0
LINE
  5
99CF
  8
01
  6
BYBLOCK
 10
6905.1222803787641
 20
395.5341800982369
 30
0.0
 11
6904.4256124847643
 21
398.13418009823693
 31
0.0
  0
LINE
  5
99D0
  8
01
  6
BYBLOCK
 10
6905.1222803787641
 20
395.5341800982369
 30
0.0
 11
6905.1222803787641
 21
398.13418009823693
 31
0.0
  0
LINE
  5
99D1
  8
01
  6
BYBLOCK
 10
6904.4256124847643
 20
414.93418009823682
 30
0.0
 11
6905.1222803787641
 21
417.53418009823667
 31
0.0
  0
LINE
  5
99D2
  8
01
  6
BYBLOCK
 10
6905.1222803787641
 20
417.53418009823667
 30
0.0
 11
6905.818948272763
 21
414.93418009823682
 31
0.0
  0
LINE
  5
99D3
  8
01
  6
BYBLOCK
 10
6905.1222803787641
 20
417.53418009823667
 30
0.0
 11
6905.1222803787641
 21
414.93418009823682
 31
0.0
  0
VIEWPORT
  5
57
 67
     1
  8
0
 10
75.155130274558474
 20
10.09248672500371
 30
0.0
 40
615.72661377697295
 41
282.81680056535538
 68
     1
 69
     1
1001
ACAD
1000
MVIEW
1002
{
1070
    16
1010
0.0
1020
0.0
1030
0.0
1010
0.0
1020
0.0
1030
1.0
1040
0.0
1040
282.81680056535538
1040
75.155130274558474
1040
10.09248672500371
1040
50.0
1040
0.0
1040
0.0
1070
     0
1070
   100
1070
     1
1070
     1
1070
     0
1070
     0
1070
     0
1070
     0
1040
0.0
1040
0.0
1040
0.0
1040
10.0
1040
10.0
1040
10.0
1040
10.0
1070
     0
1002
{
1002
}
1002
}
  0
ENDSEC
  0
EOF
