  0
SECTION
  2
HEADER
  9
$ACADVER
  1
AC1009
  9
$INSBASE
 10
0.0
 20
0.0
 30
0.0
  9
$EXTMIN
 10
5315.8363922149256
 20
102.69303144588579
 30
0.0
  9
$EXTMAX
 10
5603.0159444596129
 20
303.57814549255909
 30
0.0
  9
$LIMMIN
 10
0.0
 20
0.0
  9
$LIMMAX
 10
420.0
 20
297.0
  9
$ORTHOMODE
 70
     0
  9
$REGENMODE
 70
     1
  9
$FILLMODE
 70
     1
  9
$QTEXTMODE
 70
     0
  9
$MIRRTEXT
 70
     0
  9
$DRAGMODE
 70
     2
  9
$LTSCALE
 40
0.5
  9
$OSMODE
 70
  2175
  9
$ATTMODE
 70
     1
  9
$TEXTSIZE
 40
4.0
  9
$TRACEWID
 40
1.0
  9
$TEXTSTYLE
  7
STANDARD
  9
$CLAYER
  8
1TEXT
  9
$CELTYPE
  6
BYLAYER
  9
$CECOLOR
 62
   256
  9
$DIMSCALE
 40
1.0
  9
$DIMASZ
 40
2.0
  9
$DIMEXO
 40
0.0
  9
$DIMDLI
 40
7.0
  9
$DIMRND
 40
0.0
  9
$DIMDLE
 40
0.0
  9
$DIMEXE
 40
1.0
  9
$DIMTP
 40
0.0
  9
$DIMTM
 40
0.0
  9
$DIMTXT
 40
3.5
  9
$DIMCEN
 40
0.0
  9
$DIMTSZ
 40
0.0
  9
$DIMTOL
 70
     0
  9
$DIMLIM
 70
     0
  9
$DIMTIH
 70
     0
  9
$DIMTOH
 70
     0
  9
$DIMSE1
 70
     0
  9
$DIMSE2
 70
     0
  9
$DIMTAD
 70
     1
  9
$DIMZIN
 70
     8
  9
$DIMBLK
  1

  9
$DIMASO
 70
     1
  9
$DIMSHO
 70
     1
  9
$DIMPOST
  1
 
  9
$DIMAPOST
  1

  9
$DIMALT
 70
     0
  9
$DIMALTD
 70
     2
  9
$DIMALTF
 40
25.399999999999999
  9
$DIMLFAC
 40
1.0
  9
$DIMTOFL
 70
     1
  9
$DIMTVP
 40
0.0
  9
$DIMTIX
 70
     0
  9
$DIMSOXD
 70
     0
  9
$DIMSAH
 70
     1
  9
$DIMBLK1
  1
OPEN30
  9
$DIMBLK2
  1
OPEN30
  9
$DIMSTYLE
  2
NEWX10
  9
$DIMCLRD
 70
   256
  9
$DIMCLRE
 70
   256
  9
$DIMCLRT
 70
   201
  9
$DIMTFAC
 40
0.7
  9
$DIMGAP
 40
0.7
  9
$LUNITS
 70
     2
  9
$LUPREC
 70
     4
  9
$SKETCHINC
 40
1.0
  9
$FILLETRAD
 40
0.0
  9
$AUNITS
 70
     0
  9
$AUPREC
 70
     2
  9
$MENU
  1
acad
  9
$ELEVATION
 40
0.0
  9
$PELEVATION
 40
0.0
  9
$THICKNESS
 40
0.0
  9
$LIMCHECK
 70
     0
  9
$BLIPMODE
 70
     0
  9
$CHAMFERA
 40
10.0
  9
$CHAMFERB
 40
10.0
  9
$SKPOLY
 70
     0
  9
$TDCREATE
 40
2451318.621352917
  9
$TDUPDATE
 40
2455659.440544155
  9
$TDINDWG
 40
0.6024219676
  9
$TDUSRTIMER
 40
0.6024219676
  9
$USRTIMER
 70
     1
  9
$ANGBASE
 50
0.0
  9
$ANGDIR
 70
     0
  9
$PDMODE
 70
     0
  9
$PDSIZE
 40
0.0
  9
$PLINEWID
 40
0.0
  9
$COORDS
 70
     2
  9
$SPLFRAME
 70
     0
  9
$SPLINETYPE
 70
     6
  9
$SPLINESEGS
 70
     8
  9
$ATTDIA
 70
     0
  9
$ATTREQ
 70
     1
  9
$HANDLING
 70
     1
  9
$HANDSEED
  5
8E30
  9
$SURFTAB1
 70
     6
  9
$SURFTAB2
 70
     6
  9
$SURFTYPE
 70
     6
  9
$SURFU
 70
     6
  9
$SURFV
 70
     6
  9
$UCSNAME
  2

  9
$UCSORG
 10
0.0
 20
0.0
 30
0.0
  9
$UCSXDIR
 10
1.0
 20
0.0
 30
0.0
  9
$UCSYDIR
 10
0.0
 20
1.0
 30
0.0
  9
$PUCSNAME
  2

  9
$PUCSORG
 10
0.0
 20
0.0
 30
0.0
  9
$PUCSXDIR
 10
1.0
 20
0.0
 30
0.0
  9
$PUCSYDIR
 10
0.0
 20
1.0
 30
0.0
  9
$USERI1
 70
     0
  9
$USERI2
 70
     0
  9
$USERI3
 70
     0
  9
$USERI4
 70
     0
  9
$USERI5
 70
     0
  9
$USERR1
 40
0.0
  9
$USERR2
 40
0.0
  9
$USERR3
 40
0.0
  9
$USERR4
 40
0.0
  9
$USERR5
 40
0.0
  9
$WORLDVIEW
 70
     1
  9
$SHADEDGE
 70
     3
  9
$SHADEDIF
 70
    70
  9
$TILEMODE
 70
     1
  9
$MAXACTVP
 70
    48
  9
$PLIMCHECK
 70
     0
  9
$PEXTMIN
 10
1.0000000000000000E+020
 20
1.0000000000000000E+020
 30
1.0000000000000000E+020
  9
$PEXTMAX
 10
-1.0000000000000000E+020
 20
-1.0000000000000000E+020
 30
-1.0000000000000000E+020
  9
$PLIMMIN
 10
0.0
 20
0.0
  9
$PLIMMAX
 10
420.0
 20
297.0
  9
$UNITMODE
 70
     0
  9
$VISRETAIN
 70
     1
  9
$PLINEGEN
 70
     0
  9
$PSLTSCALE
 70
     1
  0
ENDSEC
  0
SECTION
  2
TABLES
  0
TABLE
  2
VPORT
 70
     1
  0
VPORT
  2
*ACTIVE
 70
     0
 10
0.0
 20
0.0
 11
1.0
 21
1.0
 12
5459.3412124507104
 22
203.1373972248094
 13
0.0
 23
0.0
 14
10.0
 24
10.0
 15
10.0
 25
10.0
 16
0.0
 26
0.0
 36
1.0
 17
0.0
 27
0.0
 37
0.0
 40
215.56388374708479
 41
1.4123581336696089
 42
50.0
 43
0.0
 44
0.0
 50
0.0
 51
0.0
 71
     0
 72
   100
 73
     1
 74
     1
 75
     0
 76
     0
 77
     0
 78
     0
  0
ENDTAB
  0
TABLE
  2
LTYPE
 70
    15
  0
LTYPE
  2
CONTINUOUS
 70
     0
  3
Solid line
 72
    65
 73
     0
 40
0.0
  0
LTYPE
  2
XREF1|CENTER2
 70
    48
  3
Center (.5x) ___ _ ___ _ ___ _ ___ _ ___ _ ___
 72
    65
 73
     4
 40
28.574999999999999
 49
19.050000000000001
 49
-3.1749999999999989
 49
3.1749999999999989
 49
-3.1749999999999989
  0
LTYPE
  2
A3WAKUDAKE|CENTER2
 70
    48
  3
Center (.5x) ___ _ ___ _ ___ _ ___ _ ___ _ ___
 72
    65
 73
     4
 40
28.574999999999999
 49
19.050000000000001
 49
-3.1749999999999989
 49
3.1749999999999989
 49
-3.1749999999999989
  0
LTYPE
  2
CENTER2
 70
     0
  3
Center (.5x) ___ _ ___ _ ___ _ ___ _ ___ _ ___
 72
    65
 73
     4
 40
28.574999999999999
 49
19.050000000000001
 49
-3.1749999999999989
 49
3.1749999999999989
 49
-3.1749999999999989
  0
ENDTAB
  0
TABLE
  2
LAYER
 70
    42
  0
LAYER
  2
0
 70
     0
 62
     7
  6
CONTINUOUS
  0
LAYER
  2
1CENTER
 70
     0
 62
     7
  6
CENTER2
  0
LAYER
  2
1TEXT
 70
     0
 62
     7
  6
CONTINUOUS
  0
LAYER
  2
01
 70
     0
 62
     1
  6
CONTINUOUS
  0
LAYER
  2
1DIM
 70
     0
 62
     7
  6
CONTINUOUS
  0
LAYER
  2
A3WAKUDAKE|THICK
 70
    48
 62
     7
  6
CONTINUOUS
  0
LAYER
  2
A3WAKUDAKE|POINT
 70
    48
 62
     7
  6
CONTINUOUS
  0
LAYER
  2
A3WAKUDAKE|1CENTER
 70
    48
 62
     7
  6
A3WAKUDAKE|CENTER2
  0
LAYER
  2
A3WAKUDAKE|0-6
 70
    48
 62
     7
  6
CONTINUOUS
  0
LAYER
  2
A3WAKUDAKE|1DIM
 70
    48
 62
     7
  6
CONTINUOUS
  0
LAYER
  2
XREF1|1CENTER
 70
    48
 62
     7
  6
XREF1|CENTER2
  0
ENDTAB
  0
TABLE
  2
STYLE
 70
    20
  0
STYLE
  2
STANDARD
 70
     0
 40
0.0
 41
1.0
 50
0.0
 71
     0
 42
4.0
  3
txt.shx
  4
extfont.shx
  0
ENDTAB
  0
TABLE
  2
VIEW
 70
     0
  0
ENDTAB
  0
TABLE
  2
UCS
 70
     0
  0
ENDTAB
  0
TABLE
  2
APPID
 70
     9
  0
APPID
  2
ACAD
 70
     0
  0
APPID
  2
DRAWINGVARIABLESXDATA
 70
     0
  0
APPID
  2
CONTENTTABDATA
 70
     0
  0
APPID
  2
CONTENTCURRENTTAB
 70
     0
  0
APPID
  2
CONTENTBLOCKDESCRIPTION
 70
     0
  0
APPID
  2
CONTENTBLOCKICON
 70
     0
  0
APPID
  2
CONTENTLONGBLOCKNAME
 70
     0
  0
APPID
  2
ACAD_PSEXT
 70
     0
  0
APPID
  2
ACAD_MLEADERVER
 70
     0
  0
ENDTAB
  0
TABLE
  2
DIMSTYLE
 70
     6
  0
DIMSTYLE
  2
NEWX10
 70
     0
  3
 
  4

  5

  6
OPEN30
  7
OPEN30
 40
1.0
 41
2.0
 42
0.0
 43
7.0
 44
1.0
 45
0.0
 46
0.0
 47
0.0
 48
0.0
140
3.5
141
0.0
142
0.0
143
25.399999999999999
144
1.0
145
0.0
146
0.7
147
0.7
 71
     0
 72
     0
 73
     0
 74
     0
 75
     0
 76
     0
 77
     1
 78
     8
170
     0
171
     2
172
     1
173
     1
174
     0
175
     0
176
   256
177
   256
178
   201
  0
ENDTAB
  0
ENDSEC
  0
SECTION
  2
BLOCKS
  0
BLOCK
  8
0
  2
$MODEL_SPACE
 70
     0
 10
0.0
 20
0.0
 30
0.0
  3
$MODEL_SPACE
  1

  0
ENDBLK
  5
1A
  8
0
  0
BLOCK
 67
     1
  8
0
  2
$PAPER_SPACE
 70
     0
 10
0.0
 20
0.0
 30
0.0
  3
$PAPER_SPACE
  1

  0
ENDBLK
  5
17
 67
     1
  8
0
  0
BLOCK
  8
0
  2
_OPEN30
 70
     0
 10
0.0
 20
0.0
 30
0.0
  3
_OPEN30
  1

  0
LINE
  5
44
  8
0
  6
BYBLOCK
 62
     0
 10
-1.0
 20
0.26794919
 30
0.0
 11
0.0
 21
0.0
 31
0.0
  0
LINE
  5
45
  8
0
  6
BYBLOCK
 62
     0
 10
0.0
 20
0.0
 30
0.0
 11
-1.0
 21
-0.26794919
 31
0.0
  0
LINE
  5
46
  8
0
  6
BYBLOCK
 62
     0
 10
0.0
 20
0.0
 30
0.0
 11
-1.0
 21
0.0
 31
0.0
  0
ENDBLK
  5
47
  8
0
  0
BLOCK
  8
0
  2
XREF1
 70
    36
 10
0.0
 20
0.0
 30
0.0
  3
XREF1
  1
D:\ACLT\FORMAT\KAWAJUN(9)É}û╩ùp.dwg
  0
ENDBLK
  5
5D
  8
0
  0
BLOCK
  8
0
  2
A3WAKUDAKE
 70
    36
 10
0.0
 20
0.0
 30
0.0
  3
A3WAKUDAKE
  1
D:\ACLT\FORMAT\A3WAKUdake.dwg
  0
ENDBLK
  5
6A0
  8
0
  0
BLOCK
  8
0
  2
*U16
 70
     1
 10
0.0
 20
0.0
 30
0.0
  3
*U16
  1

  0
CIRCLE
  5
8BFF
  8
0
 10
0.0
 20
0.0
 30
0.0
 40
3.0
  0
ENDBLK
  5
8C01
  8
0
  0
BLOCK
  8
0
  2
*U17
 70
     1
 10
0.0
 20
0.0
 30
0.0
  3
*U17
  1

  0
TEXT
  5
8C06
  8
1DIM
 62
   201
 10
5432.054677597358
 20
135.6408995304044
 30
0.0
 40
4.5499999999999989
  1
âË50
 50
90.0
  0
ENDBLK
  5
8C08
  8
0
  0
BLOCK
  8
0
  2
*U18
 70
     1
 10
0.0
 20
0.0
 30
0.0
  3
*U18
  1

  0
TEXT
  5
8C0D
  8
1DIM
 62
   201
 10
5601.315944459614
 20
253.88647882589359
 30
0.0
 40
3.5
  1
74
 50
90.0
  0
ENDBLK
  5
8C0F
  8
0
  0
BLOCK
  8
0
  2
*U19
 70
     1
 10
0.0
 20
0.0
 30
0.0
  3
*U19
  1

  0
TEXT
  5
8C11
  8
1DIM
 62
   201
 10
5515.3819776951532
 20
200.72814549255961
 30
0.0
 40
3.5
  1
125
  0
ENDBLK
  5
8C13
  8
0
  0
BLOCK
  8
0
  2
*U20
 70
     1
 10
0.0
 20
0.0
 30
0.0
  3
*U20
  1

  0
TEXT
  5
8C15
  8
1DIM
 62
   201
 10
5521.4903110284849
 20
210.72814549255961
 30
0.0
 40
3.5
  1
114
  0
ENDBLK
  5
8C17
  8
0
  0
BLOCK
  8
0
  2
*U21
 70
     1
 10
0.0
 20
0.0
 30
0.0
  3
*U21
  1

  0
TEXT
  5
8C19
  8
1DIM
 62
   201
 10
5591.3159444596131
 20
267.05013164067941
 30
0.0
 40
3.5
  1
47
 50
90.0
  0
ENDBLK
  5
8C1B
  8
0
  0
BLOCK
  8
0
  2
*U22
 70
     1
 10
0.0
 20
0.0
 30
0.0
  3
*U22
  1

  0
TEXT
  5
8C1D
  8
1DIM
 62
   201
 10
5784.7801187220912
 20
122.95726855419591
 30
0.0
 40
4.5499999999999989
  1
üá53
 50
90.0
  0
ENDBLK
  5
8C1F
  8
0
  0
BLOCK
  8
0
  2
*U23
 70
     1
 10
0.0
 20
0.0
 30
0.0
  3
*U23
  1

  0
TEXT
  5
8C21
  8
1DIM
 62
   201
 10
5796.4584366254348
 20
155.9475786811573
 30
0.0
 40
4.5499999999999989
  1
üá53
 50
90.0
  0
ENDBLK
  5
8C23
  8
0
  0
BLOCK
  8
0
  2
*U24
 70
     1
 10
0.0
 20
0.0
 30
0.0
  3
*U24
  1

  0
TEXT
  5
8C25
  8
1DIM
 62
   201
 10
5432.054677597358
 20
135.4133995304044
 30
0.0
 40
4.5499999999999989
  1
üá53
 50
90.0
  0
ENDBLK
  5
8C27
  8
0
  0
ENDSEC
  0
SECTION
  2
ENTITIES
  0
LINE
  5
71BC
  8
1CENTER
 10
5467.9646775973579
 20
137.57814549255909
 30
0.0
 11
5467.9646775973579
 21
149.57814549255909
 31
0.0
  0
LINE
  5
71BD
  8
1CENTER
 10
5461.964677597357
 20
143.57814549255909
 30
0.0
 11
5473.9646775973579
 21
143.57814549255909
 31
0.0
  0
LINE
  5
71C0
  8
1CENTER
 10
5467.9646775973579
 20
296.41522098814318
 30
0.0
 11
5467.9646775973579
 21
273.78693560571179
 31
0.0
  0
LINE
  5
720F
  8
01
 10
5317.9646775973579
 20
183.75446942607959
 30
0.0
 11
5317.9646775973579
 21
103.40182155903859
 31
0.0
  0
LINE
  5
764D
  8
01
 10
5317.9646775973579
 20
183.04567931292681
 30
0.0
 11
5317.9646775973579
 21
102.69303144588579
 31
0.0
  0
LINE
  5
78AF
  8
1CENTER
 10
5332.464677597357
 20
137.57814549255909
 30
0.0
 11
5332.464677597357
 21
149.57814549255909
 31
0.0
  0
LINE
  5
78B0
  8
1CENTER
 10
5315.8363922149256
 20
143.57814549255909
 30
0.0
 11
5338.464677597357
 21
143.57814549255909
 31
0.0
  0
TEXT
  5
78D4
  8
1TEXT
 10
5317.9646775973579
 20
293.57814549255909
 30
0.0
 40
10.0
  1
S1T
 41
1.017187499999999
  0
LINE
  5
8262
  8
01
 10
5427.9646775973579
 20
293.57814549255909
 30
0.0
 11
5570.7198255947051
 21
293.57814549255909
 31
0.0
  0
ARC
  5
8785
  8
01
 10
5569.8972430670046
 20
141.92646110697839
 30
0.0
 40
12.11544485022983
 50
0.2636358195341875
 51
28.194824646082711
  0
ARC
  5
8786
  8
01
 10
5567.9659444596118
 20
141.79682794745889
 30
0.0
 40
14.050000000000001
 50
329.99999999997772
 51
0.007442274142668
  0
LINE
  5
8787
  8
01
 10
5582.0125834083283
 20
141.98014136442899
 30
0.0
 11
5582.0159696731889
 21
141.79591572132989
 31
0.0
  0
ARC
  5
8788
  8
01
 10
5578.3664005740739
 20
145.15998263203619
 30
0.0
 40
3.0499999999999989
 50
20.896839700464259
 51
72.227359201008383
  0
ARC
  5
8789
  8
01
 10
5510.334662620211
 20
-67.082216857891794
 30
0.0
 40
225.92904480535049
 50
71.88675220145565
 51
101.3721380535423
  0
ARC
  5
878A
  8
01
 10
5467.9646775973579
 20
143.57814549255909
 30
0.0
 40
11.050000000000001
 50
101.3721380535423
 51
285.75219845624741
  0
ARC
  5
878B
  8
01
 10
5596.7097673897706
 20
-312.8504716017049
 30
0.0
 40
463.18873802994909
 50
97.702016983007496
 51
105.7521984562475
  0
ARC
  5
878C
  8
01
 10
5537.3064370499687
 20
126.3895803458858
 30
0.0
 40
19.949999999999999
 50
72.361209948440205
 51
97.702016983007496
  0
ARC
  5
878D
  8
01
 10
5497.9144682073111
 20
2.501434057796359
 30
0.0
 40
149.94999999999999
 50
66.629605050666555
 51
78.83307398442777
  0
ARC
  5
878E
  8
01
 10
5597.0828753765782
 20
231.9913619838612
 30
0.0
 40
100.05
 50
246.6296050506665
 51
258.98490457804621
  0
ARC
  5
878F
  8
01
 10
5578.3582493050262
 20
135.79682794745889
 30
0.0
 40
2.0499999999999989
 50
212.7113816805815
 51
329.99999999997772
  0
ARC
  5
8790
  8
01
 10
5579.2620747838318
 20
145.678808308653
 30
0.0
 40
2.0344389403939038
 50
43.604736863917019
 51
143.91494609947901
  0
ARC
  5
8791
  8
01
 10
5576.3250282110148
 20
140.20630911192939
 30
0.0
 40
1.8
 50
163.90166949066631
 51
191.0008853575282
  0
ARC
  5
8792
  8
01
 10
5593.6191984261541
 20
135.2151492697858
 30
0.0
 40
19.800000000000001
 50
143.91494609947901
 51
163.90166949066631
  0
ARC
  5
8793
  8
01
 10
5589.0861432643624
 20
142.68702324202471
 30
0.0
 40
14.800000000000001
 50
191.0008853575282
 51
212.7113816805815
  0
LINE
  5
87A9
  8
01
 10
5479.0146775973581
 20
284.57814549255909
 30
0.0
 11
5479.0146775973581
 21
255.30431600406681
 31
0.0
  0
ARC
  5
87AA
  8
01
 10
5487.0843111733902
 20
261.41395618490452
 30
0.0
 40
11.949999999999999
 50
244.84105075448309
 51
268.09360906930431
  0
LINE
  5
87AB
  8
01
 10
5486.6867745906866
 20
249.4705703724388
 30
0.0
 11
5580.275824446966
 21
246.3554511221312
 31
0.0
  0
ARC
  5
87AE
  8
01
 10
5458.7146775973579
 20
241.2151543338594
 30
0.0
 40
1.8
 50
180.0
 51
260.37904022203469
  0
ARC
  5
87AF
  8
01
 10
5580.2159444596127
 20
244.55644740142529
 30
0.0
 40
1.8
 50
347.19253780604657
 51
88.093609069304307
  0
ARC
  5
87B0
  8
01
 10
5573.0831038635897
 20
221.8281454925596
 30
0.0
 40
1.8
 50
260.37904022203469
 51
337.96053727539049
  0
ARC
  5
87B1
  8
01
 10
5435.8981117041203
 20
277.36442126080431
 30
0.0
 40
149.80000000000001
 50
337.96053727539049
 51
347.19253780604657
  0
ARC
  5
87B2
  8
01
 10
5484.2146775973579
 20
255.30431600406681
 30
0.0
 40
5.2000000000000002
 50
180.0
 51
244.8410507543679
  0
LINE
  5
87B3
  8
01
 10
5479.0146775973581
 20
284.57814549255909
 30
0.0
 11
5456.9146775973577
 21
284.5781454925592
 31
0.0
  0
LINE
  5
87B4
  8
01
 10
5475.9146775973586
 20
284.57814549255909
 30
0.0
 11
5475.9146775973586
 21
285.07814549255909
 31
0.0
  0
LINE
  5
87B6
  8
01
 10
5460.0146775973581
 20
284.57814549255909
 30
0.0
 11
5460.0146775973571
 21
285.07814549255909
 31
0.0
  0
LINE
  5
87BC
  8
01
 10
5326.9646775973579
 20
154.6281454925583
 30
0.0
 11
5361.8168863357168
 21
154.6281454925583
 31
0.0
  0
LINE
  5
87BD
  8
01
 10
5326.9646775973579
 20
132.52814549255979
 30
0.0
 11
5373.7213482044936
 21
132.52814549255979
 31
0.0
  0
LINE
  5
87BE
  8
01
 10
5326.9646775973579
 20
154.6281454925583
 30
0.0
 11
5326.9646775973579
 21
132.52814549255979
 31
0.0
  0
LINE
  5
87BF
  8
01
 10
5326.9646775973579
 20
151.52814549255979
 30
0.0
 11
5326.4646775973579
 21
151.52814549255979
 31
0.0
  0
LINE
  5
87C1
  8
01
 10
5326.9646775973579
 20
135.6281454925593
 30
0.0
 11
5326.4646775973579
 21
135.6281454925593
 31
0.0
  0
LINE
  5
87CC
  8
01
 10
5456.9146775973577
 20
284.57814549255909
 30
0.0
 11
5456.9146775973586
 21
241.2151543338594
 31
0.0
  0
LINE
  5
87CD
  8
01
 10
5458.4138446237257
 20
239.4404713982405
 30
0.0
 11
5572.7822708899557
 21
220.05346255694079
 31
0.0
  0
POLYLINE
  5
87D4
  8
01
 10
5391.7299583117865
 20
140.20630911192936
 30
0.0
 66
     1
 70
     8
  0
VERTEX
  8
01
  5
8C28
 10
5391.73
 20
140.206
 30
0.000000
  70
    32
  0
VERTEX
  8
01
  5
8C29
 10
5391.73
 20
140.435
 30
0.000000
  70
    32
  0
VERTEX
  8
01
  5
8C2A
 10
5391.73
 20
140.664
 30
0.000000
  70
    32
  0
VERTEX
  8
01
  5
8C2B
 10
5391.72
 20
140.892
 30
0.000000
  70
    32
  0
VERTEX
  8
01
  5
8C2C
 10
5391.72
 20
141.121
 30
0.000000
  70
    32
  0
VERTEX
  8
01
  5
8C2D
 10
5391.71
 20
141.349
 30
0.000000
  70
    32
  0
VERTEX
  8
01
  5
8C2E
 10
5391.70
 20
141.578
 30
0.000000
  70
    32
  0
VERTEX
  8
01
  5
8C2F
 10
5391.69
 20
141.806
 30
0.000000
  70
    32
  0
VERTEX
  8
01
  5
8C30
 10
5391.68
 20
142.033
 30
0.000000
  70
    32
  0
VERTEX
  8
01
  5
8C31
 10
5391.66
 20
142.261
 30
0.000000
  70
    32
  0
VERTEX
  8
01
  5
8C32
 10
5391.65
 20
142.488
 30
0.000000
  70
    32
  0
VERTEX
  8
01
  5
8C33
 10
5391.63
 20
142.715
 30
0.000000
  70
    32
  0
VERTEX
  8
01
  5
8C34
 10
5391.61
 20
142.941
 30
0.000000
  70
    32
  0
VERTEX
  8
01
  5
8C35
 10
5391.59
 20
143.168
 30
0.000000
  70
    32
  0
VERTEX
  8
01
  5
8C36
 10
5391.57
 20
143.393
 30
0.000000
  70
    32
  0
VERTEX
  8
01
  5
8C37
 10
5391.55
 20
143.618
 30
0.000000
  70
    32
  0
VERTEX
  8
01
  5
8C38
 10
5391.52
 20
143.843
 30
0.000000
  70
    32
  0
VERTEX
  8
01
  5
8C39
 10
5391.50
 20
144.067
 30
0.000000
  70
    32
  0
VERTEX
  8
01
  5
8C3A
 10
5391.47
 20
144.290
 30
0.000000
  70
    32
  0
VERTEX
  8
01
  5
8C3B
 10
5391.44
 20
144.513
 30
0.000000
  70
    32
  0
VERTEX
  8
01
  5
8C3C
 10
5391.41
 20
144.736
 30
0.000000
  70
    32
  0
VERTEX
  8
01
  5
8C3D
 10
5391.37
 20
144.957
 30
0.000000
  70
    32
  0
VERTEX
  8
01
  5
8C3E
 10
5391.34
 20
145.178
 30
0.000000
  70
    32
  0
VERTEX
  8
01
  5
8C3F
 10
5391.30
 20
145.398
 30
0.000000
  70
    32
  0
VERTEX
  8
01
  5
8C40
 10
5391.26
 20
145.617
 30
0.000000
  70
    32
  0
VERTEX
  8
01
  5
8C41
 10
5391.22
 20
145.836
 30
0.000000
  70
    32
  0
VERTEX
  8
01
  5
8C42
 10
5391.18
 20
146.053
 30
0.000000
  70
    32
  0
VERTEX
  8
01
  5
8C43
 10
5391.14
 20
146.270
 30
0.000000
  70
    32
  0
VERTEX
  8
01
  5
8C44
 10
5391.10
 20
146.486
 30
0.000000
  70
    32
  0
VERTEX
  8
01
  5
8C45
 10
5391.05
 20
146.701
 30
0.000000
  70
    32
  0
VERTEX
  8
01
  5
8C46
 10
5391.00
 20
146.915
 30
0.000000
  70
    32
  0
VERTEX
  8
01
  5
8C47
 10
5390.96
 20
147.128
 30
0.000000
  70
    32
  0
VERTEX
  8
01
  5
8C48
 10
5390.91
 20
147.340
 30
0.000000
  70
    32
  0
VERTEX
  8
01
  5
8C49
 10
5390.85
 20
147.551
 30
0.000000
  70
    32
  0
VERTEX
  8
01
  5
8C4A
 10
5390.80
 20
147.760
 30
0.000000
  70
    32
  0
VERTEX
  8
01
  5
8C4B
 10
5390.75
 20
147.969
 30
0.000000
  70
    32
  0
VERTEX
  8
01
  5
8C4C
 10
5390.69
 20
148.176
 30
0.000000
  70
    32
  0
VERTEX
  8
01
  5
8C4D
 10
5390.63
 20
148.382
 30
0.000000
  70
    32
  0
VERTEX
  8
01
  5
8C4E
 10
5390.57
 20
148.587
 30
0.000000
  70
    32
  0
VERTEX
  8
01
  5
8C4F
 10
5390.51
 20
148.791
 30
0.000000
  70
    32
  0
VERTEX
  8
01
  5
8C50
 10
5390.45
 20
148.993
 30
0.000000
  70
    32
  0
VERTEX
  8
01
  5
8C51
 10
5390.39
 20
149.194
 30
0.000000
  70
    32
  0
VERTEX
  8
01
  5
8C52
 10
5390.32
 20
149.394
 30
0.000000
  70
    32
  0
VERTEX
  8
01
  5
8C53
 10
5390.26
 20
149.593
 30
0.000000
  70
    32
  0
VERTEX
  8
01
  5
8C54
 10
5390.19
 20
149.789
 30
0.000000
  70
    32
  0
VERTEX
  8
01
  5
8C55
 10
5390.12
 20
149.985
 30
0.000000
  70
    32
  0
VERTEX
  8
01
  5
8C56
 10
5390.05
 20
150.179
 30
0.000000
  70
    32
  0
VERTEX
  8
01
  5
8C57
 10
5389.98
 20
150.371
 30
0.000000
  70
    32
  0
VERTEX
  8
01
  5
8C58
 10
5389.91
 20
150.562
 30
0.000000
  70
    32
  0
VERTEX
  8
01
  5
8C59
 10
5389.83
 20
150.752
 30
0.000000
  70
    32
  0
VERTEX
  8
01
  5
8C5A
 10
5389.76
 20
150.940
 30
0.000000
  70
    32
  0
VERTEX
  8
01
  5
8C5B
 10
5389.68
 20
151.126
 30
0.000000
  70
    32
  0
VERTEX
  8
01
  5
8C5C
 10
5389.60
 20
151.310
 30
0.000000
  70
    32
  0
VERTEX
  8
01
  5
8C5D
 10
5389.52
 20
151.493
 30
0.000000
  70
    32
  0
VERTEX
  8
01
  5
8C5E
 10
5389.44
 20
151.675
 30
0.000000
  70
    32
  0
VERTEX
  8
01
  5
8C5F
 10
5389.36
 20
151.854
 30
0.000000
  70
    32
  0
VERTEX
  8
01
  5
8C60
 10
5389.27
 20
152.032
 30
0.000000
  70
    32
  0
VERTEX
  8
01
  5
8C61
 10
5389.19
 20
152.208
 30
0.000000
  70
    32
  0
VERTEX
  8
01
  5
8C62
 10
5389.10
 20
152.382
 30
0.000000
  70
    32
  0
VERTEX
  8
01
  5
8C63
 10
5389.01
 20
152.554
 30
0.000000
  70
    32
  0
VERTEX
  8
01
  5
8C64
 10
5388.93
 20
152.725
 30
0.000000
  70
    32
  0
VERTEX
  8
01
  5
8C65
 10
5388.84
 20
152.893
 30
0.000000
  70
    32
  0
VERTEX
  8
01
  5
8C66
 10
5388.74
 20
153.060
 30
0.000000
  70
    32
  0
VERTEX
  8
01
  5
8C67
 10
5388.65
 20
153.224
 30
0.000000
  70
    32
  0
VERTEX
  8
01
  5
8C68
 10
5388.56
 20
153.387
 30
0.000000
  70
    32
  0
VERTEX
  8
01
  5
8C69
 10
5388.46
 20
153.548
 30
0.000000
  70
    32
  0
VERTEX
  8
01
  5
8C6A
 10
5388.37
 20
153.707
 30
0.000000
  70
    32
  0
VERTEX
  8
01
  5
8C6B
 10
5388.27
 20
153.863
 30
0.000000
  70
    32
  0
VERTEX
  8
01
  5
8C6C
 10
5388.17
 20
154.018
 30
0.000000
  70
    32
  0
VERTEX
  8
01
  5
8C6D
 10
5388.08
 20
154.171
 30
0.000000
  70
    32
  0
VERTEX
  8
01
  5
8C6E
 10
5387.98
 20
154.321
 30
0.000000
  70
    32
  0
VERTEX
  8
01
  5
8C6F
 10
5387.87
 20
154.469
 30
0.000000
  70
    32
  0
VERTEX
  8
01
  5
8C70
 10
5387.77
 20
154.616
 30
0.000000
  70
    32
  0
VERTEX
  8
01
  5
8C71
 10
5387.67
 20
154.760
 30
0.000000
  70
    32
  0
VERTEX
  8
01
  5
8C72
 10
5387.56
 20
154.901
 30
0.000000
  70
    32
  0
VERTEX
  8
01
  5
8C73
 10
5387.46
 20
155.041
 30
0.000000
  70
    32
  0
VERTEX
  8
01
  5
8C74
 10
5387.35
 20
155.179
 30
0.000000
  70
    32
  0
VERTEX
  8
01
  5
8C75
 10
5387.25
 20
155.314
 30
0.000000
  70
    32
  0
VERTEX
  8
01
  5
8C76
 10
5387.14
 20
155.447
 30
0.000000
  70
    32
  0
VERTEX
  8
01
  5
8C77
 10
5387.03
 20
155.577
 30
0.000000
  70
    32
  0
VERTEX
  8
01
  5
8C78
 10
5386.92
 20
155.705
 30
0.000000
  70
    32
  0
VERTEX
  8
01
  5
8C79
 10
5386.81
 20
155.831
 30
0.000000
  70
    32
  0
VERTEX
  8
01
  5
8C7A
 10
5386.70
 20
155.955
 30
0.000000
  70
    32
  0
VERTEX
  8
01
  5
8C7B
 10
5386.58
 20
156.076
 30
0.000000
  70
    32
  0
VERTEX
  8
01
  5
8C7C
 10
5386.47
 20
156.195
 30
0.000000
  70
    32
  0
VERTEX
  8
01
  5
8C7D
 10
5386.36
 20
156.311
 30
0.000000
  70
    32
  0
VERTEX
  8
01
  5
8C7E
 10
5386.24
 20
156.425
 30
0.000000
  70
    32
  0
VERTEX
  8
01
  5
8C7F
 10
5386.12
 20
156.537
 30
0.000000
  70
    32
  0
VERTEX
  8
01
  5
8C80
 10
5386.01
 20
156.646
 30
0.000000
  70
    32
  0
VERTEX
  8
01
  5
8C81
 10
5385.89
 20
156.752
 30
0.000000
  70
    32
  0
VERTEX
  8
01
  5
8C82
 10
5385.77
 20
156.856
 30
0.000000
  70
    32
  0
VERTEX
  8
01
  5
8C83
 10
5385.65
 20
156.958
 30
0.000000
  70
    32
  0
VERTEX
  8
01
  5
8C84
 10
5385.53
 20
157.057
 30
0.000000
  70
    32
  0
VERTEX
  8
01
  5
8C85
 10
5385.41
 20
157.154
 30
0.000000
  70
    32
  0
VERTEX
  8
01
  5
8C86
 10
5385.29
 20
157.248
 30
0.000000
  70
    32
  0
VERTEX
  8
01
  5
8C87
 10
5385.17
 20
157.339
 30
0.000000
  70
    32
  0
VERTEX
  8
01
  5
8C88
 10
5385.05
 20
157.428
 30
0.000000
  70
    32
  0
VERTEX
  8
01
  5
8C89
 10
5384.92
 20
157.514
 30
0.000000
  70
    32
  0
VERTEX
  8
01
  5
8C8A
 10
5384.80
 20
157.598
 30
0.000000
  70
    32
  0
VERTEX
  8
01
  5
8C8B
 10
5384.68
 20
157.679
 30
0.000000
  70
    32
  0
VERTEX
  8
01
  5
8C8C
 10
5384.55
 20
157.757
 30
0.000000
  70
    32
  0
VERTEX
  8
01
  5
8C8D
 10
5384.43
 20
157.833
 30
0.000000
  70
    32
  0
VERTEX
  8
01
  5
8C8E
 10
5384.30
 20
157.906
 30
0.000000
  70
    32
  0
VERTEX
  8
01
  5
8C8F
 10
5384.17
 20
157.976
 30
0.000000
  70
    32
  0
VERTEX
  8
01
  5
8C90
 10
5384.05
 20
158.044
 30
0.000000
  70
    32
  0
VERTEX
  8
01
  5
8C91
 10
5383.92
 20
158.109
 30
0.000000
  70
    32
  0
VERTEX
  8
01
  5
8C92
 10
5383.79
 20
158.172
 30
0.000000
  70
    32
  0
VERTEX
  8
01
  5
8C93
 10
5383.66
 20
158.231
 30
0.000000
  70
    32
  0
VERTEX
  8
01
  5
8C94
 10
5383.53
 20
158.288
 30
0.000000
  70
    32
  0
VERTEX
  8
01
  5
8C95
 10
5383.41
 20
158.342
 30
0.000000
  70
    32
  0
VERTEX
  8
01
  5
8C96
 10
5383.28
 20
158.394
 30
0.000000
  70
    32
  0
VERTEX
  8
01
  5
8C97
 10
5383.15
 20
158.443
 30
0.000000
  70
    32
  0
VERTEX
  8
01
  5
8C98
 10
5383.02
 20
158.489
 30
0.000000
  70
    32
  0
VERTEX
  8
01
  5
8C99
 10
5382.89
 20
158.532
 30
0.000000
  70
    32
  0
VERTEX
  8
01
  5
8C9A
 10
5382.75
 20
158.572
 30
0.000000
  70
    32
  0
VERTEX
  8
01
  5
8C9B
 10
5382.62
 20
158.610
 30
0.000000
  70
    32
  0
VERTEX
  8
01
  5
8C9C
 10
5382.49
 20
158.645
 30
0.000000
  70
    32
  0
VERTEX
  8
01
  5
8C9D
 10
5382.36
 20
158.677
 30
0.000000
  70
    32
  0
VERTEX
  8
01
  5
8C9E
 10
5382.23
 20
158.707
 30
0.000000
  70
    32
  0
VERTEX
  8
01
  5
8C9F
 10
5382.10
 20
158.733
 30
0.000000
  70
    32
  0
VERTEX
  8
01
  5
8CA0
 10
5381.96
 20
158.757
 30
0.000000
  70
    32
  0
VERTEX
  8
01
  5
8CA1
 10
5381.83
 20
158.778
 30
0.000000
  70
    32
  0
VERTEX
  8
01
  5
8CA2
 10
5381.70
 20
158.796
 30
0.000000
  70
    32
  0
VERTEX
  8
01
  5
8CA3
 10
5381.57
 20
158.812
 30
0.000000
  70
    32
  0
VERTEX
  8
01
  5
8CA4
 10
5381.43
 20
158.824
 30
0.000000
  70
    32
  0
VERTEX
  8
01
  5
8CA5
 10
5381.30
 20
158.834
 30
0.000000
  70
    32
  0
VERTEX
  8
01
  5
8CA6
 10
5381.17
 20
158.841
 30
0.000000
  70
    32
  0
VERTEX
  8
01
  5
8CA7
 10
5381.04
 20
158.845
 30
0.000000
  70
    32
  0
VERTEX
  8
01
  5
8CA8
 10
5380.90
 20
158.847
 30
0.000000
  70
    32
  0
SEQEND
  8
01
  5
8CA9
  0
POLYLINE
  5
87D6
  8
01
 10
5371.8482224241525
 20
143.57814549255909
 30
0.0
 66
     1
 70
     8
  0
VERTEX
  8
01
  5
8CAA
 10
5371.85
 20
143.578
 30
0.000000
  70
    32
  0
VERTEX
  8
01
  5
8CAB
 10
5371.85
 20
143.307
 30
0.000000
  70
    32
  0
VERTEX
  8
01
  5
8CAC
 10
5371.85
 20
143.036
 30
0.000000
  70
    32
  0
VERTEX
  8
01
  5
8CAD
 10
5371.85
 20
142.765
 30
0.000000
  70
    32
  0
VERTEX
  8
01
  5
8CAE
 10
5371.86
 20
142.495
 30
0.000000
  70
    32
  0
VERTEX
  8
01
  5
8CAF
 10
5371.86
 20
142.226
 30
0.000000
  70
    32
  0
VERTEX
  8
01
  5
8CB0
 10
5371.87
 20
141.957
 30
0.000000
  70
    32
  0
VERTEX
  8
01
  5
8CB1
 10
5371.88
 20
141.689
 30
0.000000
  70
    32
  0
VERTEX
  8
01
  5
8CB2
 10
5371.88
 20
141.422
 30
0.000000
  70
    32
  0
VERTEX
  8
01
  5
8CB3
 10
5371.89
 20
141.157
 30
0.000000
  70
    32
  0
VERTEX
  8
01
  5
8CB4
 10
5371.90
 20
140.893
 30
0.000000
  70
    32
  0
VERTEX
  8
01
  5
8CB5
 10
5371.92
 20
140.631
 30
0.000000
  70
    32
  0
VERTEX
  8
01
  5
8CB6
 10
5371.93
 20
140.370
 30
0.000000
  70
    32
  0
VERTEX
  8
01
  5
8CB7
 10
5371.94
 20
140.112
 30
0.000000
  70
    32
  0
VERTEX
  8
01
  5
8CB8
 10
5371.96
 20
139.856
 30
0.000000
  70
    32
  0
VERTEX
  8
01
  5
8CB9
 10
5371.97
 20
139.601
 30
0.000000
  70
    32
  0
VERTEX
  8
01
  5
8CBA
 10
5371.99
 20
139.349
 30
0.000000
  70
    32
  0
VERTEX
  8
01
  5
8CBB
 10
5372.01
 20
139.100
 30
0.000000
  70
    32
  0
VERTEX
  8
01
  5
8CBC
 10
5372.03
 20
138.854
 30
0.000000
  70
    32
  0
VERTEX
  8
01
  5
8CBD
 10
5372.05
 20
138.610
 30
0.000000
  70
    32
  0
VERTEX
  8
01
  5
8CBE
 10
5372.07
 20
138.369
 30
0.000000
  70
    32
  0
VERTEX
  8
01
  5
8CBF
 10
5372.09
 20
138.132
 30
0.000000
  70
    32
  0
VERTEX
  8
01
  5
8CC0
 10
5372.11
 20
137.897
 30
0.000000
  70
    32
  0
VERTEX
  8
01
  5
8CC1
 10
5372.14
 20
137.666
 30
0.000000
  70
    32
  0
VERTEX
  8
01
  5
8CC2
 10
5372.16
 20
137.439
 30
0.000000
  70
    32
  0
VERTEX
  8
01
  5
8CC3
 10
5372.19
 20
137.215
 30
0.000000
  70
    32
  0
VERTEX
  8
01
  5
8CC4
 10
5372.22
 20
136.996
 30
0.000000
  70
    32
  0
VERTEX
  8
01
  5
8CC5
 10
5372.24
 20
136.780
 30
0.000000
  70
    32
  0
VERTEX
  8
01
  5
8CC6
 10
5372.27
 20
136.568
 30
0.000000
  70
    32
  0
VERTEX
  8
01
  5
8CC7
 10
5372.30
 20
136.361
 30
0.000000
  70
    32
  0
VERTEX
  8
01
  5
8CC8
 10
5372.33
 20
136.157
 30
0.000000
  70
    32
  0
VERTEX
  8
01
  5
8CC9
 10
5372.36
 20
135.959
 30
0.000000
  70
    32
  0
VERTEX
  8
01
  5
8CCA
 10
5372.40
 20
135.765
 30
0.000000
  70
    32
  0
VERTEX
  8
01
  5
8CCB
 10
5372.43
 20
135.575
 30
0.000000
  70
    32
  0
VERTEX
  8
01
  5
8CCC
 10
5372.46
 20
135.391
 30
0.000000
  70
    32
  0
VERTEX
  8
01
  5
8CCD
 10
5372.50
 20
135.211
 30
0.000000
  70
    32
  0
VERTEX
  8
01
  5
8CCE
 10
5372.53
 20
135.036
 30
0.000000
  70
    32
  0
VERTEX
  8
01
  5
8CCF
 10
5372.57
 20
134.867
 30
0.000000
  70
    32
  0
VERTEX
  8
01
  5
8CD0
 10
5372.61
 20
134.703
 30
0.000000
  70
    32
  0
VERTEX
  8
01
  5
8CD1
 10
5372.64
 20
134.544
 30
0.000000
  70
    32
  0
VERTEX
  8
01
  5
8CD2
 10
5372.68
 20
134.390
 30
0.000000
  70
    32
  0
VERTEX
  8
01
  5
8CD3
 10
5372.72
 20
134.243
 30
0.000000
  70
    32
  0
VERTEX
  8
01
  5
8CD4
 10
5372.76
 20
134.100
 30
0.000000
  70
    32
  0
VERTEX
  8
01
  5
8CD5
 10
5372.80
 20
133.964
 30
0.000000
  70
    32
  0
VERTEX
  8
01
  5
8CD6
 10
5372.84
 20
133.833
 30
0.000000
  70
    32
  0
VERTEX
  8
01
  5
8CD7
 10
5372.88
 20
133.708
 30
0.000000
  70
    32
  0
VERTEX
  8
01
  5
8CD8
 10
5372.92
 20
133.589
 30
0.000000
  70
    32
  0
VERTEX
  8
01
  5
8CD9
 10
5372.96
 20
133.476
 30
0.000000
  70
    32
  0
VERTEX
  8
01
  5
8CDA
 10
5373.00
 20
133.369
 30
0.000000
  70
    32
  0
VERTEX
  8
01
  5
8CDB
 10
5373.05
 20
133.269
 30
0.000000
  70
    32
  0
VERTEX
  8
01
  5
8CDC
 10
5373.09
 20
133.174
 30
0.000000
  70
    32
  0
VERTEX
  8
01
  5
8CDD
 10
5373.13
 20
133.086
 30
0.000000
  70
    32
  0
VERTEX
  8
01
  5
8CDE
 10
5373.18
 20
133.004
 30
0.000000
  70
    32
  0
VERTEX
  8
01
  5
8CDF
 10
5373.22
 20
132.928
 30
0.000000
  70
    32
  0
VERTEX
  8
01
  5
8CE0
 10
5373.27
 20
132.859
 30
0.000000
  70
    32
  0
VERTEX
  8
01
  5
8CE1
 10
5373.31
 20
132.797
 30
0.000000
  70
    32
  0
VERTEX
  8
01
  5
8CE2
 10
5373.36
 20
132.740
 30
0.000000
  70
    32
  0
VERTEX
  8
01
  5
8CE3
 10
5373.40
 20
132.691
 30
0.000000
  70
    32
  0
VERTEX
  8
01
  5
8CE4
 10
5373.45
 20
132.648
 30
0.000000
  70
    32
  0
VERTEX
  8
01
  5
8CE5
 10
5373.49
 20
132.611
 30
0.000000
  70
    32
  0
VERTEX
  8
01
  5
8CE6
 10
5373.54
 20
132.581
 30
0.000000
  70
    32
  0
VERTEX
  8
01
  5
8CE7
 10
5373.58
 20
132.558
 30
0.000000
  70
    32
  0
VERTEX
  8
01
  5
8CE8
 10
5373.63
 20
132.541
 30
0.000000
  70
    32
  0
VERTEX
  8
01
  5
8CE9
 10
5373.68
 20
132.531
 30
0.000000
  70
    32
  0
VERTEX
  8
01
  5
8CEA
 10
5373.72
 20
132.528
 30
0.000000
  70
    32
  0
VERTEX
  8
01
  5
8CEB
 10
5373.77
 20
132.531
 30
0.000000
  70
    32
  0
VERTEX
  8
01
  5
8CEC
 10
5373.81
 20
132.541
 30
0.000000
  70
    32
  0
VERTEX
  8
01
  5
8CED
 10
5373.86
 20
132.558
 30
0.000000
  70
    32
  0
VERTEX
  8
01
  5
8CEE
 10
5373.90
 20
132.581
 30
0.000000
  70
    32
  0
VERTEX
  8
01
  5
8CEF
 10
5373.95
 20
132.611
 30
0.000000
  70
    32
  0
VERTEX
  8
01
  5
8CF0
 10
5374.00
 20
132.648
 30
0.000000
  70
    32
  0
VERTEX
  8
01
  5
8CF1
 10
5374.04
 20
132.691
 30
0.000000
  70
    32
  0
VERTEX
  8
01
  5
8CF2
 10
5374.09
 20
132.740
 30
0.000000
  70
    32
  0
VERTEX
  8
01
  5
8CF3
 10
5374.13
 20
132.797
 30
0.000000
  70
    32
  0
VERTEX
  8
01
  5
8CF4
 10
5374.18
 20
132.859
 30
0.000000
  70
    32
  0
VERTEX
  8
01
  5
8CF5
 10
5374.22
 20
132.928
 30
0.000000
  70
    32
  0
VERTEX
  8
01
  5
8CF6
 10
5374.27
 20
133.004
 30
0.000000
  70
    32
  0
VERTEX
  8
01
  5
8CF7
 10
5374.31
 20
133.086
 30
0.000000
  70
    32
  0
VERTEX
  8
01
  5
8CF8
 10
5374.35
 20
133.174
 30
0.000000
  70
    32
  0
VERTEX
  8
01
  5
8CF9
 10
5374.40
 20
133.269
 30
0.000000
  70
    32
  0
VERTEX
  8
01
  5
8CFA
 10
5374.44
 20
133.369
 30
0.000000
  70
    32
  0
VERTEX
  8
01
  5
8CFB
 10
5374.48
 20
133.476
 30
0.000000
  70
    32
  0
VERTEX
  8
01
  5
8CFC
 10
5374.52
 20
133.589
 30
0.000000
  70
    32
  0
VERTEX
  8
01
  5
8CFD
 10
5374.56
 20
133.708
 30
0.000000
  70
    32
  0
VERTEX
  8
01
  5
8CFE
 10
5374.60
 20
133.833
 30
0.000000
  70
    32
  0
VERTEX
  8
01
  5
8CFF
 10
5374.64
 20
133.964
 30
0.000000
  70
    32
  0
VERTEX
  8
01
  5
8D00
 10
5374.68
 20
134.100
 30
0.000000
  70
    32
  0
VERTEX
  8
01
  5
8D01
 10
5374.72
 20
134.243
 30
0.000000
  70
    32
  0
VERTEX
  8
01
  5
8D02
 10
5374.76
 20
134.390
 30
0.000000
  70
    32
  0
VERTEX
  8
01
  5
8D03
 10
5374.80
 20
134.544
 30
0.000000
  70
    32
  0
VERTEX
  8
01
  5
8D04
 10
5374.84
 20
134.703
 30
0.000000
  70
    32
  0
VERTEX
  8
01
  5
8D05
 10
5374.87
 20
134.867
 30
0.000000
  70
    32
  0
VERTEX
  8
01
  5
8D06
 10
5374.91
 20
135.036
 30
0.000000
  70
    32
  0
VERTEX
  8
01
  5
8D07
 10
5374.94
 20
135.211
 30
0.000000
  70
    32
  0
VERTEX
  8
01
  5
8D08
 10
5374.98
 20
135.391
 30
0.000000
  70
    32
  0
VERTEX
  8
01
  5
8D09
 10
5375.01
 20
135.575
 30
0.000000
  70
    32
  0
VERTEX
  8
01
  5
8D0A
 10
5375.05
 20
135.765
 30
0.000000
  70
    32
  0
VERTEX
  8
01
  5
8D0B
 10
5375.08
 20
135.959
 30
0.000000
  70
    32
  0
VERTEX
  8
01
  5
8D0C
 10
5375.11
 20
136.157
 30
0.000000
  70
    32
  0
VERTEX
  8
01
  5
8D0D
 10
5375.14
 20
136.361
 30
0.000000
  70
    32
  0
VERTEX
  8
01
  5
8D0E
 10
5375.17
 20
136.568
 30
0.000000
  70
    32
  0
VERTEX
  8
01
  5
8D0F
 10
5375.20
 20
136.780
 30
0.000000
  70
    32
  0
VERTEX
  8
01
  5
8D10
 10
5375.23
 20
136.996
 30
0.000000
  70
    32
  0
VERTEX
  8
01
  5
8D11
 10
5375.25
 20
137.215
 30
0.000000
  70
    32
  0
VERTEX
  8
01
  5
8D12
 10
5375.28
 20
137.439
 30
0.000000
  70
    32
  0
VERTEX
  8
01
  5
8D13
 10
5375.30
 20
137.666
 30
0.000000
  70
    32
  0
VERTEX
  8
01
  5
8D14
 10
5375.33
 20
137.897
 30
0.000000
  70
    32
  0
VERTEX
  8
01
  5
8D15
 10
5375.35
 20
138.132
 30
0.000000
  70
    32
  0
VERTEX
  8
01
  5
8D16
 10
5375.37
 20
138.369
 30
0.000000
  70
    32
  0
VERTEX
  8
01
  5
8D17
 10
5375.39
 20
138.610
 30
0.000000
  70
    32
  0
VERTEX
  8
01
  5
8D18
 10
5375.41
 20
138.854
 30
0.000000
  70
    32
  0
VERTEX
  8
01
  5
8D19
 10
5375.43
 20
139.100
 30
0.000000
  70
    32
  0
VERTEX
  8
01
  5
8D1A
 10
5375.45
 20
139.349
 30
0.000000
  70
    32
  0
VERTEX
  8
01
  5
8D1B
 10
5375.47
 20
139.601
 30
0.000000
  70
    32
  0
VERTEX
  8
01
  5
8D1C
 10
5375.48
 20
139.856
 30
0.000000
  70
    32
  0
VERTEX
  8
01
  5
8D1D
 10
5375.50
 20
140.112
 30
0.000000
  70
    32
  0
VERTEX
  8
01
  5
8D1E
 10
5375.51
 20
140.370
 30
0.000000
  70
    32
  0
VERTEX
  8
01
  5
8D1F
 10
5375.53
 20
140.631
 30
0.000000
  70
    32
  0
VERTEX
  8
01
  5
8D20
 10
5375.54
 20
140.893
 30
0.000000
  70
    32
  0
VERTEX
  8
01
  5
8D21
 10
5375.55
 20
141.157
 30
0.000000
  70
    32
  0
VERTEX
  8
01
  5
8D22
 10
5375.56
 20
141.422
 30
0.000000
  70
    32
  0
VERTEX
  8
01
  5
8D23
 10
5375.57
 20
141.689
 30
0.000000
  70
    32
  0
VERTEX
  8
01
  5
8D24
 10
5375.57
 20
141.957
 30
0.000000
  70
    32
  0
VERTEX
  8
01
  5
8D25
 10
5375.58
 20
142.226
 30
0.000000
  70
    32
  0
VERTEX
  8
01
  5
8D26
 10
5375.59
 20
142.495
 30
0.000000
  70
    32
  0
VERTEX
  8
01
  5
8D27
 10
5375.59
 20
142.765
 30
0.000000
  70
    32
  0
VERTEX
  8
01
  5
8D28
 10
5375.59
 20
143.036
 30
0.000000
  70
    32
  0
VERTEX
  8
01
  5
8D29
 10
5375.59
 20
143.307
 30
0.000000
  70
    32
  0
VERTEX
  8
01
  5
8D2A
 10
5375.59
 20
143.578
 30
0.000000
  70
    32
  0
SEQEND
  8
01
  5
8D2B
  0
POLYLINE
  5
87D9
  8
01
 10
5380.9036388161676
 20
158.84682794745873
 30
0.0
 66
     1
 70
     8
  0
VERTEX
  8
01
  5
8D2C
 10
5380.90
 20
158.847
 30
0.000000
  70
    32
  0
VERTEX
  8
01
  5
8D2D
 10
5380.79
 20
158.846
 30
0.000000
  70
    32
  0
VERTEX
  8
01
  5
8D2E
 10
5380.68
 20
158.842
 30
0.000000
  70
    32
  0
VERTEX
  8
01
  5
8D2F
 10
5380.57
 20
158.836
 30
0.000000
  70
    32
  0
VERTEX
  8
01
  5
8D30
 10
5380.46
 20
158.828
 30
0.000000
  70
    32
  0
VERTEX
  8
01
  5
8D31
 10
5380.35
 20
158.818
 30
0.000000
  70
    32
  0
VERTEX
  8
01
  5
8D32
 10
5380.24
 20
158.805
 30
0.000000
  70
    32
  0
VERTEX
  8
01
  5
8D33
 10
5380.13
 20
158.791
 30
0.000000
  70
    32
  0
VERTEX
  8
01
  5
8D34
 10
5380.02
 20
158.773
 30
0.000000
  70
    32
  0
VERTEX
  8
01
  5
8D35
 10
5379.91
 20
158.754
 30
0.000000
  70
    32
  0
VERTEX
  8
01
  5
8D36
 10
5379.80
 20
158.732
 30
0.000000
  70
    32
  0
VERTEX
  8
01
  5
8D37
 10
5379.68
 20
158.708
 30
0.000000
  70
    32
  0
VERTEX
  8
01
  5
8D38
 10
5379.57
 20
158.682
 30
0.000000
  70
    32
  0
VERTEX
  8
01
  5
8D39
 10
5379.47
 20
158.653
 30
0.000000
  70
    32
  0
VERTEX
  8
01
  5
8D3A
 10
5379.36
 20
158.622
 30
0.000000
  70
    32
  0
VERTEX
  8
01
  5
8D3B
 10
5379.25
 20
158.589
 30
0.000000
  70
    32
  0
VERTEX
  8
01
  5
8D3C
 10
5379.14
 20
158.553
 30
0.000000
  70
    32
  0
VERTEX
  8
01
  5
8D3D
 10
5379.03
 20
158.516
 30
0.000000
  70
    32
  0
VERTEX
  8
01
  5
8D3E
 10
5378.92
 20
158.476
 30
0.000000
  70
    32
  0
VERTEX
  8
01
  5
8D3F
 10
5378.81
 20
158.434
 30
0.000000
  70
    32
  0
VERTEX
  8
01
  5
8D40
 10
5378.70
 20
158.389
 30
0.000000
  70
    32
  0
VERTEX
  8
01
  5
8D41
 10
5378.60
 20
158.343
 30
0.000000
  70
    32
  0
VERTEX
  8
01
  5
8D42
 10
5378.49
 20
158.294
 30
0.000000
  70
    32
  0
VERTEX
  8
01
  5
8D43
 10
5378.38
 20
158.243
 30
0.000000
  70
    32
  0
VERTEX
  8
01
  5
8D44
 10
5378.27
 20
158.189
 30
0.000000
  70
    32
  0
VERTEX
  8
01
  5
8D45
 10
5378.17
 20
158.134
 30
0.000000
  70
    32
  0
VERTEX
  8
01
  5
8D46
 10
5378.06
 20
158.076
 30
0.000000
  70
    32
  0
VERTEX
  8
01
  5
8D47
 10
5377.96
 20
158.016
 30
0.000000
  70
    32
  0
VERTEX
  8
01
  5
8D48
 10
5377.85
 20
157.954
 30
0.000000
  70
    32
  0
VERTEX
  8
01
  5
8D49
 10
5377.75
 20
157.890
 30
0.000000
  70
    32
  0
VERTEX
  8
01
  5
8D4A
 10
5377.64
 20
157.824
 30
0.000000
  70
    32
  0
VERTEX
  8
01
  5
8D4B
 10
5377.54
 20
157.755
 30
0.000000
  70
    32
  0
VERTEX
  8
01
  5
8D4C
 10
5377.44
 20
157.685
 30
0.000000
  70
    32
  0
VERTEX
  8
01
  5
8D4D
 10
5377.34
 20
157.612
 30
0.000000
  70
    32
  0
VERTEX
  8
01
  5
8D4E
 10
5377.23
 20
157.537
 30
0.000000
  70
    32
  0
VERTEX
  8
01
  5
8D4F
 10
5377.13
 20
157.460
 30
0.000000
  70
    32
  0
VERTEX
  8
01
  5
8D50
 10
5377.03
 20
157.381
 30
0.000000
  70
    32
  0
VERTEX
  8
01
  5
8D51
 10
5376.93
 20
157.300
 30
0.000000
  70
    32
  0
VERTEX
  8
01
  5
8D52
 10
5376.83
 20
157.217
 30
0.000000
  70
    32
  0
VERTEX
  8
01
  5
8D53
 10
5376.73
 20
157.131
 30
0.000000
  70
    32
  0
VERTEX
  8
01
  5
8D54
 10
5376.63
 20
157.044
 30
0.000000
  70
    32
  0
VERTEX
  8
01
  5
8D55
 10
5376.54
 20
156.955
 30
0.000000
  70
    32
  0
VERTEX
  8
01
  5
8D56
 10
5376.44
 20
156.863
 30
0.000000
  70
    32
  0
VERTEX
  8
01
  5
8D57
 10
5376.34
 20
156.770
 30
0.000000
  70
    32
  0
VERTEX
  8
01
  5
8D58
 10
5376.25
 20
156.675
 30
0.000000
  70
    32
  0
VERTEX
  8
01
  5
8D59
 10
5376.15
 20
156.577
 30
0.000000
  70
    32
  0
VERTEX
  8
01
  5
8D5A
 10
5376.06
 20
156.478
 30
0.000000
  70
    32
  0
VERTEX
  8
01
  5
8D5B
 10
5375.97
 20
156.377
 30
0.000000
  70
    32
  0
VERTEX
  8
01
  5
8D5C
 10
5375.87
 20
156.274
 30
0.000000
  70
    32
  0
VERTEX
  8
01
  5
8D5D
 10
5375.78
 20
156.169
 30
0.000000
  70
    32
  0
VERTEX
  8
01
  5
8D5E
 10
5375.69
 20
156.062
 30
0.000000
  70
    32
  0
VERTEX
  8
01
  5
8D5F
 10
5375.60
 20
155.953
 30
0.000000
  70
    32
  0
VERTEX
  8
01
  5
8D60
 10
5375.51
 20
155.842
 30
0.000000
  70
    32
  0
VERTEX
  8
01
  5
8D61
 10
5375.42
 20
155.730
 30
0.000000
  70
    32
  0
VERTEX
  8
01
  5
8D62
 10
5375.33
 20
155.615
 30
0.000000
  70
    32
  0
VERTEX
  8
01
  5
8D63
 10
5375.25
 20
155.499
 30
0.000000
  70
    32
  0
VERTEX
  8
01
  5
8D64
 10
5375.16
 20
155.381
 30
0.000000
  70
    32
  0
VERTEX
  8
01
  5
8D65
 10
5375.07
 20
155.261
 30
0.000000
  70
    32
  0
VERTEX
  8
01
  5
8D66
 10
5374.99
 20
155.140
 30
0.000000
  70
    32
  0
VERTEX
  8
01
  5
8D67
 10
5374.91
 20
155.016
 30
0.000000
  70
    32
  0
VERTEX
  8
01
  5
8D68
 10
5374.82
 20
154.891
 30
0.000000
  70
    32
  0
VERTEX
  8
01
  5
8D69
 10
5374.74
 20
154.765
 30
0.000000
  70
    32
  0
VERTEX
  8
01
  5
8D6A
 10
5374.66
 20
154.636
 30
0.000000
  70
    32
  0
VERTEX
  8
01
  5
8D6B
 10
5374.58
 20
154.506
 30
0.000000
  70
    32
  0
VERTEX
  8
01
  5
8D6C
 10
5374.50
 20
154.375
 30
0.000000
  70
    32
  0
VERTEX
  8
01
  5
8D6D
 10
5374.42
 20
154.241
 30
0.000000
  70
    32
  0
VERTEX
  8
01
  5
8D6E
 10
5374.35
 20
154.107
 30
0.000000
  70
    32
  0
VERTEX
  8
01
  5
8D6F
 10
5374.27
 20
153.970
 30
0.000000
  70
    32
  0
VERTEX
  8
01
  5
8D70
 10
5374.19
 20
153.832
 30
0.000000
  70
    32
  0
VERTEX
  8
01
  5
8D71
 10
5374.12
 20
153.692
 30
0.000000
  70
    32
  0
VERTEX
  8
01
  5
8D72
 10
5374.05
 20
153.551
 30
0.000000
  70
    32
  0
VERTEX
  8
01
  5
8D73
 10
5373.97
 20
153.409
 30
0.000000
  70
    32
  0
VERTEX
  8
01
  5
8D74
 10
5373.90
 20
153.264
 30
0.000000
  70
    32
  0
VERTEX
  8
01
  5
8D75
 10
5373.83
 20
153.119
 30
0.000000
  70
    32
  0
VERTEX
  8
01
  5
8D76
 10
5373.76
 20
152.972
 30
0.000000
  70
    32
  0
VERTEX
  8
01
  5
8D77
 10
5373.70
 20
152.824
 30
0.000000
  70
    32
  0
VERTEX
  8
01
  5
8D78
 10
5373.63
 20
152.674
 30
0.000000
  70
    32
  0
VERTEX
  8
01
  5
8D79
 10
5373.56
 20
152.523
 30
0.000000
  70
    32
  0
VERTEX
  8
01
  5
8D7A
 10
5373.50
 20
152.370
 30
0.000000
  70
    32
  0
VERTEX
  8
01
  5
8D7B
 10
5373.44
 20
152.216
 30
0.000000
  70
    32
  0
VERTEX
  8
01
  5
8D7C
 10
5373.37
 20
152.061
 30
0.000000
  70
    32
  0
VERTEX
  8
01
  5
8D7D
 10
5373.31
 20
151.905
 30
0.000000
  70
    32
  0
VERTEX
  8
01
  5
8D7E
 10
5373.25
 20
151.747
 30
0.000000
  70
    32
  0
VERTEX
  8
01
  5
8D7F
 10
5373.19
 20
151.588
 30
0.000000
  70
    32
  0
VERTEX
  8
01
  5
8D80
 10
5373.14
 20
151.428
 30
0.000000
  70
    32
  0
VERTEX
  8
01
  5
8D81
 10
5373.08
 20
151.267
 30
0.000000
  70
    32
  0
VERTEX
  8
01
  5
8D82
 10
5373.02
 20
151.104
 30
0.000000
  70
    32
  0
VERTEX
  8
01
  5
8D83
 10
5372.97
 20
150.940
 30
0.000000
  70
    32
  0
VERTEX
  8
01
  5
8D84
 10
5372.92
 20
150.776
 30
0.000000
  70
    32
  0
VERTEX
  8
01
  5
8D85
 10
5372.87
 20
150.610
 30
0.000000
  70
    32
  0
VERTEX
  8
01
  5
8D86
 10
5372.82
 20
150.443
 30
0.000000
  70
    32
  0
VERTEX
  8
01
  5
8D87
 10
5372.77
 20
150.275
 30
0.000000
  70
    32
  0
VERTEX
  8
01
  5
8D88
 10
5372.72
 20
150.106
 30
0.000000
  70
    32
  0
VERTEX
  8
01
  5
8D89
 10
5372.67
 20
149.936
 30
0.000000
  70
    32
  0
VERTEX
  8
01
  5
8D8A
 10
5372.63
 20
149.766
 30
0.000000
  70
    32
  0
VERTEX
  8
01
  5
8D8B
 10
5372.58
 20
149.594
 30
0.000000
  70
    32
  0
VERTEX
  8
01
  5
8D8C
 10
5372.54
 20
149.421
 30
0.000000
  70
    32
  0
VERTEX
  8
01
  5
8D8D
 10
5372.50
 20
149.248
 30
0.000000
  70
    32
  0
VERTEX
  8
01
  5
8D8E
 10
5372.46
 20
149.073
 30
0.000000
  70
    32
  0
VERTEX
  8
01
  5
8D8F
 10
5372.42
 20
148.898
 30
0.000000
  70
    32
  0
VERTEX
  8
01
  5
8D90
 10
5372.38
 20
148.722
 30
0.000000
  70
    32
  0
VERTEX
  8
01
  5
8D91
 10
5372.34
 20
148.545
 30
0.000000
  70
    32
  0
VERTEX
  8
01
  5
8D92
 10
5372.31
 20
148.368
 30
0.000000
  70
    32
  0
VERTEX
  8
01
  5
8D93
 10
5372.27
 20
148.189
 30
0.000000
  70
    32
  0
VERTEX
  8
01
  5
8D94
 10
5372.24
 20
148.010
 30
0.000000
  70
    32
  0
VERTEX
  8
01
  5
8D95
 10
5372.21
 20
147.831
 30
0.000000
  70
    32
  0
VERTEX
  8
01
  5
8D96
 10
5372.18
 20
147.650
 30
0.000000
  70
    32
  0
VERTEX
  8
01
  5
8D97
 10
5372.15
 20
147.470
 30
0.000000
  70
    32
  0
VERTEX
  8
01
  5
8D98
 10
5372.12
 20
147.288
 30
0.000000
  70
    32
  0
VERTEX
  8
01
  5
8D99
 10
5372.09
 20
147.106
 30
0.000000
  70
    32
  0
VERTEX
  8
01
  5
8D9A
 10
5372.07
 20
146.924
 30
0.000000
  70
    32
  0
VERTEX
  8
01
  5
8D9B
 10
5372.04
 20
146.740
 30
0.000000
  70
    32
  0
VERTEX
  8
01
  5
8D9C
 10
5372.02
 20
146.557
 30
0.000000
  70
    32
  0
VERTEX
  8
01
  5
8D9D
 10
5372.00
 20
146.373
 30
0.000000
  70
    32
  0
VERTEX
  8
01
  5
8D9E
 10
5371.98
 20
146.189
 30
0.000000
  70
    32
  0
VERTEX
  8
01
  5
8D9F
 10
5371.96
 20
146.004
 30
0.000000
  70
    32
  0
VERTEX
  8
01
  5
8DA0
 10
5371.95
 20
145.819
 30
0.000000
  70
    32
  0
VERTEX
  8
01
  5
8DA1
 10
5371.93
 20
145.633
 30
0.000000
  70
    32
  0
VERTEX
  8
01
  5
8DA2
 10
5371.92
 20
145.447
 30
0.000000
  70
    32
  0
VERTEX
  8
01
  5
8DA3
 10
5371.90
 20
145.261
 30
0.000000
  70
    32
  0
VERTEX
  8
01
  5
8DA4
 10
5371.89
 20
145.075
 30
0.000000
  70
    32
  0
VERTEX
  8
01
  5
8DA5
 10
5371.88
 20
144.888
 30
0.000000
  70
    32
  0
VERTEX
  8
01
  5
8DA6
 10
5371.87
 20
144.701
 30
0.000000
  70
    32
  0
VERTEX
  8
01
  5
8DA7
 10
5371.87
 20
144.514
 30
0.000000
  70
    32
  0
VERTEX
  8
01
  5
8DA8
 10
5371.86
 20
144.327
 30
0.000000
  70
    32
  0
VERTEX
  8
01
  5
8DA9
 10
5371.85
 20
144.140
 30
0.000000
  70
    32
  0
VERTEX
  8
01
  5
8DAA
 10
5371.85
 20
143.953
 30
0.000000
  70
    32
  0
VERTEX
  8
01
  5
8DAB
 10
5371.85
 20
143.766
 30
0.000000
  70
    32
  0
VERTEX
  8
01
  5
8DAC
 10
5371.85
 20
143.578
 30
0.000000
  70
    32
  0
SEQEND
  8
01
  5
8DAD
  0
ARC
  5
87E3
  8
01
 10
5380.3702537340196
 20
146.9328477001537
 30
0.0
 40
13.20186386360011
 50
245.45475410765229
 51
329.36851625321992
  0
POLYLINE
  5
87E6
  8
01
 10
5380.9036388161676
 20
156.95011841955014
 30
0.0
 66
     1
 70
     8
  0
VERTEX
  8
01
  5
8DAE
 10
5380.90
 20
156.950
 30
0.000000
  70
    32
  0
VERTEX
  8
01
  5
8DAF
 10
5380.84
 20
156.949
 30
0.000000
  70
    32
  0
VERTEX
  8
01
  5
8DB0
 10
5380.77
 20
156.946
 30
0.000000
  70
    32
  0
VERTEX
  8
01
  5
8DB1
 10
5380.71
 20
156.941
 30
0.000000
  70
    32
  0
VERTEX
  8
01
  5
8DB2
 10
5380.64
 20
156.934
 30
0.000000
  70
    32
  0
VERTEX
  8
01
  5
8DB3
 10
5380.58
 20
156.925
 30
0.000000
  70
    32
  0
VERTEX
  8
01
  5
8DB4
 10
5380.51
 20
156.914
 30
0.000000
  70
    32
  0
VERTEX
  8
01
  5
8DB5
 10
5380.45
 20
156.901
 30
0.000000
  70
    32
  0
VERTEX
  8
01
  5
8DB6
 10
5380.38
 20
156.886
 30
0.000000
  70
    32
  0
VERTEX
  8
01
  5
8DB7
 10
5380.32
 20
156.869
 30
0.000000
  70
    32
  0
VERTEX
  8
01
  5
8DB8
 10
5380.25
 20
156.850
 30
0.000000
  70
    32
  0
VERTEX
  8
01
  5
8DB9
 10
5380.19
 20
156.828
 30
0.000000
  70
    32
  0
VERTEX
  8
01
  5
8DBA
 10
5380.12
 20
156.805
 30
0.000000
  70
    32
  0
VERTEX
  8
01
  5
8DBB
 10
5380.06
 20
156.780
 30
0.000000
  70
    32
  0
VERTEX
  8
01
  5
8DBC
 10
5380.00
 20
156.753
 30
0.000000
  70
    32
  0
VERTEX
  8
01
  5
8DBD
 10
5379.93
 20
156.724
 30
0.000000
  70
    32
  0
VERTEX
  8
01
  5
8DBE
 10
5379.87
 20
156.693
 30
0.000000
  70
    32
  0
VERTEX
  8
01
  5
8DBF
 10
5379.80
 20
156.660
 30
0.000000
  70
    32
  0
VERTEX
  8
01
  5
8DC0
 10
5379.74
 20
156.625
 30
0.000000
  70
    32
  0
VERTEX
  8
01
  5
8DC1
 10
5379.68
 20
156.588
 30
0.000000
  70
    32
  0
VERTEX
  8
01
  5
8DC2
 10
5379.61
 20
156.549
 30
0.000000
  70
    32
  0
VERTEX
  8
01
  5
8DC3
 10
5379.55
 20
156.509
 30
0.000000
  70
    32
  0
VERTEX
  8
01
  5
8DC4
 10
5379.49
 20
156.466
 30
0.000000
  70
    32
  0
VERTEX
  8
01
  5
8DC5
 10
5379.42
 20
156.421
 30
0.000000
  70
    32
  0
VERTEX
  8
01
  5
8DC6
 10
5379.36
 20
156.374
 30
0.000000
  70
    32
  0
VERTEX
  8
01
  5
8DC7
 10
5379.30
 20
156.326
 30
0.000000
  70
    32
  0
VERTEX
  8
01
  5
8DC8
 10
5379.24
 20
156.275
 30
0.000000
  70
    32
  0
VERTEX
  8
01
  5
8DC9
 10
5379.18
 20
156.223
 30
0.000000
  70
    32
  0
VERTEX
  8
01
  5
8DCA
 10
5379.12
 20
156.168
 30
0.000000
  70
    32
  0
VERTEX
  8
01
  5
8DCB
 10
5379.05
 20
156.112
 30
0.000000
  70
    32
  0
VERTEX
  8
01
  5
8DCC
 10
5378.99
 20
156.054
 30
0.000000
  70
    32
  0
VERTEX
  8
01
  5
8DCD
 10
5378.93
 20
155.994
 30
0.000000
  70
    32
  0
VERTEX
  8
01
  5
8DCE
 10
5378.87
 20
155.932
 30
0.000000
  70
    32
  0
VERTEX
  8
01
  5
8DCF
 10
5378.81
 20
155.869
 30
0.000000
  70
    32
  0
VERTEX
  8
01
  5
8DD0
 10
5378.75
 20
155.803
 30
0.000000
  70
    32
  0
VERTEX
  8
01
  5
8DD1
 10
5378.69
 20
155.736
 30
0.000000
  70
    32
  0
VERTEX
  8
01
  5
8DD2
 10
5378.63
 20
155.666
 30
0.000000
  70
    32
  0
VERTEX
  8
01
  5
8DD3
 10
5378.57
 20
155.595
 30
0.000000
  70
    32
  0
VERTEX
  8
01
  5
8DD4
 10
5378.52
 20
155.522
 30
0.000000
  70
    32
  0
VERTEX
  8
01
  5
8DD5
 10
5378.46
 20
155.448
 30
0.000000
  70
    32
  0
VERTEX
  8
01
  5
8DD6
 10
5378.40
 20
155.371
 30
0.000000
  70
    32
  0
VERTEX
  8
01
  5
8DD7
 10
5378.34
 20
155.293
 30
0.000000
  70
    32
  0
VERTEX
  8
01
  5
8DD8
 10
5378.29
 20
155.213
 30
0.000000
  70
    32
  0
VERTEX
  8
01
  5
8DD9
 10
5378.23
 20
155.131
 30
0.000000
  70
    32
  0
VERTEX
  8
01
  5
8DDA
 10
5378.17
 20
155.048
 30
0.000000
  70
    32
  0
VERTEX
  8
01
  5
8DDB
 10
5378.12
 20
154.962
 30
0.000000
  70
    32
  0
VERTEX
  8
01
  5
8DDC
 10
5378.06
 20
154.876
 30
0.000000
  70
    32
  0
VERTEX
  8
01
  5
8DDD
 10
5378.01
 20
154.787
 30
0.000000
  70
    32
  0
VERTEX
  8
01
  5
8DDE
 10
5377.95
 20
154.697
 30
0.000000
  70
    32
  0
VERTEX
  8
01
  5
8DDF
 10
5377.90
 20
154.605
 30
0.000000
  70
    32
  0
VERTEX
  8
01
  5
8DE0
 10
5377.85
 20
154.511
 30
0.000000
  70
    32
  0
VERTEX
  8
01
  5
8DE1
 10
5377.79
 20
154.416
 30
0.000000
  70
    32
  0
VERTEX
  8
01
  5
8DE2
 10
5377.74
 20
154.319
 30
0.000000
  70
    32
  0
VERTEX
  8
01
  5
8DE3
 10
5377.69
 20
154.220
 30
0.000000
  70
    32
  0
VERTEX
  8
01
  5
8DE4
 10
5377.64
 20
154.120
 30
0.000000
  70
    32
  0
VERTEX
  8
01
  5
8DE5
 10
5377.59
 20
154.018
 30
0.000000
  70
    32
  0
VERTEX
  8
01
  5
8DE6
 10
5377.54
 20
153.915
 30
0.000000
  70
    32
  0
VERTEX
  8
01
  5
8DE7
 10
5377.49
 20
153.810
 30
0.000000
  70
    32
  0
VERTEX
  8
01
  5
8DE8
 10
5377.44
 20
153.704
 30
0.000000
  70
    32
  0
VERTEX
  8
01
  5
8DE9
 10
5377.39
 20
153.596
 30
0.000000
  70
    32
  0
VERTEX
  8
01
  5
8DEA
 10
5377.34
 20
153.486
 30
0.000000
  70
    32
  0
VERTEX
  8
01
  5
8DEB
 10
5377.29
 20
153.375
 30
0.000000
  70
    32
  0
VERTEX
  8
01
  5
8DEC
 10
5377.24
 20
153.263
 30
0.000000
  70
    32
  0
VERTEX
  8
01
  5
8DED
 10
5377.20
 20
153.149
 30
0.000000
  70
    32
  0
VERTEX
  8
01
  5
8DEE
 10
5377.15
 20
153.034
 30
0.000000
  70
    32
  0
VERTEX
  8
01
  5
8DEF
 10
5377.10
 20
152.917
 30
0.000000
  70
    32
  0
VERTEX
  8
01
  5
8DF0
 10
5377.06
 20
152.799
 30
0.000000
  70
    32
  0
VERTEX
  8
01
  5
8DF1
 10
5377.01
 20
152.679
 30
0.000000
  70
    32
  0
VERTEX
  8
01
  5
8DF2
 10
5376.97
 20
152.558
 30
0.000000
  70
    32
  0
VERTEX
  8
01
  5
8DF3
 10
5376.93
 20
152.436
 30
0.000000
  70
    32
  0
VERTEX
  8
01
  5
8DF4
 10
5376.88
 20
152.312
 30
0.000000
  70
    32
  0
VERTEX
  8
01
  5
8DF5
 10
5376.84
 20
152.187
 30
0.000000
  70
    32
  0
VERTEX
  8
01
  5
8DF6
 10
5376.80
 20
152.061
 30
0.000000
  70
    32
  0
VERTEX
  8
01
  5
8DF7
 10
5376.76
 20
151.934
 30
0.000000
  70
    32
  0
VERTEX
  8
01
  5
8DF8
 10
5376.72
 20
151.805
 30
0.000000
  70
    32
  0
VERTEX
  8
01
  5
8DF9
 10
5376.68
 20
151.675
 30
0.000000
  70
    32
  0
VERTEX
  8
01
  5
8DFA
 10
5376.64
 20
151.544
 30
0.000000
  70
    32
  0
VERTEX
  8
01
  5
8DFB
 10
5376.60
 20
151.411
 30
0.000000
  70
    32
  0
VERTEX
  8
01
  5
8DFC
 10
5376.56
 20
151.278
 30
0.000000
  70
    32
  0
VERTEX
  8
01
  5
8DFD
 10
5376.53
 20
151.143
 30
0.000000
  70
    32
  0
VERTEX
  8
01
  5
8DFE
 10
5376.49
 20
151.007
 30
0.000000
  70
    32
  0
VERTEX
  8
01
  5
8DFF
 10
5376.45
 20
150.870
 30
0.000000
  70
    32
  0
VERTEX
  8
01
  5
8E00
 10
5376.42
 20
150.732
 30
0.000000
  70
    32
  0
VERTEX
  8
01
  5
8E01
 10
5376.38
 20
150.593
 30
0.000000
  70
    32
  0
VERTEX
  8
01
  5
8E02
 10
5376.35
 20
150.453
 30
0.000000
  70
    32
  0
VERTEX
  8
01
  5
8E03
 10
5376.32
 20
150.311
 30
0.000000
  70
    32
  0
VERTEX
  8
01
  5
8E04
 10
5376.28
 20
150.169
 30
0.000000
  70
    32
  0
VERTEX
  8
01
  5
8E05
 10
5376.25
 20
150.026
 30
0.000000
  70
    32
  0
VERTEX
  8
01
  5
8E06
 10
5376.22
 20
149.882
 30
0.000000
  70
    32
  0
VERTEX
  8
01
  5
8E07
 10
5376.19
 20
149.736
 30
0.000000
  70
    32
  0
VERTEX
  8
01
  5
8E08
 10
5376.16
 20
149.590
 30
0.000000
  70
    32
  0
VERTEX
  8
01
  5
8E09
 10
5376.13
 20
149.443
 30
0.000000
  70
    32
  0
VERTEX
  8
01
  5
8E0A
 10
5376.10
 20
149.295
 30
0.000000
  70
    32
  0
VERTEX
  8
01
  5
8E0B
 10
5376.08
 20
149.147
 30
0.000000
  70
    32
  0
VERTEX
  8
01
  5
8E0C
 10
5376.05
 20
148.997
 30
0.000000
  70
    32
  0
VERTEX
  8
01
  5
8E0D
 10
5376.02
 20
148.847
 30
0.000000
  70
    32
  0
VERTEX
  8
01
  5
8E0E
 10
5376.00
 20
148.695
 30
0.000000
  70
    32
  0
VERTEX
  8
01
  5
8E0F
 10
5375.97
 20
148.543
 30
0.000000
  70
    32
  0
VERTEX
  8
01
  5
8E10
 10
5375.95
 20
148.391
 30
0.000000
  70
    32
  0
VERTEX
  8
01
  5
8E11
 10
5375.93
 20
148.237
 30
0.000000
  70
    32
  0
VERTEX
  8
01
  5
8E12
 10
5375.90
 20
148.083
 30
0.000000
  70
    32
  0
VERTEX
  8
01
  5
8E13
 10
5375.88
 20
147.928
 30
0.000000
  70
    32
  0
VERTEX
  8
01
  5
8E14
 10
5375.86
 20
147.773
 30
0.000000
  70
    32
  0
VERTEX
  8
01
  5
8E15
 10
5375.84
 20
147.617
 30
0.000000
  70
    32
  0
VERTEX
  8
01
  5
8E16
 10
5375.82
 20
147.460
 30
0.000000
  70
    32
  0
VERTEX
  8
01
  5
8E17
 10
5375.80
 20
147.303
 30
0.000000
  70
    32
  0
VERTEX
  8
01
  5
8E18
 10
5375.79
 20
147.145
 30
0.000000
  70
    32
  0
VERTEX
  8
01
  5
8E19
 10
5375.77
 20
146.986
 30
0.000000
  70
    32
  0
VERTEX
  8
01
  5
8E1A
 10
5375.75
 20
146.827
 30
0.000000
  70
    32
  0
VERTEX
  8
01
  5
8E1B
 10
5375.74
 20
146.668
 30
0.000000
  70
    32
  0
VERTEX
  8
01
  5
8E1C
 10
5375.72
 20
146.508
 30
0.000000
  70
    32
  0
VERTEX
  8
01
  5
8E1D
 10
5375.71
 20
146.348
 30
0.000000
  70
    32
  0
VERTEX
  8
01
  5
8E1E
 10
5375.70
 20
146.187
 30
0.000000
  70
    32
  0
VERTEX
  8
01
  5
8E1F
 10
5375.68
 20
146.026
 30
0.000000
  70
    32
  0
VERTEX
  8
01
  5
8E20
 10
5375.67
 20
145.864
 30
0.000000
  70
    32
  0
VERTEX
  8
01
  5
8E21
 10
5375.66
 20
145.702
 30
0.000000
  70
    32
  0
VERTEX
  8
01
  5
8E22
 10
5375.65
 20
145.540
 30
0.000000
  70
    32
  0
VERTEX
  8
01
  5
8E23
 10
5375.64
 20
145.378
 30
0.000000
  70
    32
  0
VERTEX
  8
01
  5
8E24
 10
5375.63
 20
145.215
 30
0.000000
  70
    32
  0
VERTEX
  8
01
  5
8E25
 10
5375.63
 20
145.052
 30
0.000000
  70
    32
  0
VERTEX
  8
01
  5
8E26
 10
5375.62
 20
144.889
 30
0.000000
  70
    32
  0
VERTEX
  8
01
  5
8E27
 10
5375.61
 20
144.725
 30
0.000000
  70
    32
  0
VERTEX
  8
01
  5
8E28
 10
5375.61
 20
144.562
 30
0.000000
  70
    32
  0
VERTEX
  8
01
  5
8E29
 10
5375.60
 20
144.398
 30
0.000000
  70
    32
  0
VERTEX
  8
01
  5
8E2A
 10
5375.60
 20
144.234
 30
0.000000
  70
    32
  0
VERTEX
  8
01
  5
8E2B
 10
5375.60
 20
144.070
 30
0.000000
  70
    32
  0
VERTEX
  8
01
  5
8E2C
 10
5375.60
 20
143.906
 30
0.000000
  70
    32
  0
VERTEX
  8
01
  5
8E2D
 10
5375.59
 20
143.742
 30
0.000000
  70
    32
  0
VERTEX
  8
01
  5
8E2E
 10
5375.59
 20
143.578
 30
0.000000
  70
    32
  0
SEQEND
  8
01
  5
8E2F
  0
ARC
  5
87EB
  8
01
 10
5377.1189207069483
 20
130.6833611627863
 30
0.0
 40
28.416631617726772
 50
77.912010037181432
 51
122.58081570564831
  0
LINE
  5
8B23
  8
01
 10
5493.964677597357
 20
170.07814549255721
 30
0.0
 11
5441.9646775973597
 21
170.07814549255721
 31
0.0
  0
LINE
  5
8B24
  8
01
 10
5441.9646775973597
 20
117.0781454925572
 30
0.0
 11
5493.964677597357
 21
117.0781454925572
 31
0.0
  0
LINE
  5
8B25
  8
01
 10
5441.4646775973597
 20
169.57814549255721
 30
0.0
 11
5441.4646775973597
 21
117.5781454925572
 31
0.0
  0
ARC
  5
8B26
  8
01
 10
5441.9646775973597
 20
117.5781454925572
 30
0.0
 40
0.5
 50
180.0
 51
270.0
  0
ARC
  5
8B27
  8
01
 10
5441.9646775973597
 20
169.57814549255721
 30
0.0
 40
0.5
 50
90.0
 51
180.0
  0
LINE
  5
8B28
  8
01
 10
5494.464677597357
 20
169.57814549255721
 30
0.0
 11
5494.4646775973579
 21
158.288759228277
 31
0.0
  0
ARC
  5
8B29
  8
01
 10
5493.964677597357
 20
117.5781454925572
 30
0.0
 40
0.5
 50
270.0
 51
0.0
  0
ARC
  5
8B2A
  8
01
 10
5493.964677597357
 20
169.57814549255721
 30
0.0
 40
0.5
 50
0.0
 51
90.0
  0
LINE
  5
8B40
  8
01
 10
5494.4646775973579
 20
138.91246252538571
 30
0.0
 11
5494.4646775973579
 21
117.5781454925572
 31
0.0
  0
LINE
  5
8B41
  8
01
 10
5441.4646775973579
 20
293.57814549255909
 30
0.0
 11
5494.4646775973551
 21
293.57814549255909
 31
0.0
  0
LINE
  5
8B42
  8
01
 10
5441.9646775973579
 20
285.07814549255909
 30
0.0
 11
5493.9646775973551
 21
285.07814549255909
 31
0.0
  0
LINE
  5
8B43
  8
01
 10
5494.4646775973551
 20
293.57814549255909
 30
0.0
 11
5494.4646775973551
 21
285.57814549255909
 31
0.0
  0
LINE
  5
8B44
  8
01
 10
5441.4646775973579
 20
293.57814549255909
 30
0.0
 11
5441.4646775973579
 21
285.57814549255909
 31
0.0
  0
ARC
  5
8B45
  8
01
 10
5441.9646775973579
 20
285.57814549255909
 30
0.0
 40
0.5
 50
180.0
 51
270.0
  0
ARC
  5
8B46
  8
01
 10
5493.9646775973551
 20
285.57814549255909
 30
0.0
 40
0.5
 50
270.0
 51
0.0
  0
LINE
  5
8B47
  8
01
 10
5317.9646775973579
 20
117.0781454925591
 30
0.0
 11
5317.9646775973579
 21
170.0781454925563
 31
0.0
  0
LINE
  5
8B48
  8
01
 10
5326.4646775973579
 20
117.5781454925591
 30
0.0
 11
5326.4646775973579
 21
169.5781454925563
 31
0.0
  0
LINE
  5
8B49
  8
01
 10
5317.9646775973579
 20
170.0781454925563
 30
0.0
 11
5325.9646775973579
 21
170.0781454925563
 31
0.0
  0
LINE
  5
8B4A
  8
01
 10
5317.9646775973579
 20
117.0781454925591
 30
0.0
 11
5325.9646775973579
 21
117.0781454925591
 31
0.0
  0
ARC
  5
8B4B
  8
01
 10
5325.9646775973579
 20
117.5781454925591
 30
0.0
 40
0.5
 50
270.0
 51
0.0
  0
ARC
  5
8B4C
  8
01
 10
5325.9646775973579
 20
169.5781454925563
 30
0.0
 40
0.5
 50
0.0
 51
90.0
  0
LINE
  5
8B9C
  8
1DIM
 10
5441.9646775973597
 20
170.07814549255721
 30
0.0
 11
5431.6646775973577
 21
170.0781454925573
 31
0.0
  0
LINE
  5
8B9D
  8
1DIM
 10
5441.9646775973597
 20
117.0781454925572
 30
0.0
 11
5431.6646775973577
 21
117.0781454925572
 31
0.0
  0
LINE
  5
8B9E
  8
1DIM
 10
5432.964677597357
 20
167.4781454925573
 30
0.0
 11
5432.964677597357
 21
119.67814549255721
 31
0.0
  0
LINE
  5
8BA2
  8
1DIM
 10
5570.7198255947051
 20
293.57814549255909
 30
0.0
 11
5603.0159444596129
 21
293.57814549255909
 31
0.0
  0
LINE
  5
8BA3
  8
1DIM
 10
5573.0831038635897
 20
220.02814549255959
 30
0.0
 11
5603.0159444596129
 21
220.02814549255959
 31
0.0
  0
LINE
  5
8BA4
  8
1DIM
 10
5602.0159444596129
 20
291.57814549255909
 30
0.0
 11
5602.0159444596129
 21
222.02814549255959
 31
0.0
  0
LINE
  5
8BA8
  8
1DIM
 10
5570.7198255947051
 20
293.57814549255909
 30
0.0
 11
5593.0159444596129
 21
293.57814549255909
 31
0.0
  0
LINE
  5
8BA9
  8
1DIM
 10
5580.2758244469651
 20
246.35545112213131
 30
0.0
 11
5593.0159444596129
 21
246.35545112213131
 31
0.0
  0
LINE
  5
8BAA
  8
1DIM
 10
5592.0159444596129
 20
291.57814549255909
 30
0.0
 11
5592.0159444596129
 21
248.35545112213131
 31
0.0
  0
LINE
  5
8BAE
  8
1DIM
 10
5456.9146775973586
 20
241.2151543338594
 30
0.0
 11
5456.9146775973586
 21
199.02814549255959
 31
0.0
  0
LINE
  5
8BAF
  8
1DIM
 10
5582.015944459612
 20
244.55644740142529
 30
0.0
 11
5582.015944459612
 21
199.02814549255959
 31
0.0
  0
LINE
  5
8BB0
  8
1DIM
 10
5458.9146775973586
 20
200.02814549255959
 30
0.0
 11
5580.0159444596138
 21
200.02814549255959
 31
0.0
  0
LINE
  5
8BB4
  8
1DIM
 10
5467.9646775973579
 20
273.78693560571179
 30
0.0
 11
5467.9646775973579
 21
209.02814549255959
 31
0.0
  0
LINE
  5
8BB5
  8
1DIM
 10
5582.015944459612
 20
244.55644740142529
 30
0.0
 11
5582.015944459612
 21
209.02814549255959
 31
0.0
  0
LINE
  5
8BB6
  8
1DIM
 10
5469.964677597357
 20
210.02814549255959
 30
0.0
 11
5580.0159444596138
 21
210.02814549255959
 31
0.0
  0
POINT
  5
8BBA
  8
0
 10
5332.464677597357
 20
143.57814549255909
 30
0.0
  0
LINE
  5
8BBB
  8
0
 10
5332.0646775873574
 20
141.82814549255909
 30
0.0
 11
5332.0646775873574
 21
142.67814551255921
 31
0.0
  0
LINE
  5
8BBC
  8
0
 10
5332.8646776073583
 20
141.82814549255909
 30
0.0
 11
5332.8646776073583
 21
142.67814551255921
 31
0.0
  0
LINE
  5
8BBD
  8
0
 10
5331.5646776173571
 20
143.1781454825591
 30
0.0
 11
5330.7146775973579
 21
143.1781454825591
 31
0.0
  0
LINE
  5
8BBE
  8
0
 10
5331.5646776173571
 20
143.97814550255899
 30
0.0
 11
5330.7146775973579
 21
143.97814550255899
 31
0.0
  0
LINE
  5
8BBF
  8
0
 10
5330.7146775973579
 20
143.1781454825591
 30
0.0
 11
5330.7146775973579
 21
143.97814550255899
 31
0.0
  0
LINE
  5
8BC0
  8
0
 10
5332.8646776073583
 20
141.82814549255909
 30
0.0
 11
5332.0646775873574
 21
141.82814549255909
 31
0.0
  0
LINE
  5
8BC1
  8
0
 10
5332.8646776073583
 20
145.32814549255909
 30
0.0
 11
5332.8646776073583
 21
144.47814547255891
 31
0.0
  0
LINE
  5
8BC2
  8
0
 10
5332.0646775873574
 20
145.32814549255909
 30
0.0
 11
5332.0646775873574
 21
144.47814547255891
 31
0.0
  0
LINE
  5
8BC3
  8
0
 10
5333.3646775773577
 20
143.97814550255899
 30
0.0
 11
5334.2146775973579
 21
143.97814550255899
 31
0.0
  0
LINE
  5
8BC4
  8
0
 10
5333.3646775773577
 20
143.1781454825591
 30
0.0
 11
5334.2146775973579
 21
143.1781454825591
 31
0.0
  0
LINE
  5
8BC5
  8
0
 10
5334.2146775973579
 20
143.97814550255899
 30
0.0
 11
5334.2146775973579
 21
143.1781454825591
 31
0.0
  0
LINE
  5
8BC6
  8
0
 10
5332.0646775873574
 20
145.32814549255909
 30
0.0
 11
5332.8646776073583
 21
145.32814549255909
 31
0.0
  0
CIRCLE
  5
8BC7
  8
0
 10
5332.464677597357
 20
143.57814549255909
 30
0.0
 40
2.5
  0
ARC
  5
8BC8
  8
0
 10
5333.3646775773577
 20
144.47814547255891
 30
0.0
 40
0.5
 50
179.99999000000059
 51
270.0
  0
ARC
  5
8BC9
  8
0
 10
5333.3646775773577
 20
142.67814551255921
 30
0.0
 40
0.5
 50
90.000002999984659
 51
180.00000999999941
  0
ARC
  5
8BCA
  8
0
 10
5331.5646776173571
 20
142.67814551255921
 30
0.0
 40
0.5
 50
0.0
 51
90.000002999984659
  0
ARC
  5
8BCB
  8
0
 10
5331.5646776173571
 20
144.47814547255891
 30
0.0
 40
0.5
 50
270.0
 51
0.0
  0
CIRCLE
  5
8BCD
  8
0
 10
5332.464677597357
 20
143.57814549255909
 30
0.0
 40
3.0
  0
TEXT
  5
8BCE
  8
1DIM
 10
5521.4903110284849
 20
210.72814549255961
 30
0.0
 40
3.5
  1
114
  0
LINE
  5
8BCF
  8
0
  6
BYBLOCK
 10
5580.0159444596138
 20
210.56404387255961
 30
0.0
 11
5582.015944459612
 21
210.02814549255959
 31
0.0
  0
LINE
  5
8BD0
  8
0
  6
BYBLOCK
 10
5582.015944459612
 20
210.02814549255959
 30
0.0
 11
5580.0159444596138
 21
209.4922471125596
 31
0.0
  0
LINE
  5
8BD1
  8
0
  6
BYBLOCK
 10
5582.015944459612
 20
210.02814549255959
 30
0.0
 11
5580.0159444596138
 21
210.02814549255959
 31
0.0
  0
LINE
  5
8BD2
  8
0
  6
BYBLOCK
 10
5469.964677597357
 20
209.4922471125596
 30
0.0
 11
5467.9646775973579
 21
210.02814549255959
 31
0.0
  0
LINE
  5
8BD3
  8
0
  6
BYBLOCK
 10
5467.9646775973579
 20
210.02814549255959
 30
0.0
 11
5469.964677597357
 21
210.56404387255961
 31
0.0
  0
LINE
  5
8BD4
  8
0
  6
BYBLOCK
 10
5467.9646775973579
 20
210.02814549255959
 30
0.0
 11
5469.964677597357
 21
210.02814549255959
 31
0.0
  0
TEXT
  5
8BD5
  8
1DIM
 10
5515.3819776951532
 20
200.72814549255961
 30
0.0
 40
3.5
  1
125
  0
LINE
  5
8BD6
  8
0
  6
BYBLOCK
 10
5580.0159444596138
 20
200.56404387255961
 30
0.0
 11
5582.015944459612
 21
200.02814549255959
 31
0.0
  0
LINE
  5
8BD7
  8
0
  6
BYBLOCK
 10
5582.015944459612
 20
200.02814549255959
 30
0.0
 11
5580.0159444596138
 21
199.4922471125596
 31
0.0
  0
LINE
  5
8BD8
  8
0
  6
BYBLOCK
 10
5582.015944459612
 20
200.02814549255959
 30
0.0
 11
5580.0159444596138
 21
200.02814549255959
 31
0.0
  0
LINE
  5
8BD9
  8
0
  6
BYBLOCK
 10
5458.9146775973586
 20
199.4922471125596
 30
0.0
 11
5456.9146775973586
 21
200.02814549255959
 31
0.0
  0
LINE
  5
8BDA
  8
0
  6
BYBLOCK
 10
5456.9146775973586
 20
200.02814549255959
 30
0.0
 11
5458.9146775973586
 21
200.56404387255961
 31
0.0
  0
LINE
  5
8BDB
  8
0
  6
BYBLOCK
 10
5456.9146775973586
 20
200.02814549255959
 30
0.0
 11
5458.9146775973586
 21
200.02814549255959
 31
0.0
  0
TEXT
  5
8BDC
  8
1DIM
 10
5591.3159444596131
 20
267.05013164067941
 30
0.0
 40
3.5
  1
47
 50
90.0
  0
LINE
  5
8BDD
  8
0
  6
BYBLOCK
 10
5592.5518428396117
 20
248.35545112213131
 30
0.0
 11
5592.0159444596129
 21
246.35545112213131
 31
0.0
  0
LINE
  5
8BDE
  8
0
  6
BYBLOCK
 10
5592.0159444596129
 20
246.35545112213131
 30
0.0
 11
5591.4800460796132
 21
248.35545112213131
 31
0.0
  0
LINE
  5
8BDF
  8
0
  6
BYBLOCK
 10
5592.0159444596129
 20
246.35545112213131
 30
0.0
 11
5592.0159444596129
 21
248.35545112213131
 31
0.0
  0
LINE
  5
8BE0
  8
0
  6
BYBLOCK
 10
5591.4800460796132
 20
291.57814549255909
 30
0.0
 11
5592.0159444596129
 21
293.57814549255909
 31
0.0
  0
LINE
  5
8BE1
  8
0
  6
BYBLOCK
 10
5592.0159444596129
 20
293.57814549255909
 30
0.0
 11
5592.5518428396117
 21
291.57814549255909
 31
0.0
  0
LINE
  5
8BE2
  8
0
  6
BYBLOCK
 10
5592.0159444596129
 20
293.57814549255909
 30
0.0
 11
5592.0159444596129
 21
291.57814549255909
 31
0.0
  0
TEXT
  5
8BE3
  8
1DIM
 10
5601.315944459614
 20
253.88647882589359
 30
0.0
 40
3.5
  1
74
 50
90.0
  0
LINE
  5
8BE4
  8
0
  6
BYBLOCK
 10
5602.5518428396126
 20
222.02814549255959
 30
0.0
 11
5602.0159444596129
 21
220.02814549255959
 31
0.0
  0
LINE
  5
8BE5
  8
0
  6
BYBLOCK
 10
5602.0159444596129
 20
220.02814549255959
 30
0.0
 11
5601.4800460796132
 21
222.02814549255959
 31
0.0
  0
LINE
  5
8BE6
  8
0
  6
BYBLOCK
 10
5602.0159444596129
 20
220.02814549255959
 30
0.0
 11
5602.0159444596129
 21
222.02814549255959
 31
0.0
  0
LINE
  5
8BE7
  8
0
  6
BYBLOCK
 10
5601.4800460796132
 20
291.57814549255909
 30
0.0
 11
5602.0159444596129
 21
293.57814549255909
 31
0.0
  0
LINE
  5
8BE8
  8
0
  6
BYBLOCK
 10
5602.0159444596129
 20
293.57814549255909
 30
0.0
 11
5602.5518428396126
 21
291.57814549255909
 31
0.0
  0
LINE
  5
8BE9
  8
0
  6
BYBLOCK
 10
5602.0159444596129
 20
293.57814549255909
 30
0.0
 11
5602.0159444596129
 21
291.57814549255909
 31
0.0
  0
TEXT
  5
8BEA
  8
1DIM
 10
5432.054677597358
 20
135.4133995304044
 30
0.0
 40
4.5499999999999989
  1
üá53
 50
90.0
  0
LINE
  5
8BEB
  8
0
  6
BYBLOCK
 10
5433.6613454913577
 20
119.67814549255721
 30
0.0
 11
5432.964677597357
 21
117.0781454925572
 31
0.0
  0
LINE
  5
8BEC
  8
0
  6
BYBLOCK
 10
5432.964677597357
 20
117.0781454925572
 30
0.0
 11
5432.2680097033581
 21
119.67814549255721
 31
0.0
  0
LINE
  5
8BED
  8
0
  6
BYBLOCK
 10
5432.964677597357
 20
117.0781454925572
 30
0.0
 11
5432.964677597357
 21
119.67814549255721
 31
0.0
  0
LINE
  5
8BEE
  8
0
  6
BYBLOCK
 10
5432.2680097033581
 20
167.4781454925573
 30
0.0
 11
5432.964677597357
 21
170.0781454925573
 31
0.0
  0
LINE
  5
8BEF
  8
0
  6
BYBLOCK
 10
5432.964677597357
 20
170.0781454925573
 30
0.0
 11
5433.6613454913577
 21
167.4781454925573
 31
0.0
  0
LINE
  5
8BF0
  8
0
  6
BYBLOCK
 10
5432.964677597357
 20
170.0781454925573
 30
0.0
 11
5432.964677597357
 21
167.4781454925573
 31
0.0
  0
VIEWPORT
  5
57
 67
     1
  8
0
 10
-7.7295765619315651
 20
17.565658765306811
 30
0.0
 40
400.52105805779411
 41
283.58321342842032
 68
     1
 69
     1
1001
ACAD
1000
MVIEW
1002
{
1070
    16
1010
0.0
1020
0.0
1030
0.0
1010
0.0
1020
0.0
1030
1.0
1040
0.0
1040
283.58321342842032
1040
-7.7295765619315651
1040
17.565658765306811
1040
50.0
1040
0.0
1040
0.0
1070
     0
1070
   100
1070
     1
1070
     1
1070
     0
1070
     0
1070
     0
1070
     0
1040
0.0
1040
0.0
1040
0.0
1040
10.0
1040
10.0
1040
10.0
1040
10.0
1070
     0
1002
{
1002
}
1002
}
  0
ENDSEC
  0
EOF
