  0
SECTION
  2
HEADER
  9
$ACADVER
  1
AC1009
  9
$INSBASE
 10
0.0
 20
0.0
 30
0.0
  9
$EXTMIN
 10
5316.3363922149256
 20
102.69303144588579
 30
0.0
  9
$EXTMAX
 10
5603.0159444596129
 20
303.57814549255909
 30
0.0
  9
$LIMMIN
 10
0.0
 20
0.0
  9
$LIMMAX
 10
420.0
 20
297.0
  9
$ORTHOMODE
 70
     0
  9
$REGENMODE
 70
     1
  9
$FILLMODE
 70
     1
  9
$QTEXTMODE
 70
     0
  9
$MIRRTEXT
 70
     0
  9
$DRAGMODE
 70
     2
  9
$LTSCALE
 40
0.5
  9
$OSMODE
 70
   127
  9
$ATTMODE
 70
     1
  9
$TEXTSIZE
 40
4.0
  9
$TRACEWID
 40
1.0
  9
$TEXTSTYLE
  7
STANDARD
  9
$CLAYER
  8
1TEXT
  9
$CELTYPE
  6
BYLAYER
  9
$CECOLOR
 62
   256
  9
$DIMSCALE
 40
1.0
  9
$DIMASZ
 40
2.0
  9
$DIMEXO
 40
0.0
  9
$DIMDLI
 40
7.0
  9
$DIMRND
 40
0.0
  9
$DIMDLE
 40
0.0
  9
$DIMEXE
 40
1.0
  9
$DIMTP
 40
0.0
  9
$DIMTM
 40
0.0
  9
$DIMTXT
 40
3.5
  9
$DIMCEN
 40
0.0
  9
$DIMTSZ
 40
0.0
  9
$DIMTOL
 70
     0
  9
$DIMLIM
 70
     0
  9
$DIMTIH
 70
     0
  9
$DIMTOH
 70
     0
  9
$DIMSE1
 70
     0
  9
$DIMSE2
 70
     0
  9
$DIMTAD
 70
     1
  9
$DIMZIN
 70
     8
  9
$DIMBLK
  1

  9
$DIMASO
 70
     1
  9
$DIMSHO
 70
     1
  9
$DIMPOST
  1
 
  9
$DIMAPOST
  1

  9
$DIMALT
 70
     0
  9
$DIMALTD
 70
     2
  9
$DIMALTF
 40
25.399999999999999
  9
$DIMLFAC
 40
1.0
  9
$DIMTOFL
 70
     1
  9
$DIMTVP
 40
0.0
  9
$DIMTIX
 70
     0
  9
$DIMSOXD
 70
     0
  9
$DIMSAH
 70
     1
  9
$DIMBLK1
  1
OPEN30
  9
$DIMBLK2
  1
OPEN30
  9
$DIMSTYLE
  2
NEWX10
  9
$DIMCLRD
 70
   256
  9
$DIMCLRE
 70
   256
  9
$DIMCLRT
 70
   201
  9
$DIMTFAC
 40
0.7
  9
$DIMGAP
 40
0.7
  9
$LUNITS
 70
     2
  9
$LUPREC
 70
     4
  9
$SKETCHINC
 40
1.0
  9
$FILLETRAD
 40
0.0
  9
$AUNITS
 70
     0
  9
$AUPREC
 70
     2
  9
$MENU
  1
acad
  9
$ELEVATION
 40
0.0
  9
$PELEVATION
 40
0.0
  9
$THICKNESS
 40
0.0
  9
$LIMCHECK
 70
     0
  9
$BLIPMODE
 70
     0
  9
$CHAMFERA
 40
10.0
  9
$CHAMFERB
 40
10.0
  9
$SKPOLY
 70
     0
  9
$TDCREATE
 40
2451318.621352917
  9
$TDUPDATE
 40
2454904.726145104
  9
$TDINDWG
 40
0.5172669907
  9
$TDUSRTIMER
 40
0.5172669907
  9
$USRTIMER
 70
     1
  9
$ANGBASE
 50
0.0
  9
$ANGDIR
 70
     0
  9
$PDMODE
 70
     0
  9
$PDSIZE
 40
0.0
  9
$PLINEWID
 40
0.0
  9
$COORDS
 70
     2
  9
$SPLFRAME
 70
     0
  9
$SPLINETYPE
 70
     6
  9
$SPLINESEGS
 70
     8
  9
$ATTDIA
 70
     0
  9
$ATTREQ
 70
     1
  9
$HANDLING
 70
     1
  9
$HANDSEED
  5
93DD
  9
$SURFTAB1
 70
     6
  9
$SURFTAB2
 70
     6
  9
$SURFTYPE
 70
     6
  9
$SURFU
 70
     6
  9
$SURFV
 70
     6
  9
$UCSNAME
  2

  9
$UCSORG
 10
0.0
 20
0.0
 30
0.0
  9
$UCSXDIR
 10
1.0
 20
0.0
 30
0.0
  9
$UCSYDIR
 10
0.0
 20
1.0
 30
0.0
  9
$PUCSNAME
  2

  9
$PUCSORG
 10
0.0
 20
0.0
 30
0.0
  9
$PUCSXDIR
 10
1.0
 20
0.0
 30
0.0
  9
$PUCSYDIR
 10
0.0
 20
1.0
 30
0.0
  9
$USERI1
 70
     0
  9
$USERI2
 70
     0
  9
$USERI3
 70
     0
  9
$USERI4
 70
     0
  9
$USERI5
 70
     0
  9
$USERR1
 40
0.0
  9
$USERR2
 40
0.0
  9
$USERR3
 40
0.0
  9
$USERR4
 40
0.0
  9
$USERR5
 40
0.0
  9
$WORLDVIEW
 70
     1
  9
$SHADEDGE
 70
     3
  9
$SHADEDIF
 70
    70
  9
$TILEMODE
 70
     1
  9
$MAXACTVP
 70
    48
  9
$PLIMCHECK
 70
     0
  9
$PEXTMIN
 10
1.0000000000000000E+020
 20
1.0000000000000000E+020
 30
1.0000000000000000E+020
  9
$PEXTMAX
 10
-1.0000000000000000E+020
 20
-1.0000000000000000E+020
 30
-1.0000000000000000E+020
  9
$PLIMMIN
 10
0.0
 20
0.0
  9
$PLIMMAX
 10
420.0
 20
297.0
  9
$UNITMODE
 70
     0
  9
$VISRETAIN
 70
     1
  9
$PLINEGEN
 70
     0
  9
$PSLTSCALE
 70
     1
  0
ENDSEC
  0
SECTION
  2
TABLES
  0
TABLE
  2
VPORT
 70
     4
  0
VPORT
  2
*ACTIVE
 70
     0
 10
0.0
 20
0.0
 11
1.0
 21
1.0
 12
5459.5549505469844
 22
203.1373972248094
 13
0.0
 23
0.0
 14
10.0
 24
10.0
 15
10.0
 25
10.0
 16
0.0
 26
0.0
 36
1.0
 17
0.0
 27
0.0
 37
0.0
 40
213.18144101387631
 41
1.508086253369272
 42
50.0
 43
0.0
 44
0.0
 50
0.0
 51
0.0
 71
     0
 72
   100
 73
     1
 74
     1
 75
     0
 76
     0
 77
     0
 78
     0
  0
ENDTAB
  0
TABLE
  2
LTYPE
 70
    16
  0
LTYPE
  2
CONTINUOUS
 70
     0
  3
Solid line
 72
    65
 73
     0
 40
0.0
  0
LTYPE
  2
XREF1|CENTER2
 70
    48
  3
Center (.5x) ___ _ ___ _ ___ _ ___ _ ___ _ ___
 72
    65
 73
     4
 40
28.574999999999999
 49
19.050000000000001
 49
-3.1749999999999989
 49
3.1749999999999989
 49
-3.1749999999999989
  0
LTYPE
  2
A3WAKUDAKE|CENTER2
 70
    48
  3
Center (.5x) ___ _ ___ _ ___ _ ___ _ ___ _ ___
 72
    65
 73
     4
 40
28.574999999999999
 49
19.050000000000001
 49
-3.1749999999999989
 49
3.1749999999999989
 49
-3.1749999999999989
  0
LTYPE
  2
CENTER2
 70
     0
  3
Center (.5x) ___ _ ___ _ ___ _ ___ _ ___ _ ___
 72
    65
 73
     4
 40
28.574999999999999
 49
19.050000000000001
 49
-3.1749999999999989
 49
3.1749999999999989
 49
-3.1749999999999989
  0
ENDTAB
  0
TABLE
  2
LAYER
 70
    45
  0
LAYER
  2
0
 70
     0
 62
     7
  6
CONTINUOUS
  0
LAYER
  2
1CENTER
 70
     0
 62
     7
  6
CENTER2
  0
LAYER
  2
1TEXT
 70
     0
 62
     7
  6
CONTINUOUS
  0
LAYER
  2
XREF1|1CENTER
 70
    48
 62
     7
  6
XREF1|CENTER2
  0
LAYER
  2
01
 70
     0
 62
     1
  6
CONTINUOUS
  0
LAYER
  2
1DIM
 70
     0
 62
     7
  6
CONTINUOUS
  0
LAYER
  2
A3WAKUDAKE|THICK
 70
    48
 62
     7
  6
CONTINUOUS
  0
LAYER
  2
A3WAKUDAKE|POINT
 70
    48
 62
     7
  6
CONTINUOUS
  0
LAYER
  2
A3WAKUDAKE|1CENTER
 70
    48
 62
     7
  6
A3WAKUDAKE|CENTER2
  0
LAYER
  2
A3WAKUDAKE|0-6
 70
    48
 62
     7
  6
CONTINUOUS
  0
LAYER
  2
A3WAKUDAKE|1DIM
 70
    48
 62
     7
  6
CONTINUOUS
  0
ENDTAB
  0
TABLE
  2
STYLE
 70
    22
  0
STYLE
  2
STANDARD
 70
     0
 40
0.0
 41
1.0
 50
0.0
 71
     0
 42
4.0
  3
txt.shx
  4
extfont.shx
  0
ENDTAB
  0
TABLE
  2
VIEW
 70
     0
  0
ENDTAB
  0
TABLE
  2
UCS
 70
     0
  0
ENDTAB
  0
TABLE
  2
APPID
 70
    10
  0
APPID
  2
ACAD
 70
     0
  0
APPID
  2
DRAWINGVARIABLESXDATA
 70
     0
  0
APPID
  2
CONTENTTABDATA
 70
     0
  0
APPID
  2
CONTENTCURRENTTAB
 70
     0
  0
APPID
  2
CONTENTBLOCKDESCRIPTION
 70
     0
  0
APPID
  2
CONTENTBLOCKICON
 70
     0
  0
APPID
  2
CONTENTLONGBLOCKNAME
 70
     0
  0
APPID
  2
ACAD_PSEXT
 70
     0
  0
APPID
  2
ACAD_MLEADERVER
 70
     0
  0
APPID
  2
ACADSTRINGINFO
 70
     0
  0
ENDTAB
  0
TABLE
  2
DIMSTYLE
 70
     9
  0
DIMSTYLE
  2
NEWX10
 70
     0
  3
 
  4

  5

  6
OPEN30
  7
OPEN30
 40
1.0
 41
2.0
 42
0.0
 43
7.0
 44
1.0
 45
0.0
 46
0.0
 47
0.0
 48
0.0
140
3.5
141
0.0
142
0.0
143
25.399999999999999
144
1.0
145
0.0
146
0.7
147
0.7
 71
     0
 72
     0
 73
     0
 74
     0
 75
     0
 76
     0
 77
     1
 78
     8
170
     0
171
     2
172
     1
173
     1
174
     0
175
     0
176
   256
177
   256
178
   201
  0
ENDTAB
  0
ENDSEC
  0
SECTION
  2
BLOCKS
  0
BLOCK
  8
0
  2
$MODEL_SPACE
 70
     0
 10
0.0
 20
0.0
 30
0.0
  3
$MODEL_SPACE
  1

  0
ENDBLK
  5
1A
  8
0
  0
BLOCK
 67
     1
  8
0
  2
$PAPER_SPACE
 70
     0
 10
0.0
 20
0.0
 30
0.0
  3
$PAPER_SPACE
  1

  0
ENDBLK
  5
17
 67
     1
  8
0
  0
BLOCK
  8
0
  2
_OPEN30
 70
     0
 10
0.0
 20
0.0
 30
0.0
  3
_OPEN30
  1

  0
LINE
  5
44
  8
0
  6
BYBLOCK
 62
     0
 10
-1.0
 20
0.26794919
 30
0.0
 11
0.0
 21
0.0
 31
0.0
  0
LINE
  5
45
  8
0
  6
BYBLOCK
 62
     0
 10
0.0
 20
0.0
 30
0.0
 11
-1.0
 21
-0.26794919
 31
0.0
  0
LINE
  5
46
  8
0
  6
BYBLOCK
 62
     0
 10
0.0
 20
0.0
 30
0.0
 11
-1.0
 21
0.0
 31
0.0
  0
ENDBLK
  5
47
  8
0
  0
BLOCK
  8
0
  2
XREF1
 70
    36
 10
0.0
 20
0.0
 30
0.0
  3
XREF1
  1
D:\ACLT\FORMAT\KAWAJUN(9)É}û╩ùp.dwg
  0
ENDBLK
  5
5D
  8
0
  0
BLOCK
  8
0
  2
A3WAKUDAKE
 70
    36
 10
0.0
 20
0.0
 30
0.0
  3
A3WAKUDAKE
  1
D:\ACLT\FORMAT\A3WAKUdake.dwg
  0
ENDBLK
  5
6A0
  8
0
  0
BLOCK
  8
0
  2
*U115
 70
     1
 10
0.0
 20
0.0
 30
0.0
  3
*U115
  1

  0
CIRCLE
  5
93BB
  8
0
 10
0.0
 20
0.0
 30
0.0
 40
3.0
  0
ENDBLK
  5
93BD
  8
0
  0
BLOCK
  8
0
  2
*U116
 70
     1
 10
0.0
 20
0.0
 30
0.0
  3
*U116
  1

  0
TEXT
  5
93C2
  8
1DIM
 62
   201
 10
5432.0546775973571
 20
135.6408995304044
 30
0.0
 40
4.5499999999999989
  1
âË50
 50
90.0
  0
ENDBLK
  5
93C4
  8
0
  0
BLOCK
  8
0
  2
*U117
 70
     1
 10
0.0
 20
0.0
 30
0.0
  3
*U117
  1

  0
TEXT
  5
93C6
  8
1DIM
 62
   201
 10
1076.61783208316
 20
603.51907550291537
 30
0.0
 40
1.75
  1
45üï 
 50
22.500000000000121
  0
ENDBLK
  5
93C8
  8
0
  0
BLOCK
  8
0
  2
*U118
 70
     1
 10
0.0
 20
0.0
 30
0.0
  3
*U118
  1

  0
TEXT
  5
93CA
  8
1DIM
 62
   201
 10
5753.0212509019666
 20
145.39700469964899
 30
0.0
 40
1.75
  1
45üï 
 50
22.500000000000121
  0
ENDBLK
  5
93CC
  8
0
  0
BLOCK
  8
0
  2
*U119
 70
     1
 10
0.0
 20
0.0
 30
0.0
  3
*U119
  1

  0
TEXT
  5
93CE
  8
1DIM
 62
   201
 10
5591.3159444596131
 20
269.7729452280775
 30
0.0
 40
3.5
  1
42 
 50
90.0
  0
ENDBLK
  5
93D0
  8
0
  0
BLOCK
  8
0
  2
*U120
 70
     1
 10
0.0
 20
0.0
 30
0.0
  3
*U120
  1

  0
TEXT
  5
93D2
  8
1DIM
 62
   201
 10
5601.315944459614
 20
257.27294522807739
 30
0.0
 40
3.5
  1
67 
 50
90.0
  0
ENDBLK
  5
93D4
  8
0
  0
BLOCK
  8
0
  2
*U121
 70
     1
 10
0.0
 20
0.0
 30
0.0
  3
*U121
  1

  0
TEXT
  5
93D6
  8
1DIM
 62
   201
 10
5522.1896732855712
 20
210.72814549255961
 30
0.0
 40
3.5
  1
115 
  0
ENDBLK
  5
93D8
  8
0
  0
BLOCK
  8
0
  2
*U122
 70
     1
 10
0.0
 20
0.0
 30
0.0
  3
*U122
  1

  0
TEXT
  5
93DA
  8
1DIM
 62
   201
 10
5516.8313399522394
 20
200.72814549255961
 30
0.0
 40
3.5
  1
125 
  0
ENDBLK
  5
93DC
  8
0
  0
ENDSEC
  0
SECTION
  2
ENTITIES
  0
LINE
  5
71B4
  8
01
 10
5443.9646775973579
 20
285.07814549255909
 30
0.0
 11
5491.9646775973579
 21
285.07814549255909
 31
0.0
  0
LINE
  5
71B5
  8
01
 10
5442.9646775973579
 20
293.57814549255909
 30
0.0
 11
5442.9646775973579
 21
286.0781454925592
 31
0.0
  0
ARC
  5
71B6
  8
01
 10
5443.9646775973579
 20
286.07814549255897
 30
0.0
 40
1.0
 50
180.0
 51
270.0
  0
LINE
  5
71B7
  8
01
 10
5492.9646775973579
 20
293.57814549255909
 30
0.0
 11
5492.9646775973579
 21
286.0781454925592
 31
0.0
  0
ARC
  5
71B8
  8
01
 10
5491.9646775973579
 20
286.07814549255897
 30
0.0
 40
1.0
 50
270.0
 51
0.0
  0
ARC
  5
71B9
  8
01
 10
5467.9646775973579
 20
143.57814549255909
 30
0.0
 40
25.0
 50
13.603031046719691
 51
346.39696895328012
  0
LINE
  5
71BC
  8
1CENTER
 10
5467.9646775973579
 20
137.57814549255909
 30
0.0
 11
5467.9646775973579
 21
149.57814549255909
 31
0.0
  0
LINE
  5
71BD
  8
1CENTER
 10
5461.964677597357
 20
143.57814549255909
 30
0.0
 11
5473.9646775973579
 21
143.57814549255909
 31
0.0
  0
LINE
  5
71C0
  8
1CENTER
 10
5467.9646775973579
 20
296.41522098814318
 30
0.0
 11
5467.9646775973579
 21
273.78693560571179
 31
0.0
  0
LINE
  5
7206
  8
01
 10
5317.9646775973579
 20
168.57814549255909
 30
0.0
 11
5317.9646775973579
 21
118.5781454925591
 31
0.0
  0
LINE
  5
7207
  8
01
 10
5326.4646775973579
 20
119.5781454925591
 30
0.0
 11
5326.4646775973579
 21
167.57814549255909
 31
0.0
  0
LINE
  5
7208
  8
01
 10
5317.9646775973579
 20
118.5781454925591
 30
0.0
 11
5325.4646775973579
 21
118.5781454925591
 31
0.0
  0
ARC
  5
7209
  8
01
 10
5325.4646775973579
 20
119.5781454925591
 30
0.0
 40
1.0
 50
270.0
 51
0.0
  0
LINE
  5
720A
  8
01
 10
5317.9646775973579
 20
168.57814549255909
 30
0.0
 11
5325.4646775973579
 21
168.57814549255909
 31
0.0
  0
ARC
  5
720B
  8
01
 10
5325.4646775973579
 20
167.57814549255909
 30
0.0
 40
1.0
 50
0.0
 51
90.0
  0
LINE
  5
720F
  8
01
 10
5317.9646775973579
 20
183.75446942607959
 30
0.0
 11
5317.9646775973579
 21
103.40182155903859
 31
0.0
  0
LINE
  5
764D
  8
01
 10
5317.9646775973579
 20
183.04567931292681
 30
0.0
 11
5317.9646775973579
 21
102.69303144588579
 31
0.0
  0
LINE
  5
78AF
  8
1CENTER
 10
5332.9646775973579
 20
137.57814549255909
 30
0.0
 11
5332.9646775973579
 21
149.57814549255909
 31
0.0
  0
LINE
  5
78B0
  8
1CENTER
 10
5316.3363922149256
 20
143.57814549255909
 30
0.0
 11
5338.9646775973579
 21
143.57814549255909
 31
0.0
  0
TEXT
  5
78D4
  8
1TEXT
 10
5317.9646775973579
 20
293.57814549255909
 30
0.0
 40
10.0
  1
S2C
 41
1.017187499999999
  0
LINE
  5
79A8
  8
01
 10
5442.9646775973579
 20
293.57814549255909
 30
0.0
 11
5492.9646775973579
 21
293.57814549255909
 31
0.0
  0
LINE
  5
8262
  8
01
 10
5427.9646775973579
 20
293.57814549255909
 30
0.0
 11
5570.7198255947051
 21
293.57814549255909
 31
0.0
  0
LINE
  5
85A0
  8
01
 10
5460.0146805973536
 20
284.77814549255919
 30
0.0
 11
5475.914674597354
 21
284.77814549255908
 31
0.0
  0
ARC
  5
8DEE
  8
01
 10
5482.7185293655612
 20
123.5307668989165
 30
0.0
 40
15.0
 50
84.112682133585537
 51
138.90232941312871
  0
ARC
  5
8DEF
  8
01
 10
5482.7185293655612
 20
163.62552408620161
 30
0.0
 40
15.0
 50
221.09767058687129
 51
275.88731786641449
  0
ARC
  5
8DF2
  8
01
 10
5451.514677597359
 20
143.57814549255909
 30
0.0
 40
26.0
 50
13.998225885343571
 51
17.600626102073551
  0
ARC
  5
8DF5
  8
01
 10
5451.514677597359
 20
143.57814549255909
 30
0.0
 40
26.0
 50
342.39937389792652
 51
346.00177411465643
  0
ARC
  5
8DF9
  8
01
 10
5484.4146775973577
 20
143.57814549255909
 30
0.0
 40
26.0
 50
162.39937389792641
 51
180.0
  0
LINE
  5
8DFE
  8
01
 10
5326.9646775973579
 20
158.57814549255909
 30
0.0
 11
5326.9646775973588
 21
143.57814549255909
 31
0.0
  0
LINE
  5
8E00
  8
01
 10
5327.9646775973579
 20
158.57814549255909
 30
0.0
 11
5326.9646775973579
 21
158.57814549255909
 31
0.0
  0
LINE
  5
8E01
  8
01
 10
5327.9646775973579
 20
128.57814549255909
 30
0.0
 11
5326.9646775973579
 21
128.57814549255909
 31
0.0
  0
ARC
  5
8E0B
  8
01
 10
5372.4646775973579
 20
163.07814549255909
 30
0.0
 40
27.0
 50
265.09485852090683
 51
279.68980735131282
  0
ARC
  5
8E0C
  8
01
 10
5372.4646775973579
 20
124.0781454925591
 30
0.0
 40
27.0
 50
80.310192648687234
 51
94.905141479093146
  0
ARC
  5
8E10
  8
01
 10
5374.9893879709516
 20
148.29214408820729
 30
0.0
 40
12.0
 50
279.68980735131282
 51
313.51196948267398
  0
ARC
  5
8E11
  8
01
 10
5374.9893879709516
 20
138.86414689690989
 30
0.0
 40
12.0
 50
46.488030517326003
 51
80.310192648687234
  0
ARC
  5
8E12
  8
01
 10
5379.4646775973579
 20
143.57814549255909
 30
0.0
 40
5.5
 50
313.51196948267398
 51
0.0
  0
ARC
  5
8E13
  8
01
 10
5379.4646775973579
 20
143.57814549255909
 30
0.0
 40
5.5
 50
0.0
 51
46.488030517326003
  0
ARC
  5
8E1A
  8
01
 10
5530.4146775973586
 20
586.07814549255886
 30
0.0
 40
450.0
 50
264.11268213358551
 51
274.76302667072468
  0
ARC
  5
8E2D
  8
01
 10
5530.4146775973586
 20
-298.92185450744091
 30
0.0
 40
450.0
 50
85.236973329275273
 51
95.887317866414477
  0
ARC
  5
8E84
  8
01
 10
5562.7982428905152
 20
197.42495214545201
 30
0.0
 40
60.0
 50
274.76302667072468
 51
288.58742685752821
  0
ARC
  5
8E85
  8
01
 10
5576.4146775973586
 20
143.57814549255909
 30
0.0
 40
7.0
 50
346.96396127510519
 51
13.03603872489478
  0
ARC
  5
8E86
  8
01
 10
5562.7982428905152
 20
89.731338839666137
 30
0.0
 40
60.0
 50
71.412573142471814
 51
85.236973329275273
  0
ARC
  5
8E87
  8
01
 10
5581.2858194928203
 20
142.4503260769292
 30
0.0
 40
2.0
 50
288.5874268575318
 51
346.9639612751115
  0
ARC
  5
8E88
  8
01
 10
5581.2858194928203
 20
144.705964908189
 30
0.0
 40
2.0
 50
13.036038724888501
 51
71.412573142468204
  0
ARC
  5
8E8E
  8
01
 10
5484.4146775973577
 20
143.57814549255909
 30
0.0
 40
26.0
 50
180.0
 51
197.60062610207351
  0
LINE
  5
8E9E
  8
01
 10
5326.9646775973588
 20
143.57814549255909
 30
0.0
 11
5326.9646775973579
 21
128.57814549255909
 31
0.0
  0
ARC
  5
8EA4
  8
01
 10
5463.9061133238483
 20
147.50908948049161
 30
0.0
 40
13.0
 50
17.600626102073551
 51
39.112573138818753
  0
ARC
  5
8EA5
  8
01
 10
5472.0232418708683
 20
147.50908948049161
 30
0.0
 40
13.0
 50
140.88742686118121
 51
162.39937389792641
  0
ARC
  5
8EA6
  8
01
 10
5467.9646775973579
 20
150.80887428971371
 30
0.0
 40
7.769271202845375
 50
39.112573138818753
 51
140.88742686118121
  0
ARC
  5
8EA7
  8
01
 10
5463.9061133238483
 20
139.64720150462651
 30
0.0
 40
13.0
 50
320.88742686118132
 51
342.39937389792652
  0
ARC
  5
8EA8
  8
01
 10
5472.0232418708683
 20
139.64720150462651
 30
0.0
 40
13.0
 50
197.60062610207351
 51
219.11257313881879
  0
ARC
  5
8EA9
  8
01
 10
5467.9646775973579
 20
136.34741669540449
 30
0.0
 40
7.769271202845375
 50
219.11257313881879
 51
320.88742686118132
  0
ARC
  5
8EAB
  8
01
 10
5327.9646775973579
 20
23.77814549255891
 30
0.0
 40
134.80000000000001
 50
76.908280987880588
 51
90.0
  0
ARC
  5
8EAC
  8
01
 10
5344.9076656776342
 20
96.633997384576105
 30
0.0
 40
60.0
 50
55.917936414941877
 51
76.908280987880588
  0
ARC
  5
8EB0
  8
01
 10
5327.9646775973579
 20
263.37814549255842
 30
0.0
 40
134.80000000000001
 50
270.0
 51
283.09171901211943
  0
ARC
  5
8EB2
  8
01
 10
5344.9076656776351
 20
190.5222936005411
 30
0.0
 40
60.0
 50
283.09171901211943
 51
304.08206358505811
  0
LINE
  5
8EDA
  8
01
 10
5326.4646775973579
 20
135.630312472279
 30
0.0
 11
5326.9646775973579
 21
135.630312472279
 31
0.0
  0
LINE
  5
8EDC
  8
01
 10
5326.4646775973579
 20
151.52597851283821
 30
0.0
 11
5326.9646775973579
 21
151.52597851283821
 31
0.0
  0
LINE
  5
92BB
  8
01
 10
5458.4146775973577
 20
284.80107829692753
 30
0.0
 11
5477.5146775973581
 21
284.80107829692753
 31
0.0
  0
ARC
  5
92BC
  8
01
 10
5608.4146775973586
 20
283.80107829692753
 30
0.0
 40
150.0
 50
180.0
 51
191.77757693430789
  0
LINE
  5
92BD
  8
01
 10
5458.4146775973577
 20
283.80107829692753
 30
0.0
 11
5458.4146775973577
 21
284.80107829692753
 31
0.0
  0
LINE
  5
92BE
  8
01
 10
5477.5146775973581
 20
283.80107829692753
 30
0.0
 11
5477.5146775973581
 21
284.80107829692753
 31
0.0
  0
ARC
  5
92BF
  8
01
 10
5530.4146775973586
 20
-98.198921703072529
 30
0.0
 40
350.0
 50
85.048450687360216
 51
97.395966477921476
  0
ARC
  5
92C0
  8
01
 10
5530.4146775973586
 20
406.8010782969273
 30
0.0
 40
180.0
 50
253.36654646881101
 51
279.81121064858797
  0
ARC
  5
92C1
  8
01
 10
5555.4455361986638
 20
190.7188107359062
 30
0.0
 40
60.0
 50
65.702643773326727
 51
85.048450687360216
  0
ARC
  5
92C2
  8
01
 10
5547.4549079479157
 20
308.26362070033667
 30
0.0
 40
80.0
 50
279.81121064858797
 51
294.09579607104291
  0
ARC
  5
92C3
  8
01
 10
5577.8400832367224
 20
240.32333716212599
 30
0.0
 40
5.5745943606361834
 50
294.09579607104291
 51
65.702643773326727
  0
ARC
  5
92C4
  8
01
 10
5484.3308467987936
 20
256.82259953040023
 30
0.0
 40
8.0
 50
174.97488167901059
 51
277.3959664779216
  0
ARC
  5
92C5
  8
01
 10
5486.0462595196896
 20
258.286959515967
 30
0.0
 40
25.0
 50
191.77757693430789
 51
253.36654646881101
  0
ARC
  5
92C6
  8
01
 10
5327.5146775973581
 20
283.80107829693043
 30
0.0
 40
150.0
 50
357.32522551226049
 51
0.0
  0
ARC
  5
92C7
  8
01
 10
5239.8466603711886
 20
279.32955818166113
 30
0.0
 40
237.51805361880409
 50
354.73233232330682
 51
359.3900507343858
  0
LINE
  5
92C8
  8
01
 10
5455.2309952893256
 20
279.60107829692748
 30
0.0
 11
5465.7300249027376
 21
279.60107829692748
 31
0.0
  0
LINE
  5
92CC
  8
01
 10
5475.9146775973586
 20
284.80107829692741
 30
0.0
 11
5475.9146775973586
 21
285.07814549255909
 31
0.0
  0
LINE
  5
92CD
  8
01
 10
5460.0146775973581
 20
284.80107829692741
 30
0.0
 11
5460.0146775973571
 21
285.07814549255909
 31
0.0
  0
LINE
  5
9359
  8
1DIM
 10
5570.7198255947051
 20
293.57814549255909
 30
0.0
 11
5603.0159444596129
 21
293.57814549255909
 31
0.0
  0
LINE
  5
935A
  8
1DIM
 10
5530.4146775973586
 20
226.80107829692739
 30
0.0
 11
5603.0159444596129
 21
226.8010782969273
 31
0.0
  0
LINE
  5
935B
  8
1DIM
 10
5602.0159444596129
 20
291.57814549255909
 30
0.0
 11
5602.0159444596129
 21
228.8010782969273
 31
0.0
  0
LINE
  5
935F
  8
1DIM
 10
5570.7198255947051
 20
293.57814549255909
 30
0.0
 11
5593.0159444596129
 21
293.57814549255909
 31
0.0
  0
LINE
  5
9360
  8
1DIM
 10
5530.4146775973586
 20
251.8010782969275
 30
0.0
 11
5593.0159444596129
 21
251.8010782969275
 31
0.0
  0
LINE
  5
9361
  8
1DIM
 10
5592.0159444596129
 20
291.57814549255909
 30
0.0
 11
5592.0159444596129
 21
253.8010782969275
 31
0.0
  0
LINE
  5
9365
  8
1DIM
 10
5458.4146775973577
 20
284.80107829692753
 30
0.0
 11
5458.4146775973577
 21
199.02814549255959
 31
0.0
  0
LINE
  5
9366
  8
1DIM
 10
5583.4146689737854
 20
240.31353176688509
 30
0.0
 11
5583.4146689737854
 21
199.02814549255959
 31
0.0
  0
LINE
  5
9367
  8
1DIM
 10
5460.4146775973586
 20
200.02814549255959
 30
0.0
 11
5581.4146689737854
 21
200.02814549255959
 31
0.0
  0
LINE
  5
936B
  8
1DIM
 10
5467.9646775973579
 20
273.78693560571179
 30
0.0
 11
5467.9646775973579
 21
209.02814549255959
 31
0.0
  0
LINE
  5
936C
  8
1DIM
 10
5583.4146689737854
 20
240.31353176688509
 30
0.0
 11
5583.4146689737854
 21
209.02814549255959
 31
0.0
  0
LINE
  5
936D
  8
1DIM
 10
5469.964677597357
 20
210.02814549255959
 30
0.0
 11
5581.4146689737854
 21
210.02814549255959
 31
0.0
  0
POINT
  5
9371
  8
0
 10
5332.9646775973579
 20
143.57814549255909
 30
0.0
  0
LINE
  5
9372
  8
0
 10
5332.5646775873574
 20
141.82814549255909
 30
0.0
 11
5332.5646775873574
 21
142.67814551255921
 31
0.0
  0
LINE
  5
9373
  8
0
 10
5333.3646776073592
 20
141.82814549255909
 30
0.0
 11
5333.3646776073592
 21
142.67814551255921
 31
0.0
  0
LINE
  5
9374
  8
0
 10
5332.064677617358
 20
143.1781454825591
 30
0.0
 11
5331.2146775973579
 21
143.1781454825591
 31
0.0
  0
LINE
  5
9375
  8
0
 10
5332.064677617358
 20
143.97814550255899
 30
0.0
 11
5331.2146775973579
 21
143.97814550255899
 31
0.0
  0
LINE
  5
9376
  8
0
 10
5331.2146775973579
 20
143.1781454825591
 30
0.0
 11
5331.2146775973579
 21
143.97814550255899
 31
0.0
  0
LINE
  5
9377
  8
0
 10
5333.3646776073592
 20
141.82814549255909
 30
0.0
 11
5332.5646775873574
 21
141.82814549255909
 31
0.0
  0
LINE
  5
9378
  8
0
 10
5333.3646776073592
 20
145.32814549255909
 30
0.0
 11
5333.3646776073592
 21
144.47814547255891
 31
0.0
  0
LINE
  5
9379
  8
0
 10
5332.5646775873574
 20
145.32814549255909
 30
0.0
 11
5332.5646775873574
 21
144.47814547255891
 31
0.0
  0
LINE
  5
937A
  8
0
 10
5333.8646775773568
 20
143.97814550255899
 30
0.0
 11
5334.714677597357
 21
143.97814550255899
 31
0.0
  0
LINE
  5
937B
  8
0
 10
5333.8646775773568
 20
143.1781454825591
 30
0.0
 11
5334.714677597357
 21
143.1781454825591
 31
0.0
  0
LINE
  5
937C
  8
0
 10
5334.714677597357
 20
143.97814550255899
 30
0.0
 11
5334.714677597357
 21
143.1781454825591
 31
0.0
  0
LINE
  5
937D
  8
0
 10
5332.5646775873574
 20
145.32814549255909
 30
0.0
 11
5333.3646776073592
 21
145.32814549255909
 31
0.0
  0
CIRCLE
  5
937E
  8
0
 10
5332.9646775973579
 20
143.57814549255909
 30
0.0
 40
2.5
  0
ARC
  5
937F
  8
0
 10
5333.8646775773568
 20
144.47814547255891
 30
0.0
 40
0.5
 50
179.99999000000059
 51
270.0
  0
ARC
  5
9380
  8
0
 10
5333.8646775773568
 20
142.67814551255921
 30
0.0
 40
0.5
 50
90.000002999984659
 51
180.00000999999941
  0
ARC
  5
9381
  8
0
 10
5332.064677617358
 20
142.67814551255921
 30
0.0
 40
0.5
 50
0.0
 51
90.000002999984659
  0
ARC
  5
9382
  8
0
 10
5332.064677617358
 20
144.47814547255891
 30
0.0
 40
0.5
 50
270.0
 51
0.0
  0
LINE
  5
9384
  8
1DIM
 10
5467.9646775973579
 20
168.57814549255909
 30
0.0
 11
5431.6646775973577
 21
168.57814549255909
 31
0.0
  0
LINE
  5
9385
  8
1DIM
 10
5467.9646775973579
 20
118.57814549256
 30
0.0
 11
5431.6646775973577
 21
118.57814549256
 31
0.0
  0
LINE
  5
9386
  8
1DIM
 10
5432.964677597357
 20
165.97814549255909
 30
0.0
 11
5432.964677597357
 21
121.17814549256001
 31
0.0
  0
TEXT
  5
938A
  8
1DIM
 10
5432.0546775973571
 20
135.6408995304044
 30
0.0
 40
4.5499999999999989
  1
âË50
 50
90.0
  0
LINE
  5
938B
  8
0
  6
BYBLOCK
 10
5433.6613454913577
 20
121.17814549256001
 30
0.0
 11
5432.964677597357
 21
118.57814549256
 31
0.0
  0
LINE
  5
938C
  8
0
  6
BYBLOCK
 10
5432.964677597357
 20
118.57814549256
 30
0.0
 11
5432.2680097033581
 21
121.17814549256001
 31
0.0
  0
LINE
  5
938D
  8
0
  6
BYBLOCK
 10
5432.964677597357
 20
118.57814549256
 30
0.0
 11
5432.964677597357
 21
121.17814549256001
 31
0.0
  0
LINE
  5
938E
  8
0
  6
BYBLOCK
 10
5432.2680097033581
 20
165.97814549255909
 30
0.0
 11
5432.964677597357
 21
168.57814549255909
 31
0.0
  0
LINE
  5
938F
  8
0
  6
BYBLOCK
 10
5432.964677597357
 20
168.57814549255909
 30
0.0
 11
5433.6613454913577
 21
165.97814549255909
 31
0.0
  0
LINE
  5
9390
  8
0
  6
BYBLOCK
 10
5432.964677597357
 20
168.57814549255909
 30
0.0
 11
5432.964677597357
 21
165.97814549255909
 31
0.0
  0
CIRCLE
  5
9391
  8
0
 10
5332.9646775973579
 20
143.57814549255909
 30
0.0
 40
3.0
  0
TEXT
  5
9392
  8
1DIM
 10
5522.1896732855712
 20
210.72814549255961
 30
0.0
 40
3.5
  1
115 
  0
LINE
  5
9393
  8
0
  6
BYBLOCK
 10
5581.4146689737854
 20
210.56404387255961
 30
0.0
 11
5583.4146689737854
 21
210.02814549255959
 31
0.0
  0
LINE
  5
9394
  8
0
  6
BYBLOCK
 10
5583.4146689737854
 20
210.02814549255959
 30
0.0
 11
5581.4146689737854
 21
209.4922471125596
 31
0.0
  0
LINE
  5
9395
  8
0
  6
BYBLOCK
 10
5583.4146689737854
 20
210.02814549255959
 30
0.0
 11
5581.4146689737854
 21
210.02814549255959
 31
0.0
  0
LINE
  5
9396
  8
0
  6
BYBLOCK
 10
5469.964677597357
 20
209.4922471125596
 30
0.0
 11
5467.9646775973579
 21
210.02814549255959
 31
0.0
  0
LINE
  5
9397
  8
0
  6
BYBLOCK
 10
5467.9646775973579
 20
210.02814549255959
 30
0.0
 11
5469.964677597357
 21
210.56404387255961
 31
0.0
  0
LINE
  5
9398
  8
0
  6
BYBLOCK
 10
5467.9646775973579
 20
210.02814549255959
 30
0.0
 11
5469.964677597357
 21
210.02814549255959
 31
0.0
  0
TEXT
  5
9399
  8
1DIM
 10
5516.8313399522394
 20
200.72814549255961
 30
0.0
 40
3.5
  1
125 
  0
LINE
  5
939A
  8
0
  6
BYBLOCK
 10
5581.4146689737854
 20
200.56404387255961
 30
0.0
 11
5583.4146689737854
 21
200.02814549255959
 31
0.0
  0
LINE
  5
939B
  8
0
  6
BYBLOCK
 10
5583.4146689737854
 20
200.02814549255959
 30
0.0
 11
5581.4146689737854
 21
199.4922471125596
 31
0.0
  0
LINE
  5
939C
  8
0
  6
BYBLOCK
 10
5583.4146689737854
 20
200.02814549255959
 30
0.0
 11
5581.4146689737854
 21
200.02814549255959
 31
0.0
  0
LINE
  5
939D
  8
0
  6
BYBLOCK
 10
5460.4146775973586
 20
199.4922471125596
 30
0.0
 11
5458.4146775973577
 21
200.02814549255959
 31
0.0
  0
LINE
  5
939E
  8
0
  6
BYBLOCK
 10
5458.4146775973577
 20
200.02814549255959
 30
0.0
 11
5460.4146775973586
 21
200.56404387255961
 31
0.0
  0
LINE
  5
939F
  8
0
  6
BYBLOCK
 10
5458.4146775973577
 20
200.02814549255959
 30
0.0
 11
5460.4146775973586
 21
200.02814549255959
 31
0.0
  0
TEXT
  5
93A0
  8
1DIM
 10
5591.3159444596131
 20
269.7729452280775
 30
0.0
 40
3.5
  1
42 
 50
90.0
  0
LINE
  5
93A1
  8
0
  6
BYBLOCK
 10
5592.5518428396117
 20
253.8010782969275
 30
0.0
 11
5592.0159444596129
 21
251.8010782969275
 31
0.0
  0
LINE
  5
93A2
  8
0
  6
BYBLOCK
 10
5592.0159444596129
 20
251.8010782969275
 30
0.0
 11
5591.4800460796132
 21
253.8010782969275
 31
0.0
  0
LINE
  5
93A3
  8
0
  6
BYBLOCK
 10
5592.0159444596129
 20
251.8010782969275
 30
0.0
 11
5592.0159444596129
 21
253.8010782969275
 31
0.0
  0
LINE
  5
93A4
  8
0
  6
BYBLOCK
 10
5591.4800460796132
 20
291.57814549255909
 30
0.0
 11
5592.0159444596129
 21
293.57814549255909
 31
0.0
  0
LINE
  5
93A5
  8
0
  6
BYBLOCK
 10
5592.0159444596129
 20
293.57814549255909
 30
0.0
 11
5592.5518428396117
 21
291.57814549255909
 31
0.0
  0
LINE
  5
93A6
  8
0
  6
BYBLOCK
 10
5592.0159444596129
 20
293.57814549255909
 30
0.0
 11
5592.0159444596129
 21
291.57814549255909
 31
0.0
  0
TEXT
  5
93A7
  8
1DIM
 10
5601.315944459614
 20
257.27294522807739
 30
0.0
 40
3.5
  1
67 
 50
90.0
  0
LINE
  5
93A8
  8
0
  6
BYBLOCK
 10
5602.5518428396126
 20
228.8010782969273
 30
0.0
 11
5602.0159444596129
 21
226.8010782969273
 31
0.0
  0
LINE
  5
93A9
  8
0
  6
BYBLOCK
 10
5602.0159444596129
 20
226.8010782969273
 30
0.0
 11
5601.4800460796132
 21
228.8010782969273
 31
0.0
  0
LINE
  5
93AA
  8
0
  6
BYBLOCK
 10
5602.0159444596129
 20
226.8010782969273
 30
0.0
 11
5602.0159444596129
 21
228.8010782969273
 31
0.0
  0
LINE
  5
93AB
  8
0
  6
BYBLOCK
 10
5601.4800460796132
 20
291.57814549255909
 30
0.0
 11
5602.0159444596129
 21
293.57814549255909
 31
0.0
  0
LINE
  5
93AC
  8
0
  6
BYBLOCK
 10
5602.0159444596129
 20
293.57814549255909
 30
0.0
 11
5602.5518428396126
 21
291.57814549255909
 31
0.0
  0
LINE
  5
93AD
  8
0
  6
BYBLOCK
 10
5602.0159444596129
 20
293.57814549255909
 30
0.0
 11
5602.0159444596129
 21
291.57814549255909
 31
0.0
  0
VIEWPORT
  5
57
 67
     1
  8
0
 10
1.0173084430081181
 20
10.09248672500371
 30
0.0
 40
432.90239150704122
 41
287.05413270618823
 68
     1
 69
     1
1001
ACAD
1000
MVIEW
1002
{
1070
    16
1010
0.0
1020
0.0
1030
0.0
1010
0.0
1020
0.0
1030
1.0
1040
0.0
1040
287.05413270618823
1040
1.0173084430081181
1040
10.09248672500371
1040
50.0
1040
0.0
1040
0.0
1070
     0
1070
   100
1070
     1
1070
     1
1070
     0
1070
     0
1070
     0
1070
     0
1040
0.0
1040
0.0
1040
0.0
1040
10.0
1040
10.0
1040
10.0
1040
10.0
1070
     0
1002
{
1002
}
1002
}
  0
ENDSEC
  0
EOF
