  0
SECTION
  2
HEADER
  9
$ACADVER
  1
AC1009
  9
$INSBASE
 10
0.0
 20
0.0
 30
0.0
  9
$EXTMIN
 10
-208.67996202913699
 20
-1026.8713
 30
0.0
  9
$EXTMAX
 10
482.42419999999993
 20
-733.41039999999987
 30
1.0
  9
$LIMMIN
 10
0.0
 20
0.0
  9
$LIMMAX
 10
420.0
 20
297.0
  9
$ORTHOMODE
 70
     0
  9
$REGENMODE
 70
     1
  9
$FILLMODE
 70
     1
  9
$QTEXTMODE
 70
     0
  9
$MIRRTEXT
 70
     0
  9
$DRAGMODE
 70
     2
  9
$LTSCALE
 40
0.5
  9
$OSMODE
 70
  2173
  9
$ATTMODE
 70
     1
  9
$TEXTSIZE
 40
4.0
  9
$TRACEWID
 40
1.0
  9
$TEXTSTYLE
  7
STANDARD
  9
$CLAYER
  8
1TEXT
  9
$CELTYPE
  6
BYLAYER
  9
$CECOLOR
 62
   256
  9
$DIMSCALE
 40
1.0
  9
$DIMASZ
 40
2.0
  9
$DIMEXO
 40
0.0
  9
$DIMDLI
 40
7.0
  9
$DIMRND
 40
0.0
  9
$DIMDLE
 40
0.0
  9
$DIMEXE
 40
1.0
  9
$DIMTP
 40
0.0
  9
$DIMTM
 40
0.0
  9
$DIMTXT
 40
3.5
  9
$DIMCEN
 40
0.0
  9
$DIMTSZ
 40
0.0
  9
$DIMTOL
 70
     0
  9
$DIMLIM
 70
     0
  9
$DIMTIH
 70
     0
  9
$DIMTOH
 70
     0
  9
$DIMSE1
 70
     0
  9
$DIMSE2
 70
     0
  9
$DIMTAD
 70
     1
  9
$DIMZIN
 70
     8
  9
$DIMBLK
  1

  9
$DIMASO
 70
     1
  9
$DIMSHO
 70
     1
  9
$DIMPOST
  1
 
  9
$DIMAPOST
  1

  9
$DIMALT
 70
     0
  9
$DIMALTD
 70
     2
  9
$DIMALTF
 40
25.399999999999999
  9
$DIMLFAC
 40
1.0
  9
$DIMTOFL
 70
     1
  9
$DIMTVP
 40
0.0
  9
$DIMTIX
 70
     0
  9
$DIMSOXD
 70
     0
  9
$DIMSAH
 70
     1
  9
$DIMBLK1
  1
OPEN30
  9
$DIMBLK2
  1
OPEN30
  9
$DIMSTYLE
  2
NEWX10
  9
$DIMCLRD
 70
   256
  9
$DIMCLRE
 70
   256
  9
$DIMCLRT
 70
   201
  9
$DIMTFAC
 40
0.7
  9
$DIMGAP
 40
0.7
  9
$LUNITS
 70
     2
  9
$LUPREC
 70
     4
  9
$SKETCHINC
 40
1.0
  9
$FILLETRAD
 40
0.0
  9
$AUNITS
 70
     0
  9
$AUPREC
 70
     2
  9
$MENU
  1
acad
  9
$ELEVATION
 40
0.0
  9
$PELEVATION
 40
0.0
  9
$THICKNESS
 40
0.0
  9
$LIMCHECK
 70
     0
  9
$BLIPMODE
 70
     0
  9
$CHAMFERA
 40
10.0
  9
$CHAMFERB
 40
10.0
  9
$SKPOLY
 70
     0
  9
$TDCREATE
 40
2453033.7327000001
  9
$TDUPDATE
 40
2453406.4895534841
  9
$TDINDWG
 40
1.5985218750000001
  9
$TDUSRTIMER
 40
1.5985218750000001
  9
$USRTIMER
 70
     1
  9
$ANGBASE
 50
0.0
  9
$ANGDIR
 70
     0
  9
$PDMODE
 70
     0
  9
$PDSIZE
 40
0.0
  9
$PLINEWID
 40
0.0
  9
$COORDS
 70
     2
  9
$SPLFRAME
 70
     0
  9
$SPLINETYPE
 70
     6
  9
$SPLINESEGS
 70
     8
  9
$ATTDIA
 70
     0
  9
$ATTREQ
 70
     1
  9
$HANDLING
 70
     1
  9
$HANDSEED
  5
17947
  9
$SURFTAB1
 70
     6
  9
$SURFTAB2
 70
     6
  9
$SURFTYPE
 70
     6
  9
$SURFU
 70
     6
  9
$SURFV
 70
     6
  9
$UCSNAME
  2

  9
$UCSORG
 10
0.0
 20
0.0
 30
0.0
  9
$UCSXDIR
 10
1.0
 20
0.0
 30
0.0
  9
$UCSYDIR
 10
0.0
 20
1.0
 30
0.0
  9
$PUCSNAME
  2

  9
$PUCSORG
 10
0.0
 20
0.0
 30
0.0
  9
$PUCSXDIR
 10
1.0
 20
0.0
 30
0.0
  9
$PUCSYDIR
 10
0.0
 20
1.0
 30
0.0
  9
$USERI1
 70
     0
  9
$USERI2
 70
     0
  9
$USERI3
 70
     0
  9
$USERI4
 70
     0
  9
$USERI5
 70
     0
  9
$USERR1
 40
0.0
  9
$USERR2
 40
0.0
  9
$USERR3
 40
0.0
  9
$USERR4
 40
0.0
  9
$USERR5
 40
0.0
  9
$WORLDVIEW
 70
     1
  9
$SHADEDGE
 70
     3
  9
$SHADEDIF
 70
    70
  9
$TILEMODE
 70
     1
  9
$MAXACTVP
 70
    48
  9
$PLIMCHECK
 70
     0
  9
$PEXTMIN
 10
1.0000000000000000E+020
 20
1.0000000000000000E+020
 30
1.0000000000000000E+020
  9
$PEXTMAX
 10
-1.0000000000000000E+020
 20
-1.0000000000000000E+020
 30
-1.0000000000000000E+020
  9
$PLIMMIN
 10
0.0
 20
0.0
  9
$PLIMMAX
 10
420.0
 20
297.0
  9
$UNITMODE
 70
     0
  9
$VISRETAIN
 70
     1
  9
$PLINEGEN
 70
     0
  9
$PSLTSCALE
 70
     1
  0
ENDSEC
  0
SECTION
  2
TABLES
  0
TABLE
  2
VPORT
 70
     4
  0
VPORT
  2
*ACTIVE
 70
     0
 10
0.0
 20
0.0
 11
1.0
 21
1.0
 12
136.8721516092003
 22
-880.13922961643186
 13
0.0
 23
0.0
 14
10.0
 24
10.0
 15
10.0
 25
10.0
 16
0.0
 26
0.0
 36
1.0
 17
0.0
 27
0.0
 37
0.0
 40
503.33016508907878
 41
1.453246753246753
 42
50.0
 43
0.0
 44
0.0
 50
0.0
 51
0.0
 71
     0
 72
   100
 73
     1
 74
     1
 75
     0
 76
     0
 77
     0
 78
     0
  0
ENDTAB
  0
TABLE
  2
LTYPE
 70
     5
  0
LTYPE
  2
CONTINUOUS
 70
     0
  3
Solid line
 72
    65
 73
     0
 40
0.0
  0
LTYPE
  2
CENTER2
 70
     0
  3
Center (.5x) ___ _ ___ _ ___ _ ___ _ ___ _ ___
 72
    65
 73
     4
 40
28.574999999999999
 49
19.050000000000001
 49
-3.1749999999999989
 49
3.1749999999999989
 49
-3.1749999999999989
  0
LTYPE
  2
PHANTOM2
 70
     0
  3
Phantom (.5x) ___ _ _ ___ _ _ ___ _ _ ___ _ _
 72
    65
 73
     6
 40
31.75
 49
15.875
 49
-3.1749999999999989
 49
3.1749999999999989
 49
-3.1749999999999989
 49
3.1749999999999989
 49
-3.1749999999999989
  0
ENDTAB
  0
TABLE
  2
LAYER
 70
    14
  0
LAYER
  2
0
 70
     0
 62
     7
  6
CONTINUOUS
  0
LAYER
  2
1TEXT
 70
     0
 62
     7
  6
CONTINUOUS
  0
LAYER
  2
1CENTER
 70
     0
 62
     7
  6
CENTER2
  0
LAYER
  2
1DIM
 70
     0
 62
     7
  6
CONTINUOUS
  0
LAYER
  2
1PHANTOM
 70
     0
 62
     7
  6
PHANTOM2
  0
LAYER
  2
01
 70
     0
 62
     1
  6
CONTINUOUS
  0
LAYER
  2
1DIM1
 70
     0
 62
     7
  6
CONTINUOUS
  0
LAYER
  2
1HATCH
 70
     0
 62
     7
  6
CONTINUOUS
  0
ENDTAB
  0
TABLE
  2
STYLE
 70
     1
  0
STYLE
  2
STANDARD
 70
     0
 40
0.0
 41
1.0
 50
0.0
 71
     0
 42
4.0
  3
txt.shx
  4
extfont.shx
  0
ENDTAB
  0
TABLE
  2
VIEW
 70
     0
  0
ENDTAB
  0
TABLE
  2
UCS
 70
     0
  0
ENDTAB
  0
TABLE
  2
APPID
 70
     9
  0
APPID
  2
ACAD
 70
     0
  0
APPID
  2
DRAWINGVARIABLESXDATA
 70
     0
  0
APPID
  2
CONTENTTABDATA
 70
     0
  0
APPID
  2
CONTENTCURRENTTAB
 70
     0
  0
APPID
  2
CONTENTBLOCKDESCRIPTION
 70
     0
  0
APPID
  2
CONTENTBLOCKICON
 70
     0
  0
APPID
  2
CONTENTLONGBLOCKNAME
 70
     0
  0
APPID
  2
ACAD_PSEXT
 70
     0
  0
APPID
  2
ACAD_DSTYLE_DIMTEXT_FILL
 70
     0
  0
ENDTAB
  0
TABLE
  2
DIMSTYLE
 70
     1
  0
DIMSTYLE
  2
NEWX10
 70
     0
  3
 
  4

  5

  6

  7

 40
1.0
 41
2.0
 42
0.0
 43
7.0
 44
1.0
 45
0.0
 46
0.0
 47
0.0
 48
0.0
140
3.5
141
0.0
142
0.0
143
25.399999999999999
144
1.0
145
0.0
146
0.7
147
0.7
 71
     0
 72
     0
 73
     0
 74
     0
 75
     0
 76
     0
 77
     1
 78
     8
170
     0
171
     2
172
     1
173
     1
174
     0
175
     0
176
   256
177
   256
178
   201
  0
ENDTAB
  0
ENDSEC
  0
SECTION
  2
BLOCKS
  0
BLOCK
  8
0
  2
$MODEL_SPACE
 70
     0
 10
0.0
 20
0.0
 30
0.0
  3
$MODEL_SPACE
  1

  0
ENDBLK
  5
178DE
  8
0
  0
BLOCK
 67
     1
  8
0
  2
$PAPER_SPACE
 70
     0
 10
0.0
 20
0.0
 30
0.0
  3
$PAPER_SPACE
  1

  0
ENDBLK
  5
178DA
 67
     1
  8
0
  0
BLOCK
  8
0
  2
_OPEN30
 70
     0
 10
0.0
 20
0.0
 30
0.0
  3
_OPEN30
  1

  0
LINE
  5
44
  8
0
  6
BYBLOCK
 62
     0
 10
-1.0
 20
0.2679
 30
0.0
 11
0.0
 21
0.0
 31
0.0
  0
LINE
  5
45
  8
0
  6
BYBLOCK
 62
     0
 10
0.0
 20
0.0
 30
0.0
 11
-1.0
 21
-0.2679
 31
0.0
  0
LINE
  5
46
  8
0
  6
BYBLOCK
 62
     0
 10
0.0
 20
0.0
 30
0.0
 11
-1.0
 21
0.0
 31
0.0
  0
ENDBLK
  5
47
  8
0
  0
ENDSEC
  0
SECTION
  2
ENTITIES
  0
LINE
  5
16C45
  8
01
 10
450.42419999999993
 20
-853.87129999999991
 30
0.0
 11
450.42419999999993
 21
-964.90419999999995
 31
0.0
  0
LINE
  5
16C46
  8
01
 10
459.42419999999998
 20
-853.87129999999991
 30
0.0
 11
459.42419999999998
 21
-964.90419999999995
 31
0.0
  0
LINE
  5
16C47
  8
01
 10
441.42419999999993
 20
-853.87129999999991
 30
0.0
 11
441.42419999999993
 21
-964.90419999999995
 31
0.0
  0
TEXT
  5
16C4E
  8
1TEXT
 10
122.9242
 20
-745.87180000000001
 30
0.0
 40
8.0
  1
SA022XC0
  0
LINE
  5
16C50
  8
1DIM
 10
122.9242
 20
-750.87180000000001
 30
0.0
 11
192.92420000000001
 21
-750.87180000000001
 31
0.0
  0
LINE
  5
16C51
  8
1DIM
 10
122.9242
 20
-764.87180000000001
 30
0.0
 11
192.92420000000001
 21
-764.87180000000001
 31
0.0
  0
LINE
  5
16C52
  8
1DIM
 10
122.9242
 20
-757.87180000000001
 30
0.0
 11
192.92420000000001
 21
-757.87180000000001
 31
0.0
  0
LINE
  5
16C55
  8
1DIM
 10
157.92420000000001
 20
-750.87180000000001
 30
0.0
 11
157.92420000000001
 21
-764.87180000000001
 31
0.0
  0
LINE
  5
16C57
  8
1DIM
 10
122.9242
 20
-764.87180000000001
 30
0.0
 11
122.9242
 21
-750.87180000000001
 31
0.0
  0
LINE
  5
16C58
  8
1DIM
 10
192.92420000000001
 20
-764.87180000000001
 30
0.0
 11
192.92420000000001
 21
-750.87180000000001
 31
0.0
  0
LINE
  5
16C60
  8
1CENTER
 10
-178.07579999999999
 20
-869.66750000000002
 30
0.0
 11
-178.07579999999999
 21
-876.81889999999987
 31
0.0
  0
LINE
  5
16C61
  8
01
 10
-160.35509999999999
 20
-888.87130000000002
 30
0.0
 11
-153.2226
 21
-931.87130000000002
 31
0.0
  0
LINE
  5
16C62
  8
01
 10
-159.84829999999999
 20
-888.87130000000002
 30
0.0
 11
-152.7158
 21
-931.87130000000002
 31
0.0
  0
LINE
  5
16C63
  8
01
 10
-194.8466
 20
-880.08950000000004
 30
0.0
 11
-203.7253
 21
-933.61680000000001
 31
0.0
  0
LINE
  5
16C64
  8
01
 10
-194.35339999999999
 20
-880.17129999999986
 30
0.0
 11
-203.2321
 21
-933.69860000000006
 31
0.0
  0
LINE
  5
16C65
  8
1CENTER
 10
271.92419999999998
 20
-868.87660000000005
 30
0.0
 11
271.92419999999998
 21
-877.30610000000001
 31
0.0
  0
LINE
  5
16C66
  8
01
 10
288.20179999999999
 20
-880.17129999999986
 30
0.0
 11
297.08049999999997
 21
-933.69860000000006
 31
0.0
  0
LINE
  5
16C67
  8
01
 10
288.69510000000002
 20
-880.08950000000004
 30
0.0
 11
297.57380000000001
 21
-933.61680000000001
 31
0.0
  0
LINE
  5
16C68
  8
01
 10
253.69669999999999
 20
-888.87130000000002
 30
0.0
 11
246.5642
 21
-931.87130000000002
 31
0.0
  0
LINE
  5
16C69
  8
01
 10
254.20349999999999
 20
-888.87130000000002
 30
0.0
 11
247.071
 21
-931.87130000000002
 31
0.0
  0
LINE
  5
16C6A
  8
01
 10
441.42419999999993
 20
-865.87130000000002
 30
0.0
 11
441.42419999999993
 21
-963.87130000000002
 31
0.0
  0
LINE
  5
16C6B
  8
01
 10
-169.56540000000001
 20
-943.87129999999991
 30
0.0
 11
263.41379999999998
 21
-943.87129999999991
 31
0.0
  0
LINE
  5
16C6C
  8
01
 10
-169.56540000000001
 20
-931.87130000000002
 30
0.0
 11
263.41379999999998
 21
-931.87130000000002
 31
0.0
  0
ARC
  5
16C6D
  8
01
 10
-178.07579999999999
 20
-937.87130000000013
 30
0.0
 40
23.122900000000001
 50
15.039400000000001
 51
344.9606
  0
ARC
  5
16C6E
  8
01
 10
-178.07579999999999
 20
-937.87130000000013
 30
0.0
 40
10.5
 50
35.853499999999997
 51
324.1465
  0
ARC
  5
16C6F
  8
01
 10
-178.07579999999999
 20
-937.87130000000013
 30
0.0
 40
25.0
 50
13.8865
 51
346.11349999999999
  0
ARC
  5
16C70
  8
01
 10
-178.07579999999999
 20
-937.87130000000013
 30
0.0
 40
25.5
 50
170.58199999999999
 51
346.39100000000002
  0
ARC
  5
16C71
  8
01
 10
-178.07579999999999
 20
-937.87130000000013
 30
0.0
 40
26.0
 50
170.58199999999999
 51
346.6576
  0
LINE
  5
16C72
  8
01
 10
-169.56540000000001
 20
-931.87130000000002
 30
0.0
 11
-169.56540000000001
 21
-943.87129999999991
 31
0.0
  0
LINE
  5
16C73
  8
01
 10
367.17689999999999
 20
-932.07129999999995
 30
0.0
 11
404.1902
 21
-932.07129999999995
 31
0.0
  0
LINE
  5
16C74
  8
01
 10
367.17689999999999
 20
-943.67129999999986
 30
0.0
 11
404.1902
 21
-943.67129999999986
 31
0.0
  0
LINE
  5
16C75
  8
1CENTER
 10
354.23500000000001
 20
-937.87130000000013
 30
0.0
 11
362.72800000000001
 21
-937.87130000000013
 31
0.0
  0
ARC
  5
16C76
  8
01
 10
271.92419999999998
 20
-937.87130000000013
 30
0.0
 40
25.0
 50
193.88650000000001
 51
166.1134999999999
  0
ARC
  5
16C77
  8
01
 10
271.92419999999998
 20
-937.87130000000013
 30
0.0
 40
23.122900000000001
 50
195.0394
 51
164.9606
  0
ARC
  5
16C78
  8
01
 10
271.92419999999998
 20
-937.87130000000013
 30
0.0
 40
26.0
 50
193.3424
 51
9.4179999999999993
  0
ARC
  5
16C79
  8
01
 10
271.92419999999998
 20
-937.87130000000013
 30
0.0
 40
25.5
 50
193.60900000000001
 51
9.4179999999999993
  0
LINE
  5
16C7A
  8
1CENTER
 10
358.42419999999998
 20
-932.09569999999985
 30
0.0
 11
358.42419999999998
 21
-943.38530000000003
 31
0.0
  0
LINE
  5
16C7B
  8
01
 10
263.41379999999998
 20
-944.02129999999988
 30
0.0
 11
263.41379999999998
 21
-931.72130000000004
 31
0.0
  0
ARC
  5
16C7C
  8
01
 10
271.92419999999998
 20
-937.87130000000013
 30
0.0
 40
10.5
 50
215.8535
 51
144.1465
  0
ARC
  5
16C7D
  8
01
 10
358.42419999999998
 20
-937.87130000000013
 30
0.0
 40
10.5
 50
33.530500000000004
 51
326.46949999999998
  0
LINE
  5
16C7E
  8
01
 10
406.86749999999989
 20
-944.44849999999997
 30
0.0
 11
412.55079999999992
 21
-948.05190000000005
 31
0.0
  0
LINE
  5
16C81
  8
01
 10
435.92419999999998
 20
-962.87130000000013
 30
0.0
 11
438.42419999999993
 21
-962.89309999999989
 31
0.0
  0
ARC
  5
16C82
  8
01
 10
438.72419999999988
 20
-963.12540000000001
 30
0.0
 40
0.3
 50
180.0
 51
258.69009999999997
  0
LINE
  5
16C83
  8
01
 10
438.66539999999998
 20
-963.41949999999997
 30
0.0
 11
440.92419999999993
 21
-963.87130000000002
 31
0.0
  0
LINE
  5
16C84
  8
01
 10
441.42419999999993
 20
-963.87130000000002
 30
0.0
 11
440.92419999999993
 21
-963.87130000000002
 31
0.0
  0
LINE
  5
16C85
  8
1PHANTOM
 10
424.02420000000001
 20
-941.62130000000002
 30
0.0
 11
427.02420000000001
 21
-941.62130000000002
 31
0.0
  0
LINE
  5
16C86
  8
1PHANTOM
 10
424.02420000000001
 20
-934.12129999999991
 30
0.0
 11
427.02420000000001
 21
-934.12129999999991
 31
0.0
  0
LINE
  5
16C87
  8
01
 10
406.86749999999989
 20
-931.29409999999996
 30
0.0
 11
412.55079999999992
 21
-927.69069999999988
 31
0.0
  0
ARC
  5
16C88
  8
1PHANTOM
 10
423.52420000000001
 20
-941.17129999999997
 30
0.0
 40
0.5
 50
0.0
 51
100.75749999999999
  0
LINE
  5
16C89
  8
1PHANTOM
 10
424.02420000000001
 20
-934.12129999999991
 30
0.0
 11
424.02420000000001
 21
-934.57129999999995
 31
0.0
  0
ARC
  5
16C8A
  8
1PHANTOM
 10
423.52420000000001
 20
-934.57129999999995
 30
0.0
 40
0.5
 50
259.24250000000001
 51
0.0
  0
LINE
  5
16C8B
  8
1PHANTOM
 10
416.42419999999993
 20
-941.82129999999995
 30
0.0
 11
416.42419999999993
 21
-933.92129999999986
 31
0.0
  0
LINE
  5
16C8C
  8
1PHANTOM
 10
416.42419999999993
 20
-941.82129999999995
 30
0.0
 11
417.42419999999993
 21
-941.82129999999995
 31
0.0
  0
LINE
  5
16C8D
  8
1PHANTOM
 10
416.42419999999993
 20
-933.92129999999986
 30
0.0
 11
417.42419999999993
 21
-933.92129999999986
 31
0.0
  0
ARC
  5
16C8E
  8
01
 10
404.1902
 20
-927.07129999999984
 30
0.0
 40
5.0
 50
270.0
 51
302.3759
  0
ARC
  5
16C8F
  8
01
 10
404.1902
 20
-948.67129999999986
 30
0.0
 40
5.0
 50
57.624099999999991
 51
90.0
  0
LINE
  5
16C90
  8
1PHANTOM
 10
417.42419999999993
 20
-941.82129999999995
 30
0.0
 11
423.43090000000001
 21
-940.68009999999992
 31
0.0
  0
LINE
  5
16C91
  8
1PHANTOM
 10
417.42419999999993
 20
-933.92129999999986
 30
0.0
 11
423.43090000000001
 21
-935.0625
 31
0.0
  0
LINE
  5
16C92
  8
01
 10
435.92419999999998
 20
-912.87130000000013
 30
0.0
 11
438.42419999999993
 21
-912.84950000000003
 31
0.0
  0
LINE
  5
16C93
  8
1PHANTOM
 10
427.02420000000001
 20
-941.87130000000002
 30
0.0
 11
438.42419999999993
 21
-941.87130000000002
 31
0.0
  0
LINE
  5
16C94
  8
1PHANTOM
 10
427.02420000000001
 20
-933.87130000000002
 30
0.0
 11
438.42419999999993
 21
-933.87130000000002
 31
0.0
  0
LINE
  5
16C95
  8
1PHANTOM
 10
427.02420000000001
 20
-941.87130000000002
 30
0.0
 11
427.02420000000001
 21
-941.62130000000002
 31
0.0
  0
LINE
  5
16C96
  8
01
 10
-169.56540000000001
 20
-888.87130000000002
 30
0.0
 11
263.41379999999998
 21
-888.87130000000002
 31
0.0
  0
LINE
  5
16C97
  8
01
 10
-169.56540000000001
 20
-876.87129999999991
 30
0.0
 11
263.41379999999998
 21
-876.87129999999991
 31
0.0
  0
LINE
  5
16C98
  8
01
 10
-169.56540000000001
 20
-852.37130000000002
 30
0.0
 11
263.41379999999998
 21
-852.37130000000002
 31
0.0
  0
LINE
  5
16C99
  8
01
 10
-169.56540000000001
 20
-840.37129999999991
 30
0.0
 11
263.41379999999998
 21
-840.37129999999991
 31
0.0
  0
LINE
  5
16C9A
  8
01
 10
-169.56540000000001
 20
-813.37130000000002
 30
0.0
 11
263.41379999999998
 21
-813.37130000000002
 31
0.0
  0
LINE
  5
16C9B
  8
01
 10
-169.56540000000001
 20
-801.37130000000002
 30
0.0
 11
263.41379999999998
 21
-801.37130000000002
 31
0.0
  0
LINE
  5
16C9C
  8
01
 10
-172.2758
 20
-837.61860000000001
 30
0.0
 11
-172.2758
 21
-816.12399999999991
 31
0.0
  0
LINE
  5
16C9D
  8
01
 10
-183.8758
 20
-837.61860000000001
 30
0.0
 11
-183.8758
 21
-816.12399999999991
 31
0.0
  0
ARC
  5
16C9E
  8
01
 10
-178.07579999999999
 20
-882.87130000000002
 30
0.0
 40
17.0
 50
20.667300000000001
 51
170.58199999999999
  0
ARC
  5
16C9F
  8
01
 10
-178.07579999999999
 20
-882.87130000000002
 30
0.0
 40
16.5
 50
21.323699999999999
 51
170.58199999999999
  0
LINE
  5
16CA0
  8
01
 10
-172.2758
 20
-837.61860000000001
 30
0.0
 11
-183.8758
 21
-837.61860000000001
 31
0.0
  0
ARC
  5
16CA1
  8
01
 10
-178.07579999999999
 20
-846.37130000000002
 30
0.0
 40
10.5
 50
123.5305
 51
324.1465
  0
ARC
  5
16CA2
  8
01
 10
-178.07579999999999
 20
-882.87130000000002
 30
0.0
 40
15.0
 50
23.578199999999999
 51
336.42180000000002
  0
ARC
  5
16CA3
  8
01
 10
-178.07579999999999
 20
-882.87130000000002
 30
0.0
 40
10.5
 50
35.853499999999997
 51
324.1465
  0
LINE
  5
16CA4
  8
01
 10
-169.56540000000001
 20
-876.87129999999991
 30
0.0
 11
-169.56540000000001
 21
-888.87130000000002
 31
0.0
  0
LINE
  5
16CA5
  8
01
 10
-169.56540000000001
 20
-840.22129999999993
 30
0.0
 11
-169.56540000000001
 21
-852.5213
 31
0.0
  0
ARC
  5
16CA6
  8
01
 10
-178.07579999999999
 20
-846.37130000000002
 30
0.0
 40
10.5
 50
35.853499999999997
 51
56.469499999999996
  0
LINE
  5
16CA7
  8
01
 10
-152.82169999999999
 20
-766.37130000000002
 30
0.0
 11
-203.32980000000001
 21
-766.37130000000002
 31
0.0
  0
LINE
  5
16CA8
  8
01
 10
-163.07579999999999
 20
-769.37130000000002
 30
0.0
 11
-193.07579999999999
 21
-769.37130000000002
 31
0.0
  0
LINE
  5
16CA9
  8
01
 10
-172.57579999999999
 20
-789.37129999999991
 30
0.0
 11
-183.57579999999999
 21
-789.37129999999991
 31
0.0
  0
LINE
  5
16CAA
  8
01
 10
-183.57579999999999
 20
-798.42700000000002
 30
0.0
 11
-172.57579999999999
 21
-798.42700000000002
 31
0.0
  0
LINE
  5
16CAB
  8
01
 10
-204.07579999999999
 20
-763.37130000000002
 30
0.0
 11
-152.07579999999999
 21
-763.37130000000002
 31
0.0
  0
ARC
  5
16CAC
  8
01
 10
-178.07579999999999
 20
-807.37129999999991
 30
0.0
 40
10.5
 50
121.5880999999999
 51
324.1465
  0
LINE
  5
16CAD
  8
01
 10
-188.95740000000001
 20
-791.13909999999998
 30
0.0
 11
-201.1987
 21
-771.83199999999999
 31
0.0
  0
LINE
  5
16CAE
  8
01
 10
-193.07579999999999
 20
-769.37130000000002
 30
0.0
 11
-184.05940000000001
 21
-788.35320000000002
 31
0.0
  0
LINE
  5
16CAF
  8
01
 10
-188.32339999999999
 20
-792.13909999999987
 30
0.0
 11
-184.65299999999999
 21
-797.928
 31
0.0
  0
ARC
  5
16CB0
  8
01
 10
-187.90110000000001
 20
-791.87130000000002
 30
0.0
 40
0.5
 50
90.0
 51
212.3759
  0
ARC
  5
16CB1
  8
01
 10
-188.5351
 20
-790.87130000000002
 30
0.0
 40
0.5
 50
212.3759
 51
270.0
  0
LINE
  5
16CB2
  8
01
 10
-183.57579999999999
 20
-790.49850000000004
 30
0.0
 11
-183.57579999999999
 21
-798.42700000000002
 31
0.0
  0
ARC
  5
16CB3
  8
01
 10
-188.57579999999999
 20
-790.49850000000004
 30
0.0
 40
5.0
 50
0.0
 51
25.407699999999998
  0
LINE
  5
16CB4
  8
01
 10
-183.57579999999999
 20
-791.37130000000002
 30
0.0
 11
-188.5351
 21
-791.37130000000002
 31
0.0
  0
ARC
  5
16CB5
  8
01
 10
-188.8758
 20
-800.60540000000003
 30
0.0
 40
5.0
 50
20.668399999999998
 51
32.375900000000001
  0
LINE
  5
16CB6
  8
01
 10
-204.07579999999999
 20
-763.37130000000002
 30
0.0
 11
-204.07579999999999
 21
-763.87130000000002
 31
0.0
  0
LINE
  5
16CB7
  8
01
 10
-203.624
 20
-766.13019999999995
 30
0.0
 11
-204.07579999999999
 21
-763.87130000000002
 31
0.0
  0
ARC
  5
16CB8
  8
01
 10
-203.32980000000001
 20
-766.07129999999995
 30
0.0
 40
0.3
 50
191.3099
 51
270.0
  0
LINE
  5
16CB9
  8
01
 10
-200.9453
 20
-771.37130000000002
 30
0.0
 11
-200.57579999999999
 21
-771.37130000000002
 31
0.0
  0
ARC
  5
16CBA
  8
01
 10
-200.9453
 20
-771.67129999999986
 30
0.0
 40
0.3
 50
90.0
 51
212.3759
  0
LINE
  5
16CBB
  8
01
 10
-201.2157
 20
-771.37130000000002
 30
0.0
 11
-200.57579999999999
 21
-771.37130000000002
 31
0.0
  0
ARC
  5
16CBC
  8
01
 10
-201.2157
 20
-770.87130000000002
 30
0.0
 40
0.5
 50
212.3759
 51
270.0
  0
LINE
  5
16CBD
  8
01
 10
-201.63800000000001
 20
-771.13909999999987
 30
0.0
 11
-203.07579999999999
 21
-768.87130000000002
 31
0.0
  0
LINE
  5
16CBE
  8
01
 10
-203.07579999999999
 20
-768.87130000000002
 30
0.0
 11
-203.07579999999999
 21
-766.37130000000002
 31
0.0
  0
LINE
  5
16CBF
  8
01
 10
-193.07579999999999
 20
-769.37130000000002
 30
0.0
 11
-193.07579999999999
 21
-766.37130000000002
 31
0.0
  0
LINE
  5
16CC0
  8
01
 10
-193.07579999999999
 20
-768.57129999999995
 30
0.0
 11
-193.07579999999999
 21
-766.37130000000002
 31
0.0
  0
LINE
  5
16CC1
  8
01
 10
-201.2157
 20
-771.37130000000002
 30
0.0
 11
-192.1258
 21
-771.37130000000002
 31
0.0
  0
LINE
  5
16CC2
  8
01
 10
-167.1942
 20
-791.13909999999998
 30
0.0
 11
-154.9529
 21
-771.83199999999999
 31
0.0
  0
LINE
  5
16CC3
  8
01
 10
-163.07579999999999
 20
-769.37130000000002
 30
0.0
 11
-172.09219999999999
 21
-788.35320000000002
 31
0.0
  0
LINE
  5
16CC4
  8
01
 10
-167.82820000000001
 20
-792.13909999999987
 30
0.0
 11
-171.49860000000001
 21
-797.928
 31
0.0
  0
ARC
  5
16CC5
  8
01
 10
-168.25049999999999
 20
-791.87130000000002
 30
0.0
 40
0.5
 50
327.6241
 51
90.0
  0
ARC
  5
16CC6
  8
01
 10
-167.6164
 20
-790.87130000000002
 30
0.0
 40
0.5
 50
270.0
 51
327.6241
  0
ARC
  5
16CC7
  8
01
 10
-167.57579999999999
 20
-790.49850000000004
 30
0.0
 40
5.0
 50
154.59229999999999
 51
180.0
  0
LINE
  5
16CC8
  8
01
 10
-172.57579999999999
 20
-790.49850000000004
 30
0.0
 11
-172.57579999999999
 21
-798.42700000000002
 31
0.0
  0
LINE
  5
16CC9
  8
01
 10
-167.6164
 20
-791.37130000000002
 30
0.0
 11
-172.57579999999999
 21
-791.37130000000002
 31
0.0
  0
LINE
  5
16CCA
  8
01
 10
-169.56540000000001
 20
-801.22130000000004
 30
0.0
 11
-169.56540000000001
 21
-813.5213
 31
0.0
  0
ARC
  5
16CCB
  8
01
 10
-178.07579999999999
 20
-807.37129999999991
 30
0.0
 40
10.5
 50
35.853499999999997
 51
58.411900000000003
  0
ARC
  5
16CCC
  8
01
 10
-167.2758
 20
-800.60540000000003
 30
0.0
 40
5.0
 50
147.6241
 51
159.33160000000001
  0
ARC
  5
16CCD
  8
01
 10
-152.82169999999999
 20
-766.07129999999995
 30
0.0
 40
0.3
 50
270.0
 51
348.69009999999997
  0
LINE
  5
16CCE
  8
01
 10
-152.52760000000001
 20
-766.13019999999995
 30
0.0
 11
-152.07579999999999
 21
-763.87130000000002
 31
0.0
  0
LINE
  5
16CCF
  8
01
 10
-152.07579999999999
 20
-763.37130000000002
 30
0.0
 11
-152.07579999999999
 21
-763.87130000000002
 31
0.0
  0
LINE
  5
16CD0
  8
01
 10
-155.57579999999999
 20
-771.37130000000002
 30
0.0
 11
-155.2063
 21
-771.37130000000002
 31
0.0
  0
ARC
  5
16CD1
  8
01
 10
-155.2063
 20
-771.67129999999986
 30
0.0
 40
0.3
 50
327.6241
 51
90.0
  0
LINE
  5
16CD2
  8
01
 10
-153.07579999999999
 20
-768.87130000000002
 30
0.0
 11
-153.07579999999999
 21
-766.37130000000002
 31
0.0
  0
LINE
  5
16CD3
  8
01
 10
-154.5136
 20
-771.13909999999987
 30
0.0
 11
-153.07579999999999
 21
-768.87130000000002
 31
0.0
  0
ARC
  5
16CD4
  8
01
 10
-154.9359
 20
-770.87130000000002
 30
0.0
 40
0.5
 50
270.0
 51
327.6241
  0
LINE
  5
16CD5
  8
01
 10
-154.9359
 20
-771.37130000000002
 30
0.0
 11
-155.57579999999999
 21
-771.37130000000002
 31
0.0
  0
LINE
  5
16CD6
  8
01
 10
-163.07579999999999
 20
-769.37130000000002
 30
0.0
 11
-163.07579999999999
 21
-766.37130000000002
 31
0.0
  0
LINE
  5
16CD7
  8
01
 10
-164.0258
 20
-771.37130000000002
 30
0.0
 11
-154.9359
 21
-771.37130000000002
 31
0.0
  0
LINE
  5
16CD8
  8
01
 10
266.12419999999997
 20
-837.61860000000001
 30
0.0
 11
266.12419999999997
 21
-816.12399999999991
 31
0.0
  0
LINE
  5
16CD9
  8
01
 10
277.7242
 20
-837.61860000000001
 30
0.0
 11
277.7242
 21
-816.12399999999991
 31
0.0
  0
LINE
  5
16CDA
  8
01
 10
263.41379999999998
 20
-876.72129999999993
 30
0.0
 11
263.41379999999998
 21
-889.02130000000011
 31
0.0
  0
ARC
  5
16CDB
  8
01
 10
271.92419999999998
 20
-882.87130000000002
 30
0.0
 40
16.5
 50
9.4179999999999993
 51
158.6763
  0
ARC
  5
16CDC
  8
01
 10
271.92419999999998
 20
-882.87130000000002
 30
0.0
 40
17.0
 50
9.4179999999999993
 51
159.33269999999999
  0
ARC
  5
16CDD
  8
01
 10
271.92419999999998
 20
-882.87130000000002
 30
0.0
 40
15.0
 50
203.57820000000001
 51
156.42179999999999
  0
ARC
  5
16CDE
  8
01
 10
271.92419999999998
 20
-882.87130000000002
 30
0.0
 40
10.5
 50
215.8535
 51
144.1465
  0
ARC
  5
16CDF
  8
01
 10
271.92419999999998
 20
-846.37130000000002
 30
0.0
 40
10.5
 50
215.8535
 51
56.469499999999996
  0
LINE
  5
16CE0
  8
01
 10
263.41379999999998
 20
-840.22129999999993
 30
0.0
 11
263.41379999999998
 21
-852.5213
 31
0.0
  0
LINE
  5
16CE1
  8
01
 10
266.12419999999997
 20
-837.61860000000001
 30
0.0
 11
277.7242
 21
-837.61860000000001
 31
0.0
  0
ARC
  5
16CE2
  8
01
 10
271.92419999999998
 20
-846.37130000000002
 30
0.0
 40
10.5
 50
123.5305
 51
144.1465
  0
LINE
  5
16CE3
  8
1PHANTOM
 10
422.92419999999998
 20
-886.87129999999991
 30
0.0
 11
426.71179999999993
 21
-886.87129999999991
 31
0.0
  0
LINE
  5
16CE4
  8
1PHANTOM
 10
422.92419999999998
 20
-878.87129999999991
 30
0.0
 11
426.71179999999993
 21
-878.87129999999991
 31
0.0
  0
LINE
  5
16CE5
  8
01
 10
435.42419999999998
 20
-867.87130000000002
 30
0.0
 11
416.44229999999999
 21
-876.88769999999988
 31
0.0
  0
LINE
  5
16CE6
  8
1CENTER
 10
401.58789999999988
 20
-882.87130000000002
 30
0.0
 11
393.60660000000001
 21
-882.87130000000002
 31
0.0
  0
LINE
  5
16CE7
  8
01
 10
435.42419999999998
 20
-897.87130000000002
 30
0.0
 11
416.44229999999999
 21
-888.85490000000004
 31
0.0
  0
LINE
  5
16CE8
  8
1PHANTOM
 10
422.92419999999998
 20
-878.87129999999991
 30
0.0
 11
422.92419999999998
 21
-879.26300000000003
 31
0.0
  0
ARC
  5
16CE9
  8
1PHANTOM
 10
421.92419999999993
 20
-886.4796
 30
0.0
 40
1.0
 50
0.0
 51
109.9999
  0
ARC
  5
16CEA
  8
1PHANTOM
 10
421.92419999999993
 20
-879.26300000000003
 30
0.0
 40
1.0
 50
250.0001
 51
0.0
  0
LINE
  5
16CEB
  8
1PHANTOM
 10
417.42419999999993
 20
-882.87130000000002
 30
0.0
 11
417.42419999999993
 21
-878.87129999999991
 31
0.0
  0
LINE
  5
16CEC
  8
1PHANTOM
 10
417.42419999999993
 20
-886.87129999999991
 30
0.0
 11
417.92419999999998
 21
-886.87129999999991
 31
0.0
  0
LINE
  5
16CED
  8
1PHANTOM
 10
417.42419999999993
 20
-882.87130000000002
 30
0.0
 11
417.42419999999993
 21
-886.87129999999991
 31
0.0
  0
LINE
  5
16CEE
  8
1PHANTOM
 10
417.42419999999993
 20
-878.87129999999991
 30
0.0
 11
417.92419999999998
 21
-878.87129999999991
 31
0.0
  0
ARC
  5
16CEF
  8
01
 10
414.2971
 20
-872.37130000000002
 30
0.0
 40
5.0
 50
270.0
 51
295.40769999999998
  0
LINE
  5
16CF0
  8
01
 10
414.2971
 20
-877.37130000000002
 30
0.0
 11
406.36849999999993
 21
-877.37130000000002
 31
0.0
  0
LINE
  5
16CF1
  8
01
 10
414.2971
 20
-888.37130000000002
 30
0.0
 11
406.36849999999993
 21
-888.37130000000002
 31
0.0
  0
ARC
  5
16CF2
  8
01
 10
414.2971
 20
-893.37130000000002
 30
0.0
 40
5.0
 50
64.592299999999994
 51
90.0
  0
LINE
  5
16CF3
  8
1PHANTOM
 10
421.5822
 20
-885.53989999999999
 30
0.0
 11
417.92419999999998
 21
-886.87129999999991
 31
0.0
  0
LINE
  5
16CF4
  8
1PHANTOM
 10
421.5822
 20
-880.20270000000005
 30
0.0
 11
417.92419999999998
 21
-878.87129999999991
 31
0.0
  0
ARC
  5
16CF5
  8
01
 10
397.42419999999998
 20
-882.87130000000002
 30
0.0
 40
10.5
 50
31.588100000000001
 51
328.4119
  0
LINE
  5
16CF6
  8
1CENTER
 10
397.42419999999998
 20
-887.34220000000005
 30
0.0
 11
397.42419999999998
 21
-878.47080000000005
 31
0.0
  0
LINE
  5
16CF7
  8
1PHANTOM
 10
427.92419999999993
 20
-887.57129999999995
 30
0.0
 11
426.71179999999993
 21
-886.87129999999991
 31
0.0
  0
LINE
  5
16CF8
  8
1PHANTOM
 10
438.42419999999993
 20
-887.57129999999995
 30
0.0
 11
432.92419999999993
 21
-887.57129999999995
 31
0.0
  0
LINE
  5
16CF9
  8
1PHANTOM
 10
430.42419999999998
 20
-887.57129999999995
 30
0.0
 11
427.92419999999993
 21
-887.57129999999995
 31
0.0
  0
ARC
  5
16CFA
  8
1PHANTOM
 10
430.92419999999998
 20
-887.07129999999995
 30
0.0
 40
0.5
 50
90.0
 51
180.0
  0
ARC
  5
16CFB
  8
1PHANTOM
 10
432.42419999999993
 20
-887.07129999999995
 30
0.0
 40
0.5
 50
0.0
 51
90.0
  0
ARC
  5
16CFC
  8
01
 10
438.72419999999988
 20
-866.6173
 30
0.0
 40
0.3
 50
101.3099
 51
180.0
  0
LINE
  5
16CFD
  8
01
 10
440.92419999999993
 20
-865.87130000000002
 30
0.0
 11
438.66539999999998
 21
-866.32309999999995
 31
0.0
  0
LINE
  5
16CFE
  8
01
 10
441.42419999999993
 20
-865.87130000000002
 30
0.0
 11
440.92419999999993
 21
-865.87130000000002
 31
0.0
  0
LINE
  5
16CFF
  8
01
 10
440.92419999999993
 20
-865.87130000000002
 30
0.0
 11
441.42419999999993
 21
-865.87130000000002
 31
0.0
  0
LINE
  5
16D00
  8
1PHANTOM
 10
427.92419999999993
 20
-878.17129999999986
 30
0.0
 11
426.71179999999993
 21
-878.87129999999991
 31
0.0
  0
ARC
  5
16D01
  8
1PHANTOM
 10
430.92419999999998
 20
-878.67129999999997
 30
0.0
 40
0.5
 50
180.0
 51
270.0
  0
ARC
  5
16D02
  8
1PHANTOM
 10
432.42419999999993
 20
-878.67129999999997
 30
0.0
 40
0.5
 50
270.0
 51
0.0
  0
LINE
  5
16D03
  8
1PHANTOM
 10
430.42419999999998
 20
-878.17129999999986
 30
0.0
 11
427.92419999999993
 21
-878.17129999999986
 31
0.0
  0
LINE
  5
16D04
  8
1PHANTOM
 10
430.42419999999998
 20
-878.17129999999986
 30
0.0
 11
430.42419999999998
 21
-878.67129999999997
 31
0.0
  0
LINE
  5
16D05
  8
1PHANTOM
 10
432.92419999999993
 20
-887.57129999999995
 30
0.0
 11
432.92419999999993
 21
-887.07129999999995
 31
0.0
  0
LINE
  5
16D06
  8
1PHANTOM
 10
438.42419999999993
 20
-878.17129999999986
 30
0.0
 11
432.92419999999993
 21
-878.17129999999986
 31
0.0
  0
LINE
  5
16D08
  8
01
 10
435.42419999999998
 20
-867.87130000000002
 30
0.0
 11
438.42419999999993
 21
-867.87130000000002
 31
0.0
  0
LINE
  5
16D09
  8
01
 10
436.2242
 20
-897.87130000000002
 30
0.0
 11
438.42419999999993
 21
-897.87130000000002
 31
0.0
  0
LINE
  5
16D0A
  8
01
 10
435.42419999999998
 20
-897.87130000000002
 30
0.0
 11
438.42419999999993
 21
-897.87130000000002
 31
0.0
  0
LINE
  5
16D0B
  8
01
 10
261.04259999999999
 20
-791.13909999999998
 30
0.0
 11
248.8013
 21
-771.83199999999999
 31
0.0
  0
LINE
  5
16D0C
  8
01
 10
256.92419999999998
 20
-769.37130000000002
 30
0.0
 11
265.94060000000002
 21
-788.35320000000002
 31
0.0
  0
LINE
  5
16D0D
  8
01
 10
286.92419999999998
 20
-769.37130000000002
 30
0.0
 11
277.90780000000001
 21
-788.35320000000002
 31
0.0
  0
LINE
  5
16D0E
  8
01
 10
282.80579999999998
 20
-791.13909999999998
 30
0.0
 11
295.0471
 21
-771.83199999999999
 31
0.0
  0
LINE
  5
16D0F
  8
01
 10
277.42419999999998
 20
-791.37130000000002
 30
0.0
 11
282.3836
 21
-791.37130000000002
 31
0.0
  0
LINE
  5
16D10
  8
01
 10
266.42419999999998
 20
-789.37129999999991
 30
0.0
 11
277.42419999999998
 21
-789.37129999999991
 31
0.0
  0
LINE
  5
16D11
  8
01
 10
277.42419999999998
 20
-798.42700000000002
 30
0.0
 11
266.42419999999998
 21
-798.42700000000002
 31
0.0
  0
ARC
  5
16D12
  8
01
 10
261.4649
 20
-790.87130000000002
 30
0.0
 40
0.5
 50
212.3759
 51
270.0
  0
ARC
  5
16D13
  8
01
 10
282.3836
 20
-790.87130000000002
 30
0.0
 40
0.5
 50
270.0
 51
327.6241
  0
LINE
  5
16D14
  8
01
 10
261.4649
 20
-791.37130000000002
 30
0.0
 11
266.42419999999998
 21
-791.37130000000002
 31
0.0
  0
ARC
  5
16D15
  8
01
 10
282.42419999999998
 20
-790.49850000000004
 30
0.0
 40
5.0
 50
154.59229999999999
 51
180.0
  0
LINE
  5
16D16
  8
01
 10
277.42419999999998
 20
-790.49850000000004
 30
0.0
 11
277.42419999999998
 21
-798.42700000000002
 31
0.0
  0
LINE
  5
16D17
  8
01
 10
266.42419999999998
 20
-790.49850000000004
 30
0.0
 11
266.42419999999998
 21
-798.42700000000002
 31
0.0
  0
ARC
  5
16D18
  8
01
 10
261.42419999999998
 20
-790.49850000000004
 30
0.0
 40
5.0
 50
0.0
 51
25.407699999999998
  0
LINE
  5
16D19
  8
01
 10
282.17180000000002
 20
-792.13909999999987
 30
0.0
 11
278.50139999999999
 21
-797.928
 31
0.0
  0
LINE
  5
16D1A
  8
01
 10
261.67660000000001
 20
-792.13909999999987
 30
0.0
 11
265.34699999999998
 21
-797.928
 31
0.0
  0
ARC
  5
16D1B
  8
01
 10
262.09890000000001
 20
-791.87130000000002
 30
0.0
 40
0.5
 50
90.0
 51
212.3759
  0
ARC
  5
16D1C
  8
01
 10
281.74950000000001
 20
-791.87130000000002
 30
0.0
 40
0.5
 50
327.6241
 51
90.0
  0
LINE
  5
16D1D
  8
01
 10
263.41379999999998
 20
-801.22130000000004
 30
0.0
 11
263.41379999999998
 21
-813.5213
 31
0.0
  0
ARC
  5
16D1E
  8
01
 10
271.92419999999998
 20
-807.37129999999991
 30
0.0
 40
10.5
 50
215.8535
 51
58.411900000000003
  0
ARC
  5
16D1F
  8
01
 10
271.92419999999998
 20
-807.37129999999991
 30
0.0
 40
10.5
 50
121.5880999999999
 51
144.1465
  0
ARC
  5
16D20
  8
01
 10
282.7242
 20
-800.60540000000003
 30
0.0
 40
5.0
 50
147.6241
 51
159.33160000000001
  0
ARC
  5
16D21
  8
01
 10
261.12419999999997
 20
-800.60540000000003
 30
0.0
 40
5.0
 50
20.668399999999998
 51
32.375900000000001
  0
LINE
  5
16D22
  8
01
 10
245.92420000000001
 20
-763.37130000000002
 30
0.0
 11
297.92419999999998
 21
-763.37130000000002
 31
0.0
  0
LINE
  5
16D23
  8
01
 10
295.0641
 20
-771.37130000000002
 30
0.0
 11
285.9742
 21
-771.37130000000002
 31
0.0
  0
LINE
  5
16D24
  8
01
 10
296.92419999999998
 20
-766.37130000000002
 30
0.0
 11
246.67019999999999
 21
-766.37130000000002
 31
0.0
  0
ARC
  5
16D25
  8
01
 10
246.67019999999999
 20
-766.07129999999995
 30
0.0
 40
0.3
 50
191.3099
 51
270.0
  0
LINE
  5
16D26
  8
01
 10
245.92420000000001
 20
-763.37130000000002
 30
0.0
 11
245.92420000000001
 21
-763.87130000000002
 31
0.0
  0
LINE
  5
16D27
  8
01
 10
246.376
 20
-766.13019999999995
 30
0.0
 11
245.92420000000001
 21
-763.87130000000002
 31
0.0
  0
LINE
  5
16D28
  8
01
 10
257.87419999999997
 20
-771.37130000000002
 30
0.0
 11
248.7843
 21
-771.37130000000002
 31
0.0
  0
LINE
  5
16D29
  8
01
 10
256.92419999999998
 20
-769.37130000000002
 30
0.0
 11
286.92419999999998
 21
-769.37130000000002
 31
0.0
  0
LINE
  5
16D2A
  8
01
 10
248.7843
 20
-771.37130000000002
 30
0.0
 11
249.42420000000001
 21
-771.37130000000002
 31
0.0
  0
ARC
  5
16D2B
  8
01
 10
248.7843
 20
-770.87130000000002
 30
0.0
 40
0.5
 50
212.3759
 51
270.0
  0
LINE
  5
16D2C
  8
01
 10
248.36199999999999
 20
-771.13909999999987
 30
0.0
 11
246.92420000000001
 21
-768.87130000000002
 31
0.0
  0
LINE
  5
16D2D
  8
01
 10
246.92420000000001
 20
-768.87130000000002
 30
0.0
 11
246.92420000000001
 21
-766.37130000000002
 31
0.0
  0
ARC
  5
16D2E
  8
01
 10
249.0547
 20
-771.67129999999986
 30
0.0
 40
0.3
 50
90.0
 51
212.3759
  0
LINE
  5
16D2F
  8
01
 10
249.42420000000001
 20
-771.37130000000002
 30
0.0
 11
249.0547
 21
-771.37130000000002
 31
0.0
  0
LINE
  5
16D30
  8
01
 10
256.92419999999998
 20
-769.37130000000002
 30
0.0
 11
256.92419999999998
 21
-766.37130000000002
 31
0.0
  0
LINE
  5
16D31
  8
01
 10
286.92419999999998
 20
-768.57129999999995
 30
0.0
 11
286.92419999999998
 21
-766.37130000000002
 31
0.0
  0
LINE
  5
16D32
  8
01
 10
286.92419999999998
 20
-769.37130000000002
 30
0.0
 11
286.92419999999998
 21
-766.37130000000002
 31
0.0
  0
LINE
  5
16D33
  8
01
 10
296.92419999999998
 20
-768.87130000000002
 30
0.0
 11
296.92419999999998
 21
-766.37130000000002
 31
0.0
  0
LINE
  5
16D34
  8
01
 10
295.4864
 20
-771.13909999999987
 30
0.0
 11
296.92419999999998
 21
-768.87130000000002
 31
0.0
  0
ARC
  5
16D35
  8
01
 10
295.0641
 20
-770.87130000000002
 30
0.0
 40
0.5
 50
270.0
 51
327.6241
  0
LINE
  5
16D36
  8
01
 10
295.0641
 20
-771.37130000000002
 30
0.0
 11
294.42419999999998
 21
-771.37130000000002
 31
0.0
  0
ARC
  5
16D37
  8
01
 10
294.7937
 20
-771.67129999999986
 30
0.0
 40
0.3
 50
327.6241
 51
90.0
  0
LINE
  5
16D38
  8
01
 10
294.7937
 20
-771.37130000000002
 30
0.0
 11
294.42419999999998
 21
-771.37130000000002
 31
0.0
  0
LINE
  5
16D39
  8
01
 10
297.92419999999998
 20
-763.37130000000002
 30
0.0
 11
297.92419999999998
 21
-763.87130000000002
 31
0.0
  0
LINE
  5
16D3A
  8
01
 10
297.47239999999999
 20
-766.13019999999995
 30
0.0
 11
297.92419999999998
 21
-763.87130000000002
 31
0.0
  0
ARC
  5
16D3B
  8
01
 10
297.17829999999998
 20
-766.07129999999995
 30
0.0
 40
0.3
 50
270.0
 51
348.69009999999997
  0
TEXT
  5
16D3D
  8
1TEXT
 10
130.99086666666659
 20
-763.37180000000001
 30
0.0
 40
4.0
  1
クローム
 72
     1
 11
140.32419999999999
 21
-763.37180000000001
 31
0.0
  0
TEXT
  5
16D3E
  8
1TEXT
 10
160.6575333333333
 20
-763.37180000000001
 30
0.0
 40
4.0
  1
SA022XC0
 72
     1
 11
175.32419999999999
 21
-763.37180000000001
 31
0.0
  0
TEXT
  5
16D45
  8
1TEXT
 10
129.6765809523809
 20
-756.37180000000001
 30
0.0
 40
4.0
  1
表面処理：
 72
     1
 11
140.32419999999999
 21
-756.37180000000001
 31
0.0
  0
TEXT
  5
16D46
  8
1TEXT
 10
168.52420000000001
 20
-756.37180000000001
 30
0.0
 40
4.0
  1
コード
 72
     1
 11
175.32419999999999
 21
-756.37180000000001
 31
0.0
  0
LINE
  5
16D47
  8
01
 10
438.42419999999993
 20
-866.6173
 30
0.0
 11
438.42419999999993
 21
-963.12540000000001
 31
0.0
  0
LINE
  5
16D48
  8
01
 10
435.42419999999998
 20
-867.87130000000002
 30
0.0
 11
435.42419999999998
 21
-897.87130000000002
 31
0.0
  0
LINE
  5
16D49
  8
01
 10
406.36849999999993
 20
-877.37130000000002
 30
0.0
 11
406.36849999999993
 21
-888.37130000000002
 31
0.0
  0
LINE
  5
16D4A
  8
01
 10
367.17689999999999
 20
-932.07129999999995
 30
0.0
 11
367.17689999999999
 21
-943.67129999999986
 31
0.0
  0
ARC
  5
16D4B
  8
01
 10
413.90260000000001
 20
-927.41199999999992
 30
0.0
 40
0.5
 50
110.02849999999999
 51
180.0
  0
ARC
  5
16D4C
  8
01
 10
413.90260000000001
 20
-948.33069999999987
 30
0.0
 40
0.5
 50
180.0
 51
249.97149999999999
  0
LINE
  5
16D4D
  8
01
 10
413.40260000000001
 20
-927.41199999999992
 30
0.0
 11
413.40260000000001
 21
-948.33069999999987
 31
0.0
  0
ARC
  5
16D4E
  8
01
 10
412.90260000000001
 20
-928.04600000000005
 30
0.0
 40
0.5
 50
0.0
 51
134.72309999999999
  0
ARC
  5
16D4F
  8
01
 10
412.90260000000001
 20
-947.69659999999999
 30
0.0
 40
0.5
 50
225.27690000000001
 51
0.0
  0
LINE
  5
16D50
  8
01
 10
433.40260000000001
 20
-960.37130000000002
 30
0.0
 11
433.40260000000001
 21
-914.73139999999989
 31
0.0
  0
LINE
  5
16D51
  8
01
 10
433.40260000000001
 20
-914.73139999999989
 30
0.0
 11
433.40260000000001
 21
-915.37129999999991
 31
0.0
  0
ARC
  5
16D52
  8
01
 10
433.90260000000001
 20
-914.73139999999989
 30
0.0
 40
0.5
 50
110.02849999999999
 51
180.0
  0
ARC
  5
16D53
  8
01
 10
433.1026
 20
-915.00180000000012
 30
0.0
 40
0.3
 50
0.0
 51
138.33699999999999
  0
LINE
  5
16D54
  8
01
 10
433.40260000000001
 20
-915.37129999999991
 30
0.0
 11
433.40260000000001
 21
-915.00180000000012
 31
0.0
  0
ARC
  5
16D55
  8
01
 10
433.90260000000001
 20
-961.01120000000003
 30
0.0
 40
0.5
 50
180.0
 51
249.97149999999999
  0
LINE
  5
16D56
  8
01
 10
433.40260000000001
 20
-961.01120000000003
 30
0.0
 11
433.40260000000001
 21
-960.37130000000002
 31
0.0
  0
ARC
  5
16D57
  8
01
 10
433.1026
 20
-960.74080000000015
 30
0.0
 40
0.3
 50
221.66300000000001
 51
0.0
  0
LINE
  5
16D58
  8
01
 10
433.40260000000001
 20
-960.74080000000015
 30
0.0
 11
433.40260000000001
 21
-960.37130000000002
 31
0.0
  0
LINE
  5
16D59
  8
01
 10
433.73140000000001
 20
-914.26160000000004
 30
0.0
 11
435.92419999999998
 21
-912.87130000000013
 31
0.0
  0
LINE
  5
16D5A
  8
01
 10
413.73139999999989
 20
-926.94219999999996
 30
0.0
 11
432.87849999999992
 21
-914.80240000000015
 31
0.0
  0
LINE
  5
16D5B
  8
01
 10
433.73140000000001
 20
-961.48100000000022
 30
0.0
 11
435.92419999999998
 21
-962.87130000000013
 31
0.0
  0
LINE
  5
16D5C
  8
01
 10
413.73139999999989
 20
-948.80039999999997
 30
0.0
 11
432.87849999999992
 21
-960.94020000000012
 31
0.0
  0
LINE
  5
16D5D
  8
1PHANTOM
 10
422.92419999999998
 20
-886.4796
 30
0.0
 11
422.92419999999998
 21
-886.87129999999991
 31
0.0
  0
LINE
  5
16D5E
  8
1PHANTOM
 10
432.92419999999993
 20
-878.67129999999997
 30
0.0
 11
432.92419999999993
 21
-878.17129999999986
 31
0.0
  0
LINE
  5
16D5F
  8
1PHANTOM
 10
430.42419999999998
 20
-887.07129999999995
 30
0.0
 11
430.42419999999998
 21
-887.57129999999995
 31
0.0
  0
LINE
  5
16D60
  8
1PHANTOM
 10
427.02420000000001
 20
-934.12129999999991
 30
0.0
 11
427.02420000000001
 21
-933.87130000000002
 31
0.0
  0
LINE
  5
16D61
  8
1PHANTOM
 10
424.02420000000001
 20
-941.17129999999997
 30
0.0
 11
424.02420000000001
 21
-941.62130000000002
 31
0.0
  0
LINE
  5
16D62
  8
1PHANTOM
 10
432.42419999999993
 20
-879.17129999999986
 30
0.0
 11
430.92419999999998
 21
-879.17129999999986
 31
0.0
  0
LINE
  5
16D63
  8
1PHANTOM
 10
432.42419999999993
 20
-886.57129999999995
 30
0.0
 11
430.92419999999998
 21
-886.57129999999995
 31
0.0
  0
LINE
  5
16D64
  8
1CENTER
 10
275.56299999999999
 20
-873.37129999999991
 30
0.0
 11
267.87389999999999
 21
-873.37129999999991
 31
0.0
  0
LINE
  5
16D65
  8
1CENTER
 10
276.70620000000002
 20
-948.37129999999991
 30
0.0
 11
267.07549999999998
 21
-948.37129999999991
 31
0.0
  0
LINE
  5
16D66
  8
1CENTER
 10
271.92419999999998
 20
-943.64629999999988
 30
0.0
 11
271.92419999999998
 21
-953.76409999999998
 31
0.0
  0
LINE
  5
16D67
  8
1CENTER
 10
-174.6711
 20
-873.37129999999991
 30
0.0
 11
-181.68860000000001
 21
-873.37129999999991
 31
0.0
  0
LINE
  5
16D68
  8
1CENTER
 10
-172.7593
 20
-948.37129999999991
 30
0.0
 11
-183.7595
 21
-948.37129999999991
 31
0.0
  0
LINE
  5
16D69
  8
1CENTER
 10
-178.07579999999999
 20
-943.34749999999985
 30
0.0
 11
-178.07579999999999
 21
-953.17999999999995
 31
0.0
  0
CIRCLE
  5
16D6B
  8
1PHANTOM
 10
271.92419999999998
 20
-882.87130000000002
 30
0.0
 40
4.7000000000000002
  0
CIRCLE
  5
16D6C
  8
1PHANTOM
 10
271.92419999999998
 20
-937.87130000000013
 30
0.0
 40
3.9500000000000002
  0
CIRCLE
  5
16D6E
  8
1PHANTOM
 10
-178.07579999999999
 20
-882.87130000000002
 30
0.0
 40
4.7000000000000002
  0
CIRCLE
  5
16D6F
  8
1PHANTOM
 10
-178.07579999999999
 20
-937.87130000000013
 30
0.0
 40
3.9500000000000002
  0
LINE
  5
16D70
  8
1PHANTOM
 10
275.92419999999998
 20
-781.87130000000002
 30
0.0
 11
275.92419999999998
 21
-778.0838
 31
0.0
  0
LINE
  5
16D71
  8
1PHANTOM
 10
267.92419999999998
 20
-781.87130000000002
 30
0.0
 11
267.92419999999998
 21
-778.0838
 31
0.0
  0
LINE
  5
16D72
  8
1PHANTOM
 10
267.92419999999998
 20
-781.87130000000002
 30
0.0
 11
268.3159
 21
-781.87130000000002
 31
0.0
  0
ARC
  5
16D73
  8
1PHANTOM
 10
275.53250000000003
 20
-782.87130000000002
 30
0.0
 40
1.0
 50
90.0
 51
199.9999
  0
ARC
  5
16D74
  8
1PHANTOM
 10
268.3159
 20
-782.87130000000002
 30
0.0
 40
1.0
 50
340.00009999999997
 51
90.0
  0
LINE
  5
16D75
  8
1PHANTOM
 10
271.92419999999998
 20
-787.37130000000002
 30
0.0
 11
267.92419999999998
 21
-787.37130000000002
 31
0.0
  0
LINE
  5
16D76
  8
1PHANTOM
 10
275.92419999999998
 20
-787.37130000000002
 30
0.0
 11
275.92419999999998
 21
-786.87130000000002
 31
0.0
  0
LINE
  5
16D77
  8
1PHANTOM
 10
271.92419999999998
 20
-787.37130000000002
 30
0.0
 11
275.92419999999998
 21
-787.37130000000002
 31
0.0
  0
LINE
  5
16D78
  8
1PHANTOM
 10
267.92419999999998
 20
-787.37130000000002
 30
0.0
 11
267.92419999999998
 21
-786.87130000000002
 31
0.0
  0
LINE
  5
16D79
  8
1PHANTOM
 10
274.59280000000001
 20
-783.21329999999989
 30
0.0
 11
275.92419999999998
 21
-786.87130000000002
 31
0.0
  0
LINE
  5
16D7A
  8
1PHANTOM
 10
269.25560000000002
 20
-783.21329999999989
 30
0.0
 11
267.92419999999998
 21
-786.87130000000002
 31
0.0
  0
LINE
  5
16D7B
  8
1PHANTOM
 10
276.62419999999997
 20
-776.87129999999991
 30
0.0
 11
275.92419999999998
 21
-778.0838
 31
0.0
  0
LINE
  5
16D7C
  8
1PHANTOM
 10
276.62419999999997
 20
-766.37130000000002
 30
0.0
 11
276.62419999999997
 21
-771.87130000000002
 31
0.0
  0
LINE
  5
16D7D
  8
1PHANTOM
 10
276.62419999999997
 20
-774.37130000000002
 30
0.0
 11
276.62419999999997
 21
-776.87129999999991
 31
0.0
  0
ARC
  5
16D7E
  8
1PHANTOM
 10
276.12419999999997
 20
-773.87130000000002
 30
0.0
 40
0.5
 50
180.0
 51
270.0
  0
ARC
  5
16D7F
  8
1PHANTOM
 10
276.12419999999997
 20
-772.37130000000002
 30
0.0
 40
0.5
 50
90.0
 51
180.0
  0
LINE
  5
16D80
  8
1PHANTOM
 10
267.2242
 20
-776.87129999999991
 30
0.0
 11
267.92419999999998
 21
-778.0838
 31
0.0
  0
ARC
  5
16D81
  8
1PHANTOM
 10
267.7242
 20
-773.87130000000002
 30
0.0
 40
0.5
 50
270.0
 51
0.0
  0
ARC
  5
16D82
  8
1PHANTOM
 10
267.7242
 20
-772.37130000000002
 30
0.0
 40
0.5
 50
0.0
 51
90.0
  0
LINE
  5
16D83
  8
1PHANTOM
 10
267.2242
 20
-774.37130000000002
 30
0.0
 11
267.2242
 21
-776.87129999999991
 31
0.0
  0
LINE
  5
16D84
  8
1PHANTOM
 10
267.2242
 20
-774.37130000000002
 30
0.0
 11
267.7242
 21
-774.37130000000002
 31
0.0
  0
LINE
  5
16D85
  8
1PHANTOM
 10
276.62419999999997
 20
-771.87130000000002
 30
0.0
 11
276.12419999999997
 21
-771.87130000000002
 31
0.0
  0
LINE
  5
16D86
  8
1PHANTOM
 10
267.2242
 20
-766.37130000000002
 30
0.0
 11
267.2242
 21
-771.87130000000002
 31
0.0
  0
LINE
  5
16D87
  8
1PHANTOM
 10
275.53250000000003
 20
-781.87130000000002
 30
0.0
 11
275.92419999999998
 21
-781.87130000000002
 31
0.0
  0
LINE
  5
16D88
  8
1PHANTOM
 10
267.7242
 20
-771.87130000000002
 30
0.0
 11
267.2242
 21
-771.87130000000002
 31
0.0
  0
LINE
  5
16D89
  8
1PHANTOM
 10
276.12419999999997
 20
-774.37130000000002
 30
0.0
 11
276.62419999999997
 21
-774.37130000000002
 31
0.0
  0
LINE
  5
16D8A
  8
1PHANTOM
 10
268.2242
 20
-772.37130000000002
 30
0.0
 11
268.2242
 21
-773.87130000000002
 31
0.0
  0
LINE
  5
16D8B
  8
1PHANTOM
 10
275.62419999999997
 20
-772.37130000000002
 30
0.0
 11
275.62419999999997
 21
-773.87130000000002
 31
0.0
  0
LINE
  5
16D8E
  8
1PHANTOM
 10
-174.07579999999999
 20
-781.87130000000002
 30
0.0
 11
-174.07579999999999
 21
-778.0838
 31
0.0
  0
LINE
  5
16D8F
  8
1PHANTOM
 10
-182.07579999999999
 20
-781.87130000000002
 30
0.0
 11
-182.07579999999999
 21
-778.0838
 31
0.0
  0
LINE
  5
16D90
  8
1PHANTOM
 10
-182.07579999999999
 20
-781.87130000000002
 30
0.0
 11
-181.6841
 21
-781.87130000000002
 31
0.0
  0
ARC
  5
16D91
  8
1PHANTOM
 10
-174.4675
 20
-782.87130000000002
 30
0.0
 40
1.0
 50
90.0
 51
199.9999
  0
ARC
  5
16D92
  8
1PHANTOM
 10
-181.6841
 20
-782.87130000000002
 30
0.0
 40
1.0
 50
340.00009999999997
 51
90.0
  0
LINE
  5
16D93
  8
1PHANTOM
 10
-178.07579999999999
 20
-787.37130000000002
 30
0.0
 11
-182.07579999999999
 21
-787.37130000000002
 31
0.0
  0
LINE
  5
16D94
  8
1PHANTOM
 10
-174.07579999999999
 20
-787.37130000000002
 30
0.0
 11
-174.07579999999999
 21
-786.87130000000002
 31
0.0
  0
LINE
  5
16D95
  8
1PHANTOM
 10
-178.07579999999999
 20
-787.37130000000002
 30
0.0
 11
-174.07579999999999
 21
-787.37130000000002
 31
0.0
  0
LINE
  5
16D96
  8
1PHANTOM
 10
-182.07579999999999
 20
-787.37130000000002
 30
0.0
 11
-182.07579999999999
 21
-786.87130000000002
 31
0.0
  0
LINE
  5
16D97
  8
1PHANTOM
 10
-175.40719999999999
 20
-783.21329999999989
 30
0.0
 11
-174.07579999999999
 21
-786.87130000000002
 31
0.0
  0
LINE
  5
16D98
  8
1PHANTOM
 10
-180.74440000000001
 20
-783.21329999999989
 30
0.0
 11
-182.07579999999999
 21
-786.87130000000002
 31
0.0
  0
LINE
  5
16D99
  8
1PHANTOM
 10
-173.3758
 20
-776.87129999999991
 30
0.0
 11
-174.07579999999999
 21
-778.0838
 31
0.0
  0
LINE
  5
16D9A
  8
1PHANTOM
 10
-173.3758
 20
-766.37130000000002
 30
0.0
 11
-173.3758
 21
-771.87130000000002
 31
0.0
  0
LINE
  5
16D9B
  8
1PHANTOM
 10
-173.3758
 20
-774.37130000000002
 30
0.0
 11
-173.3758
 21
-776.87129999999991
 31
0.0
  0
ARC
  5
16D9C
  8
1PHANTOM
 10
-173.8758
 20
-773.87130000000002
 30
0.0
 40
0.5
 50
180.0
 51
270.0
  0
ARC
  5
16D9D
  8
1PHANTOM
 10
-173.8758
 20
-772.37130000000002
 30
0.0
 40
0.5
 50
90.0
 51
180.0
  0
LINE
  5
16D9E
  8
1PHANTOM
 10
-182.7758
 20
-776.87129999999991
 30
0.0
 11
-182.07579999999999
 21
-778.0838
 31
0.0
  0
ARC
  5
16D9F
  8
1PHANTOM
 10
-182.2758
 20
-773.87130000000002
 30
0.0
 40
0.5
 50
270.0
 51
0.0
  0
ARC
  5
16DA0
  8
1PHANTOM
 10
-182.2758
 20
-772.37130000000002
 30
0.0
 40
0.5
 50
0.0
 51
90.0
  0
LINE
  5
16DA1
  8
1PHANTOM
 10
-182.7758
 20
-774.37130000000002
 30
0.0
 11
-182.7758
 21
-776.87129999999991
 31
0.0
  0
LINE
  5
16DA2
  8
1PHANTOM
 10
-182.7758
 20
-774.37130000000002
 30
0.0
 11
-182.2758
 21
-774.37130000000002
 31
0.0
  0
LINE
  5
16DA3
  8
1PHANTOM
 10
-173.3758
 20
-771.87130000000002
 30
0.0
 11
-173.8758
 21
-771.87130000000002
 31
0.0
  0
LINE
  5
16DA4
  8
1PHANTOM
 10
-182.7758
 20
-766.37130000000002
 30
0.0
 11
-182.7758
 21
-771.87130000000002
 31
0.0
  0
LINE
  5
16DA5
  8
1PHANTOM
 10
-174.4675
 20
-781.87130000000002
 30
0.0
 11
-174.07579999999999
 21
-781.87130000000002
 31
0.0
  0
LINE
  5
16DA6
  8
1PHANTOM
 10
-182.2758
 20
-771.87130000000002
 30
0.0
 11
-182.7758
 21
-771.87130000000002
 31
0.0
  0
LINE
  5
16DA7
  8
1PHANTOM
 10
-173.8758
 20
-774.37130000000002
 30
0.0
 11
-173.3758
 21
-774.37130000000002
 31
0.0
  0
LINE
  5
16DA8
  8
1PHANTOM
 10
-181.7758
 20
-772.37130000000002
 30
0.0
 11
-181.7758
 21
-773.87130000000002
 31
0.0
  0
LINE
  5
16DA9
  8
1PHANTOM
 10
-174.3758
 20
-772.37130000000002
 30
0.0
 11
-174.3758
 21
-773.87130000000002
 31
0.0
  0
LINE
  5
171D9
  8
1DIM
 10
207.71979999999999
 20
-795.58100000000002
 30
0.0
 11
244.30770000000001
 21
-795.58100000000002
 31
0.0
  0
CIRCLE
  5
17336
  8
1PHANTOM
 10
397.42419999999998
 20
-882.87130000000002
 30
0.0
 40
6.0
  0
CIRCLE
  5
17337
  8
1PHANTOM
 10
358.42419999999998
 20
-937.87130000000013
 30
0.0
 40
6.0
  0
LINE
  5
173A5
  8
01
 10
435.92419999999998
 20
-912.87130000000013
 30
0.0
 11
435.92419999999998
 21
-962.87130000000013
 31
0.0
  0
LINE
  5
173A6
  8
01
 10
246.92420000000001
 20
-768.87130000000002
 30
0.0
 11
256.92419999999998
 21
-768.87130000000002
 31
0.0
  0
LINE
  5
173A7
  8
01
 10
286.92419999999998
 20
-768.87130000000002
 30
0.0
 11
296.92419999999998
 21
-768.87130000000002
 31
0.0
  0
LINE
  5
173A8
  8
01
 10
-203.07579999999999
 20
-768.87130000000002
 30
0.0
 11
-193.07579999999999
 21
-768.87130000000002
 31
0.0
  0
LINE
  5
173A9
  8
01
 10
-163.07579999999999
 20
-768.87130000000002
 30
0.0
 11
-153.07579999999999
 21
-768.87130000000002
 31
0.0
  0
LINE
  5
1747C
  8
01
 10
405.31729999999999
 20
-932.07129999999995
 30
0.0
 11
405.31729999999999
 21
-943.67129999999986
 31
0.0
  0
LINE
  5
17487
  8
01
 10
415.42419999999993
 20
-877.37130000000002
 30
0.0
 11
415.42419999999993
 21
-888.37130000000002
 31
0.0
  0
TEXT
  5
175D0
  8
1DIM
 10
192.83170000000001
 20
-914.86909999999989
 30
0.0
 40
3.5
  1
材質：亜鉛ダイキャスト
  0
TEXT
  5
175D1
  8
1DIM
 10
204.96510000000001
 20
-920.70240000000001
 30
0.0
 40
3.5
  1
仕上げ：クローム
  0
SOLID
  5
175D2
  8
1DIM
 10
249.15020000000001
 20
-909.03510000000006
 30
0.0
 11
250.6309
 21
-907.64999999999986
 31
0.0
 12
249.67949999999999
 22
-909.44050000000004
 32
0.0
 13
249.67949999999999
 23
-909.44050000000004
 33
0.0
  0
TEXT
  5
175D4
  8
1DIM
 10
216.04480000000001
 20
-824.34550000000002
 30
0.0
 40
3.5
  1
材質：ステンレス
  0
TEXT
  5
175D5
  8
1DIM
 10
216.04480000000001
 20
-830.17880000000002
 30
0.0
 40
3.5
  1
仕上げ：鏡面研磨
  0
SOLID
  5
175D6
  8
1DIM
 10
205.2422
 20
-839.21659999999986
 30
0.0
 11
203.57550000000001
 21
-840.37129999999991
 31
0.0
 12
204.77760000000001
 22
-838.73850000000004
 32
0.0
 13
204.77760000000001
 23
-838.73850000000004
 33
0.0
  0
LINE
  5
175D8
  8
1DIM
 10
397.42419999999998
 20
-878.47080000000005
 30
0.0
 11
397.42419999999998
 21
-854.87130000000013
 31
0.0
  0
LINE
  5
175D9
  8
1DIM
 10
441.42419999999993
 20
-865.87130000000002
 30
0.0
 11
441.42419999999993
 21
-854.87130000000013
 31
0.0
  0
LINE
  5
175DA
  8
1DIM
 10
399.42419999999998
 20
-855.87130000000002
 30
0.0
 11
439.42419999999998
 21
-855.87130000000002
 31
0.0
  0
LINE
  5
175DF
  8
1CENTER
 10
-178.07579999999999
 20
-733.41039999999987
 30
0.0
 11
-178.07579999999999
 21
-770.04160000000002
 31
0.0
  0
LINE
  5
175E0
  8
0
 10
-179.17009999999999
 20
-738.47130000000004
 30
0.0
 11
-177.20779999999999
 21
-737.67129999999986
 31
0.0
  0
LINE
  5
175E1
  8
0
 10
-177.20779999999999
 20
-737.67129999999986
 30
0.0
 11
-177.7961
 21
-737.35950000000003
 31
0.0
  0
LINE
  5
175E2
  8
0
 10
-180.07570000000001
 20
-760.87130000000002
 30
0.0
 11
-176.07570000000001
 21
-760.07129999999995
 31
0.0
  0
LINE
  5
175E3
  8
0
 10
-180.07570000000001
 20
-749.67129999999986
 30
0.0
 11
-176.07570000000001
 21
-748.87130000000002
 31
0.0
  0
LINE
  5
175E4
  8
0
 10
-180.07570000000001
 20
-746.47130000000004
 30
0.0
 11
-176.07570000000001
 21
-745.67129999999986
 31
0.0
  0
LINE
  5
175E5
  8
0
 10
-176.07570000000001
 20
-745.67129999999986
 30
0.0
 11
-176.57570000000001
 21
-745.57129999999995
 31
0.0
  0
LINE
  5
175E6
  8
0
 10
-179.57570000000001
 20
-744.97130000000004
 30
0.0
 11
-180.07570000000001
 21
-744.87130000000002
 31
0.0
  0
LINE
  5
175E7
  8
0
 10
-176.07570000000001
 20
-748.87130000000002
 30
0.0
 11
-176.57570000000001
 21
-748.7713
 31
0.0
  0
LINE
  5
175E8
  8
0
 10
-176.07570000000001
 20
-747.27129999999988
 30
0.0
 11
-176.57570000000001
 21
-747.17129999999997
 31
0.0
  0
LINE
  5
175E9
  8
0
 10
-179.57570000000001
 20
-746.57129999999995
 30
0.0
 11
-180.07570000000001
 21
-746.47130000000004
 31
0.0
  0
LINE
  5
175EA
  8
0
 10
-179.57570000000001
 20
-748.17129999999997
 30
0.0
 11
-180.07570000000001
 21
-748.07129999999995
 31
0.0
  0
LINE
  5
175EB
  8
0
 10
-180.07570000000001
 20
-748.07129999999995
 30
0.0
 11
-176.07570000000001
 21
-747.27129999999988
 31
0.0
  0
LINE
  5
175EC
  8
0
 10
-176.755
 20
-739.2713
 30
0.0
 11
-177.30670000000001
 21
-739.08860000000004
 31
0.0
  0
LINE
  5
175ED
  8
0
 10
-176.07570000000001
 20
-742.47130000000004
 30
0.0
 11
-176.57570000000001
 21
-742.37130000000002
 31
0.0
  0
LINE
  5
175EE
  8
0
 10
-176.07570000000001
 20
-744.07129999999995
 30
0.0
 11
-176.57570000000001
 21
-743.97130000000004
 31
0.0
  0
LINE
  5
175EF
  8
0
 10
-176.3021
 20
-740.87130000000002
 30
0.0
 11
-176.83869999999999
 21
-740.74210000000005
 31
0.0
  0
LINE
  5
175F0
  8
0
 10
-179.15479999999999
 20
-740.18409999999994
 30
0.0
 11
-179.62289999999999
 21
-740.07129999999995
 31
0.0
  0
LINE
  5
175F1
  8
0
 10
-179.57570000000001
 20
-743.37130000000002
 30
0.0
 11
-180.07570000000001
 21
-743.27129999999988
 31
0.0
  0
LINE
  5
175F2
  8
0
 10
-179.57570000000001
 20
-741.7713
 30
0.0
 11
-180.07570000000001
 21
-741.67129999999986
 31
0.0
  0
LINE
  5
175F3
  8
0
 10
-178.71289999999999
 20
-738.6226999999999
 30
0.0
 11
-179.17009999999999
 21
-738.47130000000004
 31
0.0
  0
LINE
  5
175F4
  8
0
 10
-179.62289999999999
 20
-740.07129999999995
 30
0.0
 11
-176.755
 21
-739.2713
 31
0.0
  0
LINE
  5
175F5
  8
0
 10
-180.07570000000001
 20
-743.27129999999988
 30
0.0
 11
-176.07570000000001
 21
-742.47130000000004
 31
0.0
  0
LINE
  5
175F6
  8
0
 10
-180.07570000000001
 20
-741.67129999999986
 30
0.0
 11
-176.3021
 21
-740.87130000000002
 31
0.0
  0
LINE
  5
175F7
  8
0
 10
-180.07570000000001
 20
-744.87130000000002
 30
0.0
 11
-176.07570000000001
 21
-744.07129999999995
 31
0.0
  0
LINE
  5
175F8
  8
0
 10
-180.07570000000001
 20
-757.67129999999986
 30
0.0
 11
-176.07570000000001
 21
-756.87130000000002
 31
0.0
  0
LINE
  5
175F9
  8
0
 10
-176.07570000000001
 20
-756.87130000000002
 30
0.0
 11
-176.57570000000001
 21
-756.7713
 31
0.0
  0
LINE
  5
175FA
  8
0
 10
-179.57570000000001
 20
-756.17129999999997
 30
0.0
 11
-180.07570000000001
 21
-756.07129999999995
 31
0.0
  0
LINE
  5
175FB
  8
0
 10
-176.07570000000001
 20
-758.47130000000004
 30
0.0
 11
-176.57570000000001
 21
-758.37130000000002
 31
0.0
  0
LINE
  5
175FC
  8
0
 10
-176.07570000000001
 20
-760.07129999999995
 30
0.0
 11
-176.57570000000001
 21
-759.97130000000004
 31
0.0
  0
LINE
  5
175FD
  8
0
 10
-179.57570000000001
 20
-757.7713
 30
0.0
 11
-180.07570000000001
 21
-757.67129999999986
 31
0.0
  0
LINE
  5
175FE
  8
0
 10
-179.57570000000001
 20
-759.37130000000002
 30
0.0
 11
-180.07570000000001
 21
-759.27129999999988
 31
0.0
  0
LINE
  5
175FF
  8
0
 10
-180.07570000000001
 20
-759.27129999999988
 30
0.0
 11
-176.07570000000001
 21
-758.47130000000004
 31
0.0
  0
LINE
  5
17600
  8
0
 10
-176.07570000000001
 20
-752.07129999999995
 30
0.0
 11
-176.57570000000001
 21
-751.97130000000004
 31
0.0
  0
LINE
  5
17601
  8
0
 10
-176.07570000000001
 20
-750.47130000000004
 30
0.0
 11
-176.57570000000001
 21
-750.37130000000002
 31
0.0
  0
LINE
  5
17602
  8
0
 10
-176.07570000000001
 20
-755.27129999999988
 30
0.0
 11
-176.57570000000001
 21
-755.17129999999986
 31
0.0
  0
LINE
  5
17603
  8
0
 10
-176.07570000000001
 20
-753.67129999999986
 30
0.0
 11
-176.57570000000001
 21
-753.57129999999995
 31
0.0
  0
LINE
  5
17604
  8
0
 10
-179.57570000000001
 20
-749.7713
 30
0.0
 11
-180.07570000000001
 21
-749.67129999999986
 31
0.0
  0
LINE
  5
17605
  8
0
 10
-179.57570000000001
 20
-751.37130000000002
 30
0.0
 11
-180.07570000000001
 21
-751.27129999999988
 31
0.0
  0
LINE
  5
17606
  8
0
 10
-179.57570000000001
 20
-754.57129999999995
 30
0.0
 11
-180.07570000000001
 21
-754.47130000000004
 31
0.0
  0
LINE
  5
17607
  8
0
 10
-179.57570000000001
 20
-752.97130000000004
 30
0.0
 11
-180.07570000000001
 21
-752.87130000000002
 31
0.0
  0
LINE
  5
17608
  8
0
 10
-180.07570000000001
 20
-752.87130000000002
 30
0.0
 11
-176.07570000000001
 21
-752.07129999999995
 31
0.0
  0
LINE
  5
17609
  8
0
 10
-180.07570000000001
 20
-751.27129999999988
 30
0.0
 11
-176.07570000000001
 21
-750.47130000000004
 31
0.0
  0
LINE
  5
1760A
  8
0
 10
-180.07570000000001
 20
-754.47130000000004
 30
0.0
 11
-176.07570000000001
 21
-753.67129999999986
 31
0.0
  0
LINE
  5
1760B
  8
0
 10
-180.07570000000001
 20
-756.07129999999995
 30
0.0
 11
-176.07570000000001
 21
-755.27129999999988
 31
0.0
  0
LINE
  5
1760C
  8
0
 10
-176.57570000000001
 20
-766.37130000000002
 30
0.0
 11
-179.57570000000001
 21
-766.37130000000002
 31
0.0
  0
LINE
  5
1760D
  8
0
 10
-179.57570000000001
 20
-765.7713
 30
0.0
 11
-180.07570000000001
 21
-765.67129999999986
 31
0.0
  0
LINE
  5
1760E
  8
0
 10
-180.07570000000001
 20
-765.67129999999986
 30
0.0
 11
-176.07570000000001
 21
-764.87130000000002
 31
0.0
  0
LINE
  5
1760F
  8
0
 10
-176.07570000000001
 20
-764.87130000000002
 30
0.0
 11
-176.57570000000001
 21
-764.7713
 31
0.0
  0
LINE
  5
17610
  8
0
 10
-179.57570000000001
 20
-764.17129999999997
 30
0.0
 11
-180.07570000000001
 21
-764.07129999999995
 31
0.0
  0
LINE
  5
17611
  8
0
 10
-179.57570000000001
 20
-762.57129999999995
 30
0.0
 11
-180.07570000000001
 21
-762.47130000000004
 31
0.0
  0
LINE
  5
17612
  8
0
 10
-180.07570000000001
 20
-762.47130000000004
 30
0.0
 11
-176.07570000000001
 21
-761.67129999999986
 31
0.0
  0
LINE
  5
17613
  8
0
 10
-176.07570000000001
 20
-763.27129999999988
 30
0.0
 11
-176.57570000000001
 21
-763.17129999999986
 31
0.0
  0
LINE
  5
17614
  8
0
 10
-176.07570000000001
 20
-761.67129999999986
 30
0.0
 11
-176.57570000000001
 21
-761.57129999999995
 31
0.0
  0
LINE
  5
17615
  8
0
 10
-180.07570000000001
 20
-764.07129999999995
 30
0.0
 11
-176.07570000000001
 21
-763.27129999999988
 31
0.0
  0
LINE
  5
17616
  8
0
 10
-179.57570000000001
 20
-760.97130000000004
 30
0.0
 11
-180.07570000000001
 21
-760.87130000000002
 31
0.0
  0
LINE
  5
17618
  8
1CENTER
 10
271.92419999999998
 20
-733.41039999999987
 30
0.0
 11
271.92419999999998
 21
-770.04160000000002
 31
0.0
  0
LINE
  5
17619
  8
0
 10
270.82990000000001
 20
-738.47130000000004
 30
0.0
 11
272.79219999999998
 21
-737.67129999999986
 31
0.0
  0
LINE
  5
1761A
  8
0
 10
272.79219999999998
 20
-737.67129999999986
 30
0.0
 11
272.20389999999998
 21
-737.35950000000003
 31
0.0
  0
LINE
  5
1761B
  8
0
 10
269.92430000000002
 20
-760.87130000000002
 30
0.0
 11
273.92430000000002
 21
-760.07129999999995
 31
0.0
  0
LINE
  5
1761C
  8
0
 10
269.92430000000002
 20
-749.67129999999986
 30
0.0
 11
273.92430000000002
 21
-748.87130000000002
 31
0.0
  0
LINE
  5
1761D
  8
0
 10
269.92430000000002
 20
-746.47130000000004
 30
0.0
 11
273.92430000000002
 21
-745.67129999999986
 31
0.0
  0
LINE
  5
1761E
  8
0
 10
273.92430000000002
 20
-745.67129999999986
 30
0.0
 11
273.42430000000002
 21
-745.57129999999995
 31
0.0
  0
LINE
  5
1761F
  8
0
 10
270.42430000000002
 20
-744.97130000000004
 30
0.0
 11
269.92430000000002
 21
-744.87130000000002
 31
0.0
  0
LINE
  5
17620
  8
0
 10
273.92430000000002
 20
-748.87130000000002
 30
0.0
 11
273.42430000000002
 21
-748.7713
 31
0.0
  0
LINE
  5
17621
  8
0
 10
273.92430000000002
 20
-747.27129999999988
 30
0.0
 11
273.42430000000002
 21
-747.17129999999997
 31
0.0
  0
LINE
  5
17622
  8
0
 10
270.42430000000002
 20
-746.57129999999995
 30
0.0
 11
269.92430000000002
 21
-746.47130000000004
 31
0.0
  0
LINE
  5
17623
  8
0
 10
270.42430000000002
 20
-748.17129999999997
 30
0.0
 11
269.92430000000002
 21
-748.07129999999995
 31
0.0
  0
LINE
  5
17624
  8
0
 10
269.92430000000002
 20
-748.07129999999995
 30
0.0
 11
273.92430000000002
 21
-747.27129999999988
 31
0.0
  0
LINE
  5
17625
  8
0
 10
273.245
 20
-739.2713
 30
0.0
 11
272.69330000000002
 21
-739.08860000000004
 31
0.0
  0
LINE
  5
17626
  8
0
 10
273.92430000000002
 20
-742.47130000000004
 30
0.0
 11
273.42430000000002
 21
-742.37130000000002
 31
0.0
  0
LINE
  5
17627
  8
0
 10
273.92430000000002
 20
-744.07129999999995
 30
0.0
 11
273.42430000000002
 21
-743.97130000000004
 31
0.0
  0
LINE
  5
17628
  8
0
 10
273.6979
 20
-740.87130000000002
 30
0.0
 11
273.16129999999998
 21
-740.74210000000005
 31
0.0
  0
LINE
  5
17629
  8
0
 10
270.84519999999998
 20
-740.18409999999994
 30
0.0
 11
270.37709999999998
 21
-740.07129999999995
 31
0.0
  0
LINE
  5
1762A
  8
0
 10
270.42430000000002
 20
-743.37130000000002
 30
0.0
 11
269.92430000000002
 21
-743.27129999999988
 31
0.0
  0
LINE
  5
1762B
  8
0
 10
270.42430000000002
 20
-741.7713
 30
0.0
 11
269.92430000000002
 21
-741.67129999999986
 31
0.0
  0
LINE
  5
1762C
  8
0
 10
271.28710000000001
 20
-738.6226999999999
 30
0.0
 11
270.82990000000001
 21
-738.47130000000004
 31
0.0
  0
LINE
  5
1762D
  8
0
 10
270.37709999999998
 20
-740.07129999999995
 30
0.0
 11
273.245
 21
-739.2713
 31
0.0
  0
LINE
  5
1762E
  8
0
 10
269.92430000000002
 20
-743.27129999999988
 30
0.0
 11
273.92430000000002
 21
-742.47130000000004
 31
0.0
  0
LINE
  5
1762F
  8
0
 10
269.92430000000002
 20
-741.67129999999986
 30
0.0
 11
273.6979
 21
-740.87130000000002
 31
0.0
  0
LINE
  5
17630
  8
0
 10
269.92430000000002
 20
-744.87130000000002
 30
0.0
 11
273.92430000000002
 21
-744.07129999999995
 31
0.0
  0
LINE
  5
17631
  8
0
 10
269.92430000000002
 20
-757.67129999999986
 30
0.0
 11
273.92430000000002
 21
-756.87130000000002
 31
0.0
  0
LINE
  5
17632
  8
0
 10
273.92430000000002
 20
-756.87130000000002
 30
0.0
 11
273.42430000000002
 21
-756.7713
 31
0.0
  0
LINE
  5
17633
  8
0
 10
270.42430000000002
 20
-756.17129999999997
 30
0.0
 11
269.92430000000002
 21
-756.07129999999995
 31
0.0
  0
LINE
  5
17634
  8
0
 10
273.92430000000002
 20
-758.47130000000004
 30
0.0
 11
273.42430000000002
 21
-758.37130000000002
 31
0.0
  0
LINE
  5
17635
  8
0
 10
273.92430000000002
 20
-760.07129999999995
 30
0.0
 11
273.42430000000002
 21
-759.97130000000004
 31
0.0
  0
LINE
  5
17636
  8
0
 10
270.42430000000002
 20
-757.7713
 30
0.0
 11
269.92430000000002
 21
-757.67129999999986
 31
0.0
  0
LINE
  5
17637
  8
0
 10
270.42430000000002
 20
-759.37130000000002
 30
0.0
 11
269.92430000000002
 21
-759.27129999999988
 31
0.0
  0
LINE
  5
17638
  8
0
 10
269.92430000000002
 20
-759.27129999999988
 30
0.0
 11
273.92430000000002
 21
-758.47130000000004
 31
0.0
  0
LINE
  5
17639
  8
0
 10
273.92430000000002
 20
-752.07129999999995
 30
0.0
 11
273.42430000000002
 21
-751.97130000000004
 31
0.0
  0
LINE
  5
1763A
  8
0
 10
273.92430000000002
 20
-750.47130000000004
 30
0.0
 11
273.42430000000002
 21
-750.37130000000002
 31
0.0
  0
LINE
  5
1763B
  8
0
 10
273.92430000000002
 20
-755.27129999999988
 30
0.0
 11
273.42430000000002
 21
-755.17129999999986
 31
0.0
  0
LINE
  5
1763C
  8
0
 10
273.92430000000002
 20
-753.67129999999986
 30
0.0
 11
273.42430000000002
 21
-753.57129999999995
 31
0.0
  0
LINE
  5
1763D
  8
0
 10
270.42430000000002
 20
-749.7713
 30
0.0
 11
269.92430000000002
 21
-749.67129999999986
 31
0.0
  0
LINE
  5
1763E
  8
0
 10
270.42430000000002
 20
-751.37130000000002
 30
0.0
 11
269.92430000000002
 21
-751.27129999999988
 31
0.0
  0
LINE
  5
1763F
  8
0
 10
270.42430000000002
 20
-754.57129999999995
 30
0.0
 11
269.92430000000002
 21
-754.47130000000004
 31
0.0
  0
LINE
  5
17640
  8
0
 10
270.42430000000002
 20
-752.97130000000004
 30
0.0
 11
269.92430000000002
 21
-752.87130000000002
 31
0.0
  0
LINE
  5
17641
  8
0
 10
269.92430000000002
 20
-752.87130000000002
 30
0.0
 11
273.92430000000002
 21
-752.07129999999995
 31
0.0
  0
LINE
  5
17642
  8
0
 10
269.92430000000002
 20
-751.27129999999988
 30
0.0
 11
273.92430000000002
 21
-750.47130000000004
 31
0.0
  0
LINE
  5
17643
  8
0
 10
269.92430000000002
 20
-754.47130000000004
 30
0.0
 11
273.92430000000002
 21
-753.67129999999986
 31
0.0
  0
LINE
  5
17644
  8
0
 10
269.92430000000002
 20
-756.07129999999995
 30
0.0
 11
273.92430000000002
 21
-755.27129999999988
 31
0.0
  0
LINE
  5
17645
  8
0
 10
273.42430000000002
 20
-766.37130000000002
 30
0.0
 11
270.42430000000002
 21
-766.37130000000002
 31
0.0
  0
LINE
  5
17646
  8
0
 10
270.42430000000002
 20
-765.7713
 30
0.0
 11
269.92430000000002
 21
-765.67129999999986
 31
0.0
  0
LINE
  5
17647
  8
0
 10
269.92430000000002
 20
-765.67129999999986
 30
0.0
 11
273.92430000000002
 21
-764.87130000000002
 31
0.0
  0
LINE
  5
17648
  8
0
 10
273.92430000000002
 20
-764.87130000000002
 30
0.0
 11
273.42430000000002
 21
-764.7713
 31
0.0
  0
LINE
  5
17649
  8
0
 10
270.42430000000002
 20
-764.17129999999997
 30
0.0
 11
269.92430000000002
 21
-764.07129999999995
 31
0.0
  0
LINE
  5
1764A
  8
0
 10
270.42430000000002
 20
-762.57129999999995
 30
0.0
 11
269.92430000000002
 21
-762.47130000000004
 31
0.0
  0
LINE
  5
1764B
  8
0
 10
269.92430000000002
 20
-762.47130000000004
 30
0.0
 11
273.92430000000002
 21
-761.67129999999986
 31
0.0
  0
LINE
  5
1764C
  8
0
 10
273.92430000000002
 20
-763.27129999999988
 30
0.0
 11
273.42430000000002
 21
-763.17129999999986
 31
0.0
  0
LINE
  5
1764D
  8
0
 10
273.92430000000002
 20
-761.67129999999986
 30
0.0
 11
273.42430000000002
 21
-761.57129999999995
 31
0.0
  0
LINE
  5
1764E
  8
0
 10
269.92430000000002
 20
-764.07129999999995
 30
0.0
 11
273.92430000000002
 21
-763.27129999999988
 31
0.0
  0
LINE
  5
1764F
  8
0
 10
270.42430000000002
 20
-760.97130000000004
 30
0.0
 11
269.92430000000002
 21
-760.87130000000002
 31
0.0
  0
SOLID
  5
17650
  8
1DIM
 10
252.64789999999999
 20
-781.81309999999996
 30
0.0
 11
254.0008
 21
-780.30290000000002
 31
0.0
 12
253.21090000000001
 22
-782.1703
 32
0.0
 13
253.21090000000001
 23
-782.1703
 33
0.0
  0
TEXT
  5
17652
  8
1DIM
 10
207.15090000000001
 20
-795.01369999999986
 30
0.0
 40
3.5
  1
材質：アクリル樹脂
  0
TEXT
  5
17653
  8
1DIM
 10
192.83170000000001
 20
-775.87049999999988
 30
0.0
 40
3.5
  1
材質：亜鉛ダイキャスト
  0
TEXT
  5
17654
  8
1DIM
 10
204.96510000000001
 20
-781.7038
 30
0.0
 40
3.5
  1
仕上げ：クローム
  0
SOLID
  5
17655
  8
1DIM
 10
246.4425
 20
-771.76130000000001
 30
0.0
 11
247.79400000000001
 21
-770.24990000000003
 31
0.0
 12
247.00569999999999
 22
-772.11800000000005
 32
0.0
 13
247.00569999999999
 23
-772.11800000000005
 33
0.0
  0
TEXT
  5
17657
  8
1DIM
 10
302.392
 20
-840.12080000000003
 30
0.0
 40
3.5
  1
材質：真鍮
  0
TEXT
  5
17658
  8
1DIM
 10
302.392
 20
-845.95409999999993
 30
0.0
 40
3.5
  1
仕上げ：クローム
  0
SOLID
  5
17659
  8
1DIM
 10
282.36070000000001
 20
-812.72519999999997
 30
0.0
 11
281.7647
 21
-810.78719999999998
 31
0.0
 12
282.95699999999999
 22
-812.42719999999986
 32
0.0
 13
282.95699999999999
 23
-812.42719999999986
 33
0.0
  0
TEXT
  5
1765B
  8
1DIM
 10
150.185
 20
-824.34550000000002
 30
0.0
 40
3.5
  1
材質：ステンレス
  0
TEXT
  5
1765C
  8
1DIM
 10
150.185
 20
-830.17880000000002
 30
0.0
 40
3.5
  1
仕上げ：鏡面研磨
  0
SOLID
  5
1765D
  8
1DIM
 10
138.3991
 20
-815.28020000000015
 30
0.0
 11
137.7157
 21
-813.37130000000002
 31
0.0
 12
138.9813
 22
-814.95540000000005
 32
0.0
 13
138.9813
 23
-814.95540000000005
 33
0.0
  0
LINE
  5
1765F
  8
1DIM
 10
358.42419999999998
 20
-932.09569999999985
 30
0.0
 11
358.42419999999998
 21
-906.87130000000002
 31
0.0
  0
LINE
  5
17660
  8
1DIM
 10
397.42419999999998
 20
-887.34220000000005
 30
0.0
 11
397.42419999999998
 21
-908.87130000000002
 31
0.0
  0
LINE
  5
17661
  8
1DIM
 10
360.42419999999998
 20
-907.87130000000002
 30
0.0
 11
395.42419999999998
 21
-907.87130000000002
 31
0.0
  0
LINE
  5
17665
  8
1DIM
 10
117.9242
 20
-888.87130000000002
 30
0.0
 11
138.92420000000001
 21
-888.87130000000002
 31
0.0
  0
LINE
  5
17666
  8
1DIM
 10
117.9242
 20
-876.87129999999991
 30
0.0
 11
138.92420000000001
 21
-876.87129999999991
 31
0.0
  0
LINE
  5
17667
  8
1DIM
 10
137.92420000000001
 20
-886.87129999999991
 30
0.0
 11
137.92420000000001
 21
-878.87129999999991
 31
0.0
  0
LINE
  5
17668
  8
1DIM
 10
137.92420000000001
 20
-876.87129999999991
 30
0.0
 11
137.92420000000001
 21
-863.80460000000005
 31
0.0
  0
LINE
  5
1766C
  8
1DIM
 10
441.42419999999993
 20
-886.87129999999991
 30
0.0
 11
441.42419999999993
 21
-908.87130000000002
 31
0.0
  0
LINE
  5
1766D
  8
1DIM
 10
420.42419999999993
 20
-891.75750000000005
 30
0.0
 11
420.42419999999993
 21
-908.87130000000002
 31
0.0
  0
LINE
  5
1766E
  8
1DIM
 10
439.42419999999998
 20
-907.87130000000002
 30
0.0
 11
422.42419999999998
 21
-907.87130000000002
 31
0.0
  0
LINE
  5
17673
  8
1HATCH
 10
418.77420000000001
 20
-886.97329999999999
 30
1.0
 11
418.77420000000001
 21
-890.52329999999995
 31
1.0
  0
LINE
  5
17674
  8
1HATCH
 10
422.07420000000002
 20
-886.97329999999999
 30
1.0
 11
422.07420000000002
 21
-890.52329999999995
 31
1.0
  0
LINE
  5
17675
  8
1CENTER
 10
420.42419999999993
 20
-883.92160000000001
 30
1.0
 11
420.42419999999993
 21
-891.75750000000005
 31
1.0
  0
LINE
  5
17676
  8
1HATCH
 10
422.42419999999998
 20
-890.17330000000004
 30
1.0
 11
418.42419999999998
 21
-890.17330000000004
 31
1.0
  0
LINE
  5
17678
  8
1CENTER
 10
471.38510000000002
 20
-873.37129999999991
 30
0.0
 11
434.75389999999999
 21
-873.37129999999991
 31
0.0
  0
LINE
  5
17679
  8
0
 10
466.32420000000002
 20
-872.27699999999982
 30
0.0
 11
467.12419999999992
 21
-874.23929999999984
 31
0.0
  0
LINE
  5
1767A
  8
0
 10
467.12419999999992
 20
-874.23929999999984
 30
0.0
 11
467.43599999999998
 21
-873.65110000000004
 31
0.0
  0
LINE
  5
1767B
  8
0
 10
443.92419999999998
 20
-871.37139999999988
 30
0.0
 11
444.7242
 21
-875.37139999999999
 31
0.0
  0
LINE
  5
1767C
  8
0
 10
455.12419999999997
 20
-871.37139999999988
 30
0.0
 11
455.92419999999998
 21
-875.37139999999999
 31
0.0
  0
LINE
  5
1767D
  8
0
 10
458.32420000000002
 20
-871.37139999999988
 30
0.0
 11
459.12419999999997
 21
-875.37139999999999
 31
0.0
  0
LINE
  5
1767E
  8
0
 10
459.12419999999997
 20
-875.37139999999999
 30
0.0
 11
459.22419999999988
 21
-874.87139999999988
 31
0.0
  0
LINE
  5
1767F
  8
0
 10
459.82419999999991
 20
-871.87139999999999
 30
0.0
 11
459.92419999999998
 21
-871.37139999999988
 31
0.0
  0
LINE
  5
17680
  8
0
 10
455.92419999999998
 20
-875.37139999999999
 30
0.0
 11
456.02420000000001
 21
-874.87139999999988
 31
0.0
  0
LINE
  5
17681
  8
0
 10
457.52420000000001
 20
-875.37139999999999
 30
0.0
 11
457.62419999999992
 21
-874.87139999999988
 31
0.0
  0
LINE
  5
17682
  8
0
 10
458.22419999999988
 20
-871.87139999999999
 30
0.0
 11
458.32420000000002
 21
-871.37139999999988
 31
0.0
  0
LINE
  5
17683
  8
0
 10
456.62419999999992
 20
-871.87139999999999
 30
0.0
 11
456.7242
 21
-871.37139999999988
 31
0.0
  0
LINE
  5
17684
  8
0
 10
456.7242
 20
-871.37139999999988
 30
0.0
 11
457.52420000000001
 21
-875.37139999999999
 31
0.0
  0
LINE
  5
17685
  8
0
 10
465.52420000000001
 20
-874.69209999999998
 30
0.0
 11
465.70699999999999
 21
-874.14040000000011
 31
0.0
  0
LINE
  5
17686
  8
0
 10
462.32420000000002
 20
-875.37139999999999
 30
0.0
 11
462.42419999999993
 21
-874.87139999999988
 31
0.0
  0
LINE
  5
17687
  8
0
 10
460.7242
 20
-875.37139999999999
 30
0.0
 11
460.82420000000002
 21
-874.87139999999988
 31
0.0
  0
LINE
  5
17688
  8
0
 10
463.92419999999998
 20
-875.14499999999998
 30
0.0
 11
464.05349999999987
 21
-874.60839999999985
 31
0.0
  0
LINE
  5
17689
  8
0
 10
464.61139999999989
 20
-872.29229999999995
 30
0.0
 11
464.7242
 21
-871.82420000000002
 31
0.0
  0
LINE
  5
1768A
  8
0
 10
461.42419999999993
 20
-871.87139999999999
 30
0.0
 11
461.52420000000001
 21
-871.37139999999988
 31
0.0
  0
LINE
  5
1768B
  8
0
 10
463.02419999999989
 20
-871.87139999999999
 30
0.0
 11
463.12419999999992
 21
-871.37139999999988
 31
0.0
  0
LINE
  5
1768C
  8
0
 10
466.1728
 20
-872.73419999999999
 30
0.0
 11
466.32420000000002
 21
-872.27699999999982
 31
0.0
  0
LINE
  5
1768D
  8
0
 10
464.7242
 20
-871.82420000000002
 30
0.0
 11
465.52420000000001
 21
-874.69209999999998
 31
0.0
  0
LINE
  5
1768E
  8
0
 10
461.52420000000001
 20
-871.37139999999988
 30
0.0
 11
462.32420000000002
 21
-875.37139999999999
 31
0.0
  0
LINE
  5
1768F
  8
0
 10
463.12419999999992
 20
-871.37139999999988
 30
0.0
 11
463.92419999999998
 21
-875.14499999999998
 31
0.0
  0
LINE
  5
17690
  8
0
 10
459.92419999999998
 20
-871.37139999999988
 30
0.0
 11
460.7242
 21
-875.37139999999999
 31
0.0
  0
LINE
  5
17691
  8
0
 10
447.12419999999997
 20
-871.37139999999988
 30
0.0
 11
447.92419999999998
 21
-875.37139999999999
 31
0.0
  0
LINE
  5
17692
  8
0
 10
447.92419999999998
 20
-875.37139999999999
 30
0.0
 11
448.02420000000001
 21
-874.87139999999988
 31
0.0
  0
LINE
  5
17693
  8
0
 10
448.62419999999992
 20
-871.87139999999999
 30
0.0
 11
448.7242
 21
-871.37139999999988
 31
0.0
  0
LINE
  5
17694
  8
0
 10
446.32420000000002
 20
-875.37139999999999
 30
0.0
 11
446.42419999999993
 21
-874.87139999999988
 31
0.0
  0
LINE
  5
17695
  8
0
 10
444.7242
 20
-875.37139999999999
 30
0.0
 11
444.82420000000002
 21
-874.87139999999988
 31
0.0
  0
LINE
  5
17696
  8
0
 10
447.02419999999989
 20
-871.87139999999999
 30
0.0
 11
447.12419999999997
 21
-871.37139999999988
 31
0.0
  0
LINE
  5
17697
  8
0
 10
445.42419999999993
 20
-871.87139999999999
 30
0.0
 11
445.52420000000001
 21
-871.37139999999988
 31
0.0
  0
LINE
  5
17698
  8
0
 10
445.52420000000001
 20
-871.37139999999988
 30
0.0
 11
446.32420000000002
 21
-875.37139999999999
 31
0.0
  0
LINE
  5
17699
  8
0
 10
452.7242
 20
-875.37139999999999
 30
0.0
 11
452.82420000000002
 21
-874.87139999999988
 31
0.0
  0
LINE
  5
1769A
  8
0
 10
454.32420000000002
 20
-875.37139999999999
 30
0.0
 11
454.42419999999993
 21
-874.87139999999988
 31
0.0
  0
LINE
  5
1769B
  8
0
 10
449.52420000000001
 20
-875.37139999999999
 30
0.0
 11
449.62419999999992
 21
-874.87139999999988
 31
0.0
  0
LINE
  5
1769C
  8
0
 10
451.12419999999997
 20
-875.37139999999999
 30
0.0
 11
451.22419999999988
 21
-874.87139999999988
 31
0.0
  0
LINE
  5
1769D
  8
0
 10
455.02419999999989
 20
-871.87139999999999
 30
0.0
 11
455.12419999999997
 21
-871.37139999999988
 31
0.0
  0
LINE
  5
1769E
  8
0
 10
453.42419999999993
 20
-871.87139999999999
 30
0.0
 11
453.52420000000001
 21
-871.37139999999988
 31
0.0
  0
LINE
  5
1769F
  8
0
 10
450.22419999999988
 20
-871.87139999999999
 30
0.0
 11
450.32420000000002
 21
-871.37139999999988
 31
0.0
  0
LINE
  5
176A0
  8
0
 10
451.82419999999991
 20
-871.87139999999999
 30
0.0
 11
451.92419999999998
 21
-871.37139999999988
 31
0.0
  0
LINE
  5
176A1
  8
0
 10
451.92419999999998
 20
-871.37139999999988
 30
0.0
 11
452.7242
 21
-875.37139999999999
 31
0.0
  0
LINE
  5
176A2
  8
0
 10
453.52420000000001
 20
-871.37139999999988
 30
0.0
 11
454.32420000000002
 21
-875.37139999999999
 31
0.0
  0
LINE
  5
176A3
  8
0
 10
450.32420000000002
 20
-871.37139999999988
 30
0.0
 11
451.12419999999997
 21
-875.37139999999999
 31
0.0
  0
LINE
  5
176A4
  8
0
 10
448.7242
 20
-871.37139999999988
 30
0.0
 11
449.52420000000001
 21
-875.37139999999999
 31
0.0
  0
LINE
  5
176A5
  8
0
 10
438.42419999999993
 20
-874.87139999999988
 30
0.0
 11
438.42419999999993
 21
-871.87139999999999
 31
0.0
  0
LINE
  5
176A6
  8
0
 10
439.02419999999989
 20
-871.87139999999999
 30
0.0
 11
439.12419999999997
 21
-871.37139999999988
 31
0.0
  0
LINE
  5
176A7
  8
0
 10
439.12419999999997
 20
-871.37139999999988
 30
0.0
 11
439.92419999999998
 21
-875.37139999999999
 31
0.0
  0
LINE
  5
176A8
  8
0
 10
439.92419999999998
 20
-875.37139999999999
 30
0.0
 11
440.02420000000001
 21
-874.87139999999988
 31
0.0
  0
LINE
  5
176A9
  8
0
 10
440.62419999999992
 20
-871.87139999999999
 30
0.0
 11
440.7242
 21
-871.37139999999988
 31
0.0
  0
LINE
  5
176AA
  8
0
 10
442.22419999999988
 20
-871.87139999999999
 30
0.0
 11
442.32420000000002
 21
-871.37139999999988
 31
0.0
  0
LINE
  5
176AB
  8
0
 10
442.32420000000002
 20
-871.37139999999988
 30
0.0
 11
443.12419999999997
 21
-875.37139999999999
 31
0.0
  0
LINE
  5
176AC
  8
0
 10
441.52420000000001
 20
-875.37139999999999
 30
0.0
 11
441.62419999999992
 21
-874.87139999999988
 31
0.0
  0
LINE
  5
176AD
  8
0
 10
443.12419999999997
 20
-875.37139999999999
 30
0.0
 11
443.2242
 21
-874.87139999999988
 31
0.0
  0
LINE
  5
176AE
  8
0
 10
440.7242
 20
-871.37139999999988
 30
0.0
 11
441.52420000000001
 21
-875.37139999999999
 31
0.0
  0
LINE
  5
176AF
  8
0
 10
443.82420000000002
 20
-871.87139999999999
 30
0.0
 11
443.92419999999998
 21
-871.37139999999988
 31
0.0
  0
LINE
  5
176B1
  8
1CENTER
 10
471.38510000000002
 20
-948.37129999999991
 30
0.0
 11
434.75389999999999
 21
-948.37129999999991
 31
0.0
  0
LINE
  5
176B2
  8
0
 10
466.32420000000002
 20
-947.27699999999982
 30
0.0
 11
467.12419999999992
 21
-949.23929999999984
 31
0.0
  0
LINE
  5
176B3
  8
0
 10
467.12419999999992
 20
-949.23929999999984
 30
0.0
 11
467.43599999999998
 21
-948.65099999999995
 31
0.0
  0
LINE
  5
176B4
  8
0
 10
443.92419999999998
 20
-946.37139999999988
 30
0.0
 11
444.7242
 21
-950.37139999999999
 31
0.0
  0
LINE
  5
176B5
  8
0
 10
455.12419999999997
 20
-946.37139999999988
 30
0.0
 11
455.92419999999998
 21
-950.37139999999999
 31
0.0
  0
LINE
  5
176B6
  8
0
 10
458.32420000000002
 20
-946.37139999999988
 30
0.0
 11
459.12419999999997
 21
-950.37139999999999
 31
0.0
  0
LINE
  5
176B7
  8
0
 10
459.12419999999997
 20
-950.37139999999999
 30
0.0
 11
459.22419999999988
 21
-949.87139999999988
 31
0.0
  0
LINE
  5
176B8
  8
0
 10
459.82419999999991
 20
-946.87139999999999
 30
0.0
 11
459.92419999999998
 21
-946.37139999999988
 31
0.0
  0
LINE
  5
176B9
  8
0
 10
455.92419999999998
 20
-950.37139999999999
 30
0.0
 11
456.02420000000001
 21
-949.87139999999988
 31
0.0
  0
LINE
  5
176BA
  8
0
 10
457.52420000000001
 20
-950.37139999999999
 30
0.0
 11
457.62419999999992
 21
-949.87139999999988
 31
0.0
  0
LINE
  5
176BB
  8
0
 10
458.22419999999988
 20
-946.87139999999999
 30
0.0
 11
458.32420000000002
 21
-946.37139999999988
 31
0.0
  0
LINE
  5
176BC
  8
0
 10
456.62419999999992
 20
-946.87139999999999
 30
0.0
 11
456.7242
 21
-946.37139999999988
 31
0.0
  0
LINE
  5
176BD
  8
0
 10
456.7242
 20
-946.37139999999988
 30
0.0
 11
457.52420000000001
 21
-950.37139999999999
 31
0.0
  0
LINE
  5
176BE
  8
0
 10
465.52420000000001
 20
-949.69209999999998
 30
0.0
 11
465.70699999999999
 21
-949.14040000000011
 31
0.0
  0
LINE
  5
176BF
  8
0
 10
462.32420000000002
 20
-950.37139999999999
 30
0.0
 11
462.42419999999993
 21
-949.87139999999988
 31
0.0
  0
LINE
  5
176C0
  8
0
 10
460.7242
 20
-950.37139999999999
 30
0.0
 11
460.82420000000002
 21
-949.87139999999988
 31
0.0
  0
LINE
  5
176C1
  8
0
 10
463.92419999999998
 20
-950.14499999999998
 30
0.0
 11
464.05349999999987
 21
-949.60839999999985
 31
0.0
  0
LINE
  5
176C2
  8
0
 10
464.61139999999989
 20
-947.29229999999995
 30
0.0
 11
464.7242
 21
-946.82420000000002
 31
0.0
  0
LINE
  5
176C3
  8
0
 10
461.42419999999993
 20
-946.87139999999999
 30
0.0
 11
461.52420000000001
 21
-946.37139999999988
 31
0.0
  0
LINE
  5
176C4
  8
0
 10
463.02419999999989
 20
-946.87139999999999
 30
0.0
 11
463.12419999999992
 21
-946.37139999999988
 31
0.0
  0
LINE
  5
176C5
  8
0
 10
466.1728
 20
-947.73419999999999
 30
0.0
 11
466.32420000000002
 21
-947.27699999999982
 31
0.0
  0
LINE
  5
176C6
  8
0
 10
464.7242
 20
-946.82420000000002
 30
0.0
 11
465.52420000000001
 21
-949.69209999999998
 31
0.0
  0
LINE
  5
176C7
  8
0
 10
461.52420000000001
 20
-946.37139999999988
 30
0.0
 11
462.32420000000002
 21
-950.37139999999999
 31
0.0
  0
LINE
  5
176C8
  8
0
 10
463.12419999999992
 20
-946.37139999999988
 30
0.0
 11
463.92419999999998
 21
-950.14499999999998
 31
0.0
  0
LINE
  5
176C9
  8
0
 10
459.92419999999998
 20
-946.37139999999988
 30
0.0
 11
460.7242
 21
-950.37139999999999
 31
0.0
  0
LINE
  5
176CA
  8
0
 10
447.12419999999997
 20
-946.37139999999988
 30
0.0
 11
447.92419999999998
 21
-950.37139999999999
 31
0.0
  0
LINE
  5
176CB
  8
0
 10
447.92419999999998
 20
-950.37139999999999
 30
0.0
 11
448.02420000000001
 21
-949.87139999999988
 31
0.0
  0
LINE
  5
176CC
  8
0
 10
448.62419999999992
 20
-946.87139999999999
 30
0.0
 11
448.7242
 21
-946.37139999999988
 31
0.0
  0
LINE
  5
176CD
  8
0
 10
446.32420000000002
 20
-950.37139999999999
 30
0.0
 11
446.42419999999993
 21
-949.87139999999988
 31
0.0
  0
LINE
  5
176CE
  8
0
 10
444.7242
 20
-950.37139999999999
 30
0.0
 11
444.82420000000002
 21
-949.87139999999988
 31
0.0
  0
LINE
  5
176CF
  8
0
 10
447.02419999999989
 20
-946.87139999999999
 30
0.0
 11
447.12419999999997
 21
-946.37139999999988
 31
0.0
  0
LINE
  5
176D0
  8
0
 10
445.42419999999993
 20
-946.87139999999999
 30
0.0
 11
445.52420000000001
 21
-946.37139999999988
 31
0.0
  0
LINE
  5
176D1
  8
0
 10
445.52420000000001
 20
-946.37139999999988
 30
0.0
 11
446.32420000000002
 21
-950.37139999999999
 31
0.0
  0
LINE
  5
176D2
  8
0
 10
452.7242
 20
-950.37139999999999
 30
0.0
 11
452.82420000000002
 21
-949.87139999999988
 31
0.0
  0
LINE
  5
176D3
  8
0
 10
454.32420000000002
 20
-950.37139999999999
 30
0.0
 11
454.42419999999993
 21
-949.87139999999988
 31
0.0
  0
LINE
  5
176D4
  8
0
 10
449.52420000000001
 20
-950.37139999999999
 30
0.0
 11
449.62419999999992
 21
-949.87139999999988
 31
0.0
  0
LINE
  5
176D5
  8
0
 10
451.12419999999997
 20
-950.37139999999999
 30
0.0
 11
451.22419999999988
 21
-949.87139999999988
 31
0.0
  0
LINE
  5
176D6
  8
0
 10
455.02419999999989
 20
-946.87139999999999
 30
0.0
 11
455.12419999999997
 21
-946.37139999999988
 31
0.0
  0
LINE
  5
176D7
  8
0
 10
453.42419999999993
 20
-946.87139999999999
 30
0.0
 11
453.52420000000001
 21
-946.37139999999988
 31
0.0
  0
LINE
  5
176D8
  8
0
 10
450.22419999999988
 20
-946.87139999999999
 30
0.0
 11
450.32420000000002
 21
-946.37139999999988
 31
0.0
  0
LINE
  5
176D9
  8
0
 10
451.82419999999991
 20
-946.87139999999999
 30
0.0
 11
451.92419999999998
 21
-946.37139999999988
 31
0.0
  0
LINE
  5
176DA
  8
0
 10
451.92419999999998
 20
-946.37139999999988
 30
0.0
 11
452.7242
 21
-950.37139999999999
 31
0.0
  0
LINE
  5
176DB
  8
0
 10
453.52420000000001
 20
-946.37139999999988
 30
0.0
 11
454.32420000000002
 21
-950.37139999999999
 31
0.0
  0
LINE
  5
176DC
  8
0
 10
450.32420000000002
 20
-946.37139999999988
 30
0.0
 11
451.12419999999997
 21
-950.37139999999999
 31
0.0
  0
LINE
  5
176DD
  8
0
 10
448.7242
 20
-946.37139999999988
 30
0.0
 11
449.52420000000001
 21
-950.37139999999999
 31
0.0
  0
LINE
  5
176DE
  8
0
 10
438.42419999999993
 20
-949.87139999999988
 30
0.0
 11
438.42419999999993
 21
-946.87139999999999
 31
0.0
  0
LINE
  5
176DF
  8
0
 10
439.02419999999989
 20
-946.87139999999999
 30
0.0
 11
439.12419999999997
 21
-946.37139999999988
 31
0.0
  0
LINE
  5
176E0
  8
0
 10
439.12419999999997
 20
-946.37139999999988
 30
0.0
 11
439.92419999999998
 21
-950.37139999999999
 31
0.0
  0
LINE
  5
176E1
  8
0
 10
439.92419999999998
 20
-950.37139999999999
 30
0.0
 11
440.02420000000001
 21
-949.87139999999988
 31
0.0
  0
LINE
  5
176E2
  8
0
 10
440.62419999999992
 20
-946.87139999999999
 30
0.0
 11
440.7242
 21
-946.37139999999988
 31
0.0
  0
LINE
  5
176E3
  8
0
 10
442.22419999999988
 20
-946.87139999999999
 30
0.0
 11
442.32420000000002
 21
-946.37139999999988
 31
0.0
  0
LINE
  5
176E4
  8
0
 10
442.32420000000002
 20
-946.37139999999988
 30
0.0
 11
443.12419999999997
 21
-950.37139999999999
 31
0.0
  0
LINE
  5
176E5
  8
0
 10
441.52420000000001
 20
-950.37139999999999
 30
0.0
 11
441.62419999999992
 21
-949.87139999999988
 31
0.0
  0
LINE
  5
176E6
  8
0
 10
443.12419999999997
 20
-950.37139999999999
 30
0.0
 11
443.2242
 21
-949.87139999999988
 31
0.0
  0
LINE
  5
176E7
  8
0
 10
440.7242
 20
-946.37139999999988
 30
0.0
 11
441.52420000000001
 21
-950.37139999999999
 31
0.0
  0
LINE
  5
176E8
  8
0
 10
443.82420000000002
 20
-946.87139999999999
 30
0.0
 11
443.92419999999998
 21
-946.37139999999988
 31
0.0
  0
LINE
  5
176E9
  8
1CENTER
 10
420.42419999999993
 20
-950.47709999999995
 30
0.0
 11
420.42419999999993
 21
-940.51790000000005
 31
0.0
  0
LINE
  5
176ED
  8
1HATCH
 10
417.92419999999998
 20
-949.48090000000002
 30
0.0
 11
417.92419999999998
 21
-943.23090000000002
 31
0.0
  0
LINE
  5
176EE
  8
1HATCH
 10
422.92419999999998
 20
-949.48090000000002
 30
0.0
 11
422.92419999999998
 21
-943.23090000000002
 31
0.0
  0
LINE
  5
176EF
  8
0
 10
417.42419999999993
 20
-948.98090000000013
 30
0.0
 11
417.42419999999993
 21
-943.48089999999991
 31
0.0
  0
LINE
  5
176F0
  8
0
 10
423.42419999999998
 20
-948.98090000000013
 30
0.0
 11
423.42419999999998
 21
-943.48089999999991
 31
0.0
  0
LINE
  5
176F1
  8
1HATCH
 10
418.22070000000002
 20
-949.47130000000004
 30
0.0
 11
419.02969999999999
 21
-947.48090000000002
 31
0.0
  0
LINE
  5
176F2
  8
1HATCH
 10
421.8316999999999
 20
-947.48090000000002
 30
0.0
 11
422.67590000000001
 21
-949.4588
 31
0.0
  0
LINE
  5
176F3
  8
0
 10
417.92419999999998
 20
-949.48090000000002
 30
0.0
 11
417.42419999999993
 21
-948.98090000000013
 31
0.0
  0
LINE
  5
176F4
  8
0
 10
422.92419999999998
 20
-949.48090000000002
 30
0.0
 11
417.92419999999998
 21
-949.48090000000002
 31
0.0
  0
LINE
  5
176F5
  8
0
 10
422.92419999999998
 20
-949.48090000000002
 30
0.0
 11
423.42419999999998
 21
-948.98090000000013
 31
0.0
  0
LINE
  5
176F7
  8
0
 10
417.42419999999993
 20
-943.48089999999991
 30
0.0
 11
418.42419999999998
 21
-942.98090000000002
 31
0.0
  0
LINE
  5
176F8
  8
0
 10
423.42419999999998
 20
-943.48089999999991
 30
0.0
 11
422.42419999999998
 21
-942.98090000000002
 31
0.0
  0
LINE
  5
176F9
  8
1HATCH
 10
422.42419999999998
 20
-942.98090000000002
 30
0.0
 11
418.42419999999998
 21
-942.98090000000002
 31
0.0
  0
ARC
  5
176FA
  8
0
 10
418.92419999999998
 20
-941.98090000000002
 30
0.0
 40
0.5
 50
90.0
 51
180.0
  0
LINE
  5
176FB
  8
0
 10
418.42419999999998
 20
-942.98090000000002
 30
0.0
 11
418.42419999999998
 21
-941.98090000000002
 31
0.0
  0
LINE
  5
176FC
  8
0
 10
422.42419999999998
 20
-942.98090000000002
 30
0.0
 11
422.42419999999998
 21
-941.98090000000002
 31
0.0
  0
ARC
  5
176FD
  8
0
 10
421.92419999999993
 20
-941.98090000000002
 30
0.0
 40
0.5
 50
0.0
 51
90.0
  0
LINE
  5
176FE
  8
0
 10
421.92419999999993
 20
-941.48089999999991
 30
0.0
 11
418.92419999999998
 21
-941.48089999999991
 31
0.0
  0
LINE
  5
176FF
  8
1HATCH
 10
421.8316999999999
 20
-947.48090000000002
 30
0.0
 11
419.02969999999999
 21
-947.48090000000002
 31
0.0
  0
POINT
  5
17700
  8
0
 10
420.42419999999993
 20
-941.48089999999991
 30
0.0
  0
LINE
  5
17701
  8
1DIM
 10
245.92420000000001
 20
-763.37130000000002
 30
0.0
 11
245.92420000000001
 21
-752.37130000000002
 31
0.0
  0
LINE
  5
17702
  8
1DIM
 10
297.92419999999998
 20
-763.37130000000002
 30
0.0
 11
297.92419999999998
 21
-752.37130000000002
 31
0.0
  0
LINE
  5
17703
  8
1DIM
 10
247.92420000000001
 20
-753.37130000000002
 30
0.0
 11
295.92419999999998
 21
-753.37130000000002
 31
0.0
  0
LINE
  5
17704
  8
1DIM
 10
297.92419999999998
 20
-753.37130000000002
 30
0.0
 11
306.99090000000001
 21
-753.37130000000002
 31
0.0
  0
LINE
  5
17708
  8
1DIM
 10
358.42419999999998
 20
-943.38530000000003
 30
0.0
 11
358.42419999999998
 21
-984.87130000000002
 31
0.0
  0
LINE
  5
17709
  8
1DIM
 10
441.42419999999993
 20
-964.90419999999995
 30
0.0
 11
441.42419999999993
 21
-984.87130000000002
 31
0.0
  0
LINE
  5
1770A
  8
1DIM
 10
360.42419999999998
 20
-983.87130000000002
 30
0.0
 11
439.42419999999998
 21
-983.87130000000002
 31
0.0
  0
LINE
  5
1770E
  8
1DIM
 10
347.92419999999998
 20
-937.87130000000013
 30
0.0
 11
347.92419999999998
 21
-994.87129999999991
 31
0.0
  0
LINE
  5
1770F
  8
1DIM
 10
441.42419999999993
 20
-963.87130000000002
 30
0.0
 11
441.42419999999993
 21
-994.87129999999991
 31
0.0
  0
LINE
  5
17710
  8
1DIM
 10
349.92419999999998
 20
-993.87129999999991
 30
0.0
 11
439.42419999999998
 21
-993.87129999999991
 31
0.0
  0
LINE
  5
17714
  8
1DIM
 10
117.9242
 20
-943.87129999999991
 30
0.0
 11
138.92420000000001
 21
-943.87129999999991
 31
0.0
  0
LINE
  5
17715
  8
1DIM
 10
117.9242
 20
-931.87130000000002
 30
0.0
 11
138.92420000000001
 21
-931.87130000000002
 31
0.0
  0
LINE
  5
17716
  8
1DIM
 10
137.92420000000001
 20
-941.87130000000002
 30
0.0
 11
137.92420000000001
 21
-933.87130000000002
 31
0.0
  0
LINE
  5
17717
  8
1DIM
 10
137.92420000000001
 20
-931.87130000000002
 30
0.0
 11
137.92420000000001
 21
-918.80459999999994
 31
0.0
  0
TEXT
  5
1771B
  8
1HATCH
 10
445.07929999999988
 20
-842.15989999999999
 30
0.0
 40
3.5
  1
PB
  0
SOLID
  5
1771C
  8
1HATCH
 10
445.98379999999992
 20
-861.31259999999986
 30
0.0
 11
446.00420000000003
 21
-863.34010000000001
 31
0.0
 12
445.32740000000001
 22
-861.42880000000002
 32
0.0
 13
445.32740000000001
 23
-861.42880000000002
 33
0.0
  0
SOLID
  5
1771E
  8
1DIM
 10
454.04739999999993
 20
-861.31700000000001
 30
0.0
 11
454.50220000000002
 21
-863.29299999999989
 31
0.0
 12
453.43110000000001
 22
-861.57129999999995
 32
0.0
 13
453.43110000000001
 23
-861.57129999999995
 33
0.0
  0
TEXT
  5
17720
  8
1DIM
 10
451.24669999999998
 20
-848.16120000000001
 30
0.0
 40
3.5
  1
合板9mm以上
  0
LINE
  5
17721
  8
1DIM
 10
441.42419999999993
 20
-963.87130000000002
 30
0.0
 11
326.92419999999998
 21
-963.87130000000002
 31
0.0
  0
LINE
  5
17722
  8
1DIM
 10
441.42419999999993
 20
-865.87130000000002
 30
0.0
 11
326.92419999999998
 21
-865.87130000000002
 31
0.0
  0
LINE
  5
17723
  8
1DIM
 10
327.92419999999998
 20
-961.87129999999991
 30
0.0
 11
327.92419999999998
 21
-867.87130000000002
 31
0.0
  0
LINE
  5
17727
  8
1DIM1
 10
-204.07579999999999
 20
-937.87130000000013
 30
0.0
 11
-204.07579999999999
 21
-1026.8713
 31
0.0
  0
LINE
  5
17728
  8
1DIM1
 10
297.92419999999998
 20
-940.37129999999991
 30
0.0
 11
297.92419999999998
 21
-1026.8713
 31
0.0
  0
LINE
  5
17729
  8
1DIM1
 10
-198.07579999999999
 20
-1023.8713
 30
0.0
 11
291.92419999999998
 21
-1023.8713
 31
0.0
  0
LINE
  5
1772D
  8
1DIM1
 10
-178.07579999999999
 20
-953.17999999999995
 30
0.0
 11
-178.07579999999999
 21
-996.87130000000013
 31
0.0
  0
LINE
  5
1772E
  8
1DIM1
 10
271.92419999999998
 20
-953.76409999999998
 30
0.0
 11
271.92419999999998
 21
-996.87130000000013
 31
0.0
  0
LINE
  5
1772F
  8
1DIM1
 10
-172.07579999999999
 20
-993.87129999999991
 30
0.0
 11
265.92419999999998
 21
-993.87129999999991
 31
0.0
  0
LINE
  5
17733
  8
1DIM
 10
441.42419999999993
 20
-963.87130000000002
 30
0.0
 11
441.42419999999993
 21
-974.87130000000002
 31
0.0
  0
LINE
  5
17734
  8
1DIM
 10
420.42419999999993
 20
-950.47709999999995
 30
0.0
 11
420.42419999999993
 21
-974.87130000000002
 31
0.0
  0
LINE
  5
17735
  8
1DIM
 10
439.42419999999998
 20
-973.87130000000002
 30
0.0
 11
422.42419999999998
 21
-973.87130000000002
 31
0.0
  0
LINE
  5
17739
  8
1DIM
 10
471.38510000000002
 20
-873.37129999999991
 30
0.0
 11
482.42419999999993
 21
-873.37129999999991
 31
0.0
  0
LINE
  5
1773A
  8
1DIM
 10
441.42419999999993
 20
-865.87130000000002
 30
0.0
 11
482.42419999999993
 21
-865.87130000000002
 31
0.0
  0
LINE
  5
1773B
  8
1DIM
 10
481.42419999999998
 20
-871.37130000000002
 30
0.0
 11
481.42419999999998
 21
-867.87130000000002
 31
0.0
  0
LINE
  5
1773C
  8
1DIM
 10
481.42419999999998
 20
-865.87130000000002
 30
0.0
 11
481.42419999999998
 21
-855.13799999999992
 31
0.0
  0
LINE
  5
17740
  8
1DIM
 10
471.38510000000002
 20
-948.37129999999991
 30
0.0
 11
482.42419999999993
 21
-948.37129999999991
 31
0.0
  0
LINE
  5
17741
  8
1DIM
 10
471.38510000000002
 20
-873.37129999999991
 30
0.0
 11
482.42419999999993
 21
-873.37129999999991
 31
0.0
  0
LINE
  5
17742
  8
1DIM
 10
481.42419999999998
 20
-946.37130000000002
 30
0.0
 11
481.42419999999998
 21
-875.37130000000013
 31
0.0
  0
LINE
  5
17746
  8
1DIM
 10
393.60660000000001
 20
-882.87130000000002
 30
0.0
 11
336.92419999999998
 21
-882.87130000000002
 31
0.0
  0
LINE
  5
17747
  8
1DIM
 10
354.23500000000001
 20
-937.87130000000013
 30
0.0
 11
336.92419999999998
 21
-937.87130000000013
 31
0.0
  0
LINE
  5
17748
  8
1DIM
 10
337.92419999999998
 20
-884.87130000000002
 30
0.0
 11
337.92419999999998
 21
-935.87129999999991
 31
0.0
  0
LINE
  5
1774C
  8
1DIM
 10
393.60660000000001
 20
-882.87130000000002
 30
0.0
 11
336.92419999999998
 21
-882.87130000000002
 31
0.0
  0
LINE
  5
1774D
  8
1DIM
 10
441.42419999999993
 20
-865.87130000000002
 30
0.0
 11
336.92419999999998
 21
-865.87130000000002
 31
0.0
  0
LINE
  5
1774E
  8
1DIM
 10
337.92419999999998
 20
-880.87130000000002
 30
0.0
 11
337.92419999999998
 21
-867.87130000000002
 31
0.0
  0
TEXT
  5
17752
  8
1DIM
 10
290.70620000000002
 20
-854.5059
 30
0.0
 40
3.5
  1
材質：真鍮
  0
TEXT
  5
17753
  8
1DIM
 10
290.70620000000002
 20
-860.33919999999989
 30
0.0
 40
3.5
  1
仕上げ：クローム
  0
SOLID
  5
17754
  8
1DIM
 10
281.5138
 20
-851.99270000000001
 30
0.0
 11
280.67340000000002
 21
-850.14750000000015
 31
0.0
 12
282.0668
 22
-851.62040000000002
 32
0.0
 13
282.0668
 23
-851.62040000000002
 33
0.0
  0
LINE
  5
17756
  8
1DIM
 10
281.7903
 20
-851.80660000000012
 30
0.0
 11
288.00619999999998
 21
-861.03920000000005
 31
0.0
  0
LINE
  5
17757
  8
1DIM
 10
288.00619999999998
 20
-861.03920000000005
 30
0.0
 11
323.37279999999998
 21
-861.03920000000005
 31
0.0
  0
TEXT
  5
17758
  8
1DIM
 10
337.2242
 20
-876.70460000000003
 30
0.0
 40
3.5
  1
17 
 50
90.0
  0
LINE
  5
17759
  8
0
  6
BYBLOCK
 10
337.38830000000002
 20
-867.87130000000002
 30
0.0
 11
337.92419999999998
 21
-865.87130000000002
 31
0.0
  0
LINE
  5
1775A
  8
0
  6
BYBLOCK
 10
337.92419999999998
 20
-865.87130000000002
 30
0.0
 11
338.46010000000001
 21
-867.87130000000002
 31
0.0
  0
LINE
  5
1775B
  8
0
  6
BYBLOCK
 10
337.92419999999998
 20
-865.87130000000002
 30
0.0
 11
337.92419999999998
 21
-867.87130000000002
 31
0.0
  0
LINE
  5
1775C
  8
0
  6
BYBLOCK
 10
338.46010000000001
 20
-880.87130000000002
 30
0.0
 11
337.92419999999998
 21
-882.87130000000002
 31
0.0
  0
LINE
  5
1775D
  8
0
  6
BYBLOCK
 10
337.92419999999998
 20
-882.87130000000002
 30
0.0
 11
337.38830000000002
 21
-880.87130000000002
 31
0.0
  0
LINE
  5
1775E
  8
0
  6
BYBLOCK
 10
337.92419999999998
 20
-882.87130000000002
 30
0.0
 11
337.92419999999998
 21
-880.87130000000002
 31
0.0
  0
TEXT
  5
1775F
  8
1DIM
 10
337.2242
 20
-913.28800000000001
 30
0.0
 40
3.5
  1
55 
 50
90.0
  0
LINE
  5
17760
  8
0
  6
BYBLOCK
 10
338.46010000000001
 20
-935.87129999999991
 30
0.0
 11
337.92419999999998
 21
-937.87130000000013
 31
0.0
  0
LINE
  5
17761
  8
0
  6
BYBLOCK
 10
337.92419999999998
 20
-937.87130000000013
 30
0.0
 11
337.38830000000002
 21
-935.87129999999991
 31
0.0
  0
LINE
  5
17762
  8
0
  6
BYBLOCK
 10
337.92419999999998
 20
-937.87130000000013
 30
0.0
 11
337.92419999999998
 21
-935.87129999999991
 31
0.0
  0
LINE
  5
17763
  8
0
  6
BYBLOCK
 10
337.38830000000002
 20
-884.87130000000002
 30
0.0
 11
337.92419999999998
 21
-882.87130000000002
 31
0.0
  0
LINE
  5
17764
  8
0
  6
BYBLOCK
 10
337.92419999999998
 20
-882.87130000000002
 30
0.0
 11
338.46010000000001
 21
-884.87130000000002
 31
0.0
  0
LINE
  5
17765
  8
0
  6
BYBLOCK
 10
337.92419999999998
 20
-882.87130000000002
 30
0.0
 11
337.92419999999998
 21
-884.87130000000002
 31
0.0
  0
TEXT
  5
17766
  8
1DIM
 10
480.7242
 20
-913.78800000000001
 30
0.0
 40
3.5
  1
75 
 50
90.0
  0
LINE
  5
17767
  8
0
  6
BYBLOCK
 10
480.88830000000002
 20
-875.37130000000013
 30
0.0
 11
481.42419999999998
 21
-873.37129999999991
 31
0.0
  0
LINE
  5
17768
  8
0
  6
BYBLOCK
 10
481.42419999999998
 20
-873.37129999999991
 30
0.0
 11
481.96010000000001
 21
-875.37130000000013
 31
0.0
  0
LINE
  5
17769
  8
0
  6
BYBLOCK
 10
481.42419999999998
 20
-873.37129999999991
 30
0.0
 11
481.42419999999998
 21
-875.37130000000013
 31
0.0
  0
LINE
  5
1776A
  8
0
  6
BYBLOCK
 10
481.96010000000001
 20
-946.37130000000002
 30
0.0
 11
481.42419999999998
 21
-948.37129999999991
 31
0.0
  0
LINE
  5
1776B
  8
0
  6
BYBLOCK
 10
481.42419999999998
 20
-948.37129999999991
 30
0.0
 11
480.88830000000002
 21
-946.37130000000002
 31
0.0
  0
LINE
  5
1776C
  8
0
  6
BYBLOCK
 10
481.42419999999998
 20
-948.37129999999991
 30
0.0
 11
481.42419999999998
 21
-946.37130000000002
 31
0.0
  0
TEXT
  5
1776D
  8
1DIM
 10
480.7242
 20
-863.00459999999998
 30
0.0
 40
3.5
  1
7.5 
 50
90.0
  0
LINE
  5
1776E
  8
0
  6
BYBLOCK
 10
480.88830000000002
 20
-867.87130000000002
 30
0.0
 11
481.42419999999998
 21
-865.87130000000002
 31
0.0
  0
LINE
  5
1776F
  8
0
  6
BYBLOCK
 10
481.42419999999998
 20
-865.87130000000002
 30
0.0
 11
481.96010000000001
 21
-867.87130000000002
 31
0.0
  0
LINE
  5
17770
  8
0
  6
BYBLOCK
 10
481.42419999999998
 20
-865.87130000000002
 30
0.0
 11
481.42419999999998
 21
-867.87130000000002
 31
0.0
  0
LINE
  5
17771
  8
0
  6
BYBLOCK
 10
481.96010000000001
 20
-871.37130000000002
 30
0.0
 11
481.42419999999998
 21
-873.37129999999991
 31
0.0
  0
LINE
  5
17772
  8
0
  6
BYBLOCK
 10
481.42419999999998
 20
-873.37129999999991
 30
0.0
 11
480.88830000000002
 21
-871.37130000000002
 31
0.0
  0
LINE
  5
17773
  8
0
  6
BYBLOCK
 10
481.42419999999998
 20
-873.37129999999991
 30
0.0
 11
481.42419999999998
 21
-871.37130000000002
 31
0.0
  0
TEXT
  5
17774
  8
1DIM
 10
428.59089999999998
 20
-973.17129999999986
 30
0.0
 40
3.5
  1
21 
  0
LINE
  5
17775
  8
0
  6
BYBLOCK
 10
422.42419999999998
 20
-974.40719999999999
 30
0.0
 11
420.42419999999993
 21
-973.87130000000002
 31
0.0
  0
LINE
  5
17776
  8
0
  6
BYBLOCK
 10
420.42419999999993
 20
-973.87130000000002
 30
0.0
 11
422.42419999999998
 21
-973.33540000000005
 31
0.0
  0
LINE
  5
17777
  8
0
  6
BYBLOCK
 10
420.42419999999993
 20
-973.87130000000002
 30
0.0
 11
422.42419999999998
 21
-973.87130000000002
 31
0.0
  0
LINE
  5
17778
  8
0
  6
BYBLOCK
 10
439.42419999999998
 20
-973.33540000000005
 30
0.0
 11
441.42419999999993
 21
-973.87130000000002
 31
0.0
  0
LINE
  5
17779
  8
0
  6
BYBLOCK
 10
441.42419999999993
 20
-973.87130000000002
 30
0.0
 11
439.42419999999998
 21
-974.40719999999999
 31
0.0
  0
LINE
  5
1777A
  8
0
  6
BYBLOCK
 10
441.42419999999993
 20
-973.87130000000002
 30
0.0
 11
439.42419999999998
 21
-973.87130000000002
 31
0.0
  0
TEXT
  5
1777B
  8
1DIM1
 10
28.549199999999999
 20
-991.7713
 30
0.0
 40
10.5
  1
P450 
  0
LINE
  5
1777C
  8
0
  6
BYBLOCK
 10
265.92419999999998
 20
-992.2636
 30
0.0
 11
271.92419999999998
 21
-993.87129999999991
 31
0.0
  0
LINE
  5
1777D
  8
0
  6
BYBLOCK
 10
271.92419999999998
 20
-993.87129999999991
 30
0.0
 11
265.92419999999998
 21
-995.47899999999993
 31
0.0
  0
LINE
  5
1777E
  8
0
  6
BYBLOCK
 10
271.92419999999998
 20
-993.87129999999991
 30
0.0
 11
265.92419999999998
 21
-993.87129999999991
 31
0.0
  0
LINE
  5
1777F
  8
0
  6
BYBLOCK
 10
-172.07579999999999
 20
-995.47899999999993
 30
0.0
 11
-178.07579999999999
 21
-993.87129999999991
 31
0.0
  0
LINE
  5
17780
  8
0
  6
BYBLOCK
 10
-178.07579999999999
 20
-993.87129999999991
 30
0.0
 11
-172.07579999999999
 21
-992.2636
 31
0.0
  0
LINE
  5
17781
  8
0
  6
BYBLOCK
 10
-178.07579999999999
 20
-993.87129999999991
 30
0.0
 11
-172.07579999999999
 21
-993.87129999999991
 31
0.0
  0
TEXT
  5
17782
  8
1DIM1
 10
33.799199999999999
 20
-1021.7713
 30
0.0
 40
10.5
  1
502 
  0
LINE
  5
17783
  8
0
  6
BYBLOCK
 10
291.92419999999998
 20
-1022.2636
 30
0.0
 11
297.92419999999998
 21
-1023.8713
 31
0.0
  0
LINE
  5
17784
  8
0
  6
BYBLOCK
 10
297.92419999999998
 20
-1023.8713
 30
0.0
 11
291.92419999999998
 21
-1025.479
 31
0.0
  0
LINE
  5
17785
  8
0
  6
BYBLOCK
 10
297.92419999999998
 20
-1023.8713
 30
0.0
 11
291.92419999999998
 21
-1023.8713
 31
0.0
  0
LINE
  5
17786
  8
0
  6
BYBLOCK
 10
-198.07579999999999
 20
-1025.479
 30
0.0
 11
-204.07579999999999
 21
-1023.8713
 31
0.0
  0
LINE
  5
17787
  8
0
  6
BYBLOCK
 10
-204.07579999999999
 20
-1023.8713
 30
0.0
 11
-198.07579999999999
 21
-1022.2636
 31
0.0
  0
LINE
  5
17788
  8
0
  6
BYBLOCK
 10
-204.07579999999999
 20
-1023.8713
 30
0.0
 11
-198.07579999999999
 21
-1023.8713
 31
0.0
  0
TEXT
  5
17789
  8
1DIM
 10
327.2242
 20
-917.78800000000001
 30
0.0
 40
3.5
  1
98 
 50
90.0
  0
LINE
  5
1778A
  8
0
  6
BYBLOCK
 10
327.38830000000002
 20
-867.87130000000002
 30
0.0
 11
327.92419999999998
 21
-865.87130000000002
 31
0.0
  0
LINE
  5
1778B
  8
0
  6
BYBLOCK
 10
327.92419999999998
 20
-865.87130000000002
 30
0.0
 11
328.46010000000001
 21
-867.87130000000002
 31
0.0
  0
LINE
  5
1778C
  8
0
  6
BYBLOCK
 10
327.92419999999998
 20
-865.87130000000002
 30
0.0
 11
327.92419999999998
 21
-867.87130000000002
 31
0.0
  0
LINE
  5
1778D
  8
0
  6
BYBLOCK
 10
328.46010000000001
 20
-961.87129999999991
 30
0.0
 11
327.92419999999998
 21
-963.87130000000002
 31
0.0
  0
LINE
  5
1778E
  8
0
  6
BYBLOCK
 10
327.92419999999998
 20
-963.87130000000002
 30
0.0
 11
327.38830000000002
 21
-961.87129999999991
 31
0.0
  0
LINE
  5
1778F
  8
0
  6
BYBLOCK
 10
327.92419999999998
 20
-963.87130000000002
 30
0.0
 11
327.92419999999998
 21
-961.87129999999991
 31
0.0
  0
LINE
  5
17790
  8
1DIM
 10
453.73919999999993
 20
-861.44420000000002
 30
0.0
 11
448.54669999999987
 21
-848.86119999999994
 31
0.0
  0
LINE
  5
17791
  8
1DIM
 10
448.54669999999987
 20
-848.86119999999994
 30
0.0
 11
480.44670000000002
 21
-848.86119999999994
 31
0.0
  0
LINE
  5
17792
  8
1HATCH
 10
445.65559999999988
 20
-861.37070000000006
 30
0.0
 11
442.37929999999989
 21
-842.85990000000004
 31
0.0
  0
LINE
  5
17793
  8
1HATCH
 10
442.37929999999989
 20
-842.85990000000004
 30
0.0
 11
450.9126
 21
-842.85990000000004
 31
0.0
  0
TEXT
  5
17794
  8
1DIM
 10
137.2242
 20
-929.12130000000002
 30
0.0
 40
3.5
  1
φ12
 50
90.0
  0
LINE
  5
17795
  8
0
  6
BYBLOCK
 10
137.38829999999999
 20
-933.87130000000002
 30
0.0
 11
137.92420000000001
 21
-931.87130000000002
 31
0.0
  0
LINE
  5
17796
  8
0
  6
BYBLOCK
 10
137.92420000000001
 20
-931.87130000000002
 30
0.0
 11
138.46010000000001
 21
-933.87130000000002
 31
0.0
  0
LINE
  5
17797
  8
0
  6
BYBLOCK
 10
137.92420000000001
 20
-931.87130000000002
 30
0.0
 11
137.92420000000001
 21
-933.87130000000002
 31
0.0
  0
LINE
  5
17798
  8
0
  6
BYBLOCK
 10
138.46010000000001
 20
-941.87130000000002
 30
0.0
 11
137.92420000000001
 21
-943.87129999999991
 31
0.0
  0
LINE
  5
17799
  8
0
  6
BYBLOCK
 10
137.92420000000001
 20
-943.87129999999991
 30
0.0
 11
137.38829999999999
 21
-941.87130000000002
 31
0.0
  0
LINE
  5
1779A
  8
0
  6
BYBLOCK
 10
137.92420000000001
 20
-943.87129999999991
 30
0.0
 11
137.92420000000001
 21
-941.87130000000002
 31
0.0
  0
TEXT
  5
1779B
  8
1DIM
 10
389.42419999999998
 20
-993.17129999999997
 30
0.0
 40
3.5
  1
93.5 
  0
LINE
  5
1779C
  8
0
  6
BYBLOCK
 10
439.42419999999998
 20
-993.33540000000005
 30
0.0
 11
441.42419999999993
 21
-993.87129999999991
 31
0.0
  0
LINE
  5
1779D
  8
0
  6
BYBLOCK
 10
441.42419999999993
 20
-993.87129999999991
 30
0.0
 11
439.42419999999998
 21
-994.40719999999999
 31
0.0
  0
LINE
  5
1779E
  8
0
  6
BYBLOCK
 10
441.42419999999993
 20
-993.87129999999991
 30
0.0
 11
439.42419999999998
 21
-993.87129999999991
 31
0.0
  0
LINE
  5
1779F
  8
0
  6
BYBLOCK
 10
349.92419999999998
 20
-994.40719999999999
 30
0.0
 11
347.92419999999998
 21
-993.87129999999991
 31
0.0
  0
LINE
  5
177A0
  8
0
  6
BYBLOCK
 10
347.92419999999998
 20
-993.87129999999991
 30
0.0
 11
349.92419999999998
 21
-993.33540000000005
 31
0.0
  0
LINE
  5
177A1
  8
0
  6
BYBLOCK
 10
347.92419999999998
 20
-993.87129999999991
 30
0.0
 11
349.92419999999998
 21
-993.87129999999991
 31
0.0
  0
TEXT
  5
177A2
  8
1DIM
 10
397.00749999999999
 20
-983.17129999999997
 30
0.0
 40
3.5
  1
83 
  0
LINE
  5
177A3
  8
0
  6
BYBLOCK
 10
439.42419999999998
 20
-983.33539999999994
 30
0.0
 11
441.42419999999993
 21
-983.87130000000002
 31
0.0
  0
LINE
  5
177A4
  8
0
  6
BYBLOCK
 10
441.42419999999993
 20
-983.87130000000002
 30
0.0
 11
439.42419999999998
 21
-984.40719999999999
 31
0.0
  0
LINE
  5
177A5
  8
0
  6
BYBLOCK
 10
441.42419999999993
 20
-983.87130000000002
 30
0.0
 11
439.42419999999998
 21
-983.87130000000002
 31
0.0
  0
LINE
  5
177A6
  8
0
  6
BYBLOCK
 10
360.42419999999998
 20
-984.40719999999999
 30
0.0
 11
358.42419999999998
 21
-983.87130000000002
 31
0.0
  0
LINE
  5
177A7
  8
0
  6
BYBLOCK
 10
358.42419999999998
 20
-983.87130000000002
 30
0.0
 11
360.42419999999998
 21
-983.33539999999994
 31
0.0
  0
LINE
  5
177A8
  8
0
  6
BYBLOCK
 10
358.42419999999998
 20
-983.87130000000002
 30
0.0
 11
360.42419999999998
 21
-983.87130000000002
 31
0.0
  0
TEXT
  5
177A9
  8
1DIM
 10
300.54090000000002
 20
-752.67129999999986
 30
0.0
 40
3.5
  1
52 
  0
LINE
  5
177AA
  8
0
  6
BYBLOCK
 10
295.92419999999998
 20
-752.83540000000005
 30
0.0
 11
297.92419999999998
 21
-753.37130000000002
 31
0.0
  0
LINE
  5
177AB
  8
0
  6
BYBLOCK
 10
297.92419999999998
 20
-753.37130000000002
 30
0.0
 11
295.92419999999998
 21
-753.90719999999988
 31
0.0
  0
LINE
  5
177AC
  8
0
  6
BYBLOCK
 10
297.92419999999998
 20
-753.37130000000002
 30
0.0
 11
295.92419999999998
 21
-753.37130000000002
 31
0.0
  0
LINE
  5
177AD
  8
0
  6
BYBLOCK
 10
247.92420000000001
 20
-753.90719999999988
 30
0.0
 11
245.92420000000001
 21
-753.37130000000002
 31
0.0
  0
LINE
  5
177AE
  8
0
  6
BYBLOCK
 10
245.92420000000001
 20
-753.37130000000002
 30
0.0
 11
247.92420000000001
 21
-752.83540000000005
 31
0.0
  0
LINE
  5
177AF
  8
0
  6
BYBLOCK
 10
245.92420000000001
 20
-753.37130000000002
 30
0.0
 11
247.92420000000001
 21
-753.37130000000002
 31
0.0
  0
ARC
  5
177B0
  8
1HATCH
 10
418.92419999999998
 20
-941.98090000000002
 30
0.0
 40
0.5
 50
90.0
 51
180.0
  0
LINE
  5
177B1
  8
1HATCH
 10
418.42419999999998
 20
-941.98090000000002
 30
0.0
 11
418.42419999999998
 21
-942.98090000000002
 31
0.0
  0
LINE
  5
177B2
  8
1HATCH
 10
421.92419999999993
 20
-941.48089999999991
 30
0.0
 11
418.92419999999998
 21
-941.48089999999991
 31
0.0
  0
LINE
  5
177B3
  8
1HATCH
 10
418.42419999999998
 20
-942.98090000000002
 30
0.0
 11
422.42419999999998
 21
-942.98090000000002
 31
0.0
  0
ARC
  5
177B4
  8
1HATCH
 10
421.92419999999993
 20
-941.98090000000002
 30
0.0
 40
0.5
 50
0.0
 51
90.0
  0
LINE
  5
177B5
  8
1HATCH
 10
422.42419999999998
 20
-942.98090000000002
 30
0.0
 11
422.42419999999998
 21
-941.98090000000002
 31
0.0
  0
LINE
  5
177B6
  8
1HATCH
 10
417.42419999999993
 20
-943.48089999999991
 30
0.0
 11
417.42419999999993
 21
-948.98090000000013
 31
0.0
  0
LINE
  5
177B7
  8
1HATCH
 10
417.42419999999993
 20
-948.98090000000013
 30
0.0
 11
417.92419999999998
 21
-949.48090000000002
 31
0.0
  0
LINE
  5
177B8
  8
1HATCH
 10
417.92419999999998
 20
-943.23090000000002
 30
0.0
 11
417.42419999999993
 21
-943.48089999999991
 31
0.0
  0
LINE
  5
177B9
  8
1HATCH
 10
417.92419999999998
 20
-949.48090000000002
 30
0.0
 11
417.92419999999998
 21
-943.23090000000002
 31
0.0
  0
LINE
  5
177BA
  8
1HATCH
 10
418.42419999999998
 20
-942.98090000000002
 30
0.0
 11
417.92419999999998
 21
-943.23090000000002
 31
0.0
  0
LINE
  5
177BB
  8
1HATCH
 10
417.92419999999998
 20
-943.23090000000002
 30
0.0
 11
417.92419999999998
 21
-949.48090000000002
 31
0.0
  0
LINE
  5
177BC
  8
1HATCH
 10
422.42419999999998
 20
-942.98090000000002
 30
0.0
 11
418.42419999999998
 21
-942.98090000000002
 31
0.0
  0
LINE
  5
177BD
  8
1HATCH
 10
417.92419999999998
 20
-949.48090000000002
 30
0.0
 11
417.92419999999998
 21
-949.48090000000002
 31
0.0
  0
LINE
  5
177BE
  8
1HATCH
 10
422.92419999999998
 20
-943.23090000000002
 30
0.0
 11
422.42419999999998
 21
-942.98090000000002
 31
0.0
  0
LINE
  5
177BF
  8
1HATCH
 10
417.92419999999998
 20
-949.48090000000002
 30
0.0
 11
422.92419999999998
 21
-949.48090000000002
 31
0.0
  0
LINE
  5
177C0
  8
1HATCH
 10
422.92419999999998
 20
-949.48090000000002
 30
0.0
 11
422.92419999999998
 21
-943.23090000000002
 31
0.0
  0
LINE
  5
177C1
  8
0
 10
417.92419999999998
 20
-949.48090000000002
 30
0.0
 11
417.92419999999998
 21
-949.48090000000002
 31
0.0
  0
LINE
  5
177C2
  8
0
 10
422.92419999999998
 20
-949.48090000000002
 30
0.0
 11
417.92419999999998
 21
-949.48090000000002
 31
0.0
  0
LINE
  5
177C3
  8
0
 10
417.92419999999998
 20
-949.48090000000002
 30
0.0
 11
417.42419999999993
 21
-948.98090000000013
 31
0.0
  0
LINE
  5
177C4
  8
0
 10
422.92419999999998
 20
-949.48090000000002
 30
0.0
 11
422.92419999999998
 21
-949.48090000000002
 31
0.0
  0
LINE
  5
177C5
  8
0
 10
417.42419999999993
 20
-948.98090000000013
 30
0.0
 11
417.42419999999993
 21
-943.48089999999991
 31
0.0
  0
LINE
  5
177C6
  8
0
 10
423.42419999999998
 20
-948.98090000000013
 30
0.0
 11
422.92419999999998
 21
-949.48090000000002
 31
0.0
  0
LINE
  5
177C7
  8
0
 10
417.42419999999993
 20
-943.48089999999991
 30
0.0
 11
418.42419999999998
 21
-942.98090000000002
 31
0.0
  0
LINE
  5
177C8
  8
0
 10
423.42419999999998
 20
-943.48089999999991
 30
0.0
 11
423.42419999999998
 21
-948.98090000000013
 31
0.0
  0
LINE
  5
177C9
  8
0
 10
418.42419999999998
 20
-942.98090000000002
 30
0.0
 11
418.42419999999998
 21
-941.98090000000002
 31
0.0
  0
LINE
  5
177CA
  8
0
 10
422.42419999999998
 20
-942.98090000000002
 30
0.0
 11
423.42419999999998
 21
-943.48089999999991
 31
0.0
  0
ARC
  5
177CB
  8
0
 10
418.92419999999998
 20
-941.98090000000002
 30
0.0
 40
0.5
 50
90.0
 51
180.0
  0
LINE
  5
177CC
  8
0
 10
422.42419999999998
 20
-941.98090000000002
 30
0.0
 11
422.42419999999998
 21
-942.98090000000002
 31
0.0
  0
LINE
  5
177CD
  8
0
 10
418.92419999999998
 20
-941.48089999999991
 30
0.0
 11
421.92419999999993
 21
-941.48089999999991
 31
0.0
  0
ARC
  5
177CE
  8
0
 10
421.92419999999993
 20
-941.98090000000002
 30
0.0
 40
0.5
 50
0.0
 51
90.0
  0
LINE
  5
177CF
  8
0
 10
468.42419999999998
 20
-948.37139999999999
 30
0.0
 11
463.12419999999992
 21
-946.87139999999999
 31
0.0
  0
LINE
  5
177D0
  8
0
 10
463.12419999999992
 20
-946.87139999999999
 30
0.0
 11
438.42419999999993
 21
-946.87139999999999
 31
0.0
  0
LINE
  5
177D1
  8
0
 10
468.42419999999998
 20
-948.37139999999999
 30
0.0
 11
463.12419999999992
 21
-949.87139999999988
 31
0.0
  0
LINE
  5
177D2
  8
0
 10
438.42419999999993
 20
-944.87129999999991
 30
0.0
 11
438.42419999999993
 21
-946.87139999999999
 31
0.0
  0
LINE
  5
177D3
  8
0
 10
463.12419999999992
 20
-949.87139999999988
 30
0.0
 11
438.42419999999993
 21
-949.87139999999988
 31
0.0
  0
LINE
  5
177D4
  8
0
 10
438.42419999999993
 20
-944.87129999999991
 30
0.0
 11
437.32420000000002
 21
-944.87129999999991
 31
0.0
  0
LINE
  5
177D5
  8
0
 10
438.42419999999993
 20
-949.87139999999988
 30
0.0
 11
438.42419999999993
 21
-951.87129999999991
 31
0.0
  0
ARC
  5
177D6
  8
0
 10
437.32420000000002
 20
-946.37130000000002
 30
0.0
 40
1.5
 50
90.0
 51
179.9999
  0
LINE
  5
177D7
  8
0
 10
438.42419999999993
 20
-951.87129999999991
 30
0.0
 11
437.32420000000002
 21
-951.87129999999991
 31
0.0
  0
LINE
  5
177D8
  8
0
 10
435.82420000000002
 20
-946.37130000000002
 30
0.0
 11
435.82420000000002
 21
-950.37130000000013
 31
0.0
  0
ARC
  5
177D9
  8
0
 10
437.32420000000002
 20
-950.37130000000013
 30
0.0
 40
1.5
 50
179.9999
 51
270.0
  0
LINE
  5
177DA
  8
0
 10
468.42419999999998
 20
-873.37139999999999
 30
0.0
 11
463.12419999999992
 21
-871.87139999999999
 31
0.0
  0
LINE
  5
177DB
  8
0
 10
463.12419999999992
 20
-871.87139999999999
 30
0.0
 11
438.42419999999993
 21
-871.87139999999999
 31
0.0
  0
LINE
  5
177DC
  8
0
 10
468.42419999999998
 20
-873.37139999999999
 30
0.0
 11
463.12419999999992
 21
-874.87139999999988
 31
0.0
  0
LINE
  5
177DD
  8
0
 10
438.42419999999993
 20
-869.87129999999991
 30
0.0
 11
438.42419999999993
 21
-871.87139999999999
 31
0.0
  0
LINE
  5
177DE
  8
0
 10
463.12419999999992
 20
-874.87139999999988
 30
0.0
 11
438.42419999999993
 21
-874.87139999999988
 31
0.0
  0
LINE
  5
177DF
  8
0
 10
438.42419999999993
 20
-869.87129999999991
 30
0.0
 11
437.32420000000002
 21
-869.87129999999991
 31
0.0
  0
LINE
  5
177E0
  8
0
 10
438.42419999999993
 20
-874.87139999999988
 30
0.0
 11
438.42419999999993
 21
-876.87129999999991
 31
0.0
  0
ARC
  5
177E1
  8
0
 10
437.32420000000002
 20
-871.37130000000002
 30
0.0
 40
1.5
 50
90.0
 51
179.9999
  0
LINE
  5
177E2
  8
0
 10
438.42419999999993
 20
-876.87129999999991
 30
0.0
 11
437.32420000000002
 21
-876.87129999999991
 31
0.0
  0
LINE
  5
177E3
  8
0
 10
435.82420000000002
 20
-871.37130000000002
 30
0.0
 11
435.82420000000002
 21
-875.37130000000013
 31
0.0
  0
ARC
  5
177E4
  8
0
 10
437.32420000000002
 20
-875.37130000000013
 30
0.0
 40
1.5
 50
179.9999
 51
270.0
  0
LINE
  5
177E5
  8
0
 10
418.42419999999998
 20
-887.32330000000002
 30
1.0
 11
418.42419999999998
 21
-890.17330000000004
 31
1.0
  0
LINE
  5
177E6
  8
0
 10
418.77420000000001
 20
-890.52329999999995
 30
1.0
 11
418.42419999999998
 21
-890.17330000000004
 31
1.0
  0
LINE
  5
177E7
  8
0
 10
420.2242
 20
-885.52329999999995
 30
1.0
 11
418.42419999999998
 21
-887.32330000000002
 31
1.0
  0
LINE
  5
177E8
  8
0
 10
422.07420000000002
 20
-890.52329999999995
 30
1.0
 11
418.77420000000001
 21
-890.52329999999995
 31
1.0
  0
LINE
  5
177E9
  8
0
 10
420.62419999999992
 20
-885.52329999999995
 30
1.0
 11
420.2242
 21
-885.52329999999995
 31
1.0
  0
LINE
  5
177EA
  8
0
 10
422.42419999999998
 20
-890.17330000000004
 30
1.0
 11
422.07420000000002
 21
-890.52329999999995
 31
1.0
  0
LINE
  5
177EB
  8
0
 10
420.62419999999992
 20
-885.52329999999995
 30
1.0
 11
422.42419999999998
 21
-887.32330000000002
 31
1.0
  0
LINE
  5
177EC
  8
0
 10
422.42419999999998
 20
-887.32330000000002
 30
1.0
 11
422.42419999999998
 21
-890.17330000000004
 31
1.0
  0
TEXT
  5
177ED
  8
1DIM
 10
428.59089999999998
 20
-907.17129999999997
 30
0.0
 40
3.5
  1
21 
  0
LINE
  5
177EE
  8
0
  6
BYBLOCK
 10
422.42419999999998
 20
-908.40719999999999
 30
0.0
 11
420.42419999999993
 21
-907.87130000000002
 31
0.0
  0
LINE
  5
177EF
  8
0
  6
BYBLOCK
 10
420.42419999999993
 20
-907.87130000000002
 30
0.0
 11
422.42419999999998
 21
-907.33540000000005
 31
0.0
  0
LINE
  5
177F0
  8
0
  6
BYBLOCK
 10
420.42419999999993
 20
-907.87130000000002
 30
0.0
 11
422.42419999999998
 21
-907.87130000000002
 31
0.0
  0
LINE
  5
177F1
  8
0
  6
BYBLOCK
 10
439.42419999999998
 20
-907.33540000000005
 30
0.0
 11
441.42419999999993
 21
-907.87130000000002
 31
0.0
  0
LINE
  5
177F2
  8
0
  6
BYBLOCK
 10
441.42419999999993
 20
-907.87130000000002
 30
0.0
 11
439.42419999999998
 21
-908.40719999999999
 31
0.0
  0
LINE
  5
177F3
  8
0
  6
BYBLOCK
 10
441.42419999999993
 20
-907.87130000000002
 30
0.0
 11
439.42419999999998
 21
-907.87130000000002
 31
0.0
  0
TEXT
  5
177F4
  8
1DIM
 10
137.2242
 20
-874.12130000000002
 30
0.0
 40
3.5
  1
φ12
 50
90.0
  0
LINE
  5
177F5
  8
0
  6
BYBLOCK
 10
137.38829999999999
 20
-878.87129999999991
 30
0.0
 11
137.92420000000001
 21
-876.87129999999991
 31
0.0
  0
LINE
  5
177F6
  8
0
  6
BYBLOCK
 10
137.92420000000001
 20
-876.87129999999991
 30
0.0
 11
138.46010000000001
 21
-878.87129999999991
 31
0.0
  0
LINE
  5
177F7
  8
0
  6
BYBLOCK
 10
137.92420000000001
 20
-876.87129999999991
 30
0.0
 11
137.92420000000001
 21
-878.87129999999991
 31
0.0
  0
LINE
  5
177F8
  8
0
  6
BYBLOCK
 10
138.46010000000001
 20
-886.87129999999991
 30
0.0
 11
137.92420000000001
 21
-888.87130000000002
 31
0.0
  0
LINE
  5
177F9
  8
0
  6
BYBLOCK
 10
137.92420000000001
 20
-888.87130000000002
 30
0.0
 11
137.38829999999999
 21
-886.87129999999991
 31
0.0
  0
LINE
  5
177FA
  8
0
  6
BYBLOCK
 10
137.92420000000001
 20
-888.87130000000002
 30
0.0
 11
137.92420000000001
 21
-886.87129999999991
 31
0.0
  0
TEXT
  5
177FB
  8
1DIM
 10
375.00749999999999
 20
-907.17129999999997
 30
0.0
 40
3.5
  1
39 
  0
LINE
  5
177FC
  8
0
  6
BYBLOCK
 10
395.42419999999998
 20
-907.33540000000005
 30
0.0
 11
397.42419999999998
 21
-907.87130000000002
 31
0.0
  0
LINE
  5
177FD
  8
0
  6
BYBLOCK
 10
397.42419999999998
 20
-907.87130000000002
 30
0.0
 11
395.42419999999998
 21
-908.40719999999999
 31
0.0
  0
LINE
  5
177FE
  8
0
  6
BYBLOCK
 10
397.42419999999998
 20
-907.87130000000002
 30
0.0
 11
395.42419999999998
 21
-907.87130000000002
 31
0.0
  0
LINE
  5
177FF
  8
0
  6
BYBLOCK
 10
360.42419999999998
 20
-908.40719999999999
 30
0.0
 11
358.42419999999998
 21
-907.87130000000002
 31
0.0
  0
LINE
  5
17800
  8
0
  6
BYBLOCK
 10
358.42419999999998
 20
-907.87130000000002
 30
0.0
 11
360.42419999999998
 21
-907.33540000000005
 31
0.0
  0
LINE
  5
17801
  8
0
  6
BYBLOCK
 10
358.42419999999998
 20
-907.87130000000002
 30
0.0
 11
360.42419999999998
 21
-907.87130000000002
 31
0.0
  0
LINE
  5
17802
  8
1DIM
 10
138.6902
 20
-815.11779999999987
 30
0.0
 11
147.48500000000001
 21
-830.87879999999996
 31
0.0
  0
LINE
  5
17803
  8
1DIM
 10
147.48500000000001
 20
-830.87879999999996
 30
0.0
 11
182.85169999999999
 21
-830.87879999999996
 31
0.0
  0
LINE
  5
17804
  8
1DIM
 10
282.65890000000002
 20
-812.57619999999986
 30
0.0
 11
299.69200000000001
 21
-846.65409999999986
 31
0.0
  0
LINE
  5
17805
  8
1DIM
 10
299.69200000000001
 20
-846.65409999999986
 30
0.0
 11
335.05869999999999
 21
-846.65409999999986
 31
0.0
  0
LINE
  5
17806
  8
1DIM
 10
246.72409999999999
 20
-771.93960000000004
 30
0.0
 11
240.0984
 21
-782.40380000000005
 31
0.0
  0
LINE
  5
17807
  8
1DIM
 10
240.0984
 20
-782.40380000000005
 30
0.0
 11
192.1317
 21
-782.40380000000005
 31
0.0
  0
LINE
  5
17808
  8
1DIM
 10
252.92939999999999
 20
-781.99170000000004
 30
0.0
 11
244.30770000000001
 21
-795.58100000000002
 31
0.0
  0
LINE
  5
17809
  8
0
 10
271.92430000000002
 20
-736.37130000000002
 30
0.0
 11
270.42430000000002
 21
-741.67129999999986
 31
0.0
  0
LINE
  5
1780A
  8
0
 10
270.42430000000002
 20
-741.67129999999986
 30
0.0
 11
270.42430000000002
 21
-766.37130000000002
 31
0.0
  0
LINE
  5
1780B
  8
0
 10
271.92430000000002
 20
-736.37130000000002
 30
0.0
 11
273.42430000000002
 21
-741.67129999999986
 31
0.0
  0
LINE
  5
1780C
  8
0
 10
268.42419999999998
 20
-766.37130000000002
 30
0.0
 11
270.42430000000002
 21
-766.37130000000002
 31
0.0
  0
LINE
  5
1780D
  8
0
 10
273.42430000000002
 20
-741.67129999999986
 30
0.0
 11
273.42430000000002
 21
-766.37130000000002
 31
0.0
  0
LINE
  5
1780E
  8
0
 10
268.42419999999998
 20
-766.37130000000002
 30
0.0
 11
268.42419999999998
 21
-767.47130000000004
 31
0.0
  0
LINE
  5
1780F
  8
0
 10
273.42430000000002
 20
-766.37130000000002
 30
0.0
 11
275.42419999999998
 21
-766.37130000000002
 31
0.0
  0
ARC
  5
17810
  8
0
 10
269.92419999999998
 20
-767.47130000000004
 30
0.0
 40
1.5
 50
180.0
 51
269.99990000000003
  0
LINE
  5
17811
  8
0
 10
275.42419999999998
 20
-766.37130000000002
 30
0.0
 11
275.42419999999998
 21
-767.47130000000004
 31
0.0
  0
LINE
  5
17812
  8
0
 10
269.92419999999998
 20
-768.97130000000004
 30
0.0
 11
273.92419999999998
 21
-768.97130000000004
 31
0.0
  0
ARC
  5
17813
  8
0
 10
273.92419999999998
 20
-767.47130000000004
 30
0.0
 40
1.5
 50
269.99990000000003
 51
0.0
  0
LINE
  5
17814
  8
0
 10
-178.07570000000001
 20
-736.37130000000002
 30
0.0
 11
-179.57570000000001
 21
-741.67129999999986
 31
0.0
  0
LINE
  5
17815
  8
0
 10
-179.57570000000001
 20
-741.67129999999986
 30
0.0
 11
-179.57570000000001
 21
-766.37130000000002
 31
0.0
  0
LINE
  5
17816
  8
0
 10
-178.07570000000001
 20
-736.37130000000002
 30
0.0
 11
-176.57570000000001
 21
-741.67129999999986
 31
0.0
  0
LINE
  5
17817
  8
0
 10
-181.57579999999999
 20
-766.37130000000002
 30
0.0
 11
-179.57570000000001
 21
-766.37130000000002
 31
0.0
  0
LINE
  5
17818
  8
0
 10
-176.57570000000001
 20
-741.67129999999986
 30
0.0
 11
-176.57570000000001
 21
-766.37130000000002
 31
0.0
  0
LINE
  5
17819
  8
0
 10
-181.57579999999999
 20
-766.37130000000002
 30
0.0
 11
-181.57579999999999
 21
-767.47130000000004
 31
0.0
  0
LINE
  5
1781A
  8
0
 10
-176.57570000000001
 20
-766.37130000000002
 30
0.0
 11
-174.57579999999999
 21
-766.37130000000002
 31
0.0
  0
ARC
  5
1781B
  8
0
 10
-180.07579999999999
 20
-767.47130000000004
 30
0.0
 40
1.5
 50
180.0
 51
269.99990000000003
  0
LINE
  5
1781C
  8
0
 10
-174.57579999999999
 20
-766.37130000000002
 30
0.0
 11
-174.57579999999999
 21
-767.47130000000004
 31
0.0
  0
LINE
  5
1781D
  8
0
 10
-180.07579999999999
 20
-768.97130000000004
 30
0.0
 11
-176.07579999999999
 21
-768.97130000000004
 31
0.0
  0
ARC
  5
1781E
  8
0
 10
-176.07579999999999
 20
-767.47130000000004
 30
0.0
 40
1.5
 50
269.99990000000003
 51
0.0
  0
TEXT
  5
1781F
  8
1DIM
 10
416.50749999999988
 20
-855.17129999999986
 30
0.0
 40
3.5
  1
44 
  0
LINE
  5
17820
  8
0
  6
BYBLOCK
 10
439.42419999999998
 20
-855.33540000000005
 30
0.0
 11
441.42419999999993
 21
-855.87130000000002
 31
0.0
  0
LINE
  5
17821
  8
0
  6
BYBLOCK
 10
441.42419999999993
 20
-855.87130000000002
 30
0.0
 11
439.42419999999998
 21
-856.40719999999988
 31
0.0
  0
LINE
  5
17822
  8
0
  6
BYBLOCK
 10
441.42419999999993
 20
-855.87130000000002
 30
0.0
 11
439.42419999999998
 21
-855.87130000000002
 31
0.0
  0
LINE
  5
17823
  8
0
  6
BYBLOCK
 10
399.42419999999998
 20
-856.40719999999988
 30
0.0
 11
397.42419999999998
 21
-855.87130000000002
 31
0.0
  0
LINE
  5
17824
  8
0
  6
BYBLOCK
 10
397.42419999999998
 20
-855.87130000000002
 30
0.0
 11
399.42419999999998
 21
-855.33540000000005
 31
0.0
  0
LINE
  5
17825
  8
0
  6
BYBLOCK
 10
397.42419999999998
 20
-855.87130000000002
 30
0.0
 11
399.42419999999998
 21
-855.87130000000002
 31
0.0
  0
LINE
  5
17826
  8
1DIM
 10
205.00989999999999
 20
-838.97760000000005
 30
0.0
 11
213.34479999999999
 21
-830.87879999999996
 31
0.0
  0
LINE
  5
17827
  8
1DIM
 10
213.34479999999999
 20
-830.87879999999996
 30
0.0
 11
248.7115
 21
-830.87879999999996
 31
0.0
  0
LINE
  5
17828
  8
1DIM
 10
249.41489999999999
 20
-909.23779999999999
 30
0.0
 11
240.0984
 21
-921.40239999999994
 31
0.0
  0
LINE
  5
17829
  8
1DIM
 10
240.0984
 20
-921.40239999999994
 30
0.0
 11
192.1317
 21
-921.40239999999994
 31
0.0
  0
VIEWPORT
  5
57
 67
     1
  8
0
 10
5.7225006584107403
 20
4.0066664707003623
 30
0.0
 40
12.70516414486376
 41
8.7426062480295741
 68
     1
 69
     1
1001
ACAD
1000
MVIEW
1002
{
1070
    16
1010
0.0
1020
0.0
1030
0.0
1010
0.0
1020
0.0
1030
1.0
1040
0.0
1040
8.7426062480295741
1040
5.7225006584107403
1040
4.0066664707003623
1040
50.0
1040
0.0
1040
0.0
1070
     0
1070
   100
1070
     1
1070
     1
1070
     0
1070
     0
1070
     0
1070
     0
1040
0.0
1040
0.0
1040
0.0
1040
10.0
1040
10.0
1040
10.0
1040
10.0
1070
     0
1002
{
1002
}
1002
}
  0
ENDSEC
  0
EOF
