  0
SECTION
  2
HEADER
  9
$ACADVER
  1
AC1009
  9
$INSBASE
 10
0.0
 20
0.0
 30
0.0
  9
$EXTMIN
 10
14.706777938642141
 20
-1624.8162
 30
0.0
  9
$EXTMAX
 10
384.27359999999999
 20
-1330.3502000000001
 30
0.0
  9
$LIMMIN
 10
0.0
 20
0.0
  9
$LIMMAX
 10
420.0
 20
297.0
  9
$ORTHOMODE
 70
     0
  9
$REGENMODE
 70
     1
  9
$FILLMODE
 70
     1
  9
$QTEXTMODE
 70
     0
  9
$MIRRTEXT
 70
     0
  9
$DRAGMODE
 70
     2
  9
$LTSCALE
 40
0.5
  9
$OSMODE
 70
  2173
  9
$ATTMODE
 70
     1
  9
$TEXTSIZE
 40
4.0
  9
$TRACEWID
 40
1.0
  9
$TEXTSTYLE
  7
STANDARD
  9
$CLAYER
  8
1TEXT
  9
$CELTYPE
  6
BYLAYER
  9
$CECOLOR
 62
   256
  9
$DIMSCALE
 40
1.0
  9
$DIMASZ
 40
2.0
  9
$DIMEXO
 40
0.0
  9
$DIMDLI
 40
7.0
  9
$DIMRND
 40
0.0
  9
$DIMDLE
 40
0.0
  9
$DIMEXE
 40
1.0
  9
$DIMTP
 40
0.0
  9
$DIMTM
 40
0.0
  9
$DIMTXT
 40
3.5
  9
$DIMCEN
 40
0.0
  9
$DIMTSZ
 40
0.0
  9
$DIMTOL
 70
     0
  9
$DIMLIM
 70
     0
  9
$DIMTIH
 70
     0
  9
$DIMTOH
 70
     0
  9
$DIMSE1
 70
     0
  9
$DIMSE2
 70
     0
  9
$DIMTAD
 70
     1
  9
$DIMZIN
 70
     8
  9
$DIMBLK
  1

  9
$DIMASO
 70
     1
  9
$DIMSHO
 70
     1
  9
$DIMPOST
  1
 
  9
$DIMAPOST
  1

  9
$DIMALT
 70
     0
  9
$DIMALTD
 70
     2
  9
$DIMALTF
 40
25.399999999999999
  9
$DIMLFAC
 40
1.0
  9
$DIMTOFL
 70
     1
  9
$DIMTVP
 40
0.0
  9
$DIMTIX
 70
     0
  9
$DIMSOXD
 70
     0
  9
$DIMSAH
 70
     1
  9
$DIMBLK1
  1
OPEN30
  9
$DIMBLK2
  1
OPEN30
  9
$DIMSTYLE
  2
NEWX10
  9
$DIMCLRD
 70
   256
  9
$DIMCLRE
 70
   256
  9
$DIMCLRT
 70
   201
  9
$DIMTFAC
 40
0.7
  9
$DIMGAP
 40
0.7
  9
$LUNITS
 70
     2
  9
$LUPREC
 70
     4
  9
$SKETCHINC
 40
1.0
  9
$FILLETRAD
 40
0.0
  9
$AUNITS
 70
     0
  9
$AUPREC
 70
     2
  9
$MENU
  1
acad
  9
$ELEVATION
 40
0.0
  9
$PELEVATION
 40
0.0
  9
$THICKNESS
 40
0.0
  9
$LIMCHECK
 70
     0
  9
$BLIPMODE
 70
     0
  9
$CHAMFERA
 40
10.0
  9
$CHAMFERB
 40
10.0
  9
$SKPOLY
 70
     0
  9
$TDCREATE
 40
2453033.7327000001
  9
$TDUPDATE
 40
2453406.4897717708
  9
$TDINDWG
 40
1.5447159144
  9
$TDUSRTIMER
 40
1.5447159144
  9
$USRTIMER
 70
     1
  9
$ANGBASE
 50
0.0
  9
$ANGDIR
 70
     0
  9
$PDMODE
 70
     0
  9
$PDSIZE
 40
0.0
  9
$PLINEWID
 40
0.0
  9
$COORDS
 70
     2
  9
$SPLFRAME
 70
     0
  9
$SPLINETYPE
 70
     6
  9
$SPLINESEGS
 70
     8
  9
$ATTDIA
 70
     0
  9
$ATTREQ
 70
     1
  9
$HANDLING
 70
     1
  9
$HANDSEED
  5
1690F
  9
$SURFTAB1
 70
     6
  9
$SURFTAB2
 70
     6
  9
$SURFTYPE
 70
     6
  9
$SURFU
 70
     6
  9
$SURFV
 70
     6
  9
$UCSNAME
  2

  9
$UCSORG
 10
0.0
 20
0.0
 30
0.0
  9
$UCSXDIR
 10
1.0
 20
0.0
 30
0.0
  9
$UCSYDIR
 10
0.0
 20
1.0
 30
0.0
  9
$PUCSNAME
  2

  9
$PUCSORG
 10
0.0
 20
0.0
 30
0.0
  9
$PUCSXDIR
 10
1.0
 20
0.0
 30
0.0
  9
$PUCSYDIR
 10
0.0
 20
1.0
 30
0.0
  9
$USERI1
 70
     0
  9
$USERI2
 70
     0
  9
$USERI3
 70
     0
  9
$USERI4
 70
     0
  9
$USERI5
 70
     0
  9
$USERR1
 40
0.0
  9
$USERR2
 40
0.0
  9
$USERR3
 40
0.0
  9
$USERR4
 40
0.0
  9
$USERR5
 40
0.0
  9
$WORLDVIEW
 70
     1
  9
$SHADEDGE
 70
     3
  9
$SHADEDIF
 70
    70
  9
$TILEMODE
 70
     1
  9
$MAXACTVP
 70
    48
  9
$PLIMCHECK
 70
     0
  9
$PEXTMIN
 10
1.0000000000000000E+020
 20
1.0000000000000000E+020
 30
1.0000000000000000E+020
  9
$PEXTMAX
 10
-1.0000000000000000E+020
 20
-1.0000000000000000E+020
 30
-1.0000000000000000E+020
  9
$PLIMMIN
 10
0.0
 20
0.0
  9
$PLIMMAX
 10
420.0
 20
297.0
  9
$UNITMODE
 70
     0
  9
$VISRETAIN
 70
     1
  9
$PLINEGEN
 70
     0
  9
$PSLTSCALE
 70
     1
  0
ENDSEC
  0
SECTION
  2
TABLES
  0
TABLE
  2
VPORT
 70
     4
  0
VPORT
  2
*ACTIVE
 70
     0
 10
0.0
 20
0.0
 11
1.0
 21
1.0
 12
199.4897470594031
 22
-1477.572899493724
 13
0.0
 23
0.0
 14
10.0
 24
10.0
 15
10.0
 25
10.0
 16
0.0
 26
0.0
 36
1.0
 17
0.0
 27
0.0
 37
0.0
 40
312.6469930121699
 41
1.453246753246753
 42
50.0
 43
0.0
 44
0.0
 50
0.0
 51
0.0
 71
     0
 72
   100
 73
     1
 74
     1
 75
     0
 76
     0
 77
     0
 78
     0
  0
ENDTAB
  0
TABLE
  2
LTYPE
 70
     5
  0
LTYPE
  2
CONTINUOUS
 70
     0
  3
Solid line
 72
    65
 73
     0
 40
0.0
  0
LTYPE
  2
CENTER2
 70
     0
  3
Center (.5x) ___ _ ___ _ ___ _ ___ _ ___ _ ___
 72
    65
 73
     4
 40
28.574999999999999
 49
19.050000000000001
 49
-3.1749999999999989
 49
3.1749999999999989
 49
-3.1749999999999989
  0
LTYPE
  2
PHANTOM2
 70
     0
  3
Phantom (.5x) ___ _ _ ___ _ _ ___ _ _ ___ _ _
 72
    65
 73
     6
 40
31.75
 49
15.875
 49
-3.1749999999999989
 49
3.1749999999999989
 49
-3.1749999999999989
 49
3.1749999999999989
 49
-3.1749999999999989
  0
ENDTAB
  0
TABLE
  2
LAYER
 70
    13
  0
LAYER
  2
0
 70
     0
 62
     7
  6
CONTINUOUS
  0
LAYER
  2
1TEXT
 70
     0
 62
     7
  6
CONTINUOUS
  0
LAYER
  2
1CENTER
 70
     0
 62
     7
  6
CENTER2
  0
LAYER
  2
1DIM
 70
     0
 62
     7
  6
CONTINUOUS
  0
LAYER
  2
1PHANTOM
 70
     0
 62
     7
  6
PHANTOM2
  0
LAYER
  2
01
 70
     0
 62
     1
  6
CONTINUOUS
  0
LAYER
  2
1HATCH
 70
     0
 62
     7
  6
CONTINUOUS
  0
ENDTAB
  0
TABLE
  2
STYLE
 70
     1
  0
STYLE
  2
STANDARD
 70
     0
 40
0.0
 41
1.0
 50
0.0
 71
     0
 42
4.0
  3
txt.shx
  4
extfont.shx
  0
ENDTAB
  0
TABLE
  2
VIEW
 70
     0
  0
ENDTAB
  0
TABLE
  2
UCS
 70
     0
  0
ENDTAB
  0
TABLE
  2
APPID
 70
     9
  0
APPID
  2
ACAD
 70
     0
  0
APPID
  2
DRAWINGVARIABLESXDATA
 70
     0
  0
APPID
  2
CONTENTTABDATA
 70
     0
  0
APPID
  2
CONTENTCURRENTTAB
 70
     0
  0
APPID
  2
CONTENTBLOCKDESCRIPTION
 70
     0
  0
APPID
  2
CONTENTBLOCKICON
 70
     0
  0
APPID
  2
CONTENTLONGBLOCKNAME
 70
     0
  0
APPID
  2
ACAD_PSEXT
 70
     0
  0
APPID
  2
ACAD_DSTYLE_DIMTEXT_FILL
 70
     0
  0
ENDTAB
  0
TABLE
  2
DIMSTYLE
 70
     1
  0
DIMSTYLE
  2
NEWX10
 70
     0
  3
 
  4

  5

  6

  7

 40
1.0
 41
2.0
 42
0.0
 43
7.0
 44
1.0
 45
0.0
 46
0.0
 47
0.0
 48
0.0
140
3.5
141
0.0
142
0.0
143
25.399999999999999
144
1.0
145
0.0
146
0.7
147
0.7
 71
     0
 72
     0
 73
     0
 74
     0
 75
     0
 76
     0
 77
     1
 78
     8
170
     0
171
     2
172
     1
173
     1
174
     0
175
     0
176
   256
177
   256
178
   201
  0
ENDTAB
  0
ENDSEC
  0
SECTION
  2
BLOCKS
  0
BLOCK
  8
0
  2
$MODEL_SPACE
 70
     0
 10
0.0
 20
0.0
 30
0.0
  3
$MODEL_SPACE
  1

  0
ENDBLK
  5
168B3
  8
0
  0
BLOCK
 67
     1
  8
0
  2
$PAPER_SPACE
 70
     0
 10
0.0
 20
0.0
 30
0.0
  3
$PAPER_SPACE
  1

  0
ENDBLK
  5
168AF
 67
     1
  8
0
  0
BLOCK
  8
0
  2
_OPEN30
 70
     0
 10
0.0
 20
0.0
 30
0.0
  3
_OPEN30
  1

  0
LINE
  5
44
  8
0
  6
BYBLOCK
 62
     0
 10
-1.0
 20
0.2679
 30
0.0
 11
0.0
 21
0.0
 31
0.0
  0
LINE
  5
45
  8
0
  6
BYBLOCK
 62
     0
 10
0.0
 20
0.0
 30
0.0
 11
-1.0
 21
-0.2679
 31
0.0
  0
LINE
  5
46
  8
0
  6
BYBLOCK
 62
     0
 10
0.0
 20
0.0
 30
0.0
 11
-1.0
 21
0.0
 31
0.0
  0
ENDBLK
  5
47
  8
0
  0
ENDSEC
  0
SECTION
  2
ENTITIES
  0
CIRCLE
  5
111EA
  8
1PHANTOM
 10
101.43470000000001
 20
-1486.6629
 30
0.0
 40
15.25
  0
LINE
  5
11212
  8
1PHANTOM
 10
81.434700000000007
 20
-1491.1629
 30
0.0
 11
81.434700000000007
 21
-1482.1629
 31
0.0
  0
CIRCLE
  5
11213
  8
1PHANTOM
 10
90.934700000000007
 20
-1486.6629
 30
0.0
 40
2.1000000000000001
  0
CIRCLE
  5
11214
  8
1PHANTOM
 10
101.43470000000001
 20
-1486.6629
 30
0.0
 40
3.7999999999999989
  0
LINE
  5
11216
  8
1PHANTOM
 10
121.43470000000001
 20
-1491.1629
 30
0.0
 11
121.43470000000001
 21
-1482.1629
 31
0.0
  0
CIRCLE
  5
1121B
  8
1PHANTOM
 10
101.43470000000001
 20
-1495.6629
 30
0.0
 40
2.5
  0
LINE
  5
1121C
  8
1PHANTOM
 10
81.934700000000007
 20
-1491.6629
 30
0.0
 11
87.027699999999996
 21
-1491.6629
 31
0.0
  0
ARC
  5
1121D
  8
1PHANTOM
 10
81.934700000000007
 20
-1491.1629
 30
0.0
 40
0.5
 50
180.0
 51
270.0
  0
ARC
  5
1121F
  8
1PHANTOM
 10
120.93470000000001
 20
-1491.1629
 30
0.0
 40
0.5
 50
270.0
 51
0.0
  0
LINE
  5
11220
  8
1PHANTOM
 10
115.84180000000001
 20
-1491.6629
 30
0.0
 11
120.93470000000001
 21
-1491.6629
 31
0.0
  0
CIRCLE
  5
11222
  8
1PHANTOM
 10
101.43470000000001
 20
-1477.6629
 30
0.0
 40
2.5
  0
LINE
  5
11224
  8
1PHANTOM
 10
81.934700000000007
 20
-1481.6629
 30
0.0
 11
87.027699999999996
 21
-1481.6629
 31
0.0
  0
ARC
  5
11225
  8
1PHANTOM
 10
81.934700000000007
 20
-1482.1629
 30
0.0
 40
0.5
 50
90.0
 51
180.0
  0
ARC
  5
11228
  8
1PHANTOM
 10
120.93470000000001
 20
-1482.1629
 30
0.0
 40
0.5
 50
0.0
 51
90.0
  0
LINE
  5
11229
  8
1PHANTOM
 10
115.84180000000001
 20
-1481.6629
 30
0.0
 11
120.93470000000001
 21
-1481.6629
 31
0.0
  0
LINE
  5
14982
  8
01
 10
39.434699999999999
 20
-1560.1679999999999
 30
0.0
 11
163.43469999999999
 21
-1560.1679999999999
 31
0.0
  0
LINE
  5
14983
  8
01
 10
36.434699999999999
 20
-1481.0128999999999
 30
0.0
 11
84.434700000000007
 21
-1481.0128999999999
 31
0.0
  0
ARC
  5
14984
  8
01
 10
101.43470000000001
 20
-1486.6629
 30
0.0
 40
25.021799999999999
 50
13.0501
 51
166.94990000000001
  0
ARC
  5
14985
  8
01
 10
101.43470000000001
 20
-1486.6629
 30
0.0
 40
23.169499999999999
 50
14.1142
 51
165.88579999999999
  0
LINE
  5
14986
  8
01
 10
36.434699999999999
 20
-1480.5128999999999
 30
0.0
 11
36.434699999999999
 21
-1538.7457999999999
 31
0.0
  0
ARC
  5
14987
  8
01
 10
36.434699999999999
 20
-1500.6629
 30
0.0
 40
18.0
 50
93.184700000000007
 51
180.0
  0
LINE
  5
14988
  8
01
 10
36.434699999999999
 20
-1519.675
 30
0.0
 11
36.434699999999999
 21
-1557.1679999999999
 31
0.0
  0
LINE
  5
14989
  8
01
 10
18.434699999999999
 20
-1500.6629
 30
0.0
 11
18.434699999999999
 21
-1538.4413999999999
 31
0.0
  0
LINE
  5
1498A
  8
01
 10
26.434699999999999
 20
-1500.6629
 30
0.0
 11
26.434699999999999
 21
-1538.4413999999999
 31
0.0
  0
ARC
  5
1498B
  8
01
 10
36.434699999999999
 20
-1538.4413999999999
 30
0.0
 40
18.0
 50
180.0
 51
270.0
  0
ARC
  5
1498C
  8
01
 10
39.434699999999999
 20
-1557.1679999999999
 30
0.0
 40
3.0
 50
180.0
 51
270.0
  0
ARC
  5
1498D
  8
01
 10
36.434699999999999
 20
-1538.4413999999999
 30
0.0
 40
10.0
 50
180.0
 51
270.0
  0
ARC
  5
1498E
  8
01
 10
36.434699999999999
 20
-1500.6629
 30
0.0
 40
10.0
 50
95.739199999999997
 51
180.0
  0
LINE
  5
1498F
  8
01
 10
166.43469999999999
 20
-1480.5128999999999
 30
0.0
 11
166.43469999999999
 21
-1538.7457999999999
 31
0.0
  0
LINE
  5
14990
  8
01
 10
84.434700000000007
 20
-1481.0128999999999
 30
0.0
 11
84.434700000000007
 21
-1493.0128999999999
 31
0.0
  0
LINE
  5
14991
  8
01
 10
118.43470000000001
 20
-1481.0128999999999
 30
0.0
 11
118.43470000000001
 21
-1493.0128999999999
 31
0.0
  0
LINE
  5
14992
  8
01
 10
118.43470000000001
 20
-1480.5128999999999
 30
0.0
 11
118.43470000000001
 21
-1492.8128999999999
 31
0.0
  0
LINE
  5
14993
  8
01
 10
117.43470000000001
 20
-1480.5128999999999
 30
0.0
 11
117.43470000000001
 21
-1492.8128999999999
 31
0.0
  0
LINE
  5
14994
  8
01
 10
84.434700000000007
 20
-1480.5128999999999
 30
0.0
 11
84.434700000000007
 21
-1492.8128999999999
 31
0.0
  0
LINE
  5
14995
  8
01
 10
85.434700000000007
 20
-1480.5128999999999
 30
0.0
 11
85.434700000000007
 21
-1492.8128999999999
 31
0.0
  0
LINE
  5
14996
  8
01
 10
86.434700000000007
 20
-1481.6129000000001
 30
0.0
 11
86.434700000000007
 21
-1491.7129
 31
0.0
  0
LINE
  5
14997
  8
01
 10
116.43470000000001
 20
-1481.6129000000001
 30
0.0
 11
116.43470000000001
 21
-1491.7129
 31
0.0
  0
LINE
  5
14998
  8
01
 10
92.284499999999994
 20
-1481.5128999999999
 30
0.0
 11
92.284499999999994
 21
-1491.8128999999999
 31
0.0
  0
LINE
  5
14999
  8
01
 10
110.58499999999999
 20
-1481.5128999999999
 30
0.0
 11
110.58499999999999
 21
-1491.8128999999999
 31
0.0
  0
ARC
  5
1499A
  8
01
 10
101.43470000000001
 20
-1488.0128999999999
 30
0.0
 40
18.0
 50
202.6199
 51
337.38010000000003
  0
LINE
  5
1499B
  8
01
 10
110.58499999999999
 20
-1491.7129
 30
0.0
 11
116.43470000000001
 21
-1491.7129
 31
0.0
  0
ARC
  5
1499C
  8
01
 10
101.43470000000001
 20
-1486.6629
 30
0.0
 40
10.734400000000001
 50
208.06360000000009
 51
331.93639999999999
  0
ARC
  5
1499D
  8
01
 10
101.43470000000001
 20
-1486.6629
 30
0.0
 40
10.5
 50
209.37190000000001
 51
330.62810000000002
  0
LINE
  5
1499E
  8
01
 10
85.434700000000007
 20
-1490.6629
 30
0.0
 11
86.434700000000007
 21
-1490.6629
 31
0.0
  0
LINE
  5
1499F
  8
01
 10
85.434700000000007
 20
-1482.6629
 30
0.0
 11
86.434700000000007
 21
-1482.6629
 31
0.0
  0
ARC
  5
149A0
  8
01
 10
89.434700000000007
 20
-1493.0128999999999
 30
0.0
 40
5.0
 50
180.0
 51
202.6199
  0
LINE
  5
149A1
  8
01
 10
85.434700000000007
 20
-1492.8128999999999
 30
0.0
 11
84.434700000000007
 21
-1492.8128999999999
 31
0.0
  0
LINE
  5
149A2
  8
01
 10
86.434700000000007
 20
-1491.7129
 30
0.0
 11
92.284499999999994
 21
-1491.7129
 31
0.0
  0
POLYLINE
  5
149A3
  8
01
 66
     1
 10
0.0
 20
0.0
 30
0.0
 70
     8
  0
VERTEX
  5
16606
  8
01
 10
97.934700000000007
 20
-1501.71
 30
0.0
 70
    32
  0
VERTEX
  5
16607
  8
01
 10
97.938900000000004
 20
-1501.8299999999999
 30
0.0
 70
    32
  0
VERTEX
  5
16608
  8
01
 10
97.951599999999999
 20
-1501.9400000000001
 30
0.0
 70
    32
  0
VERTEX
  5
16609
  8
01
 10
97.972600000000014
 20
-1502.0599999999999
 30
0.0
 70
    32
  0
VERTEX
  5
1660A
  8
01
 10
98.001999999999995
 20
-1502.1700000000001
 30
0.0
 70
    32
  0
VERTEX
  5
1660B
  8
01
 10
98.039599999999993
 20
-1502.28
 30
0.0
 70
    32
  0
VERTEX
  5
1660C
  8
01
 10
98.085400000000007
 20
-1502.3900000000001
 30
0.0
 70
    32
  0
VERTEX
  5
1660D
  8
01
 10
98.139300000000006
 20
-1502.5
 30
0.0
 70
    32
  0
VERTEX
  5
1660E
  8
01
 10
98.201099999999997
 20
-1502.6099999999999
 30
0.0
 70
    32
  0
VERTEX
  5
1660F
  8
01
 10
98.270700000000005
 20
-1502.71
 30
0.0
 70
    32
  0
VERTEX
  5
16610
  8
01
 10
98.348000000000013
 20
-1502.8199999999999
 30
0.0
 70
    32
  0
VERTEX
  5
16611
  8
01
 10
98.432599999999994
 20
-1502.9200000000001
 30
0.0
 70
    32
  0
VERTEX
  5
16612
  8
01
 10
98.524600000000007
 20
-1503.01
 30
0.0
 70
    32
  0
VERTEX
  5
16613
  8
01
 10
98.623500000000007
 20
-1503.1099999999999
 30
0.0
 70
    32
  0
VERTEX
  5
16614
  8
01
 10
98.729200000000006
 20
-1503.2
 30
0.0
 70
    32
  0
VERTEX
  5
16615
  8
01
 10
98.841399999999993
 20
-1503.29
 30
0.0
 70
    32
  0
VERTEX
  5
16616
  8
01
 10
98.959800000000016
 20
-1503.3699999999999
 30
0.0
 70
    32
  0
VERTEX
  5
16617
  8
01
 10
99.084199999999996
 20
-1503.45
 30
0.0
 70
    32
  0
VERTEX
  5
16618
  8
01
 10
99.214299999999994
 20
-1503.52
 30
0.0
 70
    32
  0
VERTEX
  5
16619
  8
01
 10
99.349800000000016
 20
-1503.5899999999999
 30
0.0
 70
    32
  0
VERTEX
  5
1661A
  8
01
 10
99.490200000000002
 20
-1503.6600000000001
 30
0.0
 70
    32
  0
VERTEX
  5
1661B
  8
01
 10
99.635300000000001
 20
-1503.72
 30
0.0
 70
    32
  0
VERTEX
  5
1661C
  8
01
 10
99.784800000000004
 20
-1503.78
 30
0.0
 70
    32
  0
VERTEX
  5
1661D
  8
01
 10
99.938299999999998
 20
-1503.8299999999999
 30
0.0
 70
    32
  0
VERTEX
  5
1661E
  8
01
 10
100.095
 20
-1503.8800000000001
 30
0.0
 70
    32
  0
VERTEX
  5
1661F
  8
01
 10
100.256
 20
-1503.9200000000001
 30
0.0
 70
    32
  0
VERTEX
  5
16620
  8
01
 10
100.419
 20
-1503.95
 30
0.0
 70
    32
  0
VERTEX
  5
16621
  8
01
 10
100.584
 20
-1503.98
 30
0.0
 70
    32
  0
VERTEX
  5
16622
  8
01
 10
100.752
 20
-1504.01
 30
0.0
 70
    32
  0
VERTEX
  5
16623
  8
01
 10
100.92100000000001
 20
-1504.03
 30
0.0
 70
    32
  0
VERTEX
  5
16624
  8
01
 10
101.092
 20
-1504.04
 30
0.0
 70
    32
  0
VERTEX
  5
16625
  8
01
 10
101.26300000000001
 20
-1504.05
 30
0.0
 70
    32
  0
VERTEX
  5
16626
  8
01
 10
101.435
 20
-1504.05
 30
0.0
 70
    32
  0
VERTEX
  5
16627
  8
01
 10
101.60599999999999
 20
-1504.05
 30
0.0
 70
    32
  0
VERTEX
  5
16628
  8
01
 10
101.77800000000001
 20
-1504.04
 30
0.0
 70
    32
  0
VERTEX
  5
16629
  8
01
 10
101.94799999999999
 20
-1504.03
 30
0.0
 70
    32
  0
VERTEX
  5
1662A
  8
01
 10
102.11799999999999
 20
-1504.01
 30
0.0
 70
    32
  0
VERTEX
  5
1662B
  8
01
 10
102.285
 20
-1503.98
 30
0.0
 70
    32
  0
VERTEX
  5
1662C
  8
01
 10
102.45099999999999
 20
-1503.95
 30
0.0
 70
    32
  0
VERTEX
  5
1662D
  8
01
 10
102.614
 20
-1503.9200000000001
 30
0.0
 70
    32
  0
VERTEX
  5
1662E
  8
01
 10
102.774
 20
-1503.8800000000001
 30
0.0
 70
    32
  0
VERTEX
  5
1662F
  8
01
 10
102.931
 20
-1503.8299999999999
 30
0.0
 70
    32
  0
VERTEX
  5
16630
  8
01
 10
103.08499999999999
 20
-1503.78
 30
0.0
 70
    32
  0
VERTEX
  5
16631
  8
01
 10
103.23399999999999
 20
-1503.72
 30
0.0
 70
    32
  0
VERTEX
  5
16632
  8
01
 10
103.379
 20
-1503.6600000000001
 30
0.0
 70
    32
  0
VERTEX
  5
16633
  8
01
 10
103.52
 20
-1503.5899999999999
 30
0.0
 70
    32
  0
VERTEX
  5
16634
  8
01
 10
103.655
 20
-1503.52
 30
0.0
 70
    32
  0
VERTEX
  5
16635
  8
01
 10
103.785
 20
-1503.45
 30
0.0
 70
    32
  0
VERTEX
  5
16636
  8
01
 10
103.91
 20
-1503.3699999999999
 30
0.0
 70
    32
  0
VERTEX
  5
16637
  8
01
 10
104.02800000000001
 20
-1503.29
 30
0.0
 70
    32
  0
VERTEX
  5
16638
  8
01
 10
104.14
 20
-1503.2
 30
0.0
 70
    32
  0
VERTEX
  5
16639
  8
01
 10
104.246
 20
-1503.1099999999999
 30
0.0
 70
    32
  0
VERTEX
  5
1663A
  8
01
 10
104.345
 20
-1503.01
 30
0.0
 70
    32
  0
VERTEX
  5
1663B
  8
01
 10
104.437
 20
-1502.9200000000001
 30
0.0
 70
    32
  0
VERTEX
  5
1663C
  8
01
 10
104.521
 20
-1502.8199999999999
 30
0.0
 70
    32
  0
VERTEX
  5
1663D
  8
01
 10
104.599
 20
-1502.71
 30
0.0
 70
    32
  0
VERTEX
  5
1663E
  8
01
 10
104.66800000000001
 20
-1502.6099999999999
 30
0.0
 70
    32
  0
VERTEX
  5
1663F
  8
01
 10
104.73
 20
-1502.5
 30
0.0
 70
    32
  0
VERTEX
  5
16640
  8
01
 10
104.78400000000001
 20
-1502.3900000000001
 30
0.0
 70
    32
  0
VERTEX
  5
16641
  8
01
 10
104.83
 20
-1502.28
 30
0.0
 70
    32
  0
VERTEX
  5
16642
  8
01
 10
104.867
 20
-1502.1700000000001
 30
0.0
 70
    32
  0
VERTEX
  5
16643
  8
01
 10
104.89700000000001
 20
-1502.0599999999999
 30
0.0
 70
    32
  0
VERTEX
  5
16644
  8
01
 10
104.91800000000001
 20
-1501.9400000000001
 30
0.0
 70
    32
  0
VERTEX
  5
16645
  8
01
 10
104.93000000000001
 20
-1501.8299999999999
 30
0.0
 70
    32
  0
VERTEX
  5
16646
  8
01
 10
104.935
 20
-1501.71
 30
0.0
 70
    32
  0
VERTEX
  5
16647
  8
01
 10
104.93000000000001
 20
-1501.5999999999999
 30
0.0
 70
    32
  0
VERTEX
  5
16648
  8
01
 10
104.91800000000001
 20
-1501.48
 30
0.0
 70
    32
  0
VERTEX
  5
16649
  8
01
 10
104.89700000000001
 20
-1501.3699999999999
 30
0.0
 70
    32
  0
VERTEX
  5
1664A
  8
01
 10
104.867
 20
-1501.26
 30
0.0
 70
    32
  0
VERTEX
  5
1664B
  8
01
 10
104.83
 20
-1501.1400000000001
 30
0.0
 70
    32
  0
VERTEX
  5
1664C
  8
01
 10
104.78400000000001
 20
-1501.03
 30
0.0
 70
    32
  0
VERTEX
  5
1664D
  8
01
 10
104.73
 20
-1500.9200000000001
 30
0.0
 70
    32
  0
VERTEX
  5
1664E
  8
01
 10
104.66800000000001
 20
-1500.8199999999999
 30
0.0
 70
    32
  0
VERTEX
  5
1664F
  8
01
 10
104.599
 20
-1500.71
 30
0.0
 70
    32
  0
VERTEX
  5
16650
  8
01
 10
104.521
 20
-1500.6099999999999
 30
0.0
 70
    32
  0
VERTEX
  5
16651
  8
01
 10
104.437
 20
-1500.51
 30
0.0
 70
    32
  0
VERTEX
  5
16652
  8
01
 10
104.345
 20
-1500.4100000000001
 30
0.0
 70
    32
  0
VERTEX
  5
16653
  8
01
 10
104.246
 20
-1500.3199999999999
 30
0.0
 70
    32
  0
VERTEX
  5
16654
  8
01
 10
104.14
 20
-1500.23
 30
0.0
 70
    32
  0
VERTEX
  5
16655
  8
01
 10
104.02800000000001
 20
-1500.1400000000001
 30
0.0
 70
    32
  0
VERTEX
  5
16656
  8
01
 10
103.91
 20
-1500.0599999999999
 30
0.0
 70
    32
  0
VERTEX
  5
16657
  8
01
 10
103.785
 20
-1499.98
 30
0.0
 70
    32
  0
VERTEX
  5
16658
  8
01
 10
103.655
 20
-1499.9000000000001
 30
0.0
 70
    32
  0
VERTEX
  5
16659
  8
01
 10
103.52
 20
-1499.8299999999999
 30
0.0
 70
    32
  0
VERTEX
  5
1665A
  8
01
 10
103.379
 20
-1499.77
 30
0.0
 70
    32
  0
VERTEX
  5
1665B
  8
01
 10
103.23399999999999
 20
-1499.7
 30
0.0
 70
    32
  0
VERTEX
  5
1665C
  8
01
 10
103.08499999999999
 20
-1499.6500000000001
 30
0.0
 70
    32
  0
VERTEX
  5
1665D
  8
01
 10
102.931
 20
-1499.5999999999999
 30
0.0
 70
    32
  0
VERTEX
  5
1665E
  8
01
 10
102.774
 20
-1499.55
 30
0.0
 70
    32
  0
VERTEX
  5
1665F
  8
01
 10
102.614
 20
-1499.51
 30
0.0
 70
    32
  0
VERTEX
  5
16660
  8
01
 10
102.45099999999999
 20
-1499.47
 30
0.0
 70
    32
  0
VERTEX
  5
16661
  8
01
 10
102.285
 20
-1499.4400000000001
 30
0.0
 70
    32
  0
VERTEX
  5
16662
  8
01
 10
102.11799999999999
 20
-1499.4200000000001
 30
0.0
 70
    32
  0
VERTEX
  5
16663
  8
01
 10
101.94799999999999
 20
-1499.4000000000001
 30
0.0
 70
    32
  0
VERTEX
  5
16664
  8
01
 10
101.77800000000001
 20
-1499.3800000000001
 30
0.0
 70
    32
  0
VERTEX
  5
16665
  8
01
 10
101.60599999999999
 20
-1499.3699999999999
 30
0.0
 70
    32
  0
VERTEX
  5
16666
  8
01
 10
101.435
 20
-1499.3699999999999
 30
0.0
 70
    32
  0
VERTEX
  5
16667
  8
01
 10
101.26300000000001
 20
-1499.3699999999999
 30
0.0
 70
    32
  0
VERTEX
  5
16668
  8
01
 10
101.092
 20
-1499.3800000000001
 30
0.0
 70
    32
  0
VERTEX
  5
16669
  8
01
 10
100.92100000000001
 20
-1499.4000000000001
 30
0.0
 70
    32
  0
VERTEX
  5
1666A
  8
01
 10
100.752
 20
-1499.4200000000001
 30
0.0
 70
    32
  0
VERTEX
  5
1666B
  8
01
 10
100.584
 20
-1499.4400000000001
 30
0.0
 70
    32
  0
VERTEX
  5
1666C
  8
01
 10
100.419
 20
-1499.47
 30
0.0
 70
    32
  0
VERTEX
  5
1666D
  8
01
 10
100.256
 20
-1499.51
 30
0.0
 70
    32
  0
VERTEX
  5
1666E
  8
01
 10
100.095
 20
-1499.55
 30
0.0
 70
    32
  0
VERTEX
  5
1666F
  8
01
 10
99.938299999999998
 20
-1499.5999999999999
 30
0.0
 70
    32
  0
VERTEX
  5
16670
  8
01
 10
99.784800000000004
 20
-1499.6500000000001
 30
0.0
 70
    32
  0
VERTEX
  5
16671
  8
01
 10
99.635300000000001
 20
-1499.7
 30
0.0
 70
    32
  0
VERTEX
  5
16672
  8
01
 10
99.490200000000002
 20
-1499.77
 30
0.0
 70
    32
  0
VERTEX
  5
16673
  8
01
 10
99.349800000000016
 20
-1499.8299999999999
 30
0.0
 70
    32
  0
VERTEX
  5
16674
  8
01
 10
99.214299999999994
 20
-1499.9000000000001
 30
0.0
 70
    32
  0
VERTEX
  5
16675
  8
01
 10
99.084199999999996
 20
-1499.98
 30
0.0
 70
    32
  0
VERTEX
  5
16676
  8
01
 10
98.959800000000016
 20
-1500.0599999999999
 30
0.0
 70
    32
  0
VERTEX
  5
16677
  8
01
 10
98.841399999999993
 20
-1500.1400000000001
 30
0.0
 70
    32
  0
VERTEX
  5
16678
  8
01
 10
98.729200000000006
 20
-1500.23
 30
0.0
 70
    32
  0
VERTEX
  5
16679
  8
01
 10
98.623500000000007
 20
-1500.3199999999999
 30
0.0
 70
    32
  0
VERTEX
  5
1667A
  8
01
 10
98.524600000000007
 20
-1500.4100000000001
 30
0.0
 70
    32
  0
VERTEX
  5
1667B
  8
01
 10
98.432599999999994
 20
-1500.51
 30
0.0
 70
    32
  0
VERTEX
  5
1667C
  8
01
 10
98.348000000000013
 20
-1500.6099999999999
 30
0.0
 70
    32
  0
VERTEX
  5
1667D
  8
01
 10
98.270700000000005
 20
-1500.71
 30
0.0
 70
    32
  0
VERTEX
  5
1667E
  8
01
 10
98.201099999999997
 20
-1500.8199999999999
 30
0.0
 70
    32
  0
VERTEX
  5
1667F
  8
01
 10
98.139300000000006
 20
-1500.9200000000001
 30
0.0
 70
    32
  0
VERTEX
  5
16680
  8
01
 10
98.085400000000007
 20
-1501.03
 30
0.0
 70
    32
  0
VERTEX
  5
16681
  8
01
 10
98.039599999999993
 20
-1501.1400000000001
 30
0.0
 70
    32
  0
VERTEX
  5
16682
  8
01
 10
98.001999999999995
 20
-1501.26
 30
0.0
 70
    32
  0
VERTEX
  5
16683
  8
01
 10
97.972600000000014
 20
-1501.3699999999999
 30
0.0
 70
    32
  0
VERTEX
  5
16684
  8
01
 10
97.951599999999999
 20
-1501.48
 30
0.0
 70
    32
  0
VERTEX
  5
16685
  8
01
 10
97.938900000000004
 20
-1501.5999999999999
 30
0.0
 70
    32
  0
VERTEX
  5
16686
  8
01
 10
97.934700000000007
 20
-1501.71
 30
0.0
 70
    32
  0
SEQEND
  5
16687
  8
01
  0
ARC
  5
149A4
  8
01
 10
113.43470000000001
 20
-1493.0128999999999
 30
0.0
 40
5.0
 50
337.38010000000003
 51
0.0
  0
LINE
  5
149A5
  8
01
 10
116.43470000000001
 20
-1482.6629
 30
0.0
 11
117.43470000000001
 21
-1482.6629
 31
0.0
  0
LINE
  5
149A6
  8
01
 10
116.43470000000001
 20
-1490.6629
 30
0.0
 11
117.43470000000001
 21
-1490.6629
 31
0.0
  0
LINE
  5
149A7
  8
01
 10
117.43470000000001
 20
-1492.8128999999999
 30
0.0
 11
118.43470000000001
 21
-1492.8128999999999
 31
0.0
  0
LINE
  5
149A8
  8
01
 10
166.43469999999999
 20
-1519.675
 30
0.0
 11
166.43469999999999
 21
-1557.1679999999999
 31
0.0
  0
ARC
  5
149A9
  8
01
 10
163.43469999999999
 20
-1557.1679999999999
 30
0.0
 40
3.0
 50
270.0
 51
0.0
  0
LINE
  5
149AA
  8
01
 10
166.43469999999999
 20
-1543.4413999999999
 30
0.0
 11
172.04130000000001
 21
-1537.8348000000001
 31
0.0
  0
ARC
  5
149AB
  8
01
 10
174.8698
 20
-1540.6632
 30
0.0
 40
4.0
 50
315.0
 51
135.0
  0
LINE
  5
149AC
  8
01
 10
167.0916
 20
-1554.0983000000001
 30
0.0
 11
177.69820000000001
 21
-1543.4917
 31
0.0
  0
LINE
  5
149AD
  8
01
 10
167.43469999999999
 20
-1490.6629
 30
0.0
 11
167.93469999999999
 21
-1490.6629
 31
0.0
  0
LINE
  5
149AE
  8
01
 10
167.43469999999999
 20
-1482.6629
 30
0.0
 11
167.93469999999999
 21
-1482.6629
 31
0.0
  0
ARC
  5
149AF
  8
01
 10
167.93469999999999
 20
-1486.6629
 30
0.0
 40
4.0
 50
270.0
 51
90.0
  0
LINE
  5
149B0
  8
01
 10
118.43470000000001
 20
-1481.0128999999999
 30
0.0
 11
166.43469999999999
 21
-1481.0128999999999
 31
0.0
  0
LINE
  5
149B1
  8
01
 10
110.58499999999999
 20
-1481.6129000000001
 30
0.0
 11
116.43470000000001
 21
-1481.6129000000001
 31
0.0
  0
ARC
  5
149B2
  8
01
 10
101.43470000000001
 20
-1486.6629
 30
0.0
 40
10.5
 50
29.3719
 51
150.62809999999999
  0
ARC
  5
149B3
  8
01
 10
101.43470000000001
 20
-1486.6629
 30
0.0
 40
10.734400000000001
 50
28.063600000000001
 51
151.93639999999999
  0
LINE
  5
149B4
  8
01
 10
85.434700000000007
 20
-1480.5128999999999
 30
0.0
 11
84.434700000000007
 21
-1480.5128999999999
 31
0.0
  0
LINE
  5
149B5
  8
01
 10
86.434700000000007
 20
-1481.6129000000001
 30
0.0
 11
92.284499999999994
 21
-1481.6129000000001
 31
0.0
  0
LINE
  5
149B6
  8
01
 10
117.43470000000001
 20
-1480.5128999999999
 30
0.0
 11
118.43470000000001
 21
-1480.5128999999999
 31
0.0
  0
ARC
  5
149B7
  8
01
 10
287.27359999999999
 20
-1486.6629
 30
0.0
 40
10.5
 50
31.588100000000001
 51
165.49930000000001
  0
ARC
  5
149B8
  8
1PHANTOM
 10
329.27359999999999
 20
-1482.2687000000001
 30
0.0
 40
0.5
 50
270.30000000000001
 51
0.0
  0
LINE
  5
149B9
  8
1PHANTOM
 10
333.27359999999999
 20
-1501.9129
 30
0.0
 11
333.27359999999999
 21
-1471.4129
 31
0.0
  0
LINE
  5
149BA
  8
01
 10
279.5455
 20
-1493.7710999999999
 30
0.0
 11
252.8006
 21
-1551.1257000000001
 31
0.0
  0
LINE
  5
149BB
  8
01
 10
286.79590000000002
 20
-1497.1521
 30
0.0
 11
260.05099999999999
 21
-1554.5066999999999
 31
0.0
  0
ARC
  5
149BC
  8
01
 10
256.42579999999998
 20
-1552.8162
 30
0.0
 40
4.0
 50
155.0
 51
335.0
  0
LINE
  5
149BD
  8
01
 10
296.21780000000001
 20
-1492.1629
 30
0.0
 11
300.01780000000002
 21
-1492.1629
 31
0.0
  0
LINE
  5
149BF
  8
1PHANTOM
 10
323.87360000000001
 20
-1482.797
 30
0.0
 11
329.27620000000002
 21
-1482.7687000000001
 31
0.0
  0
LINE
  5
149C0
  8
1PHANTOM
 10
329.27620000000002
 20
-1490.5572
 30
0.0
 11
323.87360000000001
 21
-1490.5289
 31
0.0
  0
LINE
  5
149C3
  8
1PHANTOM
 10
312.27359999999999
 20
-1482.8577
 30
0.0
 11
312.27359999999999
 21
-1482.7129
 31
0.0
  0
LINE
  5
149C4
  8
1PHANTOM
 10
311.27359999999999
 20
-1482.7129
 30
0.0
 11
312.27359999999999
 21
-1482.7129
 31
0.0
  0
LINE
  5
149C5
  8
1PHANTOM
 10
312.27359999999999
 20
-1490.6129000000001
 30
0.0
 11
312.27359999999999
 21
-1490.4682
 31
0.0
  0
LINE
  5
149C6
  8
1PHANTOM
 10
311.27359999999999
 20
-1490.6129000000001
 30
0.0
 11
312.27359999999999
 21
-1490.6129000000001
 31
0.0
  0
LINE
  5
149C7
  8
1PHANTOM
 10
311.27359999999999
 20
-1490.6129000000001
 30
0.0
 11
311.27359999999999
 21
-1482.7129
 31
0.0
  0
LINE
  5
149C8
  8
1PHANTOM
 10
321.87360000000001
 20
-1482.6629
 30
0.0
 11
323.87360000000001
 21
-1482.6629
 31
0.0
  0
LINE
  5
149C9
  8
1PHANTOM
 10
323.87360000000001
 20
-1482.6629
 30
0.0
 11
323.87360000000001
 21
-1482.797
 31
0.0
  0
LINE
  5
149CA
  8
1PHANTOM
 10
318.87360000000001
 20
-1482.8231000000001
 30
0.0
 11
319.87360000000001
 21
-1482.8179
 31
0.0
  0
LINE
  5
149CB
  8
1PHANTOM
 10
319.87360000000001
 20
-1483.5628999999999
 30
0.0
 11
319.87360000000001
 21
-1482.8179
 31
0.0
  0
LINE
  5
149CC
  8
1PHANTOM
 10
318.87360000000001
 20
-1483.3629000000001
 30
0.0
 11
318.87360000000001
 21
-1482.8231000000001
 31
0.0
  0
ARC
  5
149CD
  8
1PHANTOM
 10
318.37360000000001
 20
-1483.3629000000001
 30
0.0
 40
0.5
 50
260.5797
 51
0.0
  0
ARC
  5
149CE
  8
1PHANTOM
 10
320.37360000000001
 20
-1483.5628999999999
 30
0.0
 40
0.5
 50
180.0
 51
270.0
  0
LINE
  5
149CF
  8
1PHANTOM
 10
321.87360000000001
 20
-1483.5628999999999
 30
0.0
 11
321.87360000000001
 21
-1482.6629
 31
0.0
  0
ARC
  5
149D0
  8
1PHANTOM
 10
321.37360000000001
 20
-1483.5628999999999
 30
0.0
 40
0.5
 50
270.0
 51
0.0
  0
LINE
  5
149D1
  8
1PHANTOM
 10
320.37360000000001
 20
-1484.0628999999999
 30
0.0
 11
321.37360000000001
 21
-1484.0628999999999
 31
0.0
  0
LINE
  5
149D2
  8
1PHANTOM
 10
323.87360000000001
 20
-1490.6629
 30
0.0
 11
323.87360000000001
 21
-1490.5289
 31
0.0
  0
LINE
  5
149D3
  8
1PHANTOM
 10
321.87360000000001
 20
-1490.6629
 30
0.0
 11
323.87360000000001
 21
-1490.6629
 31
0.0
  0
ARC
  5
149D4
  8
1PHANTOM
 10
318.37360000000001
 20
-1489.9629
 30
0.0
 40
0.5
 50
0.0
 51
99.420299999999997
  0
ARC
  5
149D5
  8
1PHANTOM
 10
320.37360000000001
 20
-1489.7628999999999
 30
0.0
 40
0.5
 50
90.0
 51
180.0
  0
ARC
  5
149D6
  8
1PHANTOM
 10
321.37360000000001
 20
-1489.7628999999999
 30
0.0
 40
0.5
 50
0.0
 51
90.0
  0
LINE
  5
149D7
  8
1PHANTOM
 10
320.37360000000001
 20
-1489.2628999999999
 30
0.0
 11
321.37360000000001
 21
-1489.2628999999999
 31
0.0
  0
LINE
  5
149D8
  8
1PHANTOM
 10
319.87360000000001
 20
-1490.508
 30
0.0
 11
318.87360000000001
 21
-1490.5027
 31
0.0
  0
LINE
  5
149D9
  8
1PHANTOM
 10
318.87360000000001
 20
-1489.9629
 30
0.0
 11
318.87360000000001
 21
-1490.5027
 31
0.0
  0
LINE
  5
149DA
  8
1PHANTOM
 10
319.87360000000001
 20
-1490.508
 30
0.0
 11
319.87360000000001
 21
-1489.7628999999999
 31
0.0
  0
LINE
  5
149DB
  8
1PHANTOM
 10
321.87360000000001
 20
-1490.6629
 30
0.0
 11
321.87360000000001
 21
-1489.7628999999999
 31
0.0
  0
LINE
  5
149DC
  8
1PHANTOM
 10
312.27359999999999
 20
-1490.4682
 30
0.0
 11
318.29169999999999
 21
-1489.4697000000001
 31
0.0
  0
LINE
  5
149DD
  8
1PHANTOM
 10
312.27359999999999
 20
-1482.8577
 30
0.0
 11
318.29169999999999
 21
-1483.8561999999999
 31
0.0
  0
LINE
  5
149DE
  8
1PHANTOM
 10
330.27359999999999
 20
-1496.1629
 30
0.0
 11
331.27359999999999
 21
-1495.1629
 31
0.0
  0
LINE
  5
149DF
  8
1PHANTOM
 10
330.27359999999999
 20
-1499.4629
 30
0.0
 11
331.27359999999999
 21
-1499.4629
 31
0.0
  0
LINE
  5
149E0
  8
1PHANTOM
 10
331.27359999999999
 20
-1499.4629
 30
0.0
 11
331.27359999999999
 21
-1491.8629000000001
 31
0.0
  0
LINE
  5
149E1
  8
1PHANTOM
 10
330.27359999999999
 20
-1499.4629
 30
0.0
 11
330.27359999999999
 21
-1491.8629000000001
 31
0.0
  0
LINE
  5
149E2
  8
1PHANTOM
 10
330.27359999999999
 20
-1491.8629000000001
 30
0.0
 11
331.27359999999999
 21
-1491.8629000000001
 31
0.0
  0
ARC
  5
149E7
  8
1PHANTOM
 10
329.27359999999999
 20
-1491.0572
 30
0.0
 40
0.5
 50
0.0
 51
89.700000000000003
  0
LINE
  5
149E9
  8
1PHANTOM
 10
329.77359999999999
 20
-1500.1298999999999
 30
0.0
 11
330.27359999999999
 21
-1501.1722
 31
0.0
  0
LINE
  5
149EA
  8
1PHANTOM
 10
330.27359999999999
 20
-1501.1722
 30
0.0
 11
331.27359999999999
 21
-1501.1722
 31
0.0
  0
LINE
  5
149EB
  8
1PHANTOM
 10
329.77359999999999
 20
-1491.0572
 30
0.0
 11
329.77359999999999
 21
-1492.1629
 31
0.0
  0
LINE
  5
149EC
  8
1CENTER
 10
334.8537
 20
-1495.6629
 30
0.0
 11
330.33730000000008
 21
-1495.6629
 31
0.0
  0
LINE
  5
149ED
  8
1PHANTOM
 10
331.27359999999999
 20
-1501.9129
 30
0.0
 11
333.27359999999999
 21
-1501.9129
 31
0.0
  0
LINE
  5
149EF
  8
01
 10
296.21780000000001
 20
-1481.1629
 30
0.0
 11
300.01780000000002
 21
-1481.1629
 31
0.0
  0
LINE
  5
149F1
  8
1PHANTOM
 10
330.27359999999999
 20
-1473.8629000000001
 30
0.0
 11
331.27359999999999
 21
-1473.8629000000001
 31
0.0
  0
LINE
  5
149F2
  8
1PHANTOM
 10
330.27359999999999
 20
-1481.4629
 30
0.0
 11
331.27359999999999
 21
-1481.4629
 31
0.0
  0
LINE
  5
149F3
  8
1PHANTOM
 10
330.27359999999999
 20
-1478.1629
 30
0.0
 11
331.27359999999999
 21
-1477.1629
 31
0.0
  0
LINE
  5
149F4
  8
1PHANTOM
 10
330.27359999999999
 20
-1481.4629
 30
0.0
 11
330.27359999999999
 21
-1473.8629000000001
 31
0.0
  0
LINE
  5
149F5
  8
1PHANTOM
 10
331.27359999999999
 20
-1481.4629
 30
0.0
 11
331.27359999999999
 21
-1473.8629000000001
 31
0.0
  0
LINE
  5
149F7
  8
1PHANTOM
 10
330.27359999999999
 20
-1472.1537000000001
 30
0.0
 11
331.27359999999999
 21
-1472.1537000000001
 31
0.0
  0
LINE
  5
149F8
  8
1PHANTOM
 10
329.77359999999999
 20
-1473.1959999999999
 30
0.0
 11
330.27359999999999
 21
-1472.1537000000001
 31
0.0
  0
LINE
  5
149F9
  8
1PHANTOM
 10
331.27359999999999
 20
-1471.4129
 30
0.0
 11
333.27359999999999
 21
-1471.4129
 31
0.0
  0
LINE
  5
149FC
  8
1CENTER
 10
330.07389999999998
 20
-1477.6629
 30
0.0
 11
334.8537
 21
-1477.6629
 31
0.0
  0
LINE
  5
149FD
  8
1PHANTOM
 10
331.27359999999999
 20
-1481.4629
 30
0.0
 11
331.27359999999999
 21
-1473.8629000000001
 31
0.0
  0
LINE
  5
149FE
  8
1PHANTOM
 10
329.77359999999999
 20
-1482.2687000000001
 30
0.0
 11
329.77359999999999
 21
-1481.1629
 31
0.0
  0
ARC
  5
149FF
  8
01
 10
78.294799999999995
 20
-1364.3110999999999
 30
0.0
 40
0.5
 50
212.3759
 51
270.0
  0
LINE
  5
14A00
  8
01
 10
77.872500000000002
 20
-1364.5788
 30
0.0
 11
76.434700000000007
 21
-1362.3110999999999
 31
0.0
  0
LINE
  5
14A01
  8
01
 10
76.434700000000007
 20
-1362.3110999999999
 30
0.0
 11
76.412899999999993
 21
-1359.8110999999999
 31
0.0
  0
ARC
  5
14A02
  8
01
 10
124.57470000000001
 20
-1364.3110999999999
 30
0.0
 40
0.5
 50
270.0
 51
327.6241
  0
LINE
  5
14A03
  8
01
 10
124.9969
 20
-1364.5788
 30
0.0
 11
126.43470000000001
 21
-1362.3110999999999
 31
0.0
  0
LINE
  5
14A04
  8
01
 10
126.43470000000001
 20
-1362.3110999999999
 30
0.0
 11
126.45659999999999
 21
-1359.8110999999999
 31
0.0
  0
LINE
  5
14A06
  8
01
 10
124.57470000000001
 20
-1364.8110999999999
 30
0.0
 11
78.294799999999995
 21
-1364.8110999999999
 31
0.0
  0
LINE
  5
14A07
  8
01
 10
76.434700000000007
 20
-1362.3110999999999
 30
0.0
 11
126.43470000000001
 21
-1362.3110999999999
 31
0.0
  0
LINE
  5
14A08
  8
01
 10
76.412899999999993
 20
-1359.8110999999999
 30
0.0
 11
126.45659999999999
 21
-1359.8110999999999
 31
0.0
  0
ARC
  5
14A09
  8
01
 10
90.975399999999993
 20
-1384.3110999999999
 30
0.0
 40
0.5
 50
212.3759
 51
270.0
  0
ARC
  5
14A0A
  8
01
 10
78.565200000000004
 20
-1365.1111000000001
 30
0.0
 40
0.3
 50
90.0
 51
212.3759
  0
LINE
  5
14A0B
  8
01
 10
90.553100000000001
 20
-1384.5788
 30
0.0
 11
78.311899999999994
 21
-1365.2718
 31
0.0
  0
ARC
  5
14A0C
  8
01
 10
111.89409999999999
 20
-1384.3110999999999
 30
0.0
 40
0.5
 50
270.0
 51
327.6241
  0
ARC
  5
14A0D
  8
01
 10
124.30419999999999
 20
-1365.1111000000001
 30
0.0
 40
0.3
 50
327.6241
 51
90.0
  0
LINE
  5
14A0E
  8
01
 10
112.3164
 20
-1384.5788
 30
0.0
 11
124.55759999999999
 21
-1365.2718
 31
0.0
  0
LINE
  5
14A0F
  8
01
 10
90.975399999999993
 20
-1384.8110999999999
 30
0.0
 11
111.89409999999999
 21
-1384.8110999999999
 31
0.0
  0
LINE
  5
14A10
  8
01
 10
124.30419999999999
 20
-1364.8110999999999
 30
0.0
 11
78.565200000000004
 21
-1364.8110999999999
 31
0.0
  0
ARC
  5
14A11
  8
01
 10
101.43470000000001
 20
-1405.8110999999999
 30
0.0
 40
10.5
 50
121.5880999999999
 51
150.62809999999999
  0
LINE
  5
14A12
  8
01
 10
95.934700000000007
 20
-1396.8668
 30
0.0
 11
95.934700000000007
 21
-1393.0668000000001
 31
0.0
  0
LINE
  5
14A13
  8
01
 10
92.284499999999994
 20
-1410.9611
 30
0.0
 11
92.284499999999994
 21
-1400.6611
 31
0.0
  0
ARC
  5
14A14
  8
01
 10
101.43470000000001
 20
-1405.8110999999999
 30
0.0
 40
10.5
 50
29.3719
 51
58.411900000000003
  0
LINE
  5
14A15
  8
01
 10
106.93470000000001
 20
-1396.8668
 30
0.0
 11
106.93470000000001
 21
-1393.0668000000001
 31
0.0
  0
LINE
  5
14A16
  8
01
 10
110.58499999999999
 20
-1410.9611
 30
0.0
 11
110.58499999999999
 21
-1400.6611
 31
0.0
  0
LINE
  5
14A17
  8
01
 10
106.93470000000001
 20
-1393.0668000000001
 30
0.0
 11
95.934700000000007
 21
-1393.0668000000001
 31
0.0
  0
ARC
  5
14A18
  8
01
 10
101.43470000000001
 20
-1405.8110999999999
 30
0.0
 40
10.5
 50
209.37190000000001
 51
330.62810000000002
  0
LINE
  5
14A19
  8
01
 10
106.93470000000001
 20
-1396.8668
 30
0.0
 11
95.934700000000007
 21
-1396.8668
 31
0.0
  0
ARC
  5
14A1A
  8
01
 10
91.609399999999994
 20
-1385.3110999999999
 30
0.0
 40
0.5
 50
90.0
 51
212.3759
  0
ARC
  5
14A1B
  8
01
 10
111.26009999999999
 20
-1385.3110999999999
 30
0.0
 40
0.5
 50
327.6241
 51
90.0
  0
LINE
  5
14A1C
  8
01
 10
111.26009999999999
 20
-1384.8110999999999
 30
0.0
 11
91.609399999999994
 21
-1384.8110999999999
 31
0.0
  0
LINE
  5
14A1D
  8
01
 10
111.6823
 20
-1385.5788
 30
0.0
 11
106.93470000000001
 21
-1393.0668000000001
 31
0.0
  0
LINE
  5
14A1E
  8
01
 10
91.187100000000001
 20
-1385.5788
 30
0.0
 11
95.934700000000007
 21
-1393.0668000000001
 31
0.0
  0
ARC
  5
14A1F
  8
01
 10
167.93469999999999
 20
-1405.8110999999999
 30
0.0
 40
4.0
 50
270.0
 51
90.0
  0
LINE
  5
14A20
  8
01
 10
167.43469999999999
 20
-1409.8110999999999
 30
0.0
 11
167.93469999999999
 21
-1409.8110999999999
 31
0.0
  0
LINE
  5
14A21
  8
01
 10
167.43469999999999
 20
-1401.8110999999999
 30
0.0
 11
167.93469999999999
 21
-1401.8110999999999
 31
0.0
  0
LINE
  5
14A22
  8
01
 10
26.434699999999999
 20
-1411.7277999999999
 30
0.0
 11
26.434699999999999
 21
-1429.4776999999999
 31
0.0
  0
LINE
  5
14A23
  8
01
 10
18.434699999999999
 20
-1411.7277999999999
 30
0.0
 11
18.434699999999999
 21
-1429.4776999999999
 31
0.0
  0
LINE
  5
14A24
  8
01
 10
166.43469999999999
 20
-1399.6611
 30
0.0
 11
166.43469999999999
 21
-1441.6411000000001
 31
0.0
  0
ARC
  5
14A25
  8
01
 10
113.43470000000001
 20
-1412.1611
 30
0.0
 40
5.0
 50
337.38010000000003
 51
0.0
  0
ARC
  5
14A26
  8
01
 10
89.434700000000007
 20
-1412.1611
 30
0.0
 40
5.0
 50
180.0
 51
202.6199
  0
LINE
  5
14A27
  8
01
 10
36.434699999999999
 20
-1399.6611
 30
0.0
 11
36.434699999999999
 21
-1441.6411000000001
 31
0.0
  0
ARC
  5
14A28
  8
01
 10
101.43470000000001
 20
-1407.1611
 30
0.0
 40
18.0
 50
202.6199
 51
337.38010000000003
  0
LINE
  5
14A29
  8
01
 10
36.434699999999999
 20
-1400.1611
 30
0.0
 11
84.434700000000007
 21
-1400.1611
 31
0.0
  0
LINE
  5
14A2A
  8
01
 10
84.434700000000007
 20
-1399.6611
 30
0.0
 11
84.434700000000007
 21
-1412.1611
 31
0.0
  0
LINE
  5
14A2B
  8
01
 10
118.43470000000001
 20
-1400.1611
 30
0.0
 11
166.43469999999999
 21
-1400.1611
 31
0.0
  0
LINE
  5
14A2C
  8
01
 10
118.43470000000001
 20
-1399.6611
 30
0.0
 11
118.43470000000001
 21
-1412.1611
 31
0.0
  0
LINE
  5
14A2D
  8
01
 10
36.434699999999999
 20
-1441.6411000000001
 30
0.0
 11
166.43469999999999
 21
-1441.6411000000001
 31
0.0
  0
POLYLINE
  5
14A2E
  8
01
 66
     1
 10
0.0
 20
0.0
 30
0.0
 70
     8
  0
VERTEX
  5
16688
  8
01
 10
35.434699999999999
 20
-1409.8199999999999
 30
0.0
 70
    32
  0
VERTEX
  5
16689
  8
01
 10
35.320500000000003
 20
-1409.8199999999999
 30
0.0
 70
    32
  0
VERTEX
  5
1668A
  8
01
 10
35.206400000000002
 20
-1409.8299999999999
 30
0.0
 70
    32
  0
VERTEX
  5
1668B
  8
01
 10
35.092399999999998
 20
-1409.8299999999999
 30
0.0
 70
    32
  0
VERTEX
  5
1668C
  8
01
 10
34.9786
 20
-1409.8299999999999
 30
0.0
 70
    32
  0
VERTEX
  5
1668D
  8
01
 10
34.865099999999998
 20
-1409.8299999999999
 30
0.0
 70
    32
  0
VERTEX
  5
1668E
  8
01
 10
34.7517
 20
-1409.8399999999999
 30
0.0
 70
    32
  0
VERTEX
  5
1668F
  8
01
 10
34.638599999999997
 20
-1409.8399999999999
 30
0.0
 70
    32
  0
VERTEX
  5
16690
  8
01
 10
34.525700000000001
 20
-1409.8499999999999
 30
0.0
 70
    32
  0
VERTEX
  5
16691
  8
01
 10
34.412999999999997
 20
-1409.8499999999999
 30
0.0
 70
    32
  0
VERTEX
  5
16692
  8
01
 10
34.300600000000003
 20
-1409.8499999999999
 30
0.0
 70
    32
  0
VERTEX
  5
16693
  8
01
 10
34.188499999999998
 20
-1409.8599999999999
 30
0.0
 70
    32
  0
VERTEX
  5
16694
  8
01
 10
34.076700000000002
 20
-1409.8599999999999
 30
0.0
 70
    32
  0
VERTEX
  5
16695
  8
01
 10
33.96520000000001
 20
-1409.8699999999999
 30
0.0
 70
    32
  0
VERTEX
  5
16696
  8
01
 10
33.854100000000003
 20
-1409.8800000000001
 30
0.0
 70
    32
  0
VERTEX
  5
16697
  8
01
 10
33.743200000000002
 20
-1409.8800000000001
 30
0.0
 70
    32
  0
VERTEX
  5
16698
  8
01
 10
33.632800000000003
 20
-1409.8900000000001
 30
0.0
 70
    32
  0
VERTEX
  5
16699
  8
01
 10
33.5227
 20
-1409.8900000000001
 30
0.0
 70
    32
  0
VERTEX
  5
1669A
  8
01
 10
33.4129
 20
-1409.9000000000001
 30
0.0
 70
    32
  0
VERTEX
  5
1669B
  8
01
 10
33.30360000000001
 20
-1409.9100000000001
 30
0.0
 70
    32
  0
VERTEX
  5
1669C
  8
01
 10
33.194699999999997
 20
-1409.9100000000001
 30
0.0
 70
    32
  0
VERTEX
  5
1669D
  8
01
 10
33.086199999999998
 20
-1409.9200000000001
 30
0.0
 70
    32
  0
VERTEX
  5
1669E
  8
01
 10
32.978200000000001
 20
-1409.9300000000001
 30
0.0
 70
    32
  0
VERTEX
  5
1669F
  8
01
 10
32.870600000000003
 20
-1409.9400000000001
 30
0.0
 70
    32
  0
VERTEX
  5
166A0
  8
01
 10
32.763500000000001
 20
-1409.9400000000001
 30
0.0
 70
    32
  0
VERTEX
  5
166A1
  8
01
 10
32.6569
 20
-1409.95
 30
0.0
 70
    32
  0
VERTEX
  5
166A2
  8
01
 10
32.550800000000002
 20
-1409.96
 30
0.0
 70
    32
  0
VERTEX
  5
166A3
  8
01
 10
32.445099999999996
 20
-1409.97
 30
0.0
 70
    32
  0
VERTEX
  5
166A4
  8
01
 10
32.3401
 20
-1409.98
 30
0.0
 70
    32
  0
VERTEX
  5
166A5
  8
01
 10
32.235500000000002
 20
-1409.99
 30
0.0
 70
    32
  0
VERTEX
  5
166A6
  8
01
 10
32.13150000000001
 20
-1410.0
 30
0.0
 70
    32
  0
VERTEX
  5
166A7
  8
01
 10
32.028100000000002
 20
-1410.01
 30
0.0
 70
    32
  0
VERTEX
  5
166A8
  8
01
 10
31.9252
 20
-1410.02
 30
0.0
 70
    32
  0
VERTEX
  5
166A9
  8
01
 10
31.823
 20
-1410.03
 30
0.0
 70
    32
  0
VERTEX
  5
166AA
  8
01
 10
31.721399999999999
 20
-1410.04
 30
0.0
 70
    32
  0
VERTEX
  5
166AB
  8
01
 10
31.6203
 20
-1410.05
 30
0.0
 70
    32
  0
VERTEX
  5
166AC
  8
01
 10
31.52
 20
-1410.0599999999999
 30
0.0
 70
    32
  0
VERTEX
  5
166AD
  8
01
 10
31.420200000000001
 20
-1410.0699999999999
 30
0.0
 70
    32
  0
VERTEX
  5
166AE
  8
01
 10
31.321200000000001
 20
-1410.0799999999999
 30
0.0
 70
    32
  0
VERTEX
  5
166AF
  8
01
 10
31.222799999999999
 20
-1410.0899999999999
 30
0.0
 70
    32
  0
VERTEX
  5
166B0
  8
01
 10
31.125
 20
-1410.0999999999999
 30
0.0
 70
    32
  0
VERTEX
  5
166B1
  8
01
 10
31.027999999999999
 20
-1410.1199999999999
 30
0.0
 70
    32
  0
VERTEX
  5
166B2
  8
01
 10
30.931699999999999
 20
-1410.1300000000001
 30
0.0
 70
    32
  0
VERTEX
  5
166B3
  8
01
 10
30.836200000000002
 20
-1410.1400000000001
 30
0.0
 70
    32
  0
VERTEX
  5
166B4
  8
01
 10
30.741399999999999
 20
-1410.1500000000001
 30
0.0
 70
    32
  0
VERTEX
  5
166B5
  8
01
 10
30.647300000000001
 20
-1410.1600000000001
 30
0.0
 70
    32
  0
VERTEX
  5
166B6
  8
01
 10
30.553999999999998
 20
-1410.1800000000001
 30
0.0
 70
    32
  0
VERTEX
  5
166B7
  8
01
 10
30.461400000000001
 20
-1410.1900000000001
 30
0.0
 70
    32
  0
VERTEX
  5
166B8
  8
01
 10
30.369700000000002
 20
-1410.2
 30
0.0
 70
    32
  0
VERTEX
  5
166B9
  8
01
 10
30.278700000000001
 20
-1410.22
 30
0.0
 70
    32
  0
VERTEX
  5
166BA
  8
01
 10
30.188600000000001
 20
-1410.23
 30
0.0
 70
    32
  0
VERTEX
  5
166BB
  8
01
 10
30.099299999999999
 20
-1410.24
 30
0.0
 70
    32
  0
VERTEX
  5
166BC
  8
01
 10
30.0108
 20
-1410.26
 30
0.0
 70
    32
  0
VERTEX
  5
166BD
  8
01
 10
29.923200000000001
 20
-1410.27
 30
0.0
 70
    32
  0
VERTEX
  5
166BE
  8
01
 10
29.836400000000001
 20
-1410.29
 30
0.0
 70
    32
  0
VERTEX
  5
166BF
  8
01
 10
29.750499999999999
 20
-1410.3
 30
0.0
 70
    32
  0
VERTEX
  5
166C0
  8
01
 10
29.665500000000002
 20
-1410.3199999999999
 30
0.0
 70
    32
  0
VERTEX
  5
166C1
  8
01
 10
29.581399999999999
 20
-1410.3299999999999
 30
0.0
 70
    32
  0
VERTEX
  5
166C2
  8
01
 10
29.498200000000001
 20
-1410.3499999999999
 30
0.0
 70
    32
  0
VERTEX
  5
166C3
  8
01
 10
29.415900000000001
 20
-1410.3599999999999
 30
0.0
 70
    32
  0
VERTEX
  5
166C4
  8
01
 10
29.334499999999998
 20
-1410.3800000000001
 30
0.0
 70
    32
  0
VERTEX
  5
166C5
  8
01
 10
29.254100000000001
 20
-1410.3900000000001
 30
0.0
 70
    32
  0
VERTEX
  5
166C6
  8
01
 10
29.174600000000002
 20
-1410.4100000000001
 30
0.0
 70
    32
  0
VERTEX
  5
166C7
  8
01
 10
29.0961
 20
-1410.4300000000001
 30
0.0
 70
    32
  0
VERTEX
  5
166C8
  8
01
 10
29.0185
 20
-1410.4400000000001
 30
0.0
 70
    32
  0
VERTEX
  5
166C9
  8
01
 10
28.9419
 20
-1410.46
 30
0.0
 70
    32
  0
VERTEX
  5
166CA
  8
01
 10
28.866299999999999
 20
-1410.47
 30
0.0
 70
    32
  0
VERTEX
  5
166CB
  8
01
 10
28.791699999999999
 20
-1410.49
 30
0.0
 70
    32
  0
VERTEX
  5
166CC
  8
01
 10
28.7182
 20
-1410.51
 30
0.0
 70
    32
  0
VERTEX
  5
166CD
  8
01
 10
28.645600000000002
 20
-1410.53
 30
0.0
 70
    32
  0
VERTEX
  5
166CE
  8
01
 10
28.574000000000002
 20
-1410.54
 30
0.0
 70
    32
  0
VERTEX
  5
166CF
  8
01
 10
28.503499999999999
 20
-1410.5599999999999
 30
0.0
 70
    32
  0
VERTEX
  5
166D0
  8
01
 10
28.434100000000001
 20
-1410.5799999999999
 30
0.0
 70
    32
  0
VERTEX
  5
166D1
  8
01
 10
28.3657
 20
-1410.5999999999999
 30
0.0
 70
    32
  0
VERTEX
  5
166D2
  8
01
 10
28.298400000000001
 20
-1410.6099999999999
 30
0.0
 70
    32
  0
VERTEX
  5
166D3
  8
01
 10
28.232099999999999
 20
-1410.6300000000001
 30
0.0
 70
    32
  0
VERTEX
  5
166D4
  8
01
 10
28.166899999999998
 20
-1410.6500000000001
 30
0.0
 70
    32
  0
VERTEX
  5
166D5
  8
01
 10
28.102799999999998
 20
-1410.6700000000001
 30
0.0
 70
    32
  0
VERTEX
  5
166D6
  8
01
 10
28.039899999999999
 20
-1410.6900000000001
 30
0.0
 70
    32
  0
VERTEX
  5
166D7
  8
01
 10
27.978000000000002
 20
-1410.7
 30
0.0
 70
    32
  0
VERTEX
  5
166D8
  8
01
 10
27.917200000000001
 20
-1410.72
 30
0.0
 70
    32
  0
VERTEX
  5
166D9
  8
01
 10
27.857600000000001
 20
-1410.74
 30
0.0
 70
    32
  0
VERTEX
  5
166DA
  8
01
 10
27.799099999999999
 20
-1410.76
 30
0.0
 70
    32
  0
VERTEX
  5
166DB
  8
01
 10
27.741700000000002
 20
-1410.78
 30
0.0
 70
    32
  0
VERTEX
  5
166DC
  8
01
 10
27.685500000000001
 20
-1410.8
 30
0.0
 70
    32
  0
VERTEX
  5
166DD
  8
01
 10
27.630500000000001
 20
-1410.8199999999999
 30
0.0
 70
    32
  0
VERTEX
  5
166DE
  8
01
 10
27.576599999999999
 20
-1410.8399999999999
 30
0.0
 70
    32
  0
VERTEX
  5
166DF
  8
01
 10
27.523800000000001
 20
-1410.8599999999999
 30
0.0
 70
    32
  0
VERTEX
  5
166E0
  8
01
 10
27.472300000000001
 20
-1410.8800000000001
 30
0.0
 70
    32
  0
VERTEX
  5
166E1
  8
01
 10
27.421900000000001
 20
-1410.9000000000001
 30
0.0
 70
    32
  0
VERTEX
  5
166E2
  8
01
 10
27.372699999999998
 20
-1410.9200000000001
 30
0.0
 70
    32
  0
VERTEX
  5
166E3
  8
01
 10
27.3247
 20
-1410.9400000000001
 30
0.0
 70
    32
  0
VERTEX
  5
166E4
  8
01
 10
27.277999999999999
 20
-1410.96
 30
0.0
 70
    32
  0
VERTEX
  5
166E5
  8
01
 10
27.232399999999998
 20
-1410.98
 30
0.0
 70
    32
  0
VERTEX
  5
166E6
  8
01
 10
27.187999999999999
 20
-1411.0
 30
0.0
 70
    32
  0
VERTEX
  5
166E7
  8
01
 10
27.1449
 20
-1411.02
 30
0.0
 70
    32
  0
VERTEX
  5
166E8
  8
01
 10
27.103000000000002
 20
-1411.04
 30
0.0
 70
    32
  0
VERTEX
  5
166E9
  8
01
 10
27.0623
 20
-1411.0599999999999
 30
0.0
 70
    32
  0
VERTEX
  5
166EA
  8
01
 10
27.0229
 20
-1411.0799999999999
 30
0.0
 70
    32
  0
VERTEX
  5
166EB
  8
01
 10
26.9847
 20
-1411.0999999999999
 30
0.0
 70
    32
  0
VERTEX
  5
166EC
  8
01
 10
26.947700000000001
 20
-1411.1199999999999
 30
0.0
 70
    32
  0
VERTEX
  5
166ED
  8
01
 10
26.911999999999999
 20
-1411.1400000000001
 30
0.0
 70
    32
  0
VERTEX
  5
166EE
  8
01
 10
26.877600000000001
 20
-1411.1600000000001
 30
0.0
 70
    32
  0
VERTEX
  5
166EF
  8
01
 10
26.8444
 20
-1411.1800000000001
 30
0.0
 70
    32
  0
VERTEX
  5
166F0
  8
01
 10
26.8125
 20
-1411.21
 30
0.0
 70
    32
  0
VERTEX
  5
166F1
  8
01
 10
26.7818
 20
-1411.23
 30
0.0
 70
    32
  0
VERTEX
  5
166F2
  8
01
 10
26.752500000000001
 20
-1411.25
 30
0.0
 70
    32
  0
VERTEX
  5
166F3
  8
01
 10
26.724399999999999
 20
-1411.27
 30
0.0
 70
    32
  0
VERTEX
  5
166F4
  8
01
 10
26.697500000000002
 20
-1411.29
 30
0.0
 70
    32
  0
VERTEX
  5
166F5
  8
01
 10
26.672000000000001
 20
-1411.3099999999999
 30
0.0
 70
    32
  0
VERTEX
  5
166F6
  8
01
 10
26.6478
 20
-1411.3299999999999
 30
0.0
 70
    32
  0
VERTEX
  5
166F7
  8
01
 10
26.6248
 20
-1411.3599999999999
 30
0.0
 70
    32
  0
VERTEX
  5
166F8
  8
01
 10
26.603200000000001
 20
-1411.3800000000001
 30
0.0
 70
    32
  0
VERTEX
  5
166F9
  8
01
 10
26.582799999999999
 20
-1411.4000000000001
 30
0.0
 70
    32
  0
VERTEX
  5
166FA
  8
01
 10
26.563800000000001
 20
-1411.4200000000001
 30
0.0
 70
    32
  0
VERTEX
  5
166FB
  8
01
 10
26.545999999999999
 20
-1411.4400000000001
 30
0.0
 70
    32
  0
VERTEX
  5
166FC
  8
01
 10
26.529599999999999
 20
-1411.46
 30
0.0
 70
    32
  0
VERTEX
  5
166FD
  8
01
 10
26.514500000000002
 20
-1411.49
 30
0.0
 70
    32
  0
VERTEX
  5
166FE
  8
01
 10
26.500599999999999
 20
-1411.51
 30
0.0
 70
    32
  0
VERTEX
  5
166FF
  8
01
 10
26.488099999999999
 20
-1411.53
 30
0.0
 70
    32
  0
VERTEX
  5
16700
  8
01
 10
26.476900000000001
 20
-1411.55
 30
0.0
 70
    32
  0
VERTEX
  5
16701
  8
01
 10
26.466999999999999
 20
-1411.5699999999999
 30
0.0
 70
    32
  0
VERTEX
  5
16702
  8
01
 10
26.458500000000001
 20
-1411.5999999999999
 30
0.0
 70
    32
  0
VERTEX
  5
16703
  8
01
 10
26.4512
 20
-1411.6199999999999
 30
0.0
 70
    32
  0
VERTEX
  5
16704
  8
01
 10
26.4453
 20
-1411.6400000000001
 30
0.0
 70
    32
  0
VERTEX
  5
16705
  8
01
 10
26.4406
 20
-1411.6600000000001
 30
0.0
 70
    32
  0
VERTEX
  5
16706
  8
01
 10
26.4373
 20
-1411.6800000000001
 30
0.0
 70
    32
  0
VERTEX
  5
16707
  8
01
 10
26.435400000000001
 20
-1411.71
 30
0.0
 70
    32
  0
VERTEX
  5
16708
  8
01
 10
26.434699999999999
 20
-1411.73
 30
0.0
 70
    32
  0
SEQEND
  5
16709
  8
01
  0
POLYLINE
  5
14A2F
  8
01
 66
     1
 10
0.0
 20
0.0
 30
0.0
 70
     8
  0
VERTEX
  5
1670A
  8
01
 10
35.434699999999999
 20
-1401.8299999999999
 30
0.0
 70
    32
  0
VERTEX
  5
1670B
  8
01
 10
35.222000000000001
 20
-1401.8299999999999
 30
0.0
 70
    32
  0
VERTEX
  5
1670C
  8
01
 10
35.009500000000003
 20
-1401.8399999999999
 30
0.0
 70
    32
  0
VERTEX
  5
1670D
  8
01
 10
34.797199999999997
 20
-1401.8499999999999
 30
0.0
 70
    32
  0
VERTEX
  5
1670E
  8
01
 10
34.585099999999997
 20
-1401.8599999999999
 30
0.0
 70
    32
  0
VERTEX
  5
1670F
  8
01
 10
34.3733
 20
-1401.8800000000001
 30
0.0
 70
    32
  0
VERTEX
  5
16710
  8
01
 10
34.161799999999999
 20
-1401.8900000000001
 30
0.0
 70
    32
  0
VERTEX
  5
16711
  8
01
 10
33.950600000000001
 20
-1401.9100000000001
 30
0.0
 70
    32
  0
VERTEX
  5
16712
  8
01
 10
33.739699999999999
 20
-1401.9200000000001
 30
0.0
 70
    32
  0
VERTEX
  5
16713
  8
01
 10
33.529299999999999
 20
-1401.9400000000001
 30
0.0
 70
    32
  0
VERTEX
  5
16714
  8
01
 10
33.319200000000002
 20
-1401.96
 30
0.0
 70
    32
  0
VERTEX
  5
16715
  8
01
 10
33.109499999999997
 20
-1401.98
 30
0.0
 70
    32
  0
VERTEX
  5
16716
  8
01
 10
32.900399999999998
 20
-1402.0
 30
0.0
 70
    32
  0
VERTEX
  5
16717
  8
01
 10
32.691699999999997
 20
-1402.03
 30
0.0
 70
    32
  0
VERTEX
  5
16718
  8
01
 10
32.483499999999999
 20
-1402.05
 30
0.0
 70
    32
  0
VERTEX
  5
16719
  8
01
 10
32.27600000000001
 20
-1402.0799999999999
 30
0.0
 70
    32
  0
VERTEX
  5
1671A
  8
01
 10
32.068899999999999
 20
-1402.1099999999999
 30
0.0
 70
    32
  0
VERTEX
  5
1671B
  8
01
 10
31.862500000000001
 20
-1402.1400000000001
 30
0.0
 70
    32
  0
VERTEX
  5
1671C
  8
01
 10
31.6568
 20
-1402.1700000000001
 30
0.0
 70
    32
  0
VERTEX
  5
1671D
  8
01
 10
31.451699999999999
 20
-1402.2
 30
0.0
 70
    32
  0
VERTEX
  5
1671E
  8
01
 10
31.247299999999999
 20
-1402.23
 30
0.0
 70
    32
  0
VERTEX
  5
1671F
  8
01
 10
31.043600000000001
 20
-1402.27
 30
0.0
 70
    32
  0
VERTEX
  5
16720
  8
01
 10
30.840699999999998
 20
-1402.3
 30
0.0
 70
    32
  0
VERTEX
  5
16721
  8
01
 10
30.6386
 20
-1402.3399999999999
 30
0.0
 70
    32
  0
VERTEX
  5
16722
  8
01
 10
30.4373
 20
-1402.3800000000001
 30
0.0
 70
    32
  0
VERTEX
  5
16723
  8
01
 10
30.236799999999999
 20
-1402.4200000000001
 30
0.0
 70
    32
  0
VERTEX
  5
16724
  8
01
 10
30.037199999999999
 20
-1402.46
 30
0.0
 70
    32
  0
VERTEX
  5
16725
  8
01
 10
29.8385
 20
-1402.5
 30
0.0
 70
    32
  0
VERTEX
  5
16726
  8
01
 10
29.640699999999999
 20
-1402.55
 30
0.0
 70
    32
  0
VERTEX
  5
16727
  8
01
 10
29.4438
 20
-1402.5899999999999
 30
0.0
 70
    32
  0
VERTEX
  5
16728
  8
01
 10
29.248000000000001
 20
-1402.6400000000001
 30
0.0
 70
    32
  0
VERTEX
  5
16729
  8
01
 10
29.053100000000001
 20
-1402.6800000000001
 30
0.0
 70
    32
  0
VERTEX
  5
1672A
  8
01
 10
28.859300000000001
 20
-1402.73
 30
0.0
 70
    32
  0
VERTEX
  5
1672B
  8
01
 10
28.666599999999999
 20
-1402.78
 30
0.0
 70
    32
  0
VERTEX
  5
1672C
  8
01
 10
28.474900000000002
 20
-1402.8299999999999
 30
0.0
 70
    32
  0
VERTEX
  5
1672D
  8
01
 10
28.284400000000002
 20
-1402.8900000000001
 30
0.0
 70
    32
  0
VERTEX
  5
1672E
  8
01
 10
28.094899999999999
 20
-1402.9400000000001
 30
0.0
 70
    32
  0
VERTEX
  5
1672F
  8
01
 10
27.906700000000001
 20
-1403.0
 30
0.0
 70
    32
  0
VERTEX
  5
16730
  8
01
 10
27.7197
 20
-1403.05
 30
0.0
 70
    32
  0
VERTEX
  5
16731
  8
01
 10
27.533799999999999
 20
-1403.1099999999999
 30
0.0
 70
    32
  0
VERTEX
  5
16732
  8
01
 10
27.349299999999999
 20
-1403.1700000000001
 30
0.0
 70
    32
  0
VERTEX
  5
16733
  8
01
 10
27.166
 20
-1403.23
 30
0.0
 70
    32
  0
VERTEX
  5
16734
  8
01
 10
26.984000000000002
 20
-1403.29
 30
0.0
 70
    32
  0
VERTEX
  5
16735
  8
01
 10
26.8033
 20
-1403.3499999999999
 30
0.0
 70
    32
  0
VERTEX
  5
16736
  8
01
 10
26.623999999999999
 20
-1403.4100000000001
 30
0.0
 70
    32
  0
VERTEX
  5
16737
  8
01
 10
26.446000000000002
 20
-1403.48
 30
0.0
 70
    32
  0
VERTEX
  5
16738
  8
01
 10
26.269400000000001
 20
-1403.54
 30
0.0
 70
    32
  0
VERTEX
  5
16739
  8
01
 10
26.0943
 20
-1403.6099999999999
 30
0.0
 70
    32
  0
VERTEX
  5
1673A
  8
01
 10
25.9206
 20
-1403.6800000000001
 30
0.0
 70
    32
  0
VERTEX
  5
1673B
  8
01
 10
25.7484
 20
-1403.75
 30
0.0
 70
    32
  0
VERTEX
  5
1673C
  8
01
 10
25.5777
 20
-1403.8199999999999
 30
0.0
 70
    32
  0
VERTEX
  5
1673D
  8
01
 10
25.4085
 20
-1403.8900000000001
 30
0.0
 70
    32
  0
VERTEX
  5
1673E
  8
01
 10
25.2409
 20
-1403.96
 30
0.0
 70
    32
  0
VERTEX
  5
1673F
  8
01
 10
25.0748
 20
-1404.04
 30
0.0
 70
    32
  0
VERTEX
  5
16740
  8
01
 10
24.910299999999999
 20
-1404.1099999999999
 30
0.0
 70
    32
  0
VERTEX
  5
16741
  8
01
 10
24.747499999999999
 20
-1404.1900000000001
 30
0.0
 70
    32
  0
VERTEX
  5
16742
  8
01
 10
24.586200000000002
 20
-1404.26
 30
0.0
 70
    32
  0
VERTEX
  5
16743
  8
01
 10
24.4267
 20
-1404.3399999999999
 30
0.0
 70
    32
  0
VERTEX
  5
16744
  8
01
 10
24.268799999999999
 20
-1404.4200000000001
 30
0.0
 70
    32
  0
VERTEX
  5
16745
  8
01
 10
24.1126
 20
-1404.5
 30
0.0
 70
    32
  0
VERTEX
  5
16746
  8
01
 10
23.958100000000002
 20
-1404.5799999999999
 30
0.0
 70
    32
  0
VERTEX
  5
16747
  8
01
 10
23.805399999999999
 20
-1404.6600000000001
 30
0.0
 70
    32
  0
VERTEX
  5
16748
  8
01
 10
23.654499999999999
 20
-1404.74
 30
0.0
 70
    32
  0
VERTEX
  5
16749
  8
01
 10
23.505299999999998
 20
-1404.8299999999999
 30
0.0
 70
    32
  0
VERTEX
  5
1674A
  8
01
 10
23.358000000000001
 20
-1404.9100000000001
 30
0.0
 70
    32
  0
VERTEX
  5
1674B
  8
01
 10
23.212499999999999
 20
-1405.0
 30
0.0
 70
    32
  0
VERTEX
  5
1674C
  8
01
 10
23.0688
 20
-1405.0899999999999
 30
0.0
 70
    32
  0
VERTEX
  5
1674D
  8
01
 10
22.927099999999999
 20
-1405.1700000000001
 30
0.0
 70
    32
  0
VERTEX
  5
1674E
  8
01
 10
22.787199999999999
 20
-1405.26
 30
0.0
 70
    32
  0
VERTEX
  5
1674F
  8
01
 10
22.6492
 20
-1405.3499999999999
 30
0.0
 70
    32
  0
VERTEX
  5
16750
  8
01
 10
22.513200000000001
 20
-1405.4400000000001
 30
0.0
 70
    32
  0
VERTEX
  5
16751
  8
01
 10
22.379100000000001
 20
-1405.53
 30
0.0
 70
    32
  0
VERTEX
  5
16752
  8
01
 10
22.247
 20
-1405.6300000000001
 30
0.0
 70
    32
  0
VERTEX
  5
16753
  8
01
 10
22.116800000000001
 20
-1405.72
 30
0.0
 70
    32
  0
VERTEX
  5
16754
  8
01
 10
21.988700000000001
 20
-1405.8099999999999
 30
0.0
 70
    32
  0
VERTEX
  5
16755
  8
01
 10
21.8626
 20
-1405.9100000000001
 30
0.0
 70
    32
  0
VERTEX
  5
16756
  8
01
 10
21.738499999999998
 20
-1406.0
 30
0.0
 70
    32
  0
VERTEX
  5
16757
  8
01
 10
21.616499999999998
 20
-1406.0999999999999
 30
0.0
 70
    32
  0
VERTEX
  5
16758
  8
01
 10
21.496600000000001
 20
-1406.2
 30
0.0
 70
    32
  0
VERTEX
  5
16759
  8
01
 10
21.378799999999998
 20
-1406.29
 30
0.0
 70
    32
  0
VERTEX
  5
1675A
  8
01
 10
21.263100000000001
 20
-1406.3900000000001
 30
0.0
 70
    32
  0
VERTEX
  5
1675B
  8
01
 10
21.1495
 20
-1406.49
 30
0.0
 70
    32
  0
VERTEX
  5
1675C
  8
01
 10
21.038
 20
-1406.5899999999999
 30
0.0
 70
    32
  0
VERTEX
  5
1675D
  8
01
 10
20.928699999999999
 20
-1406.6900000000001
 30
0.0
 70
    32
  0
VERTEX
  5
1675E
  8
01
 10
20.8216
 20
-1406.79
 30
0.0
 70
    32
  0
VERTEX
  5
1675F
  8
01
 10
20.716699999999999
 20
-1406.9000000000001
 30
0.0
 70
    32
  0
VERTEX
  5
16760
  8
01
 10
20.613900000000001
 20
-1407.0
 30
0.0
 70
    32
  0
VERTEX
  5
16761
  8
01
 10
20.513400000000001
 20
-1407.0999999999999
 30
0.0
 70
    32
  0
VERTEX
  5
16762
  8
01
 10
20.415099999999999
 20
-1407.21
 30
0.0
 70
    32
  0
VERTEX
  5
16763
  8
01
 10
20.319099999999999
 20
-1407.3099999999999
 30
0.0
 70
    32
  0
VERTEX
  5
16764
  8
01
 10
20.225300000000001
 20
-1407.4200000000001
 30
0.0
 70
    32
  0
VERTEX
  5
16765
  8
01
 10
20.133800000000001
 20
-1407.52
 30
0.0
 70
    32
  0
VERTEX
  5
16766
  8
01
 10
20.044599999999999
 20
-1407.6300000000001
 30
0.0
 70
    32
  0
VERTEX
  5
16767
  8
01
 10
19.957599999999999
 20
-1407.74
 30
0.0
 70
    32
  0
VERTEX
  5
16768
  8
01
 10
19.873000000000001
 20
-1407.8399999999999
 30
0.0
 70
    32
  0
VERTEX
  5
16769
  8
01
 10
19.790700000000001
 20
-1407.95
 30
0.0
 70
    32
  0
VERTEX
  5
1676A
  8
01
 10
19.710799999999999
 20
-1408.0599999999999
 30
0.0
 70
    32
  0
VERTEX
  5
1676B
  8
01
 10
19.633099999999999
 20
-1408.1700000000001
 30
0.0
 70
    32
  0
VERTEX
  5
1676C
  8
01
 10
19.5579
 20
-1408.28
 30
0.0
 70
    32
  0
VERTEX
  5
1676D
  8
01
 10
19.484999999999999
 20
-1408.3900000000001
 30
0.0
 70
    32
  0
VERTEX
  5
1676E
  8
01
 10
19.414400000000001
 20
-1408.5
 30
0.0
 70
    32
  0
VERTEX
  5
1676F
  8
01
 10
19.346299999999999
 20
-1408.6099999999999
 30
0.0
 70
    32
  0
VERTEX
  5
16770
  8
01
 10
19.2805
 20
-1408.72
 30
0.0
 70
    32
  0
VERTEX
  5
16771
  8
01
 10
19.217199999999998
 20
-1408.8399999999999
 30
0.0
 70
    32
  0
VERTEX
  5
16772
  8
01
 10
19.156300000000002
 20
-1408.95
 30
0.0
 70
    32
  0
VERTEX
  5
16773
  8
01
 10
19.0977
 20
-1409.0599999999999
 30
0.0
 70
    32
  0
VERTEX
  5
16774
  8
01
 10
19.041699999999999
 20
-1409.1700000000001
 30
0.0
 70
    32
  0
VERTEX
  5
16775
  8
01
 10
18.988
 20
-1409.29
 30
0.0
 70
    32
  0
VERTEX
  5
16776
  8
01
 10
18.936800000000002
 20
-1409.4000000000001
 30
0.0
 70
    32
  0
VERTEX
  5
16777
  8
01
 10
18.888100000000001
 20
-1409.52
 30
0.0
 70
    32
  0
VERTEX
  5
16778
  8
01
 10
18.841799999999999
 20
-1409.6300000000001
 30
0.0
 70
    32
  0
VERTEX
  5
16779
  8
01
 10
18.797899999999998
 20
-1409.75
 30
0.0
 70
    32
  0
VERTEX
  5
1677A
  8
01
 10
18.756599999999999
 20
-1409.8599999999999
 30
0.0
 70
    32
  0
VERTEX
  5
1677B
  8
01
 10
18.717700000000001
 20
-1409.98
 30
0.0
 70
    32
  0
VERTEX
  5
1677C
  8
01
 10
18.6813
 20
-1410.0899999999999
 30
0.0
 70
    32
  0
VERTEX
  5
1677D
  8
01
 10
18.647400000000001
 20
-1410.21
 30
0.0
 70
    32
  0
VERTEX
  5
1677E
  8
01
 10
18.616
 20
-1410.3199999999999
 30
0.0
 70
    32
  0
VERTEX
  5
1677F
  8
01
 10
18.5871
 20
-1410.4400000000001
 30
0.0
 70
    32
  0
VERTEX
  5
16780
  8
01
 10
18.560700000000001
 20
-1410.5599999999999
 30
0.0
 70
    32
  0
VERTEX
  5
16781
  8
01
 10
18.536799999999999
 20
-1410.6700000000001
 30
0.0
 70
    32
  0
VERTEX
  5
16782
  8
01
 10
18.5154
 20
-1410.79
 30
0.0
 70
    32
  0
VERTEX
  5
16783
  8
01
 10
18.496500000000001
 20
-1410.9100000000001
 30
0.0
 70
    32
  0
VERTEX
  5
16784
  8
01
 10
18.4801
 20
-1411.02
 30
0.0
 70
    32
  0
VERTEX
  5
16785
  8
01
 10
18.466200000000001
 20
-1411.1400000000001
 30
0.0
 70
    32
  0
VERTEX
  5
16786
  8
01
 10
18.454899999999999
 20
-1411.26
 30
0.0
 70
    32
  0
VERTEX
  5
16787
  8
01
 10
18.446000000000002
 20
-1411.3800000000001
 30
0.0
 70
    32
  0
VERTEX
  5
16788
  8
01
 10
18.439699999999998
 20
-1411.49
 30
0.0
 70
    32
  0
VERTEX
  5
16789
  8
01
 10
18.436
 20
-1411.6099999999999
 30
0.0
 70
    32
  0
VERTEX
  5
1678A
  8
01
 10
18.434699999999999
 20
-1411.73
 30
0.0
 70
    32
  0
SEQEND
  5
1678B
  8
01
  0
POLYLINE
  5
14A30
  8
01
 66
     1
 10
0.0
 20
0.0
 30
0.0
 70
     8
  0
VERTEX
  5
1678C
  8
01
 10
36.434699999999999
 20
-1439.3900000000001
 30
0.0
 70
    32
  0
VERTEX
  5
1678D
  8
01
 10
36.213799999999999
 20
-1439.3900000000001
 30
0.0
 70
    32
  0
VERTEX
  5
1678E
  8
01
 10
35.993000000000002
 20
-1439.3900000000001
 30
0.0
 70
    32
  0
VERTEX
  5
1678F
  8
01
 10
35.772199999999998
 20
-1439.3900000000001
 30
0.0
 70
    32
  0
VERTEX
  5
16790
  8
01
 10
35.551499999999997
 20
-1439.3800000000001
 30
0.0
 70
    32
  0
VERTEX
  5
16791
  8
01
 10
35.3309
 20
-1439.3800000000001
 30
0.0
 70
    32
  0
VERTEX
  5
16792
  8
01
 10
35.110500000000002
 20
-1439.3699999999999
 30
0.0
 70
    32
  0
VERTEX
  5
16793
  8
01
 10
34.890300000000003
 20
-1439.3599999999999
 30
0.0
 70
    32
  0
VERTEX
  5
16794
  8
01
 10
34.670400000000001
 20
-1439.3499999999999
 30
0.0
 70
    32
  0
VERTEX
  5
16795
  8
01
 10
34.450699999999998
 20
-1439.3299999999999
 30
0.0
 70
    32
  0
VERTEX
  5
16796
  8
01
 10
34.231299999999997
 20
-1439.3199999999999
 30
0.0
 70
    32
  0
VERTEX
  5
16797
  8
01
 10
34.0122
 20
-1439.3
 30
0.0
 70
    32
  0
VERTEX
  5
16798
  8
01
 10
33.793599999999998
 20
-1439.29
 30
0.0
 70
    32
  0
VERTEX
  5
16799
  8
01
 10
33.575299999999999
 20
-1439.27
 30
0.0
 70
    32
  0
VERTEX
  5
1679A
  8
01
 10
33.357399999999998
 20
-1439.25
 30
0.0
 70
    32
  0
VERTEX
  5
1679B
  8
01
 10
33.140000000000001
 20
-1439.23
 30
0.0
 70
    32
  0
VERTEX
  5
1679C
  8
01
 10
32.923099999999998
 20
-1439.2
 30
0.0
 70
    32
  0
VERTEX
  5
1679D
  8
01
 10
32.706699999999998
 20
-1439.1800000000001
 30
0.0
 70
    32
  0
VERTEX
  5
1679E
  8
01
 10
32.490900000000011
 20
-1439.1500000000001
 30
0.0
 70
    32
  0
VERTEX
  5
1679F
  8
01
 10
32.275700000000001
 20
-1439.1300000000001
 30
0.0
 70
    32
  0
VERTEX
  5
167A0
  8
01
 10
32.06110000000001
 20
-1439.0999999999999
 30
0.0
 70
    32
  0
VERTEX
  5
167A1
  8
01
 10
31.847100000000001
 20
-1439.0699999999999
 30
0.0
 70
    32
  0
VERTEX
  5
167A2
  8
01
 10
31.633900000000001
 20
-1439.03
 30
0.0
 70
    32
  0
VERTEX
  5
167A3
  8
01
 10
31.421299999999999
 20
-1439.0
 30
0.0
 70
    32
  0
VERTEX
  5
167A4
  8
01
 10
31.209599999999998
 20
-1438.97
 30
0.0
 70
    32
  0
VERTEX
  5
167A5
  8
01
 10
30.9986
 20
-1438.9300000000001
 30
0.0
 70
    32
  0
VERTEX
  5
167A6
  8
01
 10
30.788399999999999
 20
-1438.8900000000001
 30
0.0
 70
    32
  0
VERTEX
  5
167A7
  8
01
 10
30.5791
 20
-1438.8499999999999
 30
0.0
 70
    32
  0
VERTEX
  5
167A8
  8
01
 10
30.370699999999999
 20
-1438.8099999999999
 30
0.0
 70
    32
  0
VERTEX
  5
167A9
  8
01
 10
30.1632
 20
-1438.77
 30
0.0
 70
    32
  0
VERTEX
  5
167AA
  8
01
 10
29.956600000000002
 20
-1438.73
 30
0.0
 70
    32
  0
VERTEX
  5
167AB
  8
01
 10
29.751000000000001
 20
-1438.6800000000001
 30
0.0
 70
    32
  0
VERTEX
  5
167AC
  8
01
 10
29.546399999999998
 20
-1438.6400000000001
 30
0.0
 70
    32
  0
VERTEX
  5
167AD
  8
01
 10
29.3428
 20
-1438.5899999999999
 30
0.0
 70
    32
  0
VERTEX
  5
167AE
  8
01
 10
29.1404
 20
-1438.54
 30
0.0
 70
    32
  0
VERTEX
  5
167AF
  8
01
 10
28.939
 20
-1438.49
 30
0.0
 70
    32
  0
VERTEX
  5
167B0
  8
01
 10
28.738700000000001
 20
-1438.4400000000001
 30
0.0
 70
    32
  0
VERTEX
  5
167B1
  8
01
 10
28.5396
 20
-1438.3900000000001
 30
0.0
 70
    32
  0
VERTEX
  5
167B2
  8
01
 10
28.341699999999999
 20
-1438.3399999999999
 30
0.0
 70
    32
  0
VERTEX
  5
167B3
  8
01
 10
28.145
 20
-1438.28
 30
0.0
 70
    32
  0
VERTEX
  5
167B4
  8
01
 10
27.9496
 20
-1438.22
 30
0.0
 70
    32
  0
VERTEX
  5
167B5
  8
01
 10
27.755400000000002
 20
-1438.1600000000001
 30
0.0
 70
    32
  0
VERTEX
  5
167B6
  8
01
 10
27.5625
 20
-1438.1099999999999
 30
0.0
 70
    32
  0
VERTEX
  5
167B7
  8
01
 10
27.370999999999999
 20
-1438.05
 30
0.0
 70
    32
  0
VERTEX
  5
167B8
  8
01
 10
27.180900000000001
 20
-1437.98
 30
0.0
 70
    32
  0
VERTEX
  5
167B9
  8
01
 10
26.992100000000001
 20
-1437.9200000000001
 30
0.0
 70
    32
  0
VERTEX
  5
167BA
  8
01
 10
26.8047
 20
-1437.8599999999999
 30
0.0
 70
    32
  0
VERTEX
  5
167BB
  8
01
 10
26.6189
 20
-1437.79
 30
0.0
 70
    32
  0
VERTEX
  5
167BC
  8
01
 10
26.4344
 20
-1437.72
 30
0.0
 70
    32
  0
VERTEX
  5
167BD
  8
01
 10
26.2515
 20
-1437.6500000000001
 30
0.0
 70
    32
  0
VERTEX
  5
167BE
  8
01
 10
26.0702
 20
-1437.5899999999999
 30
0.0
 70
    32
  0
VERTEX
  5
167BF
  8
01
 10
25.8903
 20
-1437.51
 30
0.0
 70
    32
  0
VERTEX
  5
167C0
  8
01
 10
25.7121
 20
-1437.4400000000001
 30
0.0
 70
    32
  0
VERTEX
  5
167C1
  8
01
 10
25.535499999999999
 20
-1437.3699999999999
 30
0.0
 70
    32
  0
VERTEX
  5
167C2
  8
01
 10
25.360499999999998
 20
-1437.3
 30
0.0
 70
    32
  0
VERTEX
  5
167C3
  8
01
 10
25.187200000000001
 20
-1437.22
 30
0.0
 70
    32
  0
VERTEX
  5
167C4
  8
01
 10
25.015599999999999
 20
-1437.1400000000001
 30
0.0
 70
    32
  0
VERTEX
  5
167C5
  8
01
 10
24.845700000000001
 20
-1437.0699999999999
 30
0.0
 70
    32
  0
VERTEX
  5
167C6
  8
01
 10
24.677600000000002
 20
-1436.99
 30
0.0
 70
    32
  0
VERTEX
  5
167C7
  8
01
 10
24.511199999999999
 20
-1436.9100000000001
 30
0.0
 70
    32
  0
VERTEX
  5
167C8
  8
01
 10
24.346599999999999
 20
-1436.8299999999999
 30
0.0
 70
    32
  0
VERTEX
  5
167C9
  8
01
 10
24.183900000000001
 20
-1436.74
 30
0.0
 70
    32
  0
VERTEX
  5
167CA
  8
01
 10
24.023
 20
-1436.6600000000001
 30
0.0
 70
    32
  0
VERTEX
  5
167CB
  8
01
 10
23.863900000000001
 20
-1436.5799999999999
 30
0.0
 70
    32
  0
VERTEX
  5
167CC
  8
01
 10
23.706800000000001
 20
-1436.49
 30
0.0
 70
    32
  0
VERTEX
  5
167CD
  8
01
 10
23.551500000000001
 20
-1436.4000000000001
 30
0.0
 70
    32
  0
VERTEX
  5
167CE
  8
01
 10
23.398299999999999
 20
-1436.3199999999999
 30
0.0
 70
    32
  0
VERTEX
  5
167CF
  8
01
 10
23.2469
 20
-1436.23
 30
0.0
 70
    32
  0
VERTEX
  5
167D0
  8
01
 10
23.0976
 20
-1436.1400000000001
 30
0.0
 70
    32
  0
VERTEX
  5
167D1
  8
01
 10
22.950199999999999
 20
-1436.05
 30
0.0
 70
    32
  0
VERTEX
  5
167D2
  8
01
 10
22.8049
 20
-1435.95
 30
0.0
 70
    32
  0
VERTEX
  5
167D3
  8
01
 10
22.6617
 20
-1435.8599999999999
 30
0.0
 70
    32
  0
VERTEX
  5
167D4
  8
01
 10
22.520499999999998
 20
-1435.77
 30
0.0
 70
    32
  0
VERTEX
  5
167D5
  8
01
 10
22.381399999999999
 20
-1435.6700000000001
 30
0.0
 70
    32
  0
VERTEX
  5
167D6
  8
01
 10
22.244499999999999
 20
-1435.5799999999999
 30
0.0
 70
    32
  0
VERTEX
  5
167D7
  8
01
 10
22.1096
 20
-1435.48
 30
0.0
 70
    32
  0
VERTEX
  5
167D8
  8
01
 10
21.977
 20
-1435.3800000000001
 30
0.0
 70
    32
  0
VERTEX
  5
167D9
  8
01
 10
21.846499999999999
 20
-1435.29
 30
0.0
 70
    32
  0
VERTEX
  5
167DA
  8
01
 10
21.7182
 20
-1435.1900000000001
 30
0.0
 70
    32
  0
VERTEX
  5
167DB
  8
01
 10
21.592099999999999
 20
-1435.0899999999999
 30
0.0
 70
    32
  0
VERTEX
  5
167DC
  8
01
 10
21.4682
 20
-1434.99
 30
0.0
 70
    32
  0
VERTEX
  5
167DD
  8
01
 10
21.346699999999998
 20
-1434.8900000000001
 30
0.0
 70
    32
  0
VERTEX
  5
167DE
  8
01
 10
21.2273
 20
-1434.78
 30
0.0
 70
    32
  0
VERTEX
  5
167DF
  8
01
 10
21.110299999999999
 20
-1434.6800000000001
 30
0.0
 70
    32
  0
VERTEX
  5
167E0
  8
01
 10
20.9956
 20
-1434.5799999999999
 30
0.0
 70
    32
  0
VERTEX
  5
167E1
  8
01
 10
20.883199999999999
 20
-1434.47
 30
0.0
 70
    32
  0
VERTEX
  5
167E2
  8
01
 10
20.773099999999999
 20
-1434.3699999999999
 30
0.0
 70
    32
  0
VERTEX
  5
167E3
  8
01
 10
20.665400000000002
 20
-1434.26
 30
0.0
 70
    32
  0
VERTEX
  5
167E4
  8
01
 10
20.560099999999998
 20
-1434.1500000000001
 30
0.0
 70
    32
  0
VERTEX
  5
167E5
  8
01
 10
20.4572
 20
-1434.04
 30
0.0
 70
    32
  0
VERTEX
  5
167E6
  8
01
 10
20.3567
 20
-1433.9400000000001
 30
0.0
 70
    32
  0
VERTEX
  5
167E7
  8
01
 10
20.258600000000001
 20
-1433.8299999999999
 30
0.0
 70
    32
  0
VERTEX
  5
167E8
  8
01
 10
20.1629
 20
-1433.72
 30
0.0
 70
    32
  0
VERTEX
  5
167E9
  8
01
 10
20.069700000000001
 20
-1433.6099999999999
 30
0.0
 70
    32
  0
VERTEX
  5
167EA
  8
01
 10
19.978899999999999
 20
-1433.5
 30
0.0
 70
    32
  0
VERTEX
  5
167EB
  8
01
 10
19.890699999999999
 20
-1433.3800000000001
 30
0.0
 70
    32
  0
VERTEX
  5
167EC
  8
01
 10
19.8049
 20
-1433.27
 30
0.0
 70
    32
  0
VERTEX
  5
167ED
  8
01
 10
19.721599999999999
 20
-1433.1600000000001
 30
0.0
 70
    32
  0
VERTEX
  5
167EE
  8
01
 10
19.640799999999999
 20
-1433.05
 30
0.0
 70
    32
  0
VERTEX
  5
167EF
  8
01
 10
19.5626
 20
-1432.9300000000001
 30
0.0
 70
    32
  0
VERTEX
  5
167F0
  8
01
 10
19.486899999999999
 20
-1432.8199999999999
 30
0.0
 70
    32
  0
VERTEX
  5
167F1
  8
01
 10
19.413799999999998
 20
-1432.7
 30
0.0
 70
    32
  0
VERTEX
  5
167F2
  8
01
 10
19.3432
 20
-1432.5899999999999
 30
0.0
 70
    32
  0
VERTEX
  5
167F3
  8
01
 10
19.275200000000002
 20
-1432.47
 30
0.0
 70
    32
  0
VERTEX
  5
167F4
  8
01
 10
19.209800000000001
 20
-1432.3599999999999
 30
0.0
 70
    32
  0
VERTEX
  5
167F5
  8
01
 10
19.146999999999998
 20
-1432.24
 30
0.0
 70
    32
  0
VERTEX
  5
167F6
  8
01
 10
19.0867
 20
-1432.1199999999999
 30
0.0
 70
    32
  0
VERTEX
  5
167F7
  8
01
 10
19.0291
 20
-1432.0
 30
0.0
 70
    32
  0
VERTEX
  5
167F8
  8
01
 10
18.9741
 20
-1431.8900000000001
 30
0.0
 70
    32
  0
VERTEX
  5
167F9
  8
01
 10
18.921800000000001
 20
-1431.77
 30
0.0
 70
    32
  0
VERTEX
  5
167FA
  8
01
 10
18.8721
 20
-1431.6500000000001
 30
0.0
 70
    32
  0
VERTEX
  5
167FB
  8
01
 10
18.824999999999999
 20
-1431.53
 30
0.0
 70
    32
  0
VERTEX
  5
167FC
  8
01
 10
18.7806
 20
-1431.4100000000001
 30
0.0
 70
    32
  0
VERTEX
  5
167FD
  8
01
 10
18.738800000000001
 20
-1431.29
 30
0.0
 70
    32
  0
VERTEX
  5
167FE
  8
01
 10
18.6997
 20
-1431.1700000000001
 30
0.0
 70
    32
  0
VERTEX
  5
167FF
  8
01
 10
18.6633
 20
-1431.05
 30
0.0
 70
    32
  0
VERTEX
  5
16800
  8
01
 10
18.6295
 20
-1430.9300000000001
 30
0.0
 70
    32
  0
VERTEX
  5
16801
  8
01
 10
18.598500000000001
 20
-1430.8099999999999
 30
0.0
 70
    32
  0
VERTEX
  5
16802
  8
01
 10
18.5701
 20
-1430.6900000000001
 30
0.0
 70
    32
  0
VERTEX
  5
16803
  8
01
 10
18.5444
 20
-1430.5699999999999
 30
0.0
 70
    32
  0
VERTEX
  5
16804
  8
01
 10
18.5214
 20
-1430.45
 30
0.0
 70
    32
  0
VERTEX
  5
16805
  8
01
 10
18.501100000000001
 20
-1430.3299999999999
 30
0.0
 70
    32
  0
VERTEX
  5
16806
  8
01
 10
18.483499999999999
 20
-1430.21
 30
0.0
 70
    32
  0
VERTEX
  5
16807
  8
01
 10
18.468599999999999
 20
-1430.0899999999999
 30
0.0
 70
    32
  0
VERTEX
  5
16808
  8
01
 10
18.456399999999999
 20
-1429.96
 30
0.0
 70
    32
  0
VERTEX
  5
16809
  8
01
 10
18.446899999999999
 20
-1429.8399999999999
 30
0.0
 70
    32
  0
VERTEX
  5
1680A
  8
01
 10
18.440100000000001
 20
-1429.72
 30
0.0
 70
    32
  0
VERTEX
  5
1680B
  8
01
 10
18.4361
 20
-1429.5999999999999
 30
0.0
 70
    32
  0
VERTEX
  5
1680C
  8
01
 10
18.434699999999999
 20
-1429.48
 30
0.0
 70
    32
  0
SEQEND
  5
1680D
  8
01
  0
POLYLINE
  5
14A31
  8
01
 66
     1
 10
0.0
 20
0.0
 30
0.0
 70
     8
  0
VERTEX
  5
1680E
  8
01
 10
36.434699999999999
 20
-1431.3900000000001
 30
0.0
 70
    32
  0
VERTEX
  5
1680F
  8
01
 10
36.311999999999998
 20
-1431.3900000000001
 30
0.0
 70
    32
  0
VERTEX
  5
16810
  8
01
 10
36.18930000000001
 20
-1431.3900000000001
 30
0.0
 70
    32
  0
VERTEX
  5
16811
  8
01
 10
36.066600000000001
 20
-1431.3900000000001
 30
0.0
 70
    32
  0
VERTEX
  5
16812
  8
01
 10
35.944000000000003
 20
-1431.3900000000001
 30
0.0
 70
    32
  0
VERTEX
  5
16813
  8
01
 10
35.8215
 20
-1431.3900000000001
 30
0.0
 70
    32
  0
VERTEX
  5
16814
  8
01
 10
35.699100000000001
 20
-1431.3900000000001
 30
0.0
 70
    32
  0
VERTEX
  5
16815
  8
01
 10
35.576700000000002
 20
-1431.3900000000001
 30
0.0
 70
    32
  0
VERTEX
  5
16816
  8
01
 10
35.45450000000001
 20
-1431.3900000000001
 30
0.0
 70
    32
  0
VERTEX
  5
16817
  8
01
 10
35.33250000000001
 20
-1431.3800000000001
 30
0.0
 70
    32
  0
VERTEX
  5
16818
  8
01
 10
35.210599999999999
 20
-1431.3800000000001
 30
0.0
 70
    32
  0
VERTEX
  5
16819
  8
01
 10
35.088900000000002
 20
-1431.3800000000001
 30
0.0
 70
    32
  0
VERTEX
  5
1681A
  8
01
 10
34.967399999999998
 20
-1431.3699999999999
 30
0.0
 70
    32
  0
VERTEX
  5
1681B
  8
01
 10
34.8461
 20
-1431.3699999999999
 30
0.0
 70
    32
  0
VERTEX
  5
1681C
  8
01
 10
34.725099999999998
 20
-1431.3699999999999
 30
0.0
 70
    32
  0
VERTEX
  5
1681D
  8
01
 10
34.604300000000009
 20
-1431.3599999999999
 30
0.0
 70
    32
  0
VERTEX
  5
1681E
  8
01
 10
34.483800000000002
 20
-1431.3599999999999
 30
0.0
 70
    32
  0
VERTEX
  5
1681F
  8
01
 10
34.363599999999998
 20
-1431.3499999999999
 30
0.0
 70
    32
  0
VERTEX
  5
16820
  8
01
 10
34.243699999999997
 20
-1431.3499999999999
 30
0.0
 70
    32
  0
VERTEX
  5
16821
  8
01
 10
34.124099999999999
 20
-1431.3399999999999
 30
0.0
 70
    32
  0
VERTEX
  5
16822
  8
01
 10
34.004899999999999
 20
-1431.3399999999999
 30
0.0
 70
    32
  0
VERTEX
  5
16823
  8
01
 10
33.886000000000003
 20
-1431.3299999999999
 30
0.0
 70
    32
  0
VERTEX
  5
16824
  8
01
 10
33.767600000000002
 20
-1431.3299999999999
 30
0.0
 70
    32
  0
VERTEX
  5
16825
  8
01
 10
33.649500000000003
 20
-1431.3199999999999
 30
0.0
 70
    32
  0
VERTEX
  5
16826
  8
01
 10
33.5319
 20
-1431.3099999999999
 30
0.0
 70
    32
  0
VERTEX
  5
16827
  8
01
 10
33.4146
 20
-1431.3099999999999
 30
0.0
 70
    32
  0
VERTEX
  5
16828
  8
01
 10
33.297899999999998
 20
-1431.3
 30
0.0
 70
    32
  0
VERTEX
  5
16829
  8
01
 10
33.18160000000001
 20
-1431.29
 30
0.0
 70
    32
  0
VERTEX
  5
1682A
  8
01
 10
33.065800000000003
 20
-1431.28
 30
0.0
 70
    32
  0
VERTEX
  5
1682B
  8
01
 10
32.950499999999998
 20
-1431.27
 30
0.0
 70
    32
  0
VERTEX
  5
1682C
  8
01
 10
32.835700000000003
 20
-1431.27
 30
0.0
 70
    32
  0
VERTEX
  5
1682D
  8
01
 10
32.721499999999999
 20
-1431.26
 30
0.0
 70
    32
  0
VERTEX
  5
1682E
  8
01
 10
32.607900000000001
 20
-1431.25
 30
0.0
 70
    32
  0
VERTEX
  5
1682F
  8
01
 10
32.494799999999998
 20
-1431.24
 30
0.0
 70
    32
  0
VERTEX
  5
16830
  8
01
 10
32.382300000000001
 20
-1431.23
 30
0.0
 70
    32
  0
VERTEX
  5
16831
  8
01
 10
32.270400000000009
 20
-1431.22
 30
0.0
 70
    32
  0
VERTEX
  5
16832
  8
01
 10
32.159100000000002
 20
-1431.21
 30
0.0
 70
    32
  0
VERTEX
  5
16833
  8
01
 10
32.048499999999997
 20
-1431.2
 30
0.0
 70
    32
  0
VERTEX
  5
16834
  8
01
 10
31.938600000000001
 20
-1431.1900000000001
 30
0.0
 70
    32
  0
VERTEX
  5
16835
  8
01
 10
31.8293
 20
-1431.1800000000001
 30
0.0
 70
    32
  0
VERTEX
  5
16836
  8
01
 10
31.720700000000001
 20
-1431.1700000000001
 30
0.0
 70
    32
  0
VERTEX
  5
16837
  8
01
 10
31.6129
 20
-1431.1600000000001
 30
0.0
 70
    32
  0
VERTEX
  5
16838
  8
01
 10
31.505700000000001
 20
-1431.1500000000001
 30
0.0
 70
    32
  0
VERTEX
  5
16839
  8
01
 10
31.3993
 20
-1431.1300000000001
 30
0.0
 70
    32
  0
VERTEX
  5
1683A
  8
01
 10
31.293700000000001
 20
-1431.1199999999999
 30
0.0
 70
    32
  0
VERTEX
  5
1683B
  8
01
 10
31.188800000000001
 20
-1431.1099999999999
 30
0.0
 70
    32
  0
VERTEX
  5
1683C
  8
01
 10
31.084700000000002
 20
-1431.0999999999999
 30
0.0
 70
    32
  0
VERTEX
  5
1683D
  8
01
 10
30.9815
 20
-1431.0799999999999
 30
0.0
 70
    32
  0
VERTEX
  5
1683E
  8
01
 10
30.879000000000001
 20
-1431.0699999999999
 30
0.0
 70
    32
  0
VERTEX
  5
1683F
  8
01
 10
30.7774
 20
-1431.0599999999999
 30
0.0
 70
    32
  0
VERTEX
  5
16840
  8
01
 10
30.676600000000001
 20
-1431.05
 30
0.0
 70
    32
  0
VERTEX
  5
16841
  8
01
 10
30.576699999999999
 20
-1431.03
 30
0.0
 70
    32
  0
VERTEX
  5
16842
  8
01
 10
30.477699999999999
 20
-1431.02
 30
0.0
 70
    32
  0
VERTEX
  5
16843
  8
01
 10
30.3796
 20
-1431.0
 30
0.0
 70
    32
  0
VERTEX
  5
16844
  8
01
 10
30.282399999999999
 20
-1430.99
 30
0.0
 70
    32
  0
VERTEX
  5
16845
  8
01
 10
30.1861
 20
-1430.97
 30
0.0
 70
    32
  0
VERTEX
  5
16846
  8
01
 10
30.090800000000002
 20
-1430.96
 30
0.0
 70
    32
  0
VERTEX
  5
16847
  8
01
 10
29.996400000000001
 20
-1430.9400000000001
 30
0.0
 70
    32
  0
VERTEX
  5
16848
  8
01
 10
29.902999999999999
 20
-1430.9300000000001
 30
0.0
 70
    32
  0
VERTEX
  5
16849
  8
01
 10
29.810500000000001
 20
-1430.9100000000001
 30
0.0
 70
    32
  0
VERTEX
  5
1684A
  8
01
 10
29.719100000000001
 20
-1430.9000000000001
 30
0.0
 70
    32
  0
VERTEX
  5
1684B
  8
01
 10
29.628699999999998
 20
-1430.8800000000001
 30
0.0
 70
    32
  0
VERTEX
  5
1684C
  8
01
 10
29.539300000000001
 20
-1430.8699999999999
 30
0.0
 70
    32
  0
VERTEX
  5
1684D
  8
01
 10
29.450900000000001
 20
-1430.8499999999999
 30
0.0
 70
    32
  0
VERTEX
  5
1684E
  8
01
 10
29.363600000000002
 20
-1430.8299999999999
 30
0.0
 70
    32
  0
VERTEX
  5
1684F
  8
01
 10
29.2774
 20
-1430.8199999999999
 30
0.0
 70
    32
  0
VERTEX
  5
16850
  8
01
 10
29.1922
 20
-1430.8
 30
0.0
 70
    32
  0
VERTEX
  5
16851
  8
01
 10
29.1082
 20
-1430.78
 30
0.0
 70
    32
  0
VERTEX
  5
16852
  8
01
 10
29.025200000000002
 20
-1430.77
 30
0.0
 70
    32
  0
VERTEX
  5
16853
  8
01
 10
28.943300000000001
 20
-1430.75
 30
0.0
 70
    32
  0
VERTEX
  5
16854
  8
01
 10
28.8626
 20
-1430.73
 30
0.0
 70
    32
  0
VERTEX
  5
16855
  8
01
 10
28.783000000000001
 20
-1430.71
 30
0.0
 70
    32
  0
VERTEX
  5
16856
  8
01
 10
28.704599999999999
 20
-1430.6900000000001
 30
0.0
 70
    32
  0
VERTEX
  5
16857
  8
01
 10
28.627300000000002
 20
-1430.6800000000001
 30
0.0
 70
    32
  0
VERTEX
  5
16858
  8
01
 10
28.551200000000001
 20
-1430.6600000000001
 30
0.0
 70
    32
  0
VERTEX
  5
16859
  8
01
 10
28.476299999999998
 20
-1430.6400000000001
 30
0.0
 70
    32
  0
VERTEX
  5
1685A
  8
01
 10
28.4026
 20
-1430.6199999999999
 30
0.0
 70
    32
  0
VERTEX
  5
1685B
  8
01
 10
28.330100000000002
 20
-1430.5999999999999
 30
0.0
 70
    32
  0
VERTEX
  5
1685C
  8
01
 10
28.258900000000001
 20
-1430.5799999999999
 30
0.0
 70
    32
  0
VERTEX
  5
1685D
  8
01
 10
28.188800000000001
 20
-1430.5599999999999
 30
0.0
 70
    32
  0
VERTEX
  5
1685E
  8
01
 10
28.120000000000001
 20
-1430.54
 30
0.0
 70
    32
  0
VERTEX
  5
1685F
  8
01
 10
28.052499999999998
 20
-1430.52
 30
0.0
 70
    32
  0
VERTEX
  5
16860
  8
01
 10
27.9862
 20
-1430.5
 30
0.0
 70
    32
  0
VERTEX
  5
16861
  8
01
 10
27.921099999999999
 20
-1430.48
 30
0.0
 70
    32
  0
VERTEX
  5
16862
  8
01
 10
27.857399999999998
 20
-1430.46
 30
0.0
 70
    32
  0
VERTEX
  5
16863
  8
01
 10
27.795000000000002
 20
-1430.4400000000001
 30
0.0
 70
    32
  0
VERTEX
  5
16864
  8
01
 10
27.733799999999999
 20
-1430.4200000000001
 30
0.0
 70
    32
  0
VERTEX
  5
16865
  8
01
 10
27.673999999999999
 20
-1430.4000000000001
 30
0.0
 70
    32
  0
VERTEX
  5
16866
  8
01
 10
27.615500000000001
 20
-1430.3800000000001
 30
0.0
 70
    32
  0
VERTEX
  5
16867
  8
01
 10
27.558299999999999
 20
-1430.3599999999999
 30
0.0
 70
    32
  0
VERTEX
  5
16868
  8
01
 10
27.502500000000001
 20
-1430.3399999999999
 30
0.0
 70
    32
  0
VERTEX
  5
16869
  8
01
 10
27.448
 20
-1430.3199999999999
 30
0.0
 70
    32
  0
VERTEX
  5
1686A
  8
01
 10
27.3948
 20
-1430.3
 30
0.0
 70
    32
  0
VERTEX
  5
1686B
  8
01
 10
27.343
 20
-1430.28
 30
0.0
 70
    32
  0
VERTEX
  5
1686C
  8
01
 10
27.2926
 20
-1430.25
 30
0.0
 70
    32
  0
VERTEX
  5
1686D
  8
01
 10
27.243600000000001
 20
-1430.23
 30
0.0
 70
    32
  0
VERTEX
  5
1686E
  8
01
 10
27.195900000000002
 20
-1430.21
 30
0.0
 70
    32
  0
VERTEX
  5
1686F
  8
01
 10
27.1496
 20
-1430.1900000000001
 30
0.0
 70
    32
  0
VERTEX
  5
16870
  8
01
 10
27.104800000000001
 20
-1430.1700000000001
 30
0.0
 70
    32
  0
VERTEX
  5
16871
  8
01
 10
27.061299999999999
 20
-1430.1500000000001
 30
0.0
 70
    32
  0
VERTEX
  5
16872
  8
01
 10
27.019300000000001
 20
-1430.1199999999999
 30
0.0
 70
    32
  0
VERTEX
  5
16873
  8
01
 10
26.9786
 20
-1430.0999999999999
 30
0.0
 70
    32
  0
VERTEX
  5
16874
  8
01
 10
26.939399999999999
 20
-1430.0799999999999
 30
0.0
 70
    32
  0
VERTEX
  5
16875
  8
01
 10
26.901599999999998
 20
-1430.0599999999999
 30
0.0
 70
    32
  0
VERTEX
  5
16876
  8
01
 10
26.865300000000001
 20
-1430.03
 30
0.0
 70
    32
  0
VERTEX
  5
16877
  8
01
 10
26.830400000000001
 20
-1430.01
 30
0.0
 70
    32
  0
VERTEX
  5
16878
  8
01
 10
26.796900000000001
 20
-1429.99
 30
0.0
 70
    32
  0
VERTEX
  5
16879
  8
01
 10
26.764900000000001
 20
-1429.97
 30
0.0
 70
    32
  0
VERTEX
  5
1687A
  8
01
 10
26.734400000000001
 20
-1429.9400000000001
 30
0.0
 70
    32
  0
VERTEX
  5
1687B
  8
01
 10
26.705300000000001
 20
-1429.9200000000001
 30
0.0
 70
    32
  0
VERTEX
  5
1687C
  8
01
 10
26.677700000000002
 20
-1429.9000000000001
 30
0.0
 70
    32
  0
VERTEX
  5
1687D
  8
01
 10
26.651499999999999
 20
-1429.8699999999999
 30
0.0
 70
    32
  0
VERTEX
  5
1687E
  8
01
 10
26.626799999999999
 20
-1429.8499999999999
 30
0.0
 70
    32
  0
VERTEX
  5
1687F
  8
01
 10
26.6036
 20
-1429.8299999999999
 30
0.0
 70
    32
  0
VERTEX
  5
16880
  8
01
 10
26.581900000000001
 20
-1429.8099999999999
 30
0.0
 70
    32
  0
VERTEX
  5
16881
  8
01
 10
26.561699999999998
 20
-1429.78
 30
0.0
 70
    32
  0
VERTEX
  5
16882
  8
01
 10
26.542899999999999
 20
-1429.76
 30
0.0
 70
    32
  0
VERTEX
  5
16883
  8
01
 10
26.525700000000001
 20
-1429.74
 30
0.0
 70
    32
  0
VERTEX
  5
16884
  8
01
 10
26.509899999999998
 20
-1429.71
 30
0.0
 70
    32
  0
VERTEX
  5
16885
  8
01
 10
26.4956
 20
-1429.6900000000001
 30
0.0
 70
    32
  0
VERTEX
  5
16886
  8
01
 10
26.482900000000001
 20
-1429.6700000000001
 30
0.0
 70
    32
  0
VERTEX
  5
16887
  8
01
 10
26.471599999999999
 20
-1429.6400000000001
 30
0.0
 70
    32
  0
VERTEX
  5
16888
  8
01
 10
26.4618
 20
-1429.6199999999999
 30
0.0
 70
    32
  0
VERTEX
  5
16889
  8
01
 10
26.453499999999998
 20
-1429.5999999999999
 30
0.0
 70
    32
  0
VERTEX
  5
1688A
  8
01
 10
26.4467
 20
-1429.5699999999999
 30
0.0
 70
    32
  0
VERTEX
  5
1688B
  8
01
 10
26.441500000000001
 20
-1429.55
 30
0.0
 70
    32
  0
VERTEX
  5
1688C
  8
01
 10
26.4377
 20
-1429.52
 30
0.0
 70
    32
  0
VERTEX
  5
1688D
  8
01
 10
26.435500000000001
 20
-1429.5
 30
0.0
 70
    32
  0
VERTEX
  5
1688E
  8
01
 10
26.434699999999999
 20
-1429.48
 30
0.0
 70
    32
  0
SEQEND
  5
1688F
  8
01
  0
ARC
  5
14A32
  8
01
 10
174.87469999999999
 20
-1430.9919
 30
0.0
 40
4.0
 50
297.54770000000002
 51
117.54770000000001
  0
LINE
  5
14A33
  8
01
 10
168.28469999999999
 20
-1438.9409000000001
 30
0.0
 11
176.72470000000001
 21
-1434.5383999999999
 31
0.0
  0
LINE
  5
14A34
  8
01
 10
166.43469999999999
 20
-1430.8829000000001
 30
0.0
 11
173.0248
 21
-1427.4454000000001
 31
0.0
  0
ARC
  5
14A35
  8
01
 10
166.43469999999999
 20
-1435.3943999999999
 30
0.0
 40
4.0
 50
270.0
 51
297.54770000000002
  0
LINE
  5
14A36
  8
01
 10
86.434700000000007
 20
-1400.7610999999999
 30
0.0
 11
86.434700000000007
 21
-1410.8611000000001
 31
0.0
  0
LINE
  5
14A37
  8
01
 10
85.434700000000007
 20
-1409.8110999999999
 30
0.0
 11
86.434700000000007
 21
-1409.8110999999999
 31
0.0
  0
LINE
  5
14A38
  8
01
 10
85.434700000000007
 20
-1399.6611
 30
0.0
 11
85.434700000000007
 21
-1411.9611
 31
0.0
  0
LINE
  5
14A39
  8
01
 10
85.434700000000007
 20
-1411.9611
 30
0.0
 11
84.434700000000007
 21
-1411.9611
 31
0.0
  0
LINE
  5
14A3A
  8
01
 10
86.434700000000007
 20
-1410.8611000000001
 30
0.0
 11
92.284499999999994
 21
-1410.8611000000001
 31
0.0
  0
LINE
  5
14A3B
  8
01
 10
86.434700000000007
 20
-1400.7610999999999
 30
0.0
 11
92.284499999999994
 21
-1400.7610999999999
 31
0.0
  0
LINE
  5
14A3C
  8
01
 10
85.434700000000007
 20
-1401.8110999999999
 30
0.0
 11
86.434700000000007
 21
-1401.8110999999999
 31
0.0
  0
LINE
  5
14A3D
  8
01
 10
85.434700000000007
 20
-1399.6611
 30
0.0
 11
84.434700000000007
 21
-1399.6611
 31
0.0
  0
LINE
  5
14A3E
  8
01
 10
116.43470000000001
 20
-1400.7610999999999
 30
0.0
 11
116.43470000000001
 21
-1410.8611000000001
 31
0.0
  0
LINE
  5
14A3F
  8
01
 10
116.43470000000001
 20
-1401.8110999999999
 30
0.0
 11
117.43470000000001
 21
-1401.8110999999999
 31
0.0
  0
LINE
  5
14A40
  8
01
 10
116.43470000000001
 20
-1409.8110999999999
 30
0.0
 11
117.43470000000001
 21
-1409.8110999999999
 31
0.0
  0
LINE
  5
14A41
  8
01
 10
117.43470000000001
 20
-1399.6611
 30
0.0
 11
117.43470000000001
 21
-1411.9611
 31
0.0
  0
LINE
  5
14A42
  8
01
 10
117.43470000000001
 20
-1399.6611
 30
0.0
 11
118.43470000000001
 21
-1399.6611
 31
0.0
  0
LINE
  5
14A43
  8
01
 10
117.43470000000001
 20
-1411.9611
 30
0.0
 11
118.43470000000001
 21
-1411.9611
 31
0.0
  0
LINE
  5
14A44
  8
01
 10
110.58499999999999
 20
-1400.7610999999999
 30
0.0
 11
116.43470000000001
 21
-1400.7610999999999
 31
0.0
  0
LINE
  5
14A45
  8
01
 10
110.58499999999999
 20
-1410.8611000000001
 30
0.0
 11
116.43470000000001
 21
-1410.8611000000001
 31
0.0
  0
ARC
  5
14A46
  8
01
 10
262.09280000000001
 20
-1540.6632
 30
0.0
 40
4.0
 50
333.19
 51
155.0
  0
LINE
  5
14A47
  8
1CENTER
 10
299.8485
 20
-1486.6629
 30
0.0
 11
274.6986
 21
-1486.6629
 31
0.0
  0
LINE
  5
14A48
  8
1CENTER
 10
287.27359999999999
 20
-1474.088
 30
0.0
 11
287.27359999999999
 21
-1499.2379000000001
 31
0.0
  0
CIRCLE
  5
14A49
  8
01
 10
287.27359999999999
 20
-1486.6629
 30
0.0
 40
6.1500000000000004
  0
CIRCLE
  5
14A4A
  8
01
 10
287.27359999999999
 20
-1486.6629
 30
0.0
 40
4.0
  0
CIRCLE
  5
14A4B
  8
01
 10
287.27359999999999
 20
-1486.6629
 30
0.0
 40
4.1500000000000004
  0
LINE
  5
14A4E
  8
01
 10
296.21780000000001
 20
-1481.1629
 30
0.0
 11
296.21780000000001
 21
-1492.1629
 31
0.0
  0
LINE
  5
14A4F
  8
01
 10
300.01780000000002
 20
-1492.1629
 30
0.0
 11
300.01780000000002
 21
-1481.1629
 31
0.0
  0
ARC
  5
14A50
  8
01
 10
328.77359999999999
 20
-1463.5229999999999
 30
0.0
 40
0.5
 50
122.3759
 51
180.0
  0
LINE
  5
14A51
  8
01
 10
328.50580000000002
 20
-1463.1007
 30
0.0
 11
330.77359999999999
 21
-1461.6629
 31
0.0
  0
LINE
  5
14A52
  8
01
 10
330.77359999999999
 20
-1461.6629
 30
0.0
 11
333.27359999999999
 21
-1461.6411000000001
 31
0.0
  0
ARC
  5
14A53
  8
01
 10
328.77359999999999
 20
-1509.8027999999999
 30
0.0
 40
0.5
 50
180.0
 51
237.6241
  0
LINE
  5
14A54
  8
01
 10
328.50580000000002
 20
-1510.2251000000001
 30
0.0
 11
330.77359999999999
 21
-1511.6629
 31
0.0
  0
LINE
  5
14A55
  8
01
 10
330.77359999999999
 20
-1511.6629
 30
0.0
 11
333.27359999999999
 21
-1511.6847
 31
0.0
  0
LINE
  5
14A56
  8
01
 10
328.27359999999999
 20
-1509.8027999999999
 30
0.0
 11
328.27359999999999
 21
-1463.5229999999999
 31
0.0
  0
LINE
  5
14A57
  8
01
 10
330.77359999999999
 20
-1461.6629
 30
0.0
 11
330.77359999999999
 21
-1511.6629
 31
0.0
  0
LINE
  5
14A58
  8
01
 10
333.27359999999999
 20
-1461.6411000000001
 30
0.0
 11
333.27359999999999
 21
-1511.6847
 31
0.0
  0
ARC
  5
14A59
  8
01
 10
308.77359999999999
 20
-1476.2036000000001
 30
0.0
 40
0.5
 50
122.3759
 51
180.0
  0
ARC
  5
14A5A
  8
01
 10
327.97359999999998
 20
-1463.7934
 30
0.0
 40
0.3
 50
0.0
 51
122.3759
  0
LINE
  5
14A5B
  8
01
 10
308.50580000000002
 20
-1475.7813000000001
 30
0.0
 11
327.81290000000001
 21
-1463.5400999999999
 31
0.0
  0
ARC
  5
14A5C
  8
01
 10
308.77359999999999
 20
-1497.1223
 30
0.0
 40
0.5
 50
180.0
 51
237.6241
  0
ARC
  5
14A5D
  8
01
 10
327.97359999999998
 20
-1509.5324000000001
 30
0.0
 40
0.3
 50
237.6241
 51
0.0
  0
LINE
  5
14A5E
  8
01
 10
308.50580000000002
 20
-1497.5445999999999
 30
0.0
 11
327.81290000000001
 21
-1509.7858000000001
 31
0.0
  0
LINE
  5
14A5F
  8
01
 10
308.27359999999999
 20
-1476.2036000000001
 30
0.0
 11
308.27359999999999
 21
-1497.1223
 31
0.0
  0
LINE
  5
14A60
  8
01
 10
328.27359999999999
 20
-1509.5324000000001
 30
0.0
 11
328.27359999999999
 21
-1463.7934
 31
0.0
  0
LINE
  5
14A61
  8
01
 10
300.01780000000002
 20
-1492.1629
 30
0.0
 11
300.01780000000002
 21
-1481.1629
 31
0.0
  0
ARC
  5
14A62
  8
01
 10
307.77359999999999
 20
-1476.8376000000001
 30
0.0
 40
0.5
 50
0.0
 51
122.3759
  0
ARC
  5
14A63
  8
01
 10
307.77359999999999
 20
-1496.4883
 30
0.0
 40
0.5
 50
237.6241
 51
0.0
  0
LINE
  5
14A64
  8
01
 10
308.27359999999999
 20
-1496.4883
 30
0.0
 11
308.27359999999999
 21
-1476.8376000000001
 31
0.0
  0
LINE
  5
14A65
  8
01
 10
307.50580000000002
 20
-1496.9105
 30
0.0
 11
300.01780000000002
 21
-1492.1629
 31
0.0
  0
LINE
  5
14A66
  8
01
 10
307.50580000000002
 20
-1476.4152999999999
 30
0.0
 11
300.01780000000002
 21
-1481.1629
 31
0.0
  0
LINE
  5
14A87
  8
1PHANTOM
 10
97.434700000000021
 20
-1371.2111
 30
0.0
 11
97.434700000000021
 21
-1369.2111
 31
0.0
  0
LINE
  5
14A88
  8
1PHANTOM
 10
105.43470000000001
 20
-1371.2111
 30
0.0
 11
105.43470000000001
 21
-1369.2111
 31
0.0
  0
LINE
  5
14A89
  8
1PHANTOM
 10
121.43470000000001
 20
-1359.8110999999999
 30
0.0
 11
81.434700000000007
 21
-1359.8110999999999
 31
0.0
  0
LINE
  5
14A8A
  8
1PHANTOM
 10
86.684700000000007
 20
-1363.3110999999999
 30
0.0
 11
97.040499999999994
 21
-1363.3110999999999
 31
0.0
  0
LINE
  5
14A8D
  8
1PHANTOM
 10
116.68470000000001
 20
-1362.8110999999999
 30
0.0
 11
116.68470000000001
 21
-1362.3110999999999
 31
0.0
  0
LINE
  5
14A8E
  8
1PHANTOM
 10
121.43470000000001
 20
-1362.3110999999999
 30
0.0
 11
121.43470000000001
 21
-1359.8110999999999
 31
0.0
  0
LINE
  5
14A8F
  8
1PHANTOM
 10
116.18470000000001
 20
-1363.3110999999999
 30
0.0
 11
116.68470000000001
 21
-1362.8110999999999
 31
0.0
  0
LINE
  5
14A90
  8
1PHANTOM
 10
121.43470000000001
 20
-1362.3110999999999
 30
0.0
 11
116.68470000000001
 21
-1362.3110999999999
 31
0.0
  0
ARC
  5
14A91
  8
1PHANTOM
 10
97.040499999999994
 20
-1363.8110999999999
 30
0.0
 40
0.5
 50
0.3
 51
90.0
  0
LINE
  5
14A92
  8
1PHANTOM
 10
97.568799999999996
 20
-1369.2111
 30
0.0
 11
97.540499999999994
 21
-1363.8085000000001
 31
0.0
  0
ARC
  5
14A93
  8
1PHANTOM
 10
105.82899999999999
 20
-1363.8110999999999
 30
0.0
 40
0.5
 50
90.0
 51
179.69999999999999
  0
LINE
  5
14A94
  8
1PHANTOM
 10
105.30070000000001
 20
-1369.2111
 30
0.0
 11
105.32899999999999
 21
-1363.8085000000001
 31
0.0
  0
LINE
  5
14A95
  8
1PHANTOM
 10
97.434700000000021
 20
-1369.2111
 30
0.0
 11
97.568799999999996
 21
-1369.2111
 31
0.0
  0
LINE
  5
14A96
  8
1PHANTOM
 10
81.434700000000007
 20
-1362.3110999999999
 30
0.0
 11
81.434700000000007
 21
-1359.8110999999999
 31
0.0
  0
LINE
  5
14A97
  8
1PHANTOM
 10
86.184700000000007
 20
-1362.8110999999999
 30
0.0
 11
86.184700000000007
 21
-1362.3110999999999
 31
0.0
  0
LINE
  5
14A98
  8
1PHANTOM
 10
86.684700000000007
 20
-1363.3110999999999
 30
0.0
 11
86.184700000000007
 21
-1362.8110999999999
 31
0.0
  0
LINE
  5
14A99
  8
1PHANTOM
 10
97.629499999999993
 20
-1380.8110999999999
 30
0.0
 11
98.628
 21
-1374.7928999999999
 31
0.0
  0
LINE
  5
14A9A
  8
1PHANTOM
 10
105.23999999999999
 20
-1380.8110999999999
 30
0.0
 11
104.2415
 21
-1374.7928999999999
 31
0.0
  0
LINE
  5
14A9B
  8
1PHANTOM
 10
103.93470000000001
 20
-1372.7111
 30
0.0
 11
103.93470000000001
 21
-1371.7111
 31
0.0
  0
ARC
  5
14A9C
  8
1PHANTOM
 10
104.43470000000001
 20
-1371.7111
 30
0.0
 40
0.5
 50
90.0
 51
180.0
  0
ARC
  5
14A9D
  8
1PHANTOM
 10
104.7347
 20
-1374.7111
 30
0.0
 40
0.5
 50
90.0
 51
189.4203
  0
ARC
  5
14A9E
  8
1PHANTOM
 10
104.43470000000001
 20
-1372.7111
 30
0.0
 40
0.5
 50
180.0
 51
270.0
  0
LINE
  5
14A9F
  8
1PHANTOM
 10
98.934700000000007
 20
-1372.7111
 30
0.0
 11
98.934700000000007
 21
-1371.7111
 31
0.0
  0
ARC
  5
14AA0
  8
1PHANTOM
 10
98.434700000000007
 20
-1371.7111
 30
0.0
 40
0.5
 50
0.0
 51
90.0
  0
ARC
  5
14AA1
  8
1PHANTOM
 10
98.134699999999995
 20
-1374.7111
 30
0.0
 40
0.5
 50
350.5797
 51
90.0
  0
ARC
  5
14AA2
  8
1PHANTOM
 10
98.434700000000007
 20
-1372.7111
 30
0.0
 40
0.5
 50
270.0
 51
0.0
  0
LINE
  5
14AA3
  8
1PHANTOM
 10
97.594899999999996
 20
-1374.2111
 30
0.0
 11
97.589699999999993
 21
-1373.2111
 31
0.0
  0
LINE
  5
14AA4
  8
1PHANTOM
 10
105.2745
 20
-1374.2111
 30
0.0
 11
105.27979999999999
 21
-1373.2111
 31
0.0
  0
LINE
  5
14AA5
  8
1PHANTOM
 10
105.43470000000001
 20
-1371.2111
 30
0.0
 11
104.43470000000001
 21
-1371.2111
 31
0.0
  0
LINE
  5
14AA6
  8
1PHANTOM
 10
105.27979999999999
 20
-1373.2111
 30
0.0
 11
104.43470000000001
 21
-1373.2111
 31
0.0
  0
LINE
  5
14AA7
  8
1PHANTOM
 10
105.2745
 20
-1374.2111
 30
0.0
 11
104.7347
 21
-1374.2111
 31
0.0
  0
LINE
  5
14AA8
  8
1PHANTOM
 10
97.484700000000004
 20
-1381.8110999999999
 30
0.0
 11
97.484700000000004
 21
-1380.8110999999999
 31
0.0
  0
LINE
  5
14AA9
  8
1PHANTOM
 10
105.3847
 20
-1381.8110999999999
 30
0.0
 11
105.3847
 21
-1380.8110999999999
 31
0.0
  0
LINE
  5
14AAA
  8
1PHANTOM
 10
105.3847
 20
-1381.8110999999999
 30
0.0
 11
97.484700000000004
 21
-1381.8110999999999
 31
0.0
  0
LINE
  5
14AAB
  8
1PHANTOM
 10
105.3847
 20
-1380.8110999999999
 30
0.0
 11
105.23999999999999
 21
-1380.8110999999999
 31
0.0
  0
LINE
  5
14AAD
  8
01
 10
97.634699999999995
 20
-1363.3110999999999
 30
0.0
 11
97.634699999999995
 21
-1362.3110999999999
 31
0.0
  0
LINE
  5
14AAE
  8
01
 10
105.2347
 20
-1363.3110999999999
 30
0.0
 11
105.2347
 21
-1362.3110999999999
 31
0.0
  0
LINE
  5
14AAF
  8
01
 10
101.93470000000001
 20
-1363.3110999999999
 30
0.0
 11
100.93470000000001
 21
-1362.3110999999999
 31
0.0
  0
LINE
  5
14AB0
  8
01
 10
105.2347
 20
-1363.3110999999999
 30
0.0
 11
97.634699999999995
 21
-1363.3110999999999
 31
0.0
  0
LINE
  5
14AB1
  8
01
 10
105.2347
 20
-1362.3110999999999
 30
0.0
 11
97.634699999999995
 21
-1362.3110999999999
 31
0.0
  0
LINE
  5
14AB8
  8
01
 10
342.27359999999999
 20
-1437.6629
 30
0.0
 11
342.27359999999999
 21
-1517.6629
 31
0.0
  0
LINE
  5
14AB9
  8
01
 10
351.27359999999999
 20
-1437.6629
 30
0.0
 11
351.27359999999999
 21
-1517.6629
 31
0.0
  0
LINE
  5
14ABA
  8
01
 10
333.27359999999999
 20
-1437.6629
 30
0.0
 11
333.27359999999999
 21
-1517.6629
 31
0.0
  0
CIRCLE
  5
14ACA
  8
1PHANTOM
 10
256.42579999999998
 20
-1567.3162
 30
0.0
 40
18.5
  0
CIRCLE
  5
14ACB
  8
1PHANTOM
 10
256.42579999999998
 20
-1567.3162
 30
0.0
 40
57.5
  0
LINE
  5
14ACC
  8
1PHANTOM
 10
158.43469999999999
 20
-1509.8162
 30
0.0
 11
158.43469999999999
 21
-1624.8162
 31
0.0
  0
LINE
  5
14ACD
  8
1PHANTOM
 10
44.434699999999999
 20
-1509.8162
 30
0.0
 11
44.434699999999999
 21
-1624.8162
 31
0.0
  0
LINE
  5
14ACE
  8
1PHANTOM
 10
158.43469999999999
 20
-1509.8162
 30
0.0
 11
44.434699999999999
 21
-1509.8162
 31
0.0
  0
LINE
  5
14ACF
  8
1PHANTOM
 10
158.43469999999999
 20
-1624.8162
 30
0.0
 11
44.434699999999999
 21
-1624.8162
 31
0.0
  0
ARC
  5
14AD0
  8
01
 10
343.46550000000002
 20
-1673.2346
 30
0.0
 40
200.5
 50
107.4654
 51
124.907
  0
ARC
  5
14AD1
  8
01
 10
343.46550000000002
 20
-1673.2346
 30
0.0
 40
200.0
 50
107.73699999999999
 51
124.907
  0
ARC
  5
14AD2
  8
01
 10
269.0736
 20
-1566.6239
 30
0.0
 40
70.0
 50
124.907
 51
174.74590000000001
  0
ARC
  5
14AD3
  8
01
 10
269.0736
 20
-1566.6239
 30
0.0
 40
70.5
 50
124.907
 51
174.74590000000001
  0
LINE
  5
14AD4
  8
01
 10
198.8698
 20
-1560.1679999999999
 30
0.0
 11
199.36770000000001
 21
-1560.2138
 31
0.0
  0
TEXT
  5
14BA8
  8
1TEXT
 10
313.27359999999999
 20
-1354.8110999999999
 30
0.0
 40
8.0
  1
SA023XC0
  0
LINE
  5
14C41
  8
1CENTER
 10
101.43470000000001
 20
-1481.5145
 30
0.0
 11
101.43470000000001
 21
-1471.6629
 31
0.0
  0
LINE
  5
14C42
  8
1CENTER
 10
95.434700000000007
 20
-1477.6629
 30
0.0
 11
107.43470000000001
 21
-1477.6629
 31
0.0
  0
LINE
  5
14C43
  8
1CENTER
 10
101.43470000000001
 20
-1501.6629
 30
0.0
 11
101.43470000000001
 21
-1492.1686
 31
0.0
  0
LINE
  5
14C44
  8
1CENTER
 10
95.434700000000007
 20
-1495.6629
 30
0.0
 11
107.43470000000001
 21
-1495.6629
 31
0.0
  0
LINE
  5
14C66
  8
1PHANTOM
 10
98.134699999999995
 20
-1374.2111
 30
0.0
 11
97.594899999999996
 21
-1374.2111
 31
0.0
  0
LINE
  5
14C67
  8
1PHANTOM
 10
98.434700000000007
 20
-1373.2111
 30
0.0
 11
97.589699999999993
 21
-1373.2111
 31
0.0
  0
LINE
  5
14C68
  8
1PHANTOM
 10
98.434700000000007
 20
-1371.2111
 30
0.0
 11
97.434700000000021
 21
-1371.2111
 31
0.0
  0
LINE
  5
14C69
  8
1PHANTOM
 10
105.30070000000001
 20
-1369.2111
 30
0.0
 11
105.43470000000001
 21
-1369.2111
 31
0.0
  0
LINE
  5
14C6A
  8
1PHANTOM
 10
97.629499999999993
 20
-1380.8110999999999
 30
0.0
 11
97.484700000000004
 21
-1380.8110999999999
 31
0.0
  0
LINE
  5
14C6B
  8
1PHANTOM
 10
97.934700000000007
 20
-1363.3110999999999
 30
0.0
 11
102.9348
 21
-1363.3110999999999
 31
0.0
  0
LINE
  5
14C6C
  8
1PHANTOM
 10
105.82899999999999
 20
-1363.3110999999999
 30
0.0
 11
116.18470000000001
 21
-1363.3110999999999
 31
0.0
  0
LINE
  5
14C6D
  8
1PHANTOM
 10
86.184700000000007
 20
-1362.3110999999999
 30
0.0
 11
81.434700000000007
 21
-1362.3110999999999
 31
0.0
  0
LINE
  5
14C70
  8
1PHANTOM
 10
331.27359999999999
 20
-1472.1537000000001
 30
0.0
 11
331.27359999999999
 21
-1471.4129
 31
0.0
  0
LINE
  5
14C71
  8
1PHANTOM
 10
331.27359999999999
 20
-1501.1722
 30
0.0
 11
331.27359999999999
 21
-1501.9129
 31
0.0
  0
LINE
  5
14CDD
  8
1PHANTOM
 10
329.77359999999999
 20
-1474.1629
 30
0.0
 11
329.77359999999999
 21
-1473.1959999999999
 31
0.0
  0
LINE
  5
14CDE
  8
1PHANTOM
 10
329.77359999999999
 20
-1499.1629
 30
0.0
 11
329.77359999999999
 21
-1500.1298999999999
 31
0.0
  0
LINE
  5
16113
  8
1CENTER
 10
87.719899999999996
 20
-1486.6629
 30
0.0
 11
94.021400000000014
 21
-1486.6629
 31
0.0
  0
LINE
  5
16114
  8
1CENTER
 10
90.934700000000007
 20
-1483.152
 30
0.0
 11
90.934700000000007
 21
-1489.932
 31
0.0
  0
LINE
  5
1619E
  8
1DIM
 10
313.27359999999999
 20
-1359.8110999999999
 30
0.0
 11
383.27359999999999
 21
-1359.8110999999999
 31
0.0
  0
LINE
  5
1619F
  8
1DIM
 10
313.27359999999999
 20
-1373.8110999999999
 30
0.0
 11
383.27359999999999
 21
-1373.8110999999999
 31
0.0
  0
LINE
  5
161A0
  8
1DIM
 10
313.27359999999999
 20
-1366.8110999999999
 30
0.0
 11
383.27359999999999
 21
-1366.8110999999999
 31
0.0
  0
LINE
  5
161A3
  8
1DIM
 10
348.27359999999999
 20
-1359.8110999999999
 30
0.0
 11
348.27359999999999
 21
-1373.8110999999999
 31
0.0
  0
LINE
  5
161A5
  8
1DIM
 10
313.27359999999999
 20
-1373.8110999999999
 30
0.0
 11
313.27359999999999
 21
-1359.8110999999999
 31
0.0
  0
LINE
  5
161A6
  8
1DIM
 10
383.27359999999999
 20
-1373.8110999999999
 30
0.0
 11
383.27359999999999
 21
-1359.8110999999999
 31
0.0
  0
TEXT
  5
161A7
  8
1TEXT
 10
321.34026666666671
 20
-1372.3110999999999
 30
0.0
 40
4.0
  1
クローム
 72
     1
 11
330.67360000000002
 21
-1372.3110999999999
 31
0.0
  0
TEXT
  5
161A8
  8
1TEXT
 10
351.00693333333328
 20
-1372.3110999999999
 30
0.0
 40
4.0
  1
SA023XC0
 72
     1
 11
365.67360000000002
 21
-1372.3110999999999
 31
0.0
  0
TEXT
  5
161AF
  8
1TEXT
 10
320.02598095238102
 20
-1365.3110999999999
 30
0.0
 40
4.0
  1
表面処理：
 72
     1
 11
330.67360000000002
 21
-1365.3110999999999
 31
0.0
  0
TEXT
  5
161B0
  8
1TEXT
 10
358.87360000000001
 20
-1365.3110999999999
 30
0.0
 40
4.0
  1
コード
 72
     1
 11
365.67360000000002
 21
-1365.3110999999999
 31
0.0
  0
ARC
  5
16215
  8
01
 10
287.27359999999999
 20
-1486.6629
 30
0.0
 40
10.5
 50
168.7261
 51
328.4119
  0
LINE
  5
16226
  8
01
 10
35.434699999999999
 20
-1480.5128999999999
 30
0.0
 11
36.434699999999999
 21
-1480.5128999999999
 31
0.0
  0
LINE
  5
16227
  8
01
 10
35.434699999999999
 20
-1492.8128999999999
 30
0.0
 11
36.434699999999999
 21
-1492.8128999999999
 31
0.0
  0
LINE
  5
16228
  8
01
 10
167.43469999999999
 20
-1480.5128999999999
 30
0.0
 11
167.43469999999999
 21
-1492.8128999999999
 31
0.0
  0
LINE
  5
16229
  8
01
 10
35.434699999999999
 20
-1480.5128999999999
 30
0.0
 11
35.434699999999999
 21
-1492.8128999999999
 31
0.0
  0
LINE
  5
1622A
  8
01
 10
166.43469999999999
 20
-1480.5128999999999
 30
0.0
 11
167.43469999999999
 21
-1480.5128999999999
 31
0.0
  0
LINE
  5
1622B
  8
01
 10
166.43469999999999
 20
-1492.8128999999999
 30
0.0
 11
167.43469999999999
 21
-1492.8128999999999
 31
0.0
  0
LINE
  5
1622C
  8
01
 10
35.434699999999999
 20
-1399.6611
 30
0.0
 11
36.434699999999999
 21
-1399.6611
 31
0.0
  0
LINE
  5
1622D
  8
01
 10
35.434699999999999
 20
-1411.9611
 30
0.0
 11
36.434699999999999
 21
-1411.9611
 31
0.0
  0
LINE
  5
1622E
  8
01
 10
167.43469999999999
 20
-1399.6611
 30
0.0
 11
167.43469999999999
 21
-1411.9611
 31
0.0
  0
LINE
  5
1622F
  8
01
 10
35.434699999999999
 20
-1399.6611
 30
0.0
 11
35.434699999999999
 21
-1411.9611
 31
0.0
  0
LINE
  5
16230
  8
01
 10
166.43469999999999
 20
-1399.6611
 30
0.0
 11
167.43469999999999
 21
-1399.6611
 31
0.0
  0
LINE
  5
16231
  8
01
 10
166.43469999999999
 20
-1411.9611
 30
0.0
 11
167.43469999999999
 21
-1411.9611
 31
0.0
  0
TEXT
  5
1636A
  8
1DIM
 10
34.526600000000002
 20
-1394.1331
 30
0.0
 40
3.5
  1
材質：アクリル樹脂
  0
SOLID
  5
1636B
  8
1DIM
 10
84.114500000000007
 20
-1378.0762
 30
0.0
 11
85.448599999999985
 21
-1376.5494000000001
 31
0.0
 12
84.681799999999996
 22
-1378.4264000000001
 32
0.0
 13
84.681799999999996
 23
-1378.4264000000001
 33
0.0
  0
LINE
  5
1636D
  8
1CENTER
 10
361.22809999999998
 20
-1486.6629
 30
0.0
 11
328.39490000000001
 21
-1486.6629
 31
0.0
  0
LINE
  5
1636F
  8
0
 10
344.67360000000002
 20
-1484.663
 30
0.0
 11
345.47359999999998
 21
-1488.663
 31
0.0
  0
LINE
  5
16370
  8
0
 10
356.0736
 20
-1485.1158
 30
0.0
 11
356.87360000000001
 21
-1487.9838
 31
0.0
  0
LINE
  5
16371
  8
0
 10
358.47359999999998
 20
-1487.5309
 30
0.0
 11
358.78530000000001
 21
-1486.9427000000001
 31
0.0
  0
LINE
  5
16372
  8
0
 10
357.52210000000002
 20
-1486.0257999999999
 30
0.0
 11
357.67360000000002
 21
-1485.5686000000001
 31
0.0
  0
LINE
  5
16373
  8
0
 10
356.87360000000001
 20
-1487.9838
 30
0.0
 11
357.05630000000002
 21
-1487.432
 31
0.0
  0
LINE
  5
16374
  8
0
 10
357.67360000000002
 20
-1485.5686000000001
 30
0.0
 11
358.47359999999998
 21
-1487.5309
 31
0.0
  0
LINE
  5
16375
  8
0
 10
352.5736
 20
-1485.163
 30
0.0
 11
352.67360000000002
 21
-1484.663
 31
0.0
  0
LINE
  5
16376
  8
0
 10
352.67360000000002
 20
-1484.663
 30
0.0
 11
353.47359999999998
 21
-1488.663
 31
0.0
  0
LINE
  5
16377
  8
0
 10
353.47359999999998
 20
-1488.663
 30
0.0
 11
353.5736
 21
-1488.163
 31
0.0
  0
LINE
  5
16378
  8
0
 10
350.97359999999998
 20
-1485.163
 30
0.0
 11
351.0736
 21
-1484.663
 31
0.0
  0
LINE
  5
16379
  8
0
 10
351.87360000000001
 20
-1488.663
 30
0.0
 11
351.97359999999998
 21
-1488.163
 31
0.0
  0
LINE
  5
1637A
  8
0
 10
351.0736
 20
-1484.663
 30
0.0
 11
351.87360000000001
 21
-1488.663
 31
0.0
  0
LINE
  5
1637B
  8
0
 10
349.37360000000001
 20
-1485.163
 30
0.0
 11
349.47359999999998
 21
-1484.663
 31
0.0
  0
LINE
  5
1637C
  8
0
 10
349.47359999999998
 20
-1484.663
 30
0.0
 11
350.27359999999999
 21
-1488.663
 31
0.0
  0
LINE
  5
1637D
  8
0
 10
350.27359999999999
 20
-1488.663
 30
0.0
 11
350.37360000000001
 21
-1488.163
 31
0.0
  0
LINE
  5
1637E
  8
0
 10
354.37360000000001
 20
-1485.163
 30
0.0
 11
354.47359999999998
 21
-1484.663
 31
0.0
  0
LINE
  5
1637F
  8
0
 10
355.96080000000001
 20
-1485.5839000000001
 30
0.0
 11
356.0736
 21
-1485.1158
 31
0.0
  0
LINE
  5
16380
  8
0
 10
355.27359999999999
 20
-1488.4366
 30
0.0
 11
355.40280000000001
 21
-1487.9000000000001
 31
0.0
  0
LINE
  5
16381
  8
0
 10
354.47359999999998
 20
-1484.663
 30
0.0
 11
355.27359999999999
 21
-1488.4366
 31
0.0
  0
LINE
  5
16382
  8
0
 10
346.17360000000002
 20
-1485.163
 30
0.0
 11
346.27359999999999
 21
-1484.663
 31
0.0
  0
LINE
  5
16383
  8
0
 10
347.0736
 20
-1488.663
 30
0.0
 11
347.17360000000002
 21
-1488.163
 31
0.0
  0
LINE
  5
16384
  8
0
 10
348.67360000000002
 20
-1488.663
 30
0.0
 11
348.77359999999999
 21
-1488.163
 31
0.0
  0
LINE
  5
16385
  8
0
 10
347.77359999999999
 20
-1485.163
 30
0.0
 11
347.87360000000001
 21
-1484.663
 31
0.0
  0
LINE
  5
16386
  8
0
 10
347.87360000000001
 20
-1484.663
 30
0.0
 11
348.67360000000002
 21
-1488.663
 31
0.0
  0
LINE
  5
16387
  8
0
 10
346.27359999999999
 20
-1484.663
 30
0.0
 11
347.0736
 21
-1488.663
 31
0.0
  0
LINE
  5
16388
  8
0
 10
345.47359999999998
 20
-1488.663
 30
0.0
 11
345.5736
 21
-1488.163
 31
0.0
  0
LINE
  5
16389
  8
0
 10
330.0736
 20
-1482.6629
 30
0.0
 11
330.0736
 21
-1490.6629
 31
0.0
  0
LINE
  5
1638A
  8
0
 10
333.47359999999998
 20
-1484.663
 30
0.0
 11
334.27359999999999
 21
-1488.663
 31
0.0
  0
LINE
  5
1638B
  8
0
 10
334.97359999999998
 20
-1485.163
 30
0.0
 11
335.0736
 21
-1484.663
 31
0.0
  0
LINE
  5
1638C
  8
0
 10
334.27359999999999
 20
-1488.663
 30
0.0
 11
334.37360000000001
 21
-1488.163
 31
0.0
  0
LINE
  5
1638D
  8
0
 10
338.17360000000002
 20
-1485.163
 30
0.0
 11
338.27359999999999
 21
-1484.663
 31
0.0
  0
LINE
  5
1638E
  8
0
 10
336.67360000000002
 20
-1484.663
 30
0.0
 11
337.47359999999998
 21
-1488.663
 31
0.0
  0
LINE
  5
1638F
  8
0
 10
337.47359999999998
 20
-1488.663
 30
0.0
 11
337.5736
 21
-1488.163
 31
0.0
  0
LINE
  5
16390
  8
0
 10
336.5736
 20
-1485.163
 30
0.0
 11
336.67360000000002
 21
-1484.663
 31
0.0
  0
LINE
  5
16391
  8
0
 10
335.87360000000001
 20
-1488.663
 30
0.0
 11
335.97359999999998
 21
-1488.163
 31
0.0
  0
LINE
  5
16392
  8
0
 10
340.67360000000002
 20
-1488.663
 30
0.0
 11
340.77359999999999
 21
-1488.163
 31
0.0
  0
LINE
  5
16393
  8
0
 10
339.0736
 20
-1488.663
 30
0.0
 11
339.17360000000002
 21
-1488.163
 31
0.0
  0
LINE
  5
16394
  8
0
 10
339.77359999999999
 20
-1485.163
 30
0.0
 11
339.87360000000001
 21
-1484.663
 31
0.0
  0
LINE
  5
16395
  8
0
 10
341.37360000000001
 20
-1485.163
 30
0.0
 11
341.47359999999998
 21
-1484.663
 31
0.0
  0
LINE
  5
16396
  8
0
 10
339.87360000000001
 20
-1484.663
 30
0.0
 11
340.67360000000002
 21
-1488.663
 31
0.0
  0
LINE
  5
16397
  8
0
 10
338.27359999999999
 20
-1484.663
 30
0.0
 11
339.0736
 21
-1488.663
 31
0.0
  0
LINE
  5
16398
  8
0
 10
335.0736
 20
-1484.663
 30
0.0
 11
335.87360000000001
 21
-1488.663
 31
0.0
  0
LINE
  5
16399
  8
0
 10
342.27359999999999
 20
-1488.663
 30
0.0
 11
342.37360000000001
 21
-1488.163
 31
0.0
  0
LINE
  5
1639A
  8
0
 10
343.87360000000001
 20
-1488.663
 30
0.0
 11
343.97359999999998
 21
-1488.163
 31
0.0
  0
LINE
  5
1639B
  8
0
 10
342.97359999999998
 20
-1485.163
 30
0.0
 11
343.0736
 21
-1484.663
 31
0.0
  0
LINE
  5
1639C
  8
0
 10
344.5736
 20
-1485.163
 30
0.0
 11
344.67360000000002
 21
-1484.663
 31
0.0
  0
LINE
  5
1639D
  8
0
 10
343.0736
 20
-1484.663
 30
0.0
 11
343.87360000000001
 21
-1488.663
 31
0.0
  0
LINE
  5
1639E
  8
0
 10
341.47359999999998
 20
-1484.663
 30
0.0
 11
342.27359999999999
 21
-1488.663
 31
0.0
  0
LINE
  5
1639F
  8
0
 10
333.37360000000001
 20
-1485.163
 30
0.0
 11
333.47359999999998
 21
-1484.663
 31
0.0
  0
LINE
  5
163A0
  8
0
 10
332.67360000000002
 20
-1488.663
 30
0.0
 11
332.77359999999999
 21
-1488.163
 31
0.0
  0
LINE
  5
163A1
  8
0
 10
332.5736
 20
-1488.163
 30
0.0
 11
332.67360000000002
 21
-1488.663
 31
0.0
  0
LINE
  5
163A2
  8
1CENTER
 10
90.934700000000007
 20
-1331.8566000000001
 30
0.0
 11
90.934700000000007
 21
-1364.6896999999999
 31
0.0
  0
LINE
  5
163A4
  8
0
 10
88.934799999999996
 20
-1348.4111
 30
0.0
 11
92.934799999999996
 21
-1347.6111000000001
 31
0.0
  0
LINE
  5
163A5
  8
0
 10
89.387600000000006
 20
-1337.0110999999999
 30
0.0
 11
92.255599999999987
 21
-1336.2111
 31
0.0
  0
LINE
  5
163A6
  8
0
 10
91.802700000000002
 20
-1334.6111000000001
 30
0.0
 11
91.214500000000015
 21
-1334.2992999999999
 31
0.0
  0
LINE
  5
163A7
  8
0
 10
90.297600000000017
 20
-1335.5625
 30
0.0
 11
89.840400000000002
 21
-1335.4111
 31
0.0
  0
LINE
  5
163A8
  8
0
 10
92.255599999999987
 20
-1336.2111
 30
0.0
 11
91.703799999999987
 21
-1336.0283999999999
 31
0.0
  0
LINE
  5
163A9
  8
0
 10
89.840400000000002
 20
-1335.4111
 30
0.0
 11
91.802700000000002
 21
-1334.6111000000001
 31
0.0
  0
LINE
  5
163AA
  8
0
 10
89.434799999999996
 20
-1340.5110999999999
 30
0.0
 11
88.934799999999996
 21
-1340.4111
 31
0.0
  0
LINE
  5
163AB
  8
0
 10
88.934799999999996
 20
-1340.4111
 30
0.0
 11
92.934799999999996
 21
-1339.6111000000001
 31
0.0
  0
LINE
  5
163AC
  8
0
 10
92.934799999999996
 20
-1339.6111000000001
 30
0.0
 11
92.434799999999996
 21
-1339.5110999999999
 31
0.0
  0
LINE
  5
163AD
  8
0
 10
89.434799999999996
 20
-1342.1111000000001
 30
0.0
 11
88.934799999999996
 21
-1342.0110999999999
 31
0.0
  0
LINE
  5
163AE
  8
0
 10
92.934799999999996
 20
-1341.2111
 30
0.0
 11
92.434799999999996
 21
-1341.1111000000001
 31
0.0
  0
LINE
  5
163AF
  8
0
 10
88.934799999999996
 20
-1342.0110999999999
 30
0.0
 11
92.934799999999996
 21
-1341.2111
 31
0.0
  0
LINE
  5
163B0
  8
0
 10
89.434799999999996
 20
-1343.7111
 30
0.0
 11
88.934799999999996
 21
-1343.6111000000001
 31
0.0
  0
LINE
  5
163B1
  8
0
 10
88.934799999999996
 20
-1343.6111000000001
 30
0.0
 11
92.934799999999996
 21
-1342.8110999999999
 31
0.0
  0
LINE
  5
163B2
  8
0
 10
92.934799999999996
 20
-1342.8110999999999
 30
0.0
 11
92.434799999999996
 21
-1342.7111
 31
0.0
  0
LINE
  5
163B3
  8
0
 10
89.434799999999996
 20
-1338.7111
 30
0.0
 11
88.934799999999996
 21
-1338.6111000000001
 31
0.0
  0
LINE
  5
163B4
  8
0
 10
89.855699999999999
 20
-1337.1239
 30
0.0
 11
89.387600000000006
 21
-1337.0110999999999
 31
0.0
  0
LINE
  5
163B5
  8
0
 10
92.708399999999983
 20
-1337.8110999999999
 30
0.0
 11
92.171800000000005
 21
-1337.6818000000001
 31
0.0
  0
LINE
  5
163B6
  8
0
 10
88.934799999999996
 20
-1338.6111000000001
 30
0.0
 11
92.708399999999983
 21
-1337.8110999999999
 31
0.0
  0
LINE
  5
163B7
  8
0
 10
89.434799999999996
 20
-1346.9111
 30
0.0
 11
88.934799999999996
 21
-1346.8110999999999
 31
0.0
  0
LINE
  5
163B8
  8
0
 10
92.934799999999996
 20
-1346.0110999999999
 30
0.0
 11
92.434799999999996
 21
-1345.9111
 31
0.0
  0
LINE
  5
163B9
  8
0
 10
92.934799999999996
 20
-1344.4111
 30
0.0
 11
92.434799999999996
 21
-1344.3110999999999
 31
0.0
  0
LINE
  5
163BA
  8
0
 10
89.434799999999996
 20
-1345.3110999999999
 30
0.0
 11
88.934799999999996
 21
-1345.2111
 31
0.0
  0
LINE
  5
163BB
  8
0
 10
88.934799999999996
 20
-1345.2111
 30
0.0
 11
92.934799999999996
 21
-1344.4111
 31
0.0
  0
LINE
  5
163BC
  8
0
 10
88.934799999999996
 20
-1346.8110999999999
 30
0.0
 11
92.934799999999996
 21
-1346.0110999999999
 31
0.0
  0
LINE
  5
163BD
  8
0
 10
92.934799999999996
 20
-1347.6111000000001
 30
0.0
 11
92.434799999999996
 21
-1347.5110999999999
 31
0.0
  0
LINE
  5
163BE
  8
0
 10
86.934700000000007
 20
-1363.0110999999999
 30
0.0
 11
94.934700000000007
 21
-1363.0110999999999
 31
0.0
  0
LINE
  5
163BF
  8
0
 10
88.934799999999996
 20
-1359.6111000000001
 30
0.0
 11
92.934799999999996
 21
-1358.8110999999999
 31
0.0
  0
LINE
  5
163C0
  8
0
 10
89.434799999999996
 20
-1358.1111000000001
 30
0.0
 11
88.934799999999996
 21
-1358.0110999999999
 31
0.0
  0
LINE
  5
163C1
  8
0
 10
92.934799999999996
 20
-1358.8110999999999
 30
0.0
 11
92.434799999999996
 21
-1358.7111
 31
0.0
  0
LINE
  5
163C2
  8
0
 10
89.434799999999996
 20
-1354.9111
 30
0.0
 11
88.934799999999996
 21
-1354.8110999999999
 31
0.0
  0
LINE
  5
163C3
  8
0
 10
88.934799999999996
 20
-1356.4111
 30
0.0
 11
92.934799999999996
 21
-1355.6111000000001
 31
0.0
  0
LINE
  5
163C4
  8
0
 10
92.934799999999996
 20
-1355.6111000000001
 30
0.0
 11
92.434799999999996
 21
-1355.5110999999999
 31
0.0
  0
LINE
  5
163C5
  8
0
 10
89.434799999999996
 20
-1356.5110999999999
 30
0.0
 11
88.934799999999996
 21
-1356.4111
 31
0.0
  0
LINE
  5
163C6
  8
0
 10
92.934799999999996
 20
-1357.2111
 30
0.0
 11
92.434799999999996
 21
-1357.1111000000001
 31
0.0
  0
LINE
  5
163C7
  8
0
 10
92.934799999999996
 20
-1352.4111
 30
0.0
 11
92.434799999999996
 21
-1352.3110999999999
 31
0.0
  0
LINE
  5
163C8
  8
0
 10
92.934799999999996
 20
-1354.0110999999999
 30
0.0
 11
92.434799999999996
 21
-1353.9111
 31
0.0
  0
LINE
  5
163C9
  8
0
 10
89.434799999999996
 20
-1353.3110999999999
 30
0.0
 11
88.934799999999996
 21
-1353.2111
 31
0.0
  0
LINE
  5
163CA
  8
0
 10
89.434799999999996
 20
-1351.7111
 30
0.0
 11
88.934799999999996
 21
-1351.6111000000001
 31
0.0
  0
LINE
  5
163CB
  8
0
 10
88.934799999999996
 20
-1353.2111
 30
0.0
 11
92.934799999999996
 21
-1352.4111
 31
0.0
  0
LINE
  5
163CC
  8
0
 10
88.934799999999996
 20
-1354.8110999999999
 30
0.0
 11
92.934799999999996
 21
-1354.0110999999999
 31
0.0
  0
LINE
  5
163CD
  8
0
 10
88.934799999999996
 20
-1358.0110999999999
 30
0.0
 11
92.934799999999996
 21
-1357.2111
 31
0.0
  0
LINE
  5
163CE
  8
0
 10
92.934799999999996
 20
-1350.8110999999999
 30
0.0
 11
92.434799999999996
 21
-1350.7111
 31
0.0
  0
LINE
  5
163CF
  8
0
 10
92.934799999999996
 20
-1349.2111
 30
0.0
 11
92.434799999999996
 21
-1349.1111000000001
 31
0.0
  0
LINE
  5
163D0
  8
0
 10
89.434799999999996
 20
-1350.1111000000001
 30
0.0
 11
88.934799999999996
 21
-1350.0110999999999
 31
0.0
  0
LINE
  5
163D1
  8
0
 10
89.434799999999996
 20
-1348.5110999999999
 30
0.0
 11
88.934799999999996
 21
-1348.4111
 31
0.0
  0
LINE
  5
163D2
  8
0
 10
88.934799999999996
 20
-1350.0110999999999
 30
0.0
 11
92.934799999999996
 21
-1349.2111
 31
0.0
  0
LINE
  5
163D3
  8
0
 10
88.934799999999996
 20
-1351.6111000000001
 30
0.0
 11
92.934799999999996
 21
-1350.8110999999999
 31
0.0
  0
LINE
  5
163D4
  8
0
 10
89.434799999999996
 20
-1359.7111
 30
0.0
 11
88.934799999999996
 21
-1359.6111000000001
 31
0.0
  0
LINE
  5
163D5
  8
0
 10
92.934799999999996
 20
-1360.4111
 30
0.0
 11
92.434799999999996
 21
-1360.3110999999999
 31
0.0
  0
LINE
  5
163D6
  8
0
 10
92.434799999999996
 20
-1360.5110999999999
 30
0.0
 11
92.934799999999996
 21
-1360.4111
 31
0.0
  0
LINE
  5
163D7
  8
1DIM
 10
36.434699999999999
 20
-1557.1679999999999
 30
0.0
 11
36.434699999999999
 21
-1571.1679999999999
 31
0.0
  0
LINE
  5
163D8
  8
1DIM
 10
166.43469999999999
 20
-1557.1679999999999
 30
0.0
 11
166.43469999999999
 21
-1571.1679999999999
 31
0.0
  0
LINE
  5
163D9
  8
1DIM
 10
38.434699999999999
 20
-1570.1679999999999
 30
0.0
 11
164.43469999999999
 21
-1570.1679999999999
 31
0.0
  0
LINE
  5
163DD
  8
1DIM
 10
198.8698
 20
-1560.1679999999999
 30
0.0
 11
198.8698
 21
-1430.6411000000001
 31
0.0
  0
LINE
  5
163DE
  8
1DIM
 10
333.27359999999999
 20
-1437.6629
 30
0.0
 11
333.27359999999999
 21
-1430.6411000000001
 31
0.0
  0
LINE
  5
163DF
  8
1DIM
 10
200.8698
 20
-1431.6411000000001
 30
0.0
 11
331.27359999999999
 21
-1431.6411000000001
 31
0.0
  0
LINE
  5
163E3
  8
1DIM
 10
126.45659999999999
 20
-1359.8110999999999
 30
0.0
 11
189.8698
 21
-1359.8110999999999
 31
0.0
  0
LINE
  5
163E4
  8
1DIM
 10
166.43469999999999
 20
-1441.6411000000001
 30
0.0
 11
189.8698
 21
-1441.6411000000001
 31
0.0
  0
LINE
  5
163E5
  8
1DIM
 10
188.8698
 20
-1361.8110999999999
 30
0.0
 11
188.8698
 21
-1439.6411000000001
 31
0.0
  0
LINE
  5
163E9
  8
1DIM
 10
333.27359999999999
 20
-1517.6629
 30
0.0
 11
333.27359999999999
 21
-1522.6847
 31
0.0
  0
LINE
  5
163EA
  8
1DIM
 10
315.27359999999999
 20
-1499.2209
 30
0.0
 11
315.27359999999999
 21
-1522.6847
 31
0.0
  0
LINE
  5
163EB
  8
1DIM
 10
331.27359999999999
 20
-1521.6847
 30
0.0
 11
317.27359999999999
 21
-1521.6847
 31
0.0
  0
TEXT
  5
163EF
  8
1HATCH
 10
336.92869999999999
 20
-1417.3711000000001
 30
0.0
 40
3.5
  1
PB
  0
SOLID
  5
163F0
  8
1HATCH
 10
337.83319999999998
 20
-1436.5237999999999
 30
0.0
 11
337.8535
 21
-1438.5513000000001
 31
0.0
 12
337.17669999999998
 22
-1436.6400000000001
 32
0.0
 13
337.17669999999998
 23
-1436.6400000000001
 33
0.0
  0
SOLID
  5
163F2
  8
1DIM
 10
345.89670000000001
 20
-1436.5282
 30
0.0
 11
346.35149999999999
 21
-1438.5042000000001
 31
0.0
 12
345.28050000000002
 22
-1436.7825
 32
0.0
 13
345.28050000000002
 23
-1436.7825
 33
0.0
  0
TEXT
  5
163F4
  8
1DIM
 10
343.096
 20
-1423.3724
 30
0.0
 40
3.5
  1
合板9mm以上
  0
LINE
  5
163F6
  8
1CENTER
 10
101.43470000000001
 20
-1330.3502000000001
 30
0.0
 11
101.43470000000001
 21
-1366.9813999999999
 31
0.0
  0
LINE
  5
163F7
  8
0
 10
100.3404
 20
-1335.4111
 30
0.0
 11
102.3027
 21
-1334.6111000000001
 31
0.0
  0
LINE
  5
163F8
  8
0
 10
102.3027
 20
-1334.6111000000001
 30
0.0
 11
101.7145
 21
-1334.2992999999999
 31
0.0
  0
LINE
  5
163F9
  8
0
 10
99.434799999999996
 20
-1357.8110999999999
 30
0.0
 11
103.4348
 21
-1357.0110999999999
 31
0.0
  0
LINE
  5
163FA
  8
0
 10
99.434799999999996
 20
-1346.6111000000001
 30
0.0
 11
103.4348
 21
-1345.8110999999999
 31
0.0
  0
LINE
  5
163FB
  8
0
 10
99.434799999999996
 20
-1343.4111
 30
0.0
 11
103.4348
 21
-1342.6111000000001
 31
0.0
  0
LINE
  5
163FC
  8
0
 10
103.4348
 20
-1342.6111000000001
 30
0.0
 11
102.9348
 21
-1342.5110999999999
 31
0.0
  0
LINE
  5
163FD
  8
0
 10
99.934799999999996
 20
-1341.9111
 30
0.0
 11
99.434799999999996
 21
-1341.8110999999999
 31
0.0
  0
LINE
  5
163FE
  8
0
 10
103.4348
 20
-1345.8110999999999
 30
0.0
 11
102.9348
 21
-1345.7111
 31
0.0
  0
LINE
  5
163FF
  8
0
 10
103.4348
 20
-1344.2111
 30
0.0
 11
102.9348
 21
-1344.1111000000001
 31
0.0
  0
LINE
  5
16400
  8
0
 10
99.934799999999996
 20
-1343.5110999999999
 30
0.0
 11
99.434799999999996
 21
-1343.4111
 31
0.0
  0
LINE
  5
16401
  8
0
 10
99.934799999999996
 20
-1345.1111000000001
 30
0.0
 11
99.434799999999996
 21
-1345.0110999999999
 31
0.0
  0
LINE
  5
16402
  8
0
 10
99.434799999999996
 20
-1345.0110999999999
 30
0.0
 11
103.4348
 21
-1344.2111
 31
0.0
  0
LINE
  5
16403
  8
0
 10
102.7556
 20
-1336.2111
 30
0.0
 11
102.2038
 21
-1336.0283999999999
 31
0.0
  0
LINE
  5
16404
  8
0
 10
103.4348
 20
-1339.4111
 30
0.0
 11
102.9348
 21
-1339.3110999999999
 31
0.0
  0
LINE
  5
16405
  8
0
 10
103.4348
 20
-1341.0110999999999
 30
0.0
 11
102.9348
 21
-1340.9111
 31
0.0
  0
LINE
  5
16406
  8
0
 10
103.2084
 20
-1337.8110999999999
 30
0.0
 11
102.6718
 21
-1337.6818000000001
 31
0.0
  0
LINE
  5
16407
  8
0
 10
100.3557
 20
-1337.1239
 30
0.0
 11
99.887600000000006
 21
-1337.0110999999999
 31
0.0
  0
LINE
  5
16408
  8
0
 10
99.934799999999996
 20
-1340.3110999999999
 30
0.0
 11
99.434799999999996
 21
-1340.2111
 31
0.0
  0
LINE
  5
16409
  8
0
 10
99.934799999999996
 20
-1338.7111
 30
0.0
 11
99.434799999999996
 21
-1338.6111000000001
 31
0.0
  0
LINE
  5
1640A
  8
0
 10
100.7976
 20
-1335.5625
 30
0.0
 11
100.3404
 21
-1335.4111
 31
0.0
  0
LINE
  5
1640B
  8
0
 10
99.887600000000006
 20
-1337.0110999999999
 30
0.0
 11
102.7556
 21
-1336.2111
 31
0.0
  0
LINE
  5
1640C
  8
0
 10
99.434799999999996
 20
-1340.2111
 30
0.0
 11
103.4348
 21
-1339.4111
 31
0.0
  0
LINE
  5
1640D
  8
0
 10
99.434799999999996
 20
-1338.6111000000001
 30
0.0
 11
103.2084
 21
-1337.8110999999999
 31
0.0
  0
LINE
  5
1640E
  8
0
 10
99.434799999999996
 20
-1341.8110999999999
 30
0.0
 11
103.4348
 21
-1341.0110999999999
 31
0.0
  0
LINE
  5
1640F
  8
0
 10
99.434799999999996
 20
-1354.6111000000001
 30
0.0
 11
103.4348
 21
-1353.8110999999999
 31
0.0
  0
LINE
  5
16410
  8
0
 10
103.4348
 20
-1353.8110999999999
 30
0.0
 11
102.9348
 21
-1353.7111
 31
0.0
  0
LINE
  5
16411
  8
0
 10
99.934799999999996
 20
-1353.1111000000001
 30
0.0
 11
99.434799999999996
 21
-1353.0110999999999
 31
0.0
  0
LINE
  5
16412
  8
0
 10
103.4348
 20
-1355.4111
 30
0.0
 11
102.9348
 21
-1355.3110999999999
 31
0.0
  0
LINE
  5
16413
  8
0
 10
103.4348
 20
-1357.0110999999999
 30
0.0
 11
102.9348
 21
-1356.9111
 31
0.0
  0
LINE
  5
16414
  8
0
 10
99.934799999999996
 20
-1354.7111
 30
0.0
 11
99.434799999999996
 21
-1354.6111000000001
 31
0.0
  0
LINE
  5
16415
  8
0
 10
99.934799999999996
 20
-1356.3110999999999
 30
0.0
 11
99.434799999999996
 21
-1356.2111
 31
0.0
  0
LINE
  5
16416
  8
0
 10
99.434799999999996
 20
-1356.2111
 30
0.0
 11
103.4348
 21
-1355.4111
 31
0.0
  0
LINE
  5
16417
  8
0
 10
103.4348
 20
-1349.0110999999999
 30
0.0
 11
102.9348
 21
-1348.9111
 31
0.0
  0
LINE
  5
16418
  8
0
 10
103.4348
 20
-1347.4111
 30
0.0
 11
102.9348
 21
-1347.3110999999999
 31
0.0
  0
LINE
  5
16419
  8
0
 10
103.4348
 20
-1352.2111
 30
0.0
 11
102.9348
 21
-1352.1111000000001
 31
0.0
  0
LINE
  5
1641A
  8
0
 10
103.4348
 20
-1350.6111000000001
 30
0.0
 11
102.9348
 21
-1350.5110999999999
 31
0.0
  0
LINE
  5
1641B
  8
0
 10
99.934799999999996
 20
-1346.7111
 30
0.0
 11
99.434799999999996
 21
-1346.6111000000001
 31
0.0
  0
LINE
  5
1641C
  8
0
 10
99.934799999999996
 20
-1348.3110999999999
 30
0.0
 11
99.434799999999996
 21
-1348.2111
 31
0.0
  0
LINE
  5
1641D
  8
0
 10
99.934799999999996
 20
-1351.5110999999999
 30
0.0
 11
99.434799999999996
 21
-1351.4111
 31
0.0
  0
LINE
  5
1641E
  8
0
 10
99.934799999999996
 20
-1349.9111
 30
0.0
 11
99.434799999999996
 21
-1349.8110999999999
 31
0.0
  0
LINE
  5
1641F
  8
0
 10
99.434799999999996
 20
-1349.8110999999999
 30
0.0
 11
103.4348
 21
-1349.0110999999999
 31
0.0
  0
LINE
  5
16420
  8
0
 10
99.434799999999996
 20
-1348.2111
 30
0.0
 11
103.4348
 21
-1347.4111
 31
0.0
  0
LINE
  5
16421
  8
0
 10
99.434799999999996
 20
-1351.4111
 30
0.0
 11
103.4348
 21
-1350.6111000000001
 31
0.0
  0
LINE
  5
16422
  8
0
 10
99.434799999999996
 20
-1353.0110999999999
 30
0.0
 11
103.4348
 21
-1352.2111
 31
0.0
  0
LINE
  5
16423
  8
0
 10
102.9348
 20
-1363.3110999999999
 30
0.0
 11
99.934799999999996
 21
-1363.3110999999999
 31
0.0
  0
LINE
  5
16424
  8
0
 10
99.934799999999996
 20
-1362.7111
 30
0.0
 11
99.434799999999996
 21
-1362.6111000000001
 31
0.0
  0
LINE
  5
16425
  8
0
 10
99.434799999999996
 20
-1362.6111000000001
 30
0.0
 11
103.4348
 21
-1361.8110999999999
 31
0.0
  0
LINE
  5
16426
  8
0
 10
103.4348
 20
-1361.8110999999999
 30
0.0
 11
102.9348
 21
-1361.7111
 31
0.0
  0
LINE
  5
16427
  8
0
 10
99.934799999999996
 20
-1361.1111000000001
 30
0.0
 11
99.434799999999996
 21
-1361.0110999999999
 31
0.0
  0
LINE
  5
16428
  8
0
 10
99.934799999999996
 20
-1359.5110999999999
 30
0.0
 11
99.434799999999996
 21
-1359.4111
 31
0.0
  0
LINE
  5
16429
  8
0
 10
99.434799999999996
 20
-1359.4111
 30
0.0
 11
103.4348
 21
-1358.6111000000001
 31
0.0
  0
LINE
  5
1642A
  8
0
 10
103.4348
 20
-1360.2111
 30
0.0
 11
102.9348
 21
-1360.1111000000001
 31
0.0
  0
LINE
  5
1642B
  8
0
 10
103.4348
 20
-1358.6111000000001
 30
0.0
 11
102.9348
 21
-1358.5110999999999
 31
0.0
  0
LINE
  5
1642C
  8
0
 10
99.434799999999996
 20
-1361.0110999999999
 30
0.0
 11
103.4348
 21
-1360.2111
 31
0.0
  0
LINE
  5
1642D
  8
0
 10
99.934799999999996
 20
-1357.9111
 30
0.0
 11
99.434799999999996
 21
-1357.8110999999999
 31
0.0
  0
LINE
  5
1642E
  8
1DIM
 10
333.27359999999999
 20
-1511.6847
 30
0.0
 11
384.27359999999999
 21
-1511.6847
 31
0.0
  0
LINE
  5
1642F
  8
1DIM
 10
333.27359999999999
 20
-1461.6411000000001
 30
0.0
 11
384.27359999999999
 21
-1461.6411000000001
 31
0.0
  0
LINE
  5
16430
  8
1DIM
 10
383.27359999999999
 20
-1509.6847
 30
0.0
 11
383.27359999999999
 21
-1463.6411000000001
 31
0.0
  0
LINE
  5
16434
  8
1DIM
 10
333.27359999999999
 20
-1461.6411000000001
 30
0.0
 11
374.27359999999999
 21
-1461.6411000000001
 31
0.0
  0
LINE
  5
16435
  8
1DIM
 10
363.23450000000003
 20
-1477.6629
 30
0.0
 11
374.27359999999999
 21
-1477.6629
 31
0.0
  0
LINE
  5
16436
  8
1DIM
 10
373.27359999999999
 20
-1463.6411000000001
 30
0.0
 11
373.27359999999999
 21
-1475.6629
 31
0.0
  0
LINE
  5
1643A
  8
1DIM
 10
363.23450000000003
 20
-1477.6629
 30
0.0
 11
374.27359999999999
 21
-1477.6629
 31
0.0
  0
LINE
  5
1643B
  8
1DIM
 10
363.23450000000003
 20
-1495.6629
 30
0.0
 11
374.27359999999999
 21
-1495.6629
 31
0.0
  0
LINE
  5
1643C
  8
1DIM
 10
373.27359999999999
 20
-1479.6629
 30
0.0
 11
373.27359999999999
 21
-1493.6629
 31
0.0
  0
LINE
  5
16440
  8
1DIM
 10
276.77359999999999
 20
-1486.6629
 30
0.0
 11
276.77359999999999
 21
-1440.6411000000001
 31
0.0
  0
LINE
  5
16441
  8
1DIM
 10
333.27359999999999
 20
-1461.6411000000001
 30
0.0
 11
333.27359999999999
 21
-1440.6411000000001
 31
0.0
  0
LINE
  5
16442
  8
1DIM
 10
278.77359999999999
 20
-1441.6411000000001
 30
0.0
 11
331.27359999999999
 21
-1441.6411000000001
 31
0.0
  0
LINE
  5
16446
  8
1DIM
 10
287.27359999999999
 20
-1474.088
 30
0.0
 11
287.27359999999999
 21
-1450.6411000000001
 31
0.0
  0
LINE
  5
16447
  8
1DIM
 10
333.27359999999999
 20
-1461.6411000000001
 30
0.0
 11
333.27359999999999
 21
-1450.6411000000001
 31
0.0
  0
LINE
  5
16448
  8
1DIM
 10
289.27359999999999
 20
-1451.6411000000001
 30
0.0
 11
331.27359999999999
 21
-1451.6411000000001
 31
0.0
  0
LINE
  5
1644C
  8
1DIM
 10
18.434699999999999
 20
-1500.6629
 30
0.0
 11
18.434699999999999
 21
-1450.6411000000001
 31
0.0
  0
LINE
  5
1644D
  8
1DIM
 10
178.8698
 20
-1540.6632
 30
0.0
 11
178.8698
 21
-1450.6411000000001
 31
0.0
  0
LINE
  5
1644E
  8
1DIM
 10
20.434699999999999
 20
-1451.6411000000001
 30
0.0
 11
176.8698
 21
-1451.6411000000001
 31
0.0
  0
LINE
  5
16453
  8
1CENTER
 10
363.23450000000003
 20
-1477.6629
 30
0.0
 11
326.60329999999999
 21
-1477.6629
 31
0.0
  0
LINE
  5
16454
  8
0
 10
358.17360000000002
 20
-1476.5686000000001
 30
0.0
 11
358.97359999999998
 21
-1478.5309
 31
0.0
  0
LINE
  5
16455
  8
0
 10
358.97359999999998
 20
-1478.5309
 30
0.0
 11
359.28530000000001
 21
-1477.9427000000001
 31
0.0
  0
LINE
  5
16456
  8
0
 10
335.77359999999999
 20
-1475.663
 30
0.0
 11
336.5736
 21
-1479.663
 31
0.0
  0
LINE
  5
16457
  8
0
 10
346.97359999999998
 20
-1475.663
 30
0.0
 11
347.77359999999999
 21
-1479.663
 31
0.0
  0
LINE
  5
16458
  8
0
 10
350.17360000000002
 20
-1475.663
 30
0.0
 11
350.97359999999998
 21
-1479.663
 31
0.0
  0
LINE
  5
16459
  8
0
 10
350.97359999999998
 20
-1479.663
 30
0.0
 11
351.0736
 21
-1479.1629999999991
 31
0.0
  0
LINE
  5
1645A
  8
0
 10
351.67360000000002
 20
-1476.163
 30
0.0
 11
351.77359999999999
 21
-1475.663
 31
0.0
  0
LINE
  5
1645B
  8
0
 10
347.77359999999999
 20
-1479.663
 30
0.0
 11
347.87360000000001
 21
-1479.1629999999991
 31
0.0
  0
LINE
  5
1645C
  8
0
 10
349.37360000000001
 20
-1479.663
 30
0.0
 11
349.47359999999998
 21
-1479.1629999999991
 31
0.0
  0
LINE
  5
1645D
  8
0
 10
350.0736
 20
-1476.163
 30
0.0
 11
350.17360000000002
 21
-1475.663
 31
0.0
  0
LINE
  5
1645E
  8
0
 10
348.47359999999998
 20
-1476.163
 30
0.0
 11
348.5736
 21
-1475.663
 31
0.0
  0
LINE
  5
1645F
  8
0
 10
348.5736
 20
-1475.663
 30
0.0
 11
349.37360000000001
 21
-1479.663
 31
0.0
  0
LINE
  5
16460
  8
0
 10
357.37360000000001
 20
-1478.9838
 30
0.0
 11
357.55630000000002
 21
-1478.432
 31
0.0
  0
LINE
  5
16461
  8
0
 10
354.17360000000002
 20
-1479.663
 30
0.0
 11
354.27359999999999
 21
-1479.1629999999991
 31
0.0
  0
LINE
  5
16462
  8
0
 10
352.5736
 20
-1479.663
 30
0.0
 11
352.67360000000002
 21
-1479.1629999999991
 31
0.0
  0
LINE
  5
16463
  8
0
 10
355.77359999999999
 20
-1479.4366
 30
0.0
 11
355.90280000000001
 21
-1478.9000000000001
 31
0.0
  0
LINE
  5
16464
  8
0
 10
356.46080000000001
 20
-1476.5839000000001
 30
0.0
 11
356.5736
 21
-1476.1158
 31
0.0
  0
LINE
  5
16465
  8
0
 10
353.27359999999999
 20
-1476.163
 30
0.0
 11
353.37360000000001
 21
-1475.663
 31
0.0
  0
LINE
  5
16466
  8
0
 10
354.87360000000001
 20
-1476.163
 30
0.0
 11
354.97359999999998
 21
-1475.663
 31
0.0
  0
LINE
  5
16467
  8
0
 10
358.02210000000002
 20
-1477.0257999999999
 30
0.0
 11
358.17360000000002
 21
-1476.5686000000001
 31
0.0
  0
LINE
  5
16468
  8
0
 10
356.5736
 20
-1476.1158
 30
0.0
 11
357.37360000000001
 21
-1478.9838
 31
0.0
  0
LINE
  5
16469
  8
0
 10
353.37360000000001
 20
-1475.663
 30
0.0
 11
354.17360000000002
 21
-1479.663
 31
0.0
  0
LINE
  5
1646A
  8
0
 10
354.97359999999998
 20
-1475.663
 30
0.0
 11
355.77359999999999
 21
-1479.4366
 31
0.0
  0
LINE
  5
1646B
  8
0
 10
351.77359999999999
 20
-1475.663
 30
0.0
 11
352.5736
 21
-1479.663
 31
0.0
  0
LINE
  5
1646C
  8
0
 10
338.97359999999998
 20
-1475.663
 30
0.0
 11
339.77359999999999
 21
-1479.663
 31
0.0
  0
LINE
  5
1646D
  8
0
 10
339.77359999999999
 20
-1479.663
 30
0.0
 11
339.87360000000001
 21
-1479.1629999999991
 31
0.0
  0
LINE
  5
1646E
  8
0
 10
340.47359999999998
 20
-1476.163
 30
0.0
 11
340.5736
 21
-1475.663
 31
0.0
  0
LINE
  5
1646F
  8
0
 10
338.17360000000002
 20
-1479.663
 30
0.0
 11
338.27359999999999
 21
-1479.1629999999991
 31
0.0
  0
LINE
  5
16470
  8
0
 10
336.5736
 20
-1479.663
 30
0.0
 11
336.67360000000002
 21
-1479.1629999999991
 31
0.0
  0
LINE
  5
16471
  8
0
 10
338.87360000000001
 20
-1476.163
 30
0.0
 11
338.97359999999998
 21
-1475.663
 31
0.0
  0
LINE
  5
16472
  8
0
 10
337.27359999999999
 20
-1476.163
 30
0.0
 11
337.37360000000001
 21
-1475.663
 31
0.0
  0
LINE
  5
16473
  8
0
 10
337.37360000000001
 20
-1475.663
 30
0.0
 11
338.17360000000002
 21
-1479.663
 31
0.0
  0
LINE
  5
16474
  8
0
 10
344.5736
 20
-1479.663
 30
0.0
 11
344.67360000000002
 21
-1479.1629999999991
 31
0.0
  0
LINE
  5
16475
  8
0
 10
346.17360000000002
 20
-1479.663
 30
0.0
 11
346.27359999999999
 21
-1479.1629999999991
 31
0.0
  0
LINE
  5
16476
  8
0
 10
341.37360000000001
 20
-1479.663
 30
0.0
 11
341.47359999999998
 21
-1479.1629999999991
 31
0.0
  0
LINE
  5
16477
  8
0
 10
342.97359999999998
 20
-1479.663
 30
0.0
 11
343.0736
 21
-1479.1629999999991
 31
0.0
  0
LINE
  5
16478
  8
0
 10
346.87360000000001
 20
-1476.163
 30
0.0
 11
346.97359999999998
 21
-1475.663
 31
0.0
  0
LINE
  5
16479
  8
0
 10
345.27359999999999
 20
-1476.163
 30
0.0
 11
345.37360000000001
 21
-1475.663
 31
0.0
  0
LINE
  5
1647A
  8
0
 10
342.0736
 20
-1476.163
 30
0.0
 11
342.17360000000002
 21
-1475.663
 31
0.0
  0
LINE
  5
1647B
  8
0
 10
343.67360000000002
 20
-1476.163
 30
0.0
 11
343.77359999999999
 21
-1475.663
 31
0.0
  0
LINE
  5
1647C
  8
0
 10
343.77359999999999
 20
-1475.663
 30
0.0
 11
344.5736
 21
-1479.663
 31
0.0
  0
LINE
  5
1647D
  8
0
 10
345.37360000000001
 20
-1475.663
 30
0.0
 11
346.17360000000002
 21
-1479.663
 31
0.0
  0
LINE
  5
1647E
  8
0
 10
342.17360000000002
 20
-1475.663
 30
0.0
 11
342.97359999999998
 21
-1479.663
 31
0.0
  0
LINE
  5
1647F
  8
0
 10
340.5736
 20
-1475.663
 30
0.0
 11
341.37360000000001
 21
-1479.663
 31
0.0
  0
LINE
  5
16480
  8
0
 10
330.27359999999999
 20
-1479.1629999999991
 30
0.0
 11
330.27359999999999
 21
-1476.163
 31
0.0
  0
LINE
  5
16481
  8
0
 10
330.87360000000001
 20
-1476.163
 30
0.0
 11
330.97359999999998
 21
-1475.663
 31
0.0
  0
LINE
  5
16482
  8
0
 10
330.97359999999998
 20
-1475.663
 30
0.0
 11
331.77359999999999
 21
-1479.663
 31
0.0
  0
LINE
  5
16483
  8
0
 10
331.77359999999999
 20
-1479.663
 30
0.0
 11
331.87360000000001
 21
-1479.1629999999991
 31
0.0
  0
LINE
  5
16484
  8
0
 10
332.47359999999998
 20
-1476.163
 30
0.0
 11
332.5736
 21
-1475.663
 31
0.0
  0
LINE
  5
16485
  8
0
 10
334.0736
 20
-1476.163
 30
0.0
 11
334.17360000000002
 21
-1475.663
 31
0.0
  0
LINE
  5
16486
  8
0
 10
334.17360000000002
 20
-1475.663
 30
0.0
 11
334.97359999999998
 21
-1479.663
 31
0.0
  0
LINE
  5
16487
  8
0
 10
333.37360000000001
 20
-1479.663
 30
0.0
 11
333.47359999999998
 21
-1479.1629999999991
 31
0.0
  0
LINE
  5
16488
  8
0
 10
334.97359999999998
 20
-1479.663
 30
0.0
 11
335.0736
 21
-1479.1629999999991
 31
0.0
  0
LINE
  5
16489
  8
0
 10
332.5736
 20
-1475.663
 30
0.0
 11
333.37360000000001
 21
-1479.663
 31
0.0
  0
LINE
  5
1648A
  8
0
 10
335.67360000000002
 20
-1476.163
 30
0.0
 11
335.77359999999999
 21
-1475.663
 31
0.0
  0
LINE
  5
1648B
  8
1CENTER
 10
315.27359999999999
 20
-1499.2209
 30
0.0
 11
315.27359999999999
 21
-1489.2617
 31
0.0
  0
LINE
  5
1648F
  8
1HATCH
 10
312.77359999999999
 20
-1498.2247
 30
0.0
 11
312.77359999999999
 21
-1491.9747
 31
0.0
  0
LINE
  5
16490
  8
1HATCH
 10
317.77359999999999
 20
-1498.2247
 30
0.0
 11
317.77359999999999
 21
-1491.9747
 31
0.0
  0
LINE
  5
16491
  8
0
 10
312.27359999999999
 20
-1497.7247
 30
0.0
 11
312.27359999999999
 21
-1492.2247
 31
0.0
  0
LINE
  5
16492
  8
0
 10
318.27359999999999
 20
-1497.7247
 30
0.0
 11
318.27359999999999
 21
-1492.2247
 31
0.0
  0
LINE
  5
16493
  8
1HATCH
 10
313.07010000000002
 20
-1498.2149999999999
 30
0.0
 11
313.87900000000002
 21
-1496.2247
 31
0.0
  0
LINE
  5
16494
  8
1HATCH
 10
316.68099999999998
 20
-1496.2247
 30
0.0
 11
317.52530000000002
 21
-1498.2026000000001
 31
0.0
  0
LINE
  5
16495
  8
0
 10
312.77359999999999
 20
-1498.2247
 30
0.0
 11
312.27359999999999
 21
-1497.7247
 31
0.0
  0
LINE
  5
16496
  8
0
 10
317.77359999999999
 20
-1498.2247
 30
0.0
 11
312.77359999999999
 21
-1498.2247
 31
0.0
  0
LINE
  5
16497
  8
0
 10
317.77359999999999
 20
-1498.2247
 30
0.0
 11
318.27359999999999
 21
-1497.7247
 31
0.0
  0
LINE
  5
16499
  8
0
 10
312.27359999999999
 20
-1492.2247
 30
0.0
 11
313.27359999999999
 21
-1491.7247
 31
0.0
  0
LINE
  5
1649A
  8
0
 10
318.27359999999999
 20
-1492.2247
 30
0.0
 11
317.27359999999999
 21
-1491.7247
 31
0.0
  0
LINE
  5
1649B
  8
1HATCH
 10
317.27359999999999
 20
-1491.7247
 30
0.0
 11
313.27359999999999
 21
-1491.7247
 31
0.0
  0
ARC
  5
1649C
  8
0
 10
313.77359999999999
 20
-1490.7247
 30
0.0
 40
0.5
 50
90.0
 51
180.0
  0
LINE
  5
1649D
  8
0
 10
313.27359999999999
 20
-1491.7247
 30
0.0
 11
313.27359999999999
 21
-1490.7247
 31
0.0
  0
LINE
  5
1649E
  8
0
 10
317.27359999999999
 20
-1491.7247
 30
0.0
 11
317.27359999999999
 21
-1490.7247
 31
0.0
  0
ARC
  5
1649F
  8
0
 10
316.77359999999999
 20
-1490.7247
 30
0.0
 40
0.5
 50
0.0
 51
90.0
  0
LINE
  5
164A0
  8
0
 10
316.77359999999999
 20
-1490.2247
 30
0.0
 11
313.77359999999999
 21
-1490.2247
 31
0.0
  0
LINE
  5
164A1
  8
1HATCH
 10
316.68099999999998
 20
-1496.2247
 30
0.0
 11
313.87900000000002
 21
-1496.2247
 31
0.0
  0
POINT
  5
164A2
  8
0
 10
315.27359999999999
 20
-1490.2247
 30
0.0
  0
LINE
  5
164A4
  8
1CENTER
 10
363.23450000000003
 20
-1495.6629
 30
0.0
 11
326.60329999999999
 21
-1495.6629
 31
0.0
  0
LINE
  5
164A5
  8
0
 10
358.17360000000002
 20
-1494.5686000000001
 30
0.0
 11
358.97359999999998
 21
-1496.5309
 31
0.0
  0
LINE
  5
164A6
  8
0
 10
358.97359999999998
 20
-1496.5309
 30
0.0
 11
359.28530000000001
 21
-1495.9427000000001
 31
0.0
  0
LINE
  5
164A7
  8
0
 10
335.77359999999999
 20
-1493.6629999999991
 30
0.0
 11
336.5736
 21
-1497.663
 31
0.0
  0
LINE
  5
164A8
  8
0
 10
346.97359999999998
 20
-1493.6629999999991
 30
0.0
 11
347.77359999999999
 21
-1497.663
 31
0.0
  0
LINE
  5
164A9
  8
0
 10
350.17360000000002
 20
-1493.6629999999991
 30
0.0
 11
350.97359999999998
 21
-1497.663
 31
0.0
  0
LINE
  5
164AA
  8
0
 10
350.97359999999998
 20
-1497.663
 30
0.0
 11
351.0736
 21
-1497.163
 31
0.0
  0
LINE
  5
164AB
  8
0
 10
351.67360000000002
 20
-1494.163
 30
0.0
 11
351.77359999999999
 21
-1493.6629999999991
 31
0.0
  0
LINE
  5
164AC
  8
0
 10
347.77359999999999
 20
-1497.663
 30
0.0
 11
347.87360000000001
 21
-1497.163
 31
0.0
  0
LINE
  5
164AD
  8
0
 10
349.37360000000001
 20
-1497.663
 30
0.0
 11
349.47359999999998
 21
-1497.163
 31
0.0
  0
LINE
  5
164AE
  8
0
 10
350.0736
 20
-1494.163
 30
0.0
 11
350.17360000000002
 21
-1493.6629999999991
 31
0.0
  0
LINE
  5
164AF
  8
0
 10
348.47359999999998
 20
-1494.163
 30
0.0
 11
348.5736
 21
-1493.6629999999991
 31
0.0
  0
LINE
  5
164B0
  8
0
 10
348.5736
 20
-1493.6629999999991
 30
0.0
 11
349.37360000000001
 21
-1497.663
 31
0.0
  0
LINE
  5
164B1
  8
0
 10
357.37360000000001
 20
-1496.9838
 30
0.0
 11
357.55630000000002
 21
-1496.432
 31
0.0
  0
LINE
  5
164B2
  8
0
 10
354.17360000000002
 20
-1497.663
 30
0.0
 11
354.27359999999999
 21
-1497.163
 31
0.0
  0
LINE
  5
164B3
  8
0
 10
352.5736
 20
-1497.663
 30
0.0
 11
352.67360000000002
 21
-1497.163
 31
0.0
  0
LINE
  5
164B4
  8
0
 10
355.77359999999999
 20
-1497.4366
 30
0.0
 11
355.90280000000001
 21
-1496.9000000000001
 31
0.0
  0
LINE
  5
164B5
  8
0
 10
356.46080000000001
 20
-1494.5839000000001
 30
0.0
 11
356.5736
 21
-1494.1158
 31
0.0
  0
LINE
  5
164B6
  8
0
 10
353.27359999999999
 20
-1494.163
 30
0.0
 11
353.37360000000001
 21
-1493.6629999999991
 31
0.0
  0
LINE
  5
164B7
  8
0
 10
354.87360000000001
 20
-1494.163
 30
0.0
 11
354.97359999999998
 21
-1493.6629999999991
 31
0.0
  0
LINE
  5
164B8
  8
0
 10
358.02210000000002
 20
-1495.0257999999999
 30
0.0
 11
358.17360000000002
 21
-1494.5686000000001
 31
0.0
  0
LINE
  5
164B9
  8
0
 10
356.5736
 20
-1494.1158
 30
0.0
 11
357.37360000000001
 21
-1496.9838
 31
0.0
  0
LINE
  5
164BA
  8
0
 10
353.37360000000001
 20
-1493.6629999999991
 30
0.0
 11
354.17360000000002
 21
-1497.663
 31
0.0
  0
LINE
  5
164BB
  8
0
 10
354.97359999999998
 20
-1493.6629999999991
 30
0.0
 11
355.77359999999999
 21
-1497.4366
 31
0.0
  0
LINE
  5
164BC
  8
0
 10
351.77359999999999
 20
-1493.6629999999991
 30
0.0
 11
352.5736
 21
-1497.663
 31
0.0
  0
LINE
  5
164BD
  8
0
 10
338.97359999999998
 20
-1493.6629999999991
 30
0.0
 11
339.77359999999999
 21
-1497.663
 31
0.0
  0
LINE
  5
164BE
  8
0
 10
339.77359999999999
 20
-1497.663
 30
0.0
 11
339.87360000000001
 21
-1497.163
 31
0.0
  0
LINE
  5
164BF
  8
0
 10
340.47359999999998
 20
-1494.163
 30
0.0
 11
340.5736
 21
-1493.6629999999991
 31
0.0
  0
LINE
  5
164C0
  8
0
 10
338.17360000000002
 20
-1497.663
 30
0.0
 11
338.27359999999999
 21
-1497.163
 31
0.0
  0
LINE
  5
164C1
  8
0
 10
336.5736
 20
-1497.663
 30
0.0
 11
336.67360000000002
 21
-1497.163
 31
0.0
  0
LINE
  5
164C2
  8
0
 10
338.87360000000001
 20
-1494.163
 30
0.0
 11
338.97359999999998
 21
-1493.6629999999991
 31
0.0
  0
LINE
  5
164C3
  8
0
 10
337.27359999999999
 20
-1494.163
 30
0.0
 11
337.37360000000001
 21
-1493.6629999999991
 31
0.0
  0
LINE
  5
164C4
  8
0
 10
337.37360000000001
 20
-1493.6629999999991
 30
0.0
 11
338.17360000000002
 21
-1497.663
 31
0.0
  0
LINE
  5
164C5
  8
0
 10
344.5736
 20
-1497.663
 30
0.0
 11
344.67360000000002
 21
-1497.163
 31
0.0
  0
LINE
  5
164C6
  8
0
 10
346.17360000000002
 20
-1497.663
 30
0.0
 11
346.27359999999999
 21
-1497.163
 31
0.0
  0
LINE
  5
164C7
  8
0
 10
341.37360000000001
 20
-1497.663
 30
0.0
 11
341.47359999999998
 21
-1497.163
 31
0.0
  0
LINE
  5
164C8
  8
0
 10
342.97359999999998
 20
-1497.663
 30
0.0
 11
343.0736
 21
-1497.163
 31
0.0
  0
LINE
  5
164C9
  8
0
 10
346.87360000000001
 20
-1494.163
 30
0.0
 11
346.97359999999998
 21
-1493.6629999999991
 31
0.0
  0
LINE
  5
164CA
  8
0
 10
345.27359999999999
 20
-1494.163
 30
0.0
 11
345.37360000000001
 21
-1493.6629999999991
 31
0.0
  0
LINE
  5
164CB
  8
0
 10
342.0736
 20
-1494.163
 30
0.0
 11
342.17360000000002
 21
-1493.6629999999991
 31
0.0
  0
LINE
  5
164CC
  8
0
 10
343.67360000000002
 20
-1494.163
 30
0.0
 11
343.77359999999999
 21
-1493.6629999999991
 31
0.0
  0
LINE
  5
164CD
  8
0
 10
343.77359999999999
 20
-1493.6629999999991
 30
0.0
 11
344.5736
 21
-1497.663
 31
0.0
  0
LINE
  5
164CE
  8
0
 10
345.37360000000001
 20
-1493.6629999999991
 30
0.0
 11
346.17360000000002
 21
-1497.663
 31
0.0
  0
LINE
  5
164CF
  8
0
 10
342.17360000000002
 20
-1493.6629999999991
 30
0.0
 11
342.97359999999998
 21
-1497.663
 31
0.0
  0
LINE
  5
164D0
  8
0
 10
340.5736
 20
-1493.6629999999991
 30
0.0
 11
341.37360000000001
 21
-1497.663
 31
0.0
  0
LINE
  5
164D1
  8
0
 10
330.27359999999999
 20
-1497.163
 30
0.0
 11
330.27359999999999
 21
-1494.163
 31
0.0
  0
LINE
  5
164D2
  8
0
 10
330.87360000000001
 20
-1494.163
 30
0.0
 11
330.97359999999998
 21
-1493.6629999999991
 31
0.0
  0
LINE
  5
164D3
  8
0
 10
330.97359999999998
 20
-1493.6629999999991
 30
0.0
 11
331.77359999999999
 21
-1497.663
 31
0.0
  0
LINE
  5
164D4
  8
0
 10
331.77359999999999
 20
-1497.663
 30
0.0
 11
331.87360000000001
 21
-1497.163
 31
0.0
  0
LINE
  5
164D5
  8
0
 10
332.47359999999998
 20
-1494.163
 30
0.0
 11
332.5736
 21
-1493.6629999999991
 31
0.0
  0
LINE
  5
164D6
  8
0
 10
334.0736
 20
-1494.163
 30
0.0
 11
334.17360000000002
 21
-1493.6629999999991
 31
0.0
  0
LINE
  5
164D7
  8
0
 10
334.17360000000002
 20
-1493.6629999999991
 30
0.0
 11
334.97359999999998
 21
-1497.663
 31
0.0
  0
LINE
  5
164D8
  8
0
 10
333.37360000000001
 20
-1497.663
 30
0.0
 11
333.47359999999998
 21
-1497.163
 31
0.0
  0
LINE
  5
164D9
  8
0
 10
334.97359999999998
 20
-1497.663
 30
0.0
 11
335.0736
 21
-1497.163
 31
0.0
  0
LINE
  5
164DA
  8
0
 10
332.5736
 20
-1493.6629999999991
 30
0.0
 11
333.37360000000001
 21
-1497.663
 31
0.0
  0
LINE
  5
164DB
  8
0
 10
335.67360000000002
 20
-1494.163
 30
0.0
 11
335.77359999999999
 21
-1493.6629999999991
 31
0.0
  0
TEXT
  5
164DC
  8
1DIM
 10
17.322399999999998
 20
-1372.4482
 30
0.0
 40
3.5
  1
材質：亜鉛ダイキャスト
  0
TEXT
  5
164DD
  8
1DIM
 10
29.4558
 20
-1378.2816
 30
0.0
 40
3.5
  1
仕上げ：クローム
  0
SOLID
  5
164DE
  8
1DIM
 10
75.663899999999998
 20
-1364.8878999999999
 30
0.0
 11
77.186800000000005
 21
-1363.5494000000001
 31
0.0
 12
76.180300000000003
 22
-1365.3095000000001
 32
0.0
 13
76.180300000000003
 23
-1365.3095000000001
 33
0.0
  0
TEXT
  5
164E0
  8
1DIM
 10
28.553799999999999
 20
-1466.8271999999999
 30
0.0
 40
3.5
  1
材質：ステンレス
  0
TEXT
  5
164E1
  8
1DIM
 10
28.087199999999999
 20
-1472.6605
 30
0.0
 40
3.5
  1
仕上げ：鏡面研磨
  0
SOLID
  5
164E2
  8
1DIM
 10
69.156599999999983
 20
-1479.1243999999999
 30
0.0
 11
70.257199999999983
 21
-1480.8272999999999
 31
0.0
 12
68.663799999999995
 22
-1479.5734
 32
0.0
 13
68.663799999999995
 23
-1479.5734
 33
0.0
  0
TEXT
  5
164E4
  8
1DIM
 10
131.2928
 20
-1381.9812999999999
 30
0.0
 40
3.5
  1
材質：真鍮
  0
TEXT
  5
164E5
  8
1DIM
 10
131.2928
 20
-1387.8145999999999
 30
0.0
 40
3.5
  1
仕上げ：クローム
  0
SOLID
  5
164E6
  8
1DIM
 10
110.80549999999999
 20
-1397.5916
 30
0.0
 11
108.8626
 21
-1398.1714999999999
 31
0.0
 12
110.5124
 22
-1396.9928
 32
0.0
 13
110.5124
 23
-1396.9928
 33
0.0
  0
LINE
  5
164E8
  8
1DIM
 10
110.65900000000001
 20
-1397.2922000000001
 30
0.0
 11
128.59280000000001
 21
-1388.5146
 31
0.0
  0
LINE
  5
164E9
  8
1DIM
 10
128.59280000000001
 20
-1388.5146
 30
0.0
 11
163.95949999999999
 21
-1388.5146
 31
0.0
  0
LINE
  5
164EA
  8
1DIM
 10
68.910200000000003
 20
-1479.3489
 30
0.0
 11
63.453800000000001
 21
-1473.3605
 31
0.0
  0
LINE
  5
164EB
  8
1DIM
 10
63.453800000000001
 20
-1473.3605
 30
0.0
 11
28.087199999999999
 21
-1473.3605
 31
0.0
  0
LINE
  5
164EC
  8
1DIM
 10
75.9221
 20
-1365.0987
 30
0.0
 11
64.589100000000002
 21
-1378.9816000000001
 31
0.0
  0
LINE
  5
164ED
  8
1DIM
 10
64.589100000000002
 20
-1378.9816000000001
 30
0.0
 11
16.622399999999999
 21
-1378.9816000000001
 31
0.0
  0
LINE
  5
164EE
  8
0
 10
360.27359999999999
 20
-1495.663
 30
0.0
 11
354.97359999999998
 21
-1494.163
 31
0.0
  0
LINE
  5
164EF
  8
0
 10
354.97359999999998
 20
-1494.163
 30
0.0
 11
330.27359999999999
 21
-1494.163
 31
0.0
  0
LINE
  5
164F0
  8
0
 10
360.27359999999999
 20
-1495.663
 30
0.0
 11
354.97359999999998
 21
-1497.163
 31
0.0
  0
LINE
  5
164F1
  8
0
 10
330.27359999999999
 20
-1492.1629
 30
0.0
 11
330.27359999999999
 21
-1494.163
 31
0.0
  0
LINE
  5
164F2
  8
0
 10
354.97359999999998
 20
-1497.163
 30
0.0
 11
330.27359999999999
 21
-1497.163
 31
0.0
  0
LINE
  5
164F3
  8
0
 10
330.27359999999999
 20
-1492.1629
 30
0.0
 11
329.17360000000002
 21
-1492.1629
 31
0.0
  0
LINE
  5
164F4
  8
0
 10
330.27359999999999
 20
-1497.163
 30
0.0
 11
330.27359999999999
 21
-1499.1629
 31
0.0
  0
ARC
  5
164F5
  8
0
 10
329.17360000000002
 20
-1493.6629
 30
0.0
 40
1.5
 50
90.0
 51
179.9999
  0
LINE
  5
164F6
  8
0
 10
330.27359999999999
 20
-1499.1629
 30
0.0
 11
329.17360000000002
 21
-1499.1629
 31
0.0
  0
LINE
  5
164F7
  8
0
 10
327.67360000000002
 20
-1493.6629
 30
0.0
 11
327.67360000000002
 21
-1497.6629
 31
0.0
  0
ARC
  5
164F8
  8
0
 10
329.17360000000002
 20
-1497.6629
 30
0.0
 40
1.5
 50
179.9999
 51
270.0
  0
ARC
  5
164F9
  8
1HATCH
 10
313.77359999999999
 20
-1490.7247
 30
0.0
 40
0.5
 50
90.0
 51
180.0
  0
LINE
  5
164FA
  8
1HATCH
 10
313.27359999999999
 20
-1490.7247
 30
0.0
 11
313.27359999999999
 21
-1491.7247
 31
0.0
  0
LINE
  5
164FB
  8
1HATCH
 10
316.77359999999999
 20
-1490.2247
 30
0.0
 11
313.77359999999999
 21
-1490.2247
 31
0.0
  0
LINE
  5
164FC
  8
1HATCH
 10
313.27359999999999
 20
-1491.7247
 30
0.0
 11
317.27359999999999
 21
-1491.7247
 31
0.0
  0
ARC
  5
164FD
  8
1HATCH
 10
316.77359999999999
 20
-1490.7247
 30
0.0
 40
0.5
 50
0.0
 51
90.0
  0
LINE
  5
164FE
  8
1HATCH
 10
317.27359999999999
 20
-1491.7247
 30
0.0
 11
317.27359999999999
 21
-1490.7247
 31
0.0
  0
LINE
  5
164FF
  8
1HATCH
 10
312.27359999999999
 20
-1492.2247
 30
0.0
 11
312.27359999999999
 21
-1497.7247
 31
0.0
  0
LINE
  5
16500
  8
1HATCH
 10
312.27359999999999
 20
-1497.7247
 30
0.0
 11
312.77359999999999
 21
-1498.2247
 31
0.0
  0
LINE
  5
16501
  8
1HATCH
 10
312.77359999999999
 20
-1491.9747
 30
0.0
 11
312.27359999999999
 21
-1492.2247
 31
0.0
  0
LINE
  5
16502
  8
1HATCH
 10
312.77359999999999
 20
-1498.2247
 30
0.0
 11
312.77359999999999
 21
-1491.9747
 31
0.0
  0
LINE
  5
16503
  8
1HATCH
 10
313.27359999999999
 20
-1491.7247
 30
0.0
 11
312.77359999999999
 21
-1491.9747
 31
0.0
  0
LINE
  5
16504
  8
1HATCH
 10
312.77359999999999
 20
-1491.9747
 30
0.0
 11
312.77359999999999
 21
-1498.2247
 31
0.0
  0
LINE
  5
16505
  8
1HATCH
 10
317.27359999999999
 20
-1491.7247
 30
0.0
 11
313.27359999999999
 21
-1491.7247
 31
0.0
  0
LINE
  5
16506
  8
1HATCH
 10
312.77359999999999
 20
-1498.2247
 30
0.0
 11
312.77359999999999
 21
-1498.2247
 31
0.0
  0
LINE
  5
16507
  8
1HATCH
 10
317.77359999999999
 20
-1491.9747
 30
0.0
 11
317.27359999999999
 21
-1491.7247
 31
0.0
  0
LINE
  5
16508
  8
1HATCH
 10
312.77359999999999
 20
-1498.2247
 30
0.0
 11
317.77359999999999
 21
-1498.2247
 31
0.0
  0
LINE
  5
16509
  8
1HATCH
 10
317.77359999999999
 20
-1498.2247
 30
0.0
 11
317.77359999999999
 21
-1491.9747
 31
0.0
  0
LINE
  5
1650A
  8
0
 10
312.77359999999999
 20
-1498.2247
 30
0.0
 11
312.77359999999999
 21
-1498.2247
 31
0.0
  0
LINE
  5
1650B
  8
0
 10
317.77359999999999
 20
-1498.2247
 30
0.0
 11
312.77359999999999
 21
-1498.2247
 31
0.0
  0
LINE
  5
1650C
  8
0
 10
312.77359999999999
 20
-1498.2247
 30
0.0
 11
312.27359999999999
 21
-1497.7247
 31
0.0
  0
LINE
  5
1650D
  8
0
 10
317.77359999999999
 20
-1498.2247
 30
0.0
 11
317.77359999999999
 21
-1498.2247
 31
0.0
  0
LINE
  5
1650E
  8
0
 10
312.27359999999999
 20
-1497.7247
 30
0.0
 11
312.27359999999999
 21
-1492.2247
 31
0.0
  0
LINE
  5
1650F
  8
0
 10
318.27359999999999
 20
-1497.7247
 30
0.0
 11
317.77359999999999
 21
-1498.2247
 31
0.0
  0
LINE
  5
16510
  8
0
 10
312.27359999999999
 20
-1492.2247
 30
0.0
 11
313.27359999999999
 21
-1491.7247
 31
0.0
  0
LINE
  5
16511
  8
0
 10
318.27359999999999
 20
-1492.2247
 30
0.0
 11
318.27359999999999
 21
-1497.7247
 31
0.0
  0
LINE
  5
16512
  8
0
 10
313.27359999999999
 20
-1491.7247
 30
0.0
 11
313.27359999999999
 21
-1490.7247
 31
0.0
  0
LINE
  5
16513
  8
0
 10
317.27359999999999
 20
-1491.7247
 30
0.0
 11
318.27359999999999
 21
-1492.2247
 31
0.0
  0
ARC
  5
16514
  8
0
 10
313.77359999999999
 20
-1490.7247
 30
0.0
 40
0.5
 50
90.0
 51
180.0
  0
LINE
  5
16515
  8
0
 10
317.27359999999999
 20
-1490.7247
 30
0.0
 11
317.27359999999999
 21
-1491.7247
 31
0.0
  0
LINE
  5
16516
  8
0
 10
313.77359999999999
 20
-1490.2247
 30
0.0
 11
316.77359999999999
 21
-1490.2247
 31
0.0
  0
ARC
  5
16517
  8
0
 10
316.77359999999999
 20
-1490.7247
 30
0.0
 40
0.5
 50
0.0
 51
90.0
  0
LINE
  5
16518
  8
0
 10
360.27359999999999
 20
-1477.6629999999991
 30
0.0
 11
354.97359999999998
 21
-1476.163
 31
0.0
  0
LINE
  5
16519
  8
0
 10
354.97359999999998
 20
-1476.163
 30
0.0
 11
330.27359999999999
 21
-1476.163
 31
0.0
  0
LINE
  5
1651A
  8
0
 10
360.27359999999999
 20
-1477.6629999999991
 30
0.0
 11
354.97359999999998
 21
-1479.1629999999991
 31
0.0
  0
LINE
  5
1651B
  8
0
 10
330.27359999999999
 20
-1474.1629
 30
0.0
 11
330.27359999999999
 21
-1476.163
 31
0.0
  0
LINE
  5
1651C
  8
0
 10
354.97359999999998
 20
-1479.1629999999991
 30
0.0
 11
330.27359999999999
 21
-1479.1629999999991
 31
0.0
  0
LINE
  5
1651D
  8
0
 10
330.27359999999999
 20
-1474.1629
 30
0.0
 11
329.17360000000002
 21
-1474.1629
 31
0.0
  0
LINE
  5
1651E
  8
0
 10
330.27359999999999
 20
-1479.1629999999991
 30
0.0
 11
330.27359999999999
 21
-1481.1629
 31
0.0
  0
ARC
  5
1651F
  8
0
 10
329.17360000000002
 20
-1475.6629
 30
0.0
 40
1.5
 50
90.0
 51
179.9999
  0
LINE
  5
16520
  8
0
 10
330.27359999999999
 20
-1481.1629
 30
0.0
 11
329.17360000000002
 21
-1481.1629
 31
0.0
  0
LINE
  5
16521
  8
0
 10
327.67360000000002
 20
-1475.6629
 30
0.0
 11
327.67360000000002
 21
-1479.6629
 31
0.0
  0
ARC
  5
16522
  8
0
 10
329.17360000000002
 20
-1479.6629
 30
0.0
 40
1.5
 50
179.9999
 51
270.0
  0
TEXT
  5
16523
  8
1DIM
 10
92.527299999999997
 20
-1450.9411
 30
0.0
 40
3.5
  1
160.5 
  0
LINE
  5
16524
  8
0
  6
BYBLOCK
 10
176.8698
 20
-1451.1052
 30
0.0
 11
178.8698
 21
-1451.6411000000001
 31
0.0
  0
LINE
  5
16525
  8
0
  6
BYBLOCK
 10
178.8698
 20
-1451.6411000000001
 30
0.0
 11
176.8698
 21
-1452.1769999999999
 31
0.0
  0
LINE
  5
16526
  8
0
  6
BYBLOCK
 10
178.8698
 20
-1451.6411000000001
 30
0.0
 11
176.8698
 21
-1451.6411000000001
 31
0.0
  0
LINE
  5
16527
  8
0
  6
BYBLOCK
 10
20.434699999999999
 20
-1452.1769999999999
 30
0.0
 11
18.434699999999999
 21
-1451.6411000000001
 31
0.0
  0
LINE
  5
16528
  8
0
  6
BYBLOCK
 10
18.434699999999999
 20
-1451.6411000000001
 30
0.0
 11
20.434699999999999
 21
-1451.1052
 31
0.0
  0
LINE
  5
16529
  8
0
  6
BYBLOCK
 10
18.434699999999999
 20
-1451.6411000000001
 30
0.0
 11
20.434699999999999
 21
-1451.6411000000001
 31
0.0
  0
TEXT
  5
1652A
  8
1DIM
 10
307.3569
 20
-1450.9411
 30
0.0
 40
3.5
  1
46 
  0
LINE
  5
1652B
  8
0
  6
BYBLOCK
 10
331.27359999999999
 20
-1451.1052
 30
0.0
 11
333.27359999999999
 21
-1451.6411000000001
 31
0.0
  0
LINE
  5
1652C
  8
0
  6
BYBLOCK
 10
333.27359999999999
 20
-1451.6411000000001
 30
0.0
 11
331.27359999999999
 21
-1452.1769999999999
 31
0.0
  0
LINE
  5
1652D
  8
0
  6
BYBLOCK
 10
333.27359999999999
 20
-1451.6411000000001
 30
0.0
 11
331.27359999999999
 21
-1451.6411000000001
 31
0.0
  0
LINE
  5
1652E
  8
0
  6
BYBLOCK
 10
289.27359999999999
 20
-1452.1769999999999
 30
0.0
 11
287.27359999999999
 21
-1451.6411000000001
 31
0.0
  0
LINE
  5
1652F
  8
0
  6
BYBLOCK
 10
287.27359999999999
 20
-1451.6411000000001
 30
0.0
 11
289.27359999999999
 21
-1451.1052
 31
0.0
  0
LINE
  5
16530
  8
0
  6
BYBLOCK
 10
287.27359999999999
 20
-1451.6411000000001
 30
0.0
 11
289.27359999999999
 21
-1451.6411000000001
 31
0.0
  0
TEXT
  5
16531
  8
1DIM
 10
299.77359999999999
 20
-1440.9411
 30
0.0
 40
3.5
  1
56.5 
  0
LINE
  5
16532
  8
0
  6
BYBLOCK
 10
331.27359999999999
 20
-1441.1052
 30
0.0
 11
333.27359999999999
 21
-1441.6411000000001
 31
0.0
  0
LINE
  5
16533
  8
0
  6
BYBLOCK
 10
333.27359999999999
 20
-1441.6411000000001
 30
0.0
 11
331.27359999999999
 21
-1442.1769999999999
 31
0.0
  0
LINE
  5
16534
  8
0
  6
BYBLOCK
 10
333.27359999999999
 20
-1441.6411000000001
 30
0.0
 11
331.27359999999999
 21
-1441.6411000000001
 31
0.0
  0
LINE
  5
16535
  8
0
  6
BYBLOCK
 10
278.77359999999999
 20
-1442.1769999999999
 30
0.0
 11
276.77359999999999
 21
-1441.6411000000001
 31
0.0
  0
LINE
  5
16536
  8
0
  6
BYBLOCK
 10
276.77359999999999
 20
-1441.6411000000001
 30
0.0
 11
278.77359999999999
 21
-1441.1052
 31
0.0
  0
LINE
  5
16537
  8
0
  6
BYBLOCK
 10
276.77359999999999
 20
-1441.6411000000001
 30
0.0
 11
278.77359999999999
 21
-1441.6411000000001
 31
0.0
  0
TEXT
  5
16538
  8
1DIM
 10
372.5736
 20
-1488.9963
 30
0.0
 40
3.5
  1
18 
 50
90.0
  0
LINE
  5
16539
  8
0
  6
BYBLOCK
 10
373.80950000000001
 20
-1493.6629
 30
0.0
 11
373.27359999999999
 21
-1495.6629
 31
0.0
  0
LINE
  5
1653A
  8
0
  6
BYBLOCK
 10
373.27359999999999
 20
-1495.6629
 30
0.0
 11
372.73770000000002
 21
-1493.6629
 31
0.0
  0
LINE
  5
1653B
  8
0
  6
BYBLOCK
 10
373.27359999999999
 20
-1495.6629
 30
0.0
 11
373.27359999999999
 21
-1493.6629
 31
0.0
  0
LINE
  5
1653C
  8
0
  6
BYBLOCK
 10
372.73770000000002
 20
-1479.6629
 30
0.0
 11
373.27359999999999
 21
-1477.6629
 31
0.0
  0
LINE
  5
1653D
  8
0
  6
BYBLOCK
 10
373.27359999999999
 20
-1477.6629
 30
0.0
 11
373.80950000000001
 21
-1479.6629
 31
0.0
  0
LINE
  5
1653E
  8
0
  6
BYBLOCK
 10
373.27359999999999
 20
-1477.6629
 30
0.0
 11
373.27359999999999
 21
-1479.6629
 31
0.0
  0
TEXT
  5
1653F
  8
1DIM
 10
372.5736
 20
-1471.9854
 30
0.0
 40
3.5
  1
16 
 50
90.0
  0
LINE
  5
16540
  8
0
  6
BYBLOCK
 10
373.80950000000001
 20
-1475.6629
 30
0.0
 11
373.27359999999999
 21
-1477.6629
 31
0.0
  0
LINE
  5
16541
  8
0
  6
BYBLOCK
 10
373.27359999999999
 20
-1477.6629
 30
0.0
 11
372.73770000000002
 21
-1475.6629
 31
0.0
  0
LINE
  5
16542
  8
0
  6
BYBLOCK
 10
373.27359999999999
 20
-1477.6629
 30
0.0
 11
373.27359999999999
 21
-1475.6629
 31
0.0
  0
LINE
  5
16543
  8
0
  6
BYBLOCK
 10
372.73770000000002
 20
-1463.6411000000001
 30
0.0
 11
373.27359999999999
 21
-1461.6411000000001
 31
0.0
  0
LINE
  5
16544
  8
0
  6
BYBLOCK
 10
373.27359999999999
 20
-1461.6411000000001
 30
0.0
 11
373.80950000000001
 21
-1463.6411000000001
 31
0.0
  0
LINE
  5
16545
  8
0
  6
BYBLOCK
 10
373.27359999999999
 20
-1461.6411000000001
 30
0.0
 11
373.27359999999999
 21
-1463.6411000000001
 31
0.0
  0
TEXT
  5
16546
  8
1DIM
 10
382.5736
 20
-1491.7379000000001
 30
0.0
 40
3.5
  1
φ50
 50
90.0
  0
LINE
  5
16547
  8
0
  6
BYBLOCK
 10
382.73770000000002
 20
-1463.6411000000001
 30
0.0
 11
383.27359999999999
 21
-1461.6411000000001
 31
0.0
  0
LINE
  5
16548
  8
0
  6
BYBLOCK
 10
383.27359999999999
 20
-1461.6411000000001
 30
0.0
 11
383.80950000000001
 21
-1463.6411000000001
 31
0.0
  0
LINE
  5
16549
  8
0
  6
BYBLOCK
 10
383.27359999999999
 20
-1461.6411000000001
 30
0.0
 11
383.27359999999999
 21
-1463.6411000000001
 31
0.0
  0
LINE
  5
1654A
  8
0
  6
BYBLOCK
 10
383.80950000000001
 20
-1509.6847
 30
0.0
 11
383.27359999999999
 21
-1511.6847
 31
0.0
  0
LINE
  5
1654B
  8
0
  6
BYBLOCK
 10
383.27359999999999
 20
-1511.6847
 30
0.0
 11
382.73770000000002
 21
-1509.6847
 31
0.0
  0
LINE
  5
1654C
  8
0
  6
BYBLOCK
 10
383.27359999999999
 20
-1511.6847
 30
0.0
 11
383.27359999999999
 21
-1509.6847
 31
0.0
  0
LINE
  5
1654D
  8
0
 10
101.4348
 20
-1333.3110999999999
 30
0.0
 11
99.934799999999996
 21
-1338.6111000000001
 31
0.0
  0
LINE
  5
1654E
  8
0
 10
99.934799999999996
 20
-1338.6111000000001
 30
0.0
 11
99.934799999999996
 21
-1363.3110999999999
 31
0.0
  0
LINE
  5
1654F
  8
0
 10
101.4348
 20
-1333.3110999999999
 30
0.0
 11
102.9348
 21
-1338.6111000000001
 31
0.0
  0
LINE
  5
16550
  8
0
 10
97.934700000000007
 20
-1363.3110999999999
 30
0.0
 11
99.934799999999996
 21
-1363.3110999999999
 31
0.0
  0
LINE
  5
16551
  8
0
 10
102.9348
 20
-1338.6111000000001
 30
0.0
 11
102.9348
 21
-1363.3110999999999
 31
0.0
  0
LINE
  5
16552
  8
0
 10
97.934700000000007
 20
-1363.3110999999999
 30
0.0
 11
97.934700000000007
 21
-1364.4111
 31
0.0
  0
LINE
  5
16553
  8
0
 10
102.9348
 20
-1363.3110999999999
 30
0.0
 11
104.93470000000001
 21
-1363.3110999999999
 31
0.0
  0
ARC
  5
16554
  8
0
 10
99.434700000000007
 20
-1364.4111
 30
0.0
 40
1.5
 50
180.0
 51
269.99990000000003
  0
LINE
  5
16555
  8
0
 10
104.93470000000001
 20
-1363.3110999999999
 30
0.0
 11
104.93470000000001
 21
-1364.4111
 31
0.0
  0
LINE
  5
16556
  8
0
 10
99.434700000000007
 20
-1365.9111
 30
0.0
 11
103.43470000000001
 21
-1365.9111
 31
0.0
  0
ARC
  5
16557
  8
0
 10
103.43470000000001
 20
-1364.4111
 30
0.0
 40
1.5
 50
269.99990000000003
 51
0.0
  0
LINE
  5
16558
  8
1DIM
 10
345.58859999999999
 20
-1436.6554000000001
 30
0.0
 11
340.39600000000002
 21
-1424.0724
 31
0.0
  0
LINE
  5
16559
  8
1DIM
 10
340.39600000000002
 20
-1424.0724
 30
0.0
 11
372.29599999999999
 21
-1424.0724
 31
0.0
  0
LINE
  5
1655A
  8
1HATCH
 10
337.505
 20
-1436.5818999999999
 30
0.0
 11
334.2287
 21
-1418.0710999999999
 31
0.0
  0
LINE
  5
1655B
  8
1HATCH
 10
334.2287
 20
-1418.0710999999999
 30
0.0
 11
342.762
 21
-1418.0710999999999
 31
0.0
  0
TEXT
  5
1655C
  8
1DIM
 10
321.9402
 20
-1520.9847
 30
0.0
 40
3.5
  1
18 
  0
LINE
  5
1655D
  8
0
  6
BYBLOCK
 10
317.27359999999999
 20
-1522.2206000000001
 30
0.0
 11
315.27359999999999
 21
-1521.6847
 31
0.0
  0
LINE
  5
1655E
  8
0
  6
BYBLOCK
 10
315.27359999999999
 20
-1521.6847
 30
0.0
 11
317.27359999999999
 21
-1521.1487999999999
 31
0.0
  0
LINE
  5
1655F
  8
0
  6
BYBLOCK
 10
315.27359999999999
 20
-1521.6847
 30
0.0
 11
317.27359999999999
 21
-1521.6847
 31
0.0
  0
LINE
  5
16560
  8
0
  6
BYBLOCK
 10
331.27359999999999
 20
-1521.1487999999999
 30
0.0
 11
333.27359999999999
 21
-1521.6847
 31
0.0
  0
LINE
  5
16561
  8
0
  6
BYBLOCK
 10
333.27359999999999
 20
-1521.6847
 30
0.0
 11
331.27359999999999
 21
-1522.2206000000001
 31
0.0
  0
LINE
  5
16562
  8
0
  6
BYBLOCK
 10
333.27359999999999
 20
-1521.6847
 30
0.0
 11
331.27359999999999
 21
-1521.6847
 31
0.0
  0
TEXT
  5
16563
  8
1DIM
 10
188.16980000000001
 20
-1426.8594000000001
 30
0.0
 40
3.5
  1
82 （ペーパー無し最小値）
 50
90.0
  0
LINE
  5
16564
  8
0
  6
BYBLOCK
 10
189.4057
 20
-1439.6411000000001
 30
0.0
 11
188.8698
 21
-1441.6411000000001
 31
0.0
  0
LINE
  5
16565
  8
0
  6
BYBLOCK
 10
188.8698
 20
-1441.6411000000001
 30
0.0
 11
188.3339
 21
-1439.6411000000001
 31
0.0
  0
LINE
  5
16566
  8
0
  6
BYBLOCK
 10
188.8698
 20
-1441.6411000000001
 30
0.0
 11
188.8698
 21
-1439.6411000000001
 31
0.0
  0
LINE
  5
16567
  8
0
  6
BYBLOCK
 10
188.3339
 20
-1361.8110999999999
 30
0.0
 11
188.8698
 21
-1359.8110999999999
 31
0.0
  0
LINE
  5
16568
  8
0
  6
BYBLOCK
 10
188.8698
 20
-1359.8110999999999
 30
0.0
 11
189.4057
 21
-1361.8110999999999
 31
0.0
  0
LINE
  5
16569
  8
0
  6
BYBLOCK
 10
188.8698
 20
-1359.8110999999999
 30
0.0
 11
188.8698
 21
-1361.8110999999999
 31
0.0
  0
TEXT
  5
1656A
  8
1DIM
 10
238.77170000000001
 20
-1430.9411
 30
0.0
 40
3.5
  1
134 （ペーパー付き最大値）
  0
LINE
  5
1656B
  8
0
  6
BYBLOCK
 10
331.27359999999999
 20
-1431.1052
 30
0.0
 11
333.27359999999999
 21
-1431.6411000000001
 31
0.0
  0
LINE
  5
1656C
  8
0
  6
BYBLOCK
 10
333.27359999999999
 20
-1431.6411000000001
 30
0.0
 11
331.27359999999999
 21
-1432.1769999999999
 31
0.0
  0
LINE
  5
1656D
  8
0
  6
BYBLOCK
 10
333.27359999999999
 20
-1431.6411000000001
 30
0.0
 11
331.27359999999999
 21
-1431.6411000000001
 31
0.0
  0
LINE
  5
1656E
  8
0
  6
BYBLOCK
 10
200.8698
 20
-1432.1769999999999
 30
0.0
 11
198.8698
 21
-1431.6411000000001
 31
0.0
  0
LINE
  5
1656F
  8
0
  6
BYBLOCK
 10
198.8698
 20
-1431.6411000000001
 30
0.0
 11
200.8698
 21
-1431.1052
 31
0.0
  0
LINE
  5
16570
  8
0
  6
BYBLOCK
 10
198.8698
 20
-1431.6411000000001
 30
0.0
 11
200.8698
 21
-1431.6411000000001
 31
0.0
  0
TEXT
  5
16571
  8
1DIM
 10
97.643100000000004
 20
-1569.4680000000001
 30
0.0
 40
3.5
  1
130 
  0
LINE
  5
16572
  8
0
  6
BYBLOCK
 10
164.43469999999999
 20
-1569.6321
 30
0.0
 11
166.43469999999999
 21
-1570.1679999999999
 31
0.0
  0
LINE
  5
16573
  8
0
  6
BYBLOCK
 10
166.43469999999999
 20
-1570.1679999999999
 30
0.0
 11
164.43469999999999
 21
-1570.7039
 31
0.0
  0
LINE
  5
16574
  8
0
  6
BYBLOCK
 10
166.43469999999999
 20
-1570.1679999999999
 30
0.0
 11
164.43469999999999
 21
-1570.1679999999999
 31
0.0
  0
LINE
  5
16575
  8
0
  6
BYBLOCK
 10
38.434699999999999
 20
-1570.7039
 30
0.0
 11
36.434699999999999
 21
-1570.1679999999999
 31
0.0
  0
LINE
  5
16576
  8
0
  6
BYBLOCK
 10
36.434699999999999
 20
-1570.1679999999999
 30
0.0
 11
38.434699999999999
 21
-1569.6321
 31
0.0
  0
LINE
  5
16577
  8
0
  6
BYBLOCK
 10
36.434699999999999
 20
-1570.1679999999999
 30
0.0
 11
38.434699999999999
 21
-1570.1679999999999
 31
0.0
  0
LINE
  5
16578
  8
0
 10
89.434799999999996
 20
-1338.6111000000001
 30
0.0
 11
89.434799999999996
 21
-1360.5110999999999
 31
0.0
  0
LINE
  5
16579
  8
0
 10
86.934700000000007
 20
-1363.0110999999999
 30
0.0
 11
89.434799999999996
 21
-1360.5110999999999
 31
0.0
  0
LINE
  5
1657A
  8
0
 10
90.934799999999996
 20
-1333.3110999999999
 30
0.0
 11
89.434799999999996
 21
-1338.6111000000001
 31
0.0
  0
LINE
  5
1657B
  8
0
 10
86.934700000000007
 20
-1363.0110999999999
 30
0.0
 11
86.934700000000007
 21
-1363.3110999999999
 31
0.0
  0
LINE
  5
1657C
  8
0
 10
90.934799999999996
 20
-1333.3110999999999
 30
0.0
 11
92.434799999999996
 21
-1338.6111000000001
 31
0.0
  0
LINE
  5
1657D
  8
0
 10
86.934700000000007
 20
-1363.3110999999999
 30
0.0
 11
94.934700000000007
 21
-1363.3110999999999
 31
0.0
  0
LINE
  5
1657E
  8
0
 10
92.434799999999996
 20
-1338.6111000000001
 30
0.0
 11
92.434799999999996
 21
-1360.5110999999999
 31
0.0
  0
LINE
  5
1657F
  8
0
 10
94.934700000000007
 20
-1363.0110999999999
 30
0.0
 11
94.934700000000007
 21
-1363.3110999999999
 31
0.0
  0
LINE
  5
16580
  8
0
 10
94.934700000000007
 20
-1363.0110999999999
 30
0.0
 11
92.434799999999996
 21
-1360.5110999999999
 31
0.0
  0
LINE
  5
16581
  8
0
 10
354.47359999999998
 20
-1485.163
 30
0.0
 11
332.5736
 21
-1485.163
 31
0.0
  0
LINE
  5
16582
  8
0
 10
330.0736
 20
-1482.6629
 30
0.0
 11
332.5736
 21
-1485.163
 31
0.0
  0
LINE
  5
16583
  8
0
 10
359.77359999999999
 20
-1486.663
 30
0.0
 11
354.47359999999998
 21
-1485.163
 31
0.0
  0
LINE
  5
16584
  8
0
 10
330.0736
 20
-1482.6629
 30
0.0
 11
329.77359999999999
 21
-1482.6629
 31
0.0
  0
LINE
  5
16585
  8
0
 10
359.77359999999999
 20
-1486.663
 30
0.0
 11
354.47359999999998
 21
-1488.163
 31
0.0
  0
LINE
  5
16586
  8
0
 10
329.77359999999999
 20
-1482.6629
 30
0.0
 11
329.77359999999999
 21
-1490.6629
 31
0.0
  0
LINE
  5
16587
  8
0
 10
354.47359999999998
 20
-1488.163
 30
0.0
 11
332.57350000000002
 21
-1488.163
 31
0.0
  0
LINE
  5
16588
  8
0
 10
330.0736
 20
-1490.6629
 30
0.0
 11
329.77359999999999
 21
-1490.6629
 31
0.0
  0
LINE
  5
16589
  8
0
 10
330.0736
 20
-1490.6629
 30
0.0
 11
332.57350000000002
 21
-1488.163
 31
0.0
  0
LINE
  5
1658A
  8
1DIM
 10
84.398200000000003
 20
-1378.2512999999999
 30
0.0
 11
74.093199999999996
 21
-1394.9482
 31
0.0
  0
LINE
  5
1658B
  8
1DIM
 10
74.093199999999996
 20
-1394.9482
 30
0.0
 11
34.526600000000002
 21
-1394.9482
 31
0.0
  0
VIEWPORT
  5
57
 67
     1
  8
0
 10
5.7225006584107403
 20
4.0066664707003623
 30
0.0
 40
12.70516414486376
 41
8.7426062480295741
 68
     1
 69
     1
1001
ACAD
1000
MVIEW
1002
{
1070
    16
1010
0.0
1020
0.0
1030
0.0
1010
0.0
1020
0.0
1030
1.0
1040
0.0
1040
8.7426062480295741
1040
5.7225006584107403
1040
4.0066664707003623
1040
50.0
1040
0.0
1040
0.0
1070
     0
1070
   100
1070
     1
1070
     1
1070
     0
1070
     0
1070
     0
1070
     0
1040
0.0
1040
0.0
1040
0.0
1040
10.0
1040
10.0
1040
10.0
1040
10.0
1070
     0
1002
{
1002
}
1002
}
  0
ENDSEC
  0
EOF
