  0
SECTION
  2
HEADER
  9
$ACADVER
  1
AC1009
  9
$INSBASE
 10
0.0
 20
0.0
 30
0.0
  9
$EXTMIN
 10
-641.66523674335099
 20
-2884.4823204963459
 30
0.0
  9
$EXTMAX
 10
-366.94554831264901
 20
-2694.5013635263708
 30
0.0
  9
$LIMMIN
 10
0.0
 20
0.0
  9
$LIMMAX
 10
420.0
 20
297.0
  9
$ORTHOMODE
 70
     0
  9
$REGENMODE
 70
     1
  9
$FILLMODE
 70
     1
  9
$QTEXTMODE
 70
     0
  9
$MIRRTEXT
 70
     0
  9
$DRAGMODE
 70
     2
  9
$LTSCALE
 40
0.5
  9
$OSMODE
 70
  2173
  9
$ATTMODE
 70
     1
  9
$TEXTSIZE
 40
4.0
  9
$TRACEWID
 40
1.0
  9
$TEXTSTYLE
  7
STANDARD
  9
$CLAYER
  8
1TEXT
  9
$CELTYPE
  6
BYLAYER
  9
$CECOLOR
 62
   256
  9
$DIMSCALE
 40
1.0
  9
$DIMASZ
 40
2.0
  9
$DIMEXO
 40
0.0
  9
$DIMDLI
 40
7.0
  9
$DIMRND
 40
0.0
  9
$DIMDLE
 40
0.0
  9
$DIMEXE
 40
1.0
  9
$DIMTP
 40
0.0
  9
$DIMTM
 40
0.0
  9
$DIMTXT
 40
3.5
  9
$DIMCEN
 40
0.0
  9
$DIMTSZ
 40
0.0
  9
$DIMTOL
 70
     0
  9
$DIMLIM
 70
     0
  9
$DIMTIH
 70
     0
  9
$DIMTOH
 70
     0
  9
$DIMSE1
 70
     0
  9
$DIMSE2
 70
     0
  9
$DIMTAD
 70
     1
  9
$DIMZIN
 70
     8
  9
$DIMBLK
  1

  9
$DIMASO
 70
     1
  9
$DIMSHO
 70
     1
  9
$DIMPOST
  1
 
  9
$DIMAPOST
  1

  9
$DIMALT
 70
     0
  9
$DIMALTD
 70
     2
  9
$DIMALTF
 40
25.399999999999999
  9
$DIMLFAC
 40
1.0
  9
$DIMTOFL
 70
     1
  9
$DIMTVP
 40
0.0
  9
$DIMTIX
 70
     0
  9
$DIMSOXD
 70
     0
  9
$DIMSAH
 70
     1
  9
$DIMBLK1
  1
OPEN30
  9
$DIMBLK2
  1
OPEN30
  9
$DIMSTYLE
  2
NEWX10
  9
$DIMCLRD
 70
   256
  9
$DIMCLRE
 70
   256
  9
$DIMCLRT
 70
   201
  9
$DIMTFAC
 40
0.7
  9
$DIMGAP
 40
0.7
  9
$LUNITS
 70
     2
  9
$LUPREC
 70
     4
  9
$SKETCHINC
 40
1.0
  9
$FILLETRAD
 40
0.5
  9
$AUNITS
 70
     0
  9
$AUPREC
 70
     2
  9
$MENU
  1
acad
  9
$ELEVATION
 40
0.0
  9
$PELEVATION
 40
0.0
  9
$THICKNESS
 40
0.0
  9
$LIMCHECK
 70
     0
  9
$BLIPMODE
 70
     0
  9
$CHAMFERA
 40
10.0
  9
$CHAMFERB
 40
10.0
  9
$SKPOLY
 70
     0
  9
$TDCREATE
 40
2453033.7326634838
  9
$TDUPDATE
 40
2453539.8477086918
  9
$TDINDWG
 40
1.1690332059999999
  9
$TDUSRTIMER
 40
1.1690332059999999
  9
$USRTIMER
 70
     1
  9
$ANGBASE
 50
0.0
  9
$ANGDIR
 70
     0
  9
$PDMODE
 70
     0
  9
$PDSIZE
 40
0.0
  9
$PLINEWID
 40
0.0
  9
$COORDS
 70
     2
  9
$SPLFRAME
 70
     0
  9
$SPLINETYPE
 70
     6
  9
$SPLINESEGS
 70
     8
  9
$ATTDIA
 70
     0
  9
$ATTREQ
 70
     1
  9
$HANDLING
 70
     1
  9
$HANDSEED
  5
11BF7
  9
$SURFTAB1
 70
     6
  9
$SURFTAB2
 70
     6
  9
$SURFTYPE
 70
     6
  9
$SURFU
 70
     6
  9
$SURFV
 70
     6
  9
$UCSNAME
  2

  9
$UCSORG
 10
0.0
 20
0.0
 30
0.0
  9
$UCSXDIR
 10
1.0
 20
0.0
 30
0.0
  9
$UCSYDIR
 10
0.0
 20
1.0
 30
0.0
  9
$PUCSNAME
  2

  9
$PUCSORG
 10
0.0
 20
0.0
 30
0.0
  9
$PUCSXDIR
 10
1.0
 20
0.0
 30
0.0
  9
$PUCSYDIR
 10
0.0
 20
1.0
 30
0.0
  9
$USERI1
 70
     0
  9
$USERI2
 70
     0
  9
$USERI3
 70
     0
  9
$USERI4
 70
     0
  9
$USERI5
 70
     0
  9
$USERR1
 40
0.0
  9
$USERR2
 40
0.0
  9
$USERR3
 40
0.0
  9
$USERR4
 40
0.0
  9
$USERR5
 40
0.0
  9
$WORLDVIEW
 70
     1
  9
$SHADEDGE
 70
     3
  9
$SHADEDIF
 70
    70
  9
$TILEMODE
 70
     1
  9
$MAXACTVP
 70
    48
  9
$PLIMCHECK
 70
     0
  9
$PEXTMIN
 10
1.0000000000000000E+020
 20
1.0000000000000000E+020
 30
1.0000000000000000E+020
  9
$PEXTMAX
 10
-1.0000000000000000E+020
 20
-1.0000000000000000E+020
 30
-1.0000000000000000E+020
  9
$PLIMMIN
 10
0.0
 20
0.0
  9
$PLIMMAX
 10
420.0
 20
297.0
  9
$UNITMODE
 70
     0
  9
$VISRETAIN
 70
     1
  9
$PLINEGEN
 70
     0
  9
$PSLTSCALE
 70
     1
  0
ENDSEC
  0
SECTION
  2
TABLES
  0
TABLE
  2
VPORT
 70
     4
  0
VPORT
  2
*ACTIVE
 70
     0
 10
0.0
 20
0.0
 11
1.0
 21
1.0
 12
-504.3030070685432
 22
-2789.4300934016878
 13
0.0
 23
0.0
 14
10.0
 24
10.0
 15
10.0
 25
10.0
 16
0.0
 26
0.0
 36
1.0
 17
0.0
 27
0.0
 37
0.0
 40
201.93195099839471
 41
1.508086253369272
 42
50.0
 43
0.0
 44
0.0
 50
0.0
 51
0.0
 71
     0
 72
   100
 73
     1
 74
     1
 75
     0
 76
     0
 77
     0
 78
     0
  0
ENDTAB
  0
TABLE
  2
LTYPE
 70
    15
  0
LTYPE
  2
CONTINUOUS
 70
     0
  3
Solid line
 72
    65
 73
     0
 40
0.0
  0
LTYPE
  2
CENTER2
 70
     0
  3
Center (.5x) ___ _ ___ _ ___ _ ___ _ ___ _ ___
 72
    65
 73
     4
 40
28.574999999999999
 49
19.050000000000001
 49
-3.1749999999999989
 49
3.1749999999999989
 49
-3.1749999999999989
  0
LTYPE
  2
XREF1|CENTER2
 70
    48
  3
Center (.5x) ___ _ ___ _ ___ _ ___ _ ___ _ ___
 72
    65
 73
     4
 40
28.574999999999999
 49
19.050000000000001
 49
-3.1749999999999989
 49
3.1749999999999989
 49
-3.1749999999999989
  0
LTYPE
  2
PHANTOM2
 70
     0
  3
Phantom (.5x) ___ _ _ ___ _ _ ___ _ _ ___ _ _
 72
    65
 73
     6
 40
31.75
 49
15.875
 49
-3.1749999999999989
 49
3.1749999999999989
 49
-3.1749999999999989
 49
3.1749999999999989
 49
-3.1749999999999989
  0
LTYPE
  2
A3WAKUDAKE|CENTER2
 70
    48
  3
Center (.5x) ___ _ ___ _ ___ _ ___ _ ___ _ ___
 72
    65
 73
     4
 40
28.574999999999999
 49
19.050000000000001
 49
-3.1749999999999989
 49
3.1749999999999989
 49
-3.1749999999999989
  0
ENDTAB
  0
TABLE
  2
LAYER
 70
    45
  0
LAYER
  2
0
 70
     0
 62
     7
  6
CONTINUOUS
  0
LAYER
  2
1CENTER
 70
     0
 62
     7
  6
CENTER2
  0
LAYER
  2
1TEXT
 70
     0
 62
     7
  6
CONTINUOUS
  0
LAYER
  2
1DIM
 70
     0
 62
     7
  6
CONTINUOUS
  0
LAYER
  2
1PHANTOM
 70
     0
 62
     7
  6
PHANTOM2
  0
LAYER
  2
01
 70
     0
 62
     1
  6
CONTINUOUS
  0
LAYER
  2
1DIM1
 70
     0
 62
     7
  6
CONTINUOUS
  0
LAYER
  2
1HATCH
 70
     0
 62
     7
  6
CONTINUOUS
  0
LAYER
  2
XREF1|1CENTER
 70
    48
 62
     7
  6
XREF1|CENTER2
  0
LAYER
  2
A3WAKUDAKE|THICK
 70
    48
 62
     7
  6
CONTINUOUS
  0
LAYER
  2
A3WAKUDAKE|POINT
 70
    48
 62
     7
  6
CONTINUOUS
  0
LAYER
  2
A3WAKUDAKE|1CENTER
 70
    48
 62
     7
  6
A3WAKUDAKE|CENTER2
  0
LAYER
  2
A3WAKUDAKE|0-6
 70
    48
 62
     7
  6
CONTINUOUS
  0
LAYER
  2
A3WAKUDAKE|1DIM
 70
    48
 62
     7
  6
CONTINUOUS
  0
ENDTAB
  0
TABLE
  2
STYLE
 70
    22
  0
STYLE
  2
STANDARD
 70
     0
 40
0.0
 41
1.0
 50
0.0
 71
     0
 42
4.0
  3
txt.shx
  4
extfont.shx
  0
ENDTAB
  0
TABLE
  2
VIEW
 70
     0
  0
ENDTAB
  0
TABLE
  2
UCS
 70
     0
  0
ENDTAB
  0
TABLE
  2
APPID
 70
     9
  0
APPID
  2
ACAD
 70
     0
  0
APPID
  2
DRAWINGVARIABLESXDATA
 70
     0
  0
APPID
  2
CONTENTTABDATA
 70
     0
  0
APPID
  2
CONTENTCURRENTTAB
 70
     0
  0
APPID
  2
CONTENTBLOCKDESCRIPTION
 70
     0
  0
APPID
  2
CONTENTBLOCKICON
 70
     0
  0
APPID
  2
CONTENTLONGBLOCKNAME
 70
     0
  0
APPID
  2
ACAD_PSEXT
 70
     0
  0
APPID
  2
ACAD_DSTYLE_DIMTEXT_FILL
 70
     0
  0
ENDTAB
  0
TABLE
  2
DIMSTYLE
 70
     9
  0
DIMSTYLE
  2
NEWX10
 70
     0
  3
 
  4

  5

  6
OPEN30
  7
OPEN30
 40
1.0
 41
2.0
 42
0.0
 43
7.0
 44
1.0
 45
0.0
 46
0.0
 47
0.0
 48
0.0
140
3.5
141
0.0
142
0.0
143
25.399999999999999
144
1.0
145
0.0
146
0.7
147
0.7
 71
     0
 72
     0
 73
     0
 74
     0
 75
     0
 76
     0
 77
     1
 78
     8
170
     0
171
     2
172
     1
173
     1
174
     0
175
     0
176
   256
177
   256
178
   201
  0
ENDTAB
  0
ENDSEC
  0
SECTION
  2
BLOCKS
  0
BLOCK
  8
0
  2
$MODEL_SPACE
 70
     0
 10
0.0
 20
0.0
 30
0.0
  3
$MODEL_SPACE
  1

  0
ENDBLK
  5
1A
  8
0
  0
BLOCK
 67
     1
  8
0
  2
$PAPER_SPACE
 70
     0
 10
0.0
 20
0.0
 30
0.0
  3
$PAPER_SPACE
  1

  0
ENDBLK
  5
17
 67
     1
  8
0
  0
BLOCK
  8
0
  2
_OPEN30
 70
     0
 10
0.0
 20
0.0
 30
0.0
  3
_OPEN30
  1

  0
LINE
  5
44
  8
0
  6
BYBLOCK
 62
     0
 10
-1.0
 20
0.26794919
 30
0.0
 11
0.0
 21
0.0
 31
0.0
  0
LINE
  5
45
  8
0
  6
BYBLOCK
 62
     0
 10
0.0
 20
0.0
 30
0.0
 11
-1.0
 21
-0.26794919
 31
0.0
  0
LINE
  5
46
  8
0
  6
BYBLOCK
 62
     0
 10
0.0
 20
0.0
 30
0.0
 11
-1.0
 21
0.0
 31
0.0
  0
ENDBLK
  5
47
  8
0
  0
BLOCK
  8
0
  2
XREF1
 70
    36
 10
0.0
 20
0.0
 30
0.0
  3
XREF1
  1
D:\ACLT\FORMAT\KAWAJUN(9)図面用.dwg
  0
ENDBLK
  5
5D
  8
0
  0
BLOCK
  8
0
  2
A3WAKUDAKE
 70
    36
 10
0.0
 20
0.0
 30
0.0
  3
A3WAKUDAKE
  1
D:\ACLT\FORMAT\A3WAKUdake.dwg
  0
ENDBLK
  5
6DC
  8
0
  0
BLOCK
  8
0
  2
*U17
 70
     1
 10
0.0
 20
0.0
 30
0.0
  3
*U17
  1

  0
LINE
  5
11B19
  8
0
 10
-24.70000348997651
 20
-1.4999534641020771
 30
0.0
 11
-2.8000383918526941
 21
-1.4999534641020771
 31
0.0
  0
LINE
  5
11B1A
  8
0
 10
-0.3000093071805736
 20
-4.0
 30
0.0
 11
-2.8000383918526941
 21
-1.4999534641020771
 31
0.0
  0
LINE
  5
11B1B
  8
0
 10
-29.999999999837598
 20
0.0000465358979227
 30
0.0
 11
-24.70000348997651
 21
-1.4999534641020771
 31
0.0
  0
LINE
  5
11B1C
  8
0
 10
-0.3000093071805736
 20
-4.0
 30
0.0
 11
-0.0000093071795959
 21
-4.0
 31
0.0
  0
LINE
  5
11B1D
  8
0
 10
-29.999999999837598
 20
0.0000465358979227
 30
0.0
 11
-24.69999650959226
 21
1.500046535897922
 31
0.0
  0
LINE
  5
11B1E
  8
0
 10
-0.0000093071795959
 20
-4.0
 30
0.0
 11
0.0000093071795959
 21
4.0
 31
0.0
  0
LINE
  5
11B1F
  8
0
 10
-24.69999650959226
 20
1.500046535897922
 30
0.0
 11
-2.7999732414874918
 21
1.500046535897922
 31
0.0
  0
LINE
  5
11B20
  8
0
 10
-0.2999906928214955
 20
4.0
 30
0.0
 11
0.0000093071795959
 21
4.0
 31
0.0
  0
LINE
  5
11B21
  8
0
 10
-0.2999906928214955
 20
4.0
 30
0.0
 11
-2.7999732414874918
 21
1.500046535897922
 31
0.0
  0
ENDBLK
  5
11B23
  8
0
  0
BLOCK
  8
0
  2
*U18
 70
     1
 10
0.0
 20
0.0
 30
0.0
  3
*U18
  1

  0
LINE
  5
11B25
  8
0
 10
-29.999999999837598
 20
0.0000465358979227
 30
0.0
 11
-24.700003489975941
 21
-1.4999534641020771
 31
0.0
  0
LINE
  5
11B26
  8
0
 10
-24.700003489975941
 20
-1.4999534641020771
 30
0.0
 11
-0.0000034900840618
 21
-1.499953464101849
 31
0.0
  0
LINE
  5
11B27
  8
0
 10
-29.999999999837598
 20
0.0000465358979227
 30
0.0
 11
-24.6999965095923
 21
1.5000465358980359
 31
0.0
  0
LINE
  5
11B28
  8
0
 10
-0.0000081437821464
 20
-3.4999999999998859
 30
0.0
 11
-0.0000034900840618
 21
-1.499953464101849
 31
0.0
  0
LINE
  5
11B29
  8
0
 10
-24.6999965095923
 20
1.5000465358980359
 30
0.0
 11
0.0000034903006139
 21
1.500046535897922
 31
0.0
  0
LINE
  5
11B2A
  8
0
 10
-0.0000081437821464
 20
-3.4999999999998859
 30
0.0
 11
1.0999953464131731
 21
-3.5
 31
0.0
  0
LINE
  5
11B2B
  8
0
 10
0.0000034903006139
 20
1.500046535897922
 30
0.0
 11
0.0000081437821322
 21
3.5
 31
0.0
  0
ARC
  5
11B2C
  8
0
 10
1.0999953464131731
 20
-2.0
 30
0.0
 40
1.5
 50
270.0
 51
359.99986668447059
  0
LINE
  5
11B2D
  8
0
 10
0.0000081437821322
 20
3.5
 30
0.0
 11
1.100004653592769
 21
3.5
 31
0.0
  0
LINE
  5
11B2E
  8
0
 10
2.5999953464091159
 20
-2.0000034901923982
 30
0.0
 11
2.6000046535887051
 21
1.9999965098076009
 31
0.0
  0
ARC
  5
11B2F
  8
0
 10
1.100004653592769
 20
2.0
 30
0.0
 40
1.5
 50
359.99986668447059
 51
90.0
  0
ENDBLK
  5
11B31
  8
0
  0
BLOCK
  8
0
  2
*U19
 70
     1
 10
0.0
 20
0.0
 30
0.0
  3
*U19
  1

  0
LINE
  5
11B33
  8
0
 10
-7.9999999999999991
 20
2.5
 30
0.0
 11
-7.9999978000002088
 21
2.4999999999999432
 31
0.0
  0
LINE
  5
11B34
  8
0
 10
-7.9999999999999991
 20
-2.4999999999999432
 30
0.0
 11
-7.9999999999999991
 21
2.5
 31
0.0
  0
LINE
  5
11B35
  8
0
 10
-7.9999978000002088
 20
2.4999999999999432
 30
0.0
 11
-7.4999979000001629
 21
3.0
 31
0.0
  0
LINE
  5
11B36
  8
0
 10
-8.0000021000010921
 20
-2.4999999999999432
 30
0.0
 11
-7.9999999999999991
 21
-2.4999999999999432
 31
0.0
  0
LINE
  5
11B37
  8
0
 10
-7.4999979000001629
 20
3.0
 30
0.0
 11
-1.999998199999983
 21
3.0
 31
0.0
  0
LINE
  5
11B38
  8
0
 10
-7.5000018999986429
 20
-3.000000000000056
 30
0.0
 11
-8.0000021000010921
 21
-2.4999999999999432
 31
0.0
  0
LINE
  5
11B39
  8
0
 10
-1.999998199999983
 20
3.0
 30
0.0
 11
-1.49999999999998
 21
2.0
 31
0.0
  0
LINE
  5
11B3A
  8
0
 10
-1.999998199999959
 20
-2.9999999999999432
 30
0.0
 11
-7.5000018999986429
 21
-3.000000000000056
 31
0.0
  0
LINE
  5
11B3B
  8
0
 10
-1.49999999999998
 20
2.0
 30
0.0
 11
-0.5000000000000004
 21
2.0
 31
0.0
  0
LINE
  5
11B3C
  8
0
 10
-1.50000000000001
 20
-2.0
 30
0.0
 11
-1.999998199999959
 21
-2.9999999999999432
 31
0.0
  0
ARC
  5
11B3D
  8
0
 10
-0.5000000000000006
 20
1.5
 30
0.0
 40
0.5000000000000004
 50
0.0
 51
90.0
  0
LINE
  5
11B3E
  8
0
 10
-0.5
 20
-2.0
 30
0.0
 11
-1.50000000000001
 21
-2.0
 31
0.0
  0
LINE
  5
11B3F
  8
0
 10
-0.0000000000000001
 20
1.5
 30
0.0
 11
-0.0000000000000001
 21
-1.5
 31
0.0
  0
ARC
  5
11B40
  8
0
 10
-0.5
 20
-1.5
 30
0.0
 40
0.5
 50
270.0
 51
0.0
  0
ENDBLK
  5
11B42
  8
0
  0
BLOCK
  8
0
  2
*U20
 70
     1
 10
0.0
 20
0.0
 30
0.0
  3
*U20
  1

  0
LINE
  5
11B44
  8
1HATCH
 10
-1.5
 20
2.000000000000056
 30
0.0
 11
-1.7499990999999879
 21
2.5
 31
0.0
  0
LINE
  5
11B45
  8
1HATCH
 10
-1.7499990999999879
 20
2.5
 30
0.0
 11
-7.999997800000223
 21
2.5
 31
0.0
  0
LINE
  5
11B46
  8
1HATCH
 10
-1.5
 20
-2.000000000000056
 30
0.0
 11
-1.5
 21
2.000000000000056
 31
0.0
  0
LINE
  5
11B47
  8
1HATCH
 10
-7.999997800000223
 20
2.5
 30
0.0
 11
-7.9999999999999991
 21
2.4999977999997318
 31
0.0
  0
LINE
  5
11B48
  8
1HATCH
 10
-1.749999099999981
 20
-2.5
 30
0.0
 11
-1.5
 21
-2.000000000000056
 31
0.0
  0
LINE
  5
11B49
  8
1HATCH
 10
-7.9999999999999991
 20
2.4999977999997318
 30
0.0
 11
-7.9999999999999991
 21
-2.5
 31
0.0
  0
LINE
  5
11B4A
  8
1HATCH
 10
-7.9999999999999991
 20
-2.5
 30
0.0
 11
-1.749999099999981
 21
-2.5
 31
0.0
  0
ENDBLK
  5
11B4C
  8
0
  0
BLOCK
  8
0
  2
*U21
 70
     1
 10
0.0
 20
0.0
 30
0.0
  3
*U21
  1

  0
LINE
  5
11B4E
  8
1HATCH
 10
-1.9999981999999989
 20
3.000000000000056
 30
0.0
 11
-7.4999979000001362
 21
3.0
 31
0.0
  0
LINE
  5
11B4F
  8
1HATCH
 10
-7.4999979000001362
 20
3.0
 30
0.0
 11
-7.999997800000143
 21
2.5
 31
0.0
  0
LINE
  5
11B50
  8
1HATCH
 10
-1.749999099999983
 20
2.5
 30
0.0
 11
-1.9999981999999989
 21
3.000000000000056
 31
0.0
  0
LINE
  5
11B51
  8
1HATCH
 10
-7.999997800000143
 20
2.5
 30
0.0
 11
-1.749999099999983
 21
2.5
 31
0.0
  0
ENDBLK
  5
11B53
  8
0
  0
BLOCK
  8
0
  2
*U22
 70
     1
 10
0.0
 20
0.0
 30
0.0
  3
*U22
  1

  0
ARC
  5
11B55
  8
1HATCH
 10
-0.5000000000000002
 20
1.5
 30
0.0
 40
0.5000000000000002
 50
0.0
 51
90.000000000000028
  0
LINE
  5
11B56
  8
1HATCH
 10
-0.5000000000000004
 20
2.0
 30
0.0
 11
-1.5
 21
2.0
 31
0.0
  0
LINE
  5
11B57
  8
1HATCH
 10
0.0
 20
-1.5
 30
0.0
 11
0.0
 21
1.5
 31
0.0
  0
LINE
  5
11B58
  8
1HATCH
 10
-1.5
 20
2.0
 30
0.0
 11
-1.5
 21
-2.0
 31
0.0
  0
ARC
  5
11B59
  8
1HATCH
 10
-0.5
 20
-1.5
 30
0.0
 40
0.5
 50
270.0
 51
0.0
  0
LINE
  5
11B5A
  8
1HATCH
 10
-1.5
 20
-2.0
 30
0.0
 11
-0.5
 21
-2.0
 31
0.0
  0
ENDBLK
  5
11B5C
  8
0
  0
BLOCK
  8
0
  2
*U23
 70
     1
 10
0.0
 20
0.0
 30
0.0
  3
*U23
  1

  0
TEXT
  5
11B5E
  8
1DIM
 62
   201
 10
-438.86223617277881
 20
-2789.7623205044438
 30
0.0
 40
3.5
  1
56 
  0
ENDBLK
  5
11B60
  8
0
  0
BLOCK
  8
0
  2
*U24
 70
     1
 10
0.0
 20
0.0
 30
0.0
  3
*U24
  1

  0
TEXT
  5
11B62
  8
1DIM
 62
   201
 10
-368.64554831264849
 20
-2810.7847452188112
 30
0.0
 40
3.5
  1
16 
 50
90.0
  0
ENDBLK
  5
11B64
  8
0
  0
BLOCK
  8
0
  2
*U25
 70
     1
 10
0.0
 20
0.0
 30
0.0
  3
*U25
  1

  0
TEXT
  5
11B66
  8
1DIM
 62
   201
 10
-368.64554831264849
 20
-2827.795653777418
 30
0.0
 40
3.5
  1
18 
 50
90.0
  0
ENDBLK
  5
11B68
  8
0
  0
BLOCK
  8
0
  2
*U26
 70
     1
 10
0.0
 20
0.0
 30
0.0
  3
*U26
  1

  0
TEXT
  5
11B6A
  8
1DIM
 62
   201
 10
-419.27888164598221
 20
-2859.784137665823
 30
0.0
 40
3.5
  1
18 
  0
ENDBLK
  5
11B6C
  8
0
  0
BLOCK
  8
0
  2
*U27
 70
     1
 10
0.0
 20
0.0
 30
0.0
  3
*U27
  1

  0
TEXT
  5
11B6E
  8
1DIM
 62
   201
 10
-484.64559069957528
 20
-2830.5662940833822
 30
0.0
 40
3.5
  1
φ50
 50
90.0
  0
ENDBLK
  5
11B70
  8
0
  0
BLOCK
  8
0
  2
*U28
 70
     1
 10
0.0
 20
0.0
 30
0.0
  3
*U28
  1

  0
TEXT
  5
11B72
  8
1DIM
 62
   201
 10
-474.64559069957488
 20
-2830.8579607500478
 30
0.0
 40
3.5
  1
φ26
 50
90.0
  0
ENDBLK
  5
11B74
  8
0
  0
ENDSEC
  0
SECTION
  2
ENTITIES
  0
LINE
  5
114FF
  8
01
 10
-398.9455483126489
 20
-2785.4623204963459
 30
0.0
 11
-398.9455483126489
 21
-2865.4623204963459
 31
0.0
  0
LINE
  5
11500
  8
01
 10
-389.94554831264878
 20
-2785.4623204963459
 30
0.0
 11
-389.9455483126489
 21
-2865.4623204963459
 31
0.0
  0
LINE
  5
11501
  8
01
 10
-407.9455483126489
 20
-2785.4623204963459
 30
0.0
 11
-407.9455483126489
 21
-2865.4623204963459
 31
0.0
  0
LINE
  5
11531
  8
01
 10
-563.96740786905218
 20
-2724.4622781175171
 30
0.0
 11
-513.92377353009852
 21
-2724.4622781175171
 31
0.0
  0
LINE
  5
11534
  8
01
 10
-513.94559069957529
 20
-2726.9622781175171
 30
0.0
 11
-513.92377353009852
 21
-2724.4622781175171
 31
0.0
  0
LINE
  5
11549
  8
01
 10
-563.94559069957529
 20
-2726.9622781175171
 30
0.0
 11
-563.96740786905218
 21
-2724.4622781175171
 31
0.0
  0
LINE
  5
11550
  8
01
 10
-515.8056758436727
 20
-2729.4622781175181
 30
0.0
 11
-562.08550555547879
 21
-2729.4622781174771
 31
0.0
  0
ARC
  5
11553
  8
01
 10
-562.08550555547845
 20
-2728.9622781175181
 30
0.0
 40
0.5
 50
212.37585126255999
 51
269.99999999994787
  0
ARC
  5
11554
  8
01
 10
-561.8150944369637
 20
-2729.7622781175169
 30
0.0
 40
0.3
 50
89.999999999947875
 51
212.37585126255721
  0
ARC
  5
11556
  8
01
 10
-515.80567584367247
 20
-2728.9622781175181
 30
0.0
 40
0.5
 50
269.99999999994787
 51
327.62414873744279
  0
ARC
  5
11557
  8
01
 10
-516.07608696218733
 20
-2729.7622781175169
 30
0.0
 40
0.3
 50
327.62414873744279
 51
89.999999999947875
  0
LINE
  5
11558
  8
01
 10
-562.50778239952524
 20
-2729.2300135596702
 30
0.0
 11
-563.94559069957529
 21
-2726.9622781175221
 31
0.0
  0
LINE
  5
11559
  8
01
 10
-515.38339899962557
 20
-2729.2300135596711
 30
0.0
 11
-513.94559069957529
 21
-2726.9622781175231
 31
0.0
  0
LINE
  5
1155A
  8
01
 10
-549.82723712367851
 20
-2749.2299829205372
 30
0.0
 11
-562.06846054339246
 21
-2729.9229193828101
 31
0.0
  0
LINE
  5
1155B
  8
01
 10
-528.06403685638315
 20
-2749.2301289407069
 30
0.0
 11
-515.82272085575823
 21
-2729.9229193828101
 31
0.0
  0
LINE
  5
1155D
  8
1DIM
 10
-438.94554831265481
 20
-2870.482320496345
 30
0.0
 11
-368.94554831265469
 21
-2870.482320496345
 31
0.0
  0
LINE
  5
1155E
  8
1DIM
 10
-438.94554831265481
 20
-2884.4823204963459
 30
0.0
 11
-368.94554831265469
 21
-2884.4823204963459
 31
0.0
  0
LINE
  5
1155F
  8
1DIM
 10
-438.94554831265481
 20
-2877.4823204963459
 30
0.0
 11
-368.94554831265469
 21
-2877.4823204963459
 31
0.0
  0
LINE
  5
11560
  8
1DIM
 10
-403.94554831265481
 20
-2870.482320496345
 30
0.0
 11
-403.94554831265481
 21
-2884.4823204963459
 31
0.0
  0
LINE
  5
11561
  8
1DIM
 10
-438.94554831265481
 20
-2884.4823204963459
 30
0.0
 11
-438.94554831265481
 21
-2870.482320496345
 31
0.0
  0
LINE
  5
11562
  8
1DIM
 10
-368.94554831265469
 20
-2884.4823204963459
 30
0.0
 11
-368.94554831265469
 21
-2870.482320496345
 31
0.0
  0
TEXT
  5
11563
  8
1TEXT
 10
-430.87888164598797
 20
-2882.9823204963459
 30
0.0
 40
4.0
  1
クローム
 72
     1
 11
-421.54554831265477
 21
-2882.9823204963459
 31
0.0
  0
TEXT
  5
11564
  8
1TEXT
 10
-401.21221497932129
 20
-2882.9823204963459
 30
0.0
 40
4.0
  1
SA026XC0
 72
     1
 11
-386.54554831265472
 21
-2882.9823204963459
 31
0.0
  0
TEXT
  5
11565
  8
1TEXT
 10
-432.19316736027378
 20
-2875.9823204963459
 30
0.0
 40
4.0
  1
表面処理：
 72
     1
 11
-421.54554831265477
 21
-2875.9823204963459
 31
0.0
  0
TEXT
  5
11566
  8
1TEXT
 10
-393.34554831265473
 20
-2875.9823204963459
 30
0.0
 40
4.0
  1
コード
 72
     1
 11
-386.54554831265472
 21
-2875.9823204963459
 31
0.0
  0
LINE
  5
11567
  8
01
 10
-563.94559069957529
 20
-2726.9622781175221
 30
0.0
 11
-513.94559069957529
 21
-2726.9622781175231
 31
0.0
  0
LINE
  5
115BD
  8
01
 10
-551.59533763371292
 20
-2769.462320489587
 30
0.0
 11
-526.29711634531805
 21
-2769.4623204895852
 31
0.0
  0
LINE
  5
115BE
  8
01
 10
-544.44563634806025
 20
-2755.4622978032999
 30
0.0
 11
-544.44563634807116
 21
-2768.4623204895861
 31
0.0
  0
LINE
  5
115C1
  8
01
 10
-533.44563634833321
 20
-2755.4623693515741
 30
0.0
 11
-533.44563634832957
 21
-2768.4623658617161
 31
0.0
  0
ARC
  5
115C2
  8
01
 10
-538.94622698951582
 20
-2766.9623205044441
 30
0.0
 40
13.5
 50
193.342363729791
 51
346.65763627021892
  0
ARC
  5
115C3
  8
01
 10
-529.12984269352819
 20
-2749.9623204889972
 30
0.0
 40
0.5
 50
326.31045900258732
 51
90.0
  0
LINE
  5
115C4
  8
01
 10
-528.71381499761992
 20
-2750.2396667639759
 30
0.0
 11
-531.38044520223411
 21
-2754.2396917146139
 31
0.0
  0
ARC
  5
115C5
  8
01
 10
-548.7613339841447
 20
-2749.9622519711688
 30
0.0
 40
0.5
 50
89.999600053737495
 51
213.6899444630063
  0
LINE
  5
115C6
  8
01
 10
-546.51067642560145
 20
-2754.2396447427482
 30
0.0
 11
-549.17735972702212
 21
-2750.239601175726
 31
0.0
  0
ARC
  5
115C9
  8
01
 10
-545.44563634807139
 20
-2768.4623204895829
 30
0.0
 40
1.0
 50
270.0
 51
0.0
  0
ARC
  5
115CA
  8
01
 10
-532.44563634832969
 20
-2768.462365861712
 30
0.0
 40
1.0
 50
180.0
 51
269.99960005332059
  0
ARC
  5
115CB
  8
01
 10
-532.44573068337934
 20
-2755.4623431737082
 30
0.0
 40
1.0
 50
89.999800034372583
 51
180.0
  0
LINE
  5
115CC
  8
01
 10
-531.7964746431669
 20
-2754.462345439636
 30
0.0
 11
-546.09465242775332
 21
-2754.4622955381919
 31
0.0
  0
ARC
  5
115CE
  8
01
 10
-546.09465068272766
 20
-2753.9622955381919
 30
0.0
 40
0.5
 50
213.6899444630063
 51
269.99980003478947
  0
ARC
  5
115CF
  8
01
 10
-531.79647289813875
 20
-2753.9623454396378
 30
0.0
 40
0.5
 50
269.99980003451589
 51
326.31045900269743
  0
ARC
  5
115D0
  8
01
 10
-545.44563634806048
 20
-2755.4622978032962
 30
0.0
 40
1.0
 50
0.0
 51
89.999800034581057
  0
LINE
  5
115D1
  8
01
 10
-528.48631719061939
 20
-2749.462393498543
 30
0.0
 11
-549.40496376982583
 21
-2749.4622474783741
 31
0.0
  0
ARC
  5
115DC
  8
01
 10
-528.48631370042767
 20
-2748.9623934985548
 30
0.0
 40
0.5
 50
269.99960005350238
 51
327.62414873744552
  0
ARC
  5
115DD
  8
01
 10
-549.40496027963411
 20
-2748.962247478386
 30
0.0
 40
0.5
 50
212.37585126255459
 51
269.99960005350232
  0
CIRCLE
  5
115EF
  8
01
 10
-538.94559069957529
 20
-2825.4623204963459
 30
0.0
 40
23.169503737387291
  0
POLYLINE
  5
115F2
  8
01
 10
-540.71656043778432
 20
-2838.4922671815098
 30
0.0
 66
     1
 70
     8
  0
VERTEX
  8
01
  5
11B75
 10
-540.717
 20
-2838.49
 30
0.000000
  70
    32
  0
VERTEX
  8
01
  5
11B76
 10
-540.838
 20
-2838.54
 30
0.000000
  70
    32
  0
VERTEX
  8
01
  5
11B77
 10
-540.957
 20
-2838.60
 30
0.000000
  70
    32
  0
VERTEX
  8
01
  5
11B78
 10
-541.072
 20
-2838.65
 30
0.000000
  70
    32
  0
VERTEX
  8
01
  5
11B79
 10
-541.184
 20
-2838.71
 30
0.000000
  70
    32
  0
VERTEX
  8
01
  5
11B7A
 10
-541.291
 20
-2838.77
 30
0.000000
  70
    32
  0
VERTEX
  8
01
  5
11B7B
 10
-541.395
 20
-2838.84
 30
0.000000
  70
    32
  0
VERTEX
  8
01
  5
11B7C
 10
-541.495
 20
-2838.91
 30
0.000000
  70
    32
  0
VERTEX
  8
01
  5
11B7D
 10
-541.591
 20
-2838.98
 30
0.000000
  70
    32
  0
VERTEX
  8
01
  5
11B7E
 10
-541.682
 20
-2839.05
 30
0.000000
  70
    32
  0
VERTEX
  8
01
  5
11B7F
 10
-541.769
 20
-2839.13
 30
0.000000
  70
    32
  0
VERTEX
  8
01
  5
11B80
 10
-541.851
 20
-2839.21
 30
0.000000
  70
    32
  0
VERTEX
  8
01
  5
11B81
 10
-541.928
 20
-2839.29
 30
0.000000
  70
    32
  0
VERTEX
  8
01
  5
11B82
 10
-542.000
 20
-2839.37
 30
0.000000
  70
    32
  0
VERTEX
  8
01
  5
11B83
 10
-542.068
 20
-2839.45
 30
0.000000
  70
    32
  0
VERTEX
  8
01
  5
11B84
 10
-542.129
 20
-2839.54
 30
0.000000
  70
    32
  0
VERTEX
  8
01
  5
11B85
 10
-542.186
 20
-2839.63
 30
0.000000
  70
    32
  0
VERTEX
  8
01
  5
11B86
 10
-542.237
 20
-2839.72
 30
0.000000
  70
    32
  0
VERTEX
  8
01
  5
11B87
 10
-542.283
 20
-2839.81
 30
0.000000
  70
    32
  0
VERTEX
  8
01
  5
11B88
 10
-542.323
 20
-2839.90
 30
0.000000
  70
    32
  0
VERTEX
  8
01
  5
11B89
 10
-542.358
 20
-2839.99
 30
0.000000
  70
    32
  0
VERTEX
  8
01
  5
11B8A
 10
-542.387
 20
-2840.08
 30
0.000000
  70
    32
  0
VERTEX
  8
01
  5
11B8B
 10
-542.410
 20
-2840.18
 30
0.000000
  70
    32
  0
VERTEX
  8
01
  5
11B8C
 10
-542.427
 20
-2840.27
 30
0.000000
  70
    32
  0
VERTEX
  8
01
  5
11B8D
 10
-542.439
 20
-2840.37
 30
0.000000
  70
    32
  0
VERTEX
  8
01
  5
11B8E
 10
-542.445
 20
-2840.46
 30
0.000000
  70
    32
  0
VERTEX
  8
01
  5
11B8F
 10
-542.445
 20
-2840.56
 30
0.000000
  70
    32
  0
VERTEX
  8
01
  5
11B90
 10
-542.439
 20
-2840.66
 30
0.000000
  70
    32
  0
VERTEX
  8
01
  5
11B91
 10
-542.427
 20
-2840.75
 30
0.000000
  70
    32
  0
VERTEX
  8
01
  5
11B92
 10
-542.410
 20
-2840.85
 30
0.000000
  70
    32
  0
VERTEX
  8
01
  5
11B93
 10
-542.387
 20
-2840.94
 30
0.000000
  70
    32
  0
VERTEX
  8
01
  5
11B94
 10
-542.358
 20
-2841.03
 30
0.000000
  70
    32
  0
VERTEX
  8
01
  5
11B95
 10
-542.323
 20
-2841.13
 30
0.000000
  70
    32
  0
VERTEX
  8
01
  5
11B96
 10
-542.283
 20
-2841.22
 30
0.000000
  70
    32
  0
VERTEX
  8
01
  5
11B97
 10
-542.237
 20
-2841.31
 30
0.000000
  70
    32
  0
VERTEX
  8
01
  5
11B98
 10
-542.186
 20
-2841.40
 30
0.000000
  70
    32
  0
VERTEX
  8
01
  5
11B99
 10
-542.129
 20
-2841.49
 30
0.000000
  70
    32
  0
VERTEX
  8
01
  5
11B9A
 10
-542.067
 20
-2841.57
 30
0.000000
  70
    32
  0
VERTEX
  8
01
  5
11B9B
 10
-542.000
 20
-2841.66
 30
0.000000
  70
    32
  0
VERTEX
  8
01
  5
11B9C
 10
-541.928
 20
-2841.74
 30
0.000000
  70
    32
  0
VERTEX
  8
01
  5
11B9D
 10
-541.851
 20
-2841.82
 30
0.000000
  70
    32
  0
VERTEX
  8
01
  5
11B9E
 10
-541.769
 20
-2841.90
 30
0.000000
  70
    32
  0
VERTEX
  8
01
  5
11B9F
 10
-541.682
 20
-2841.97
 30
0.000000
  70
    32
  0
VERTEX
  8
01
  5
11BA0
 10
-541.591
 20
-2842.05
 30
0.000000
  70
    32
  0
VERTEX
  8
01
  5
11BA1
 10
-541.495
 20
-2842.12
 30
0.000000
  70
    32
  0
VERTEX
  8
01
  5
11BA2
 10
-541.395
 20
-2842.18
 30
0.000000
  70
    32
  0
VERTEX
  8
01
  5
11BA3
 10
-541.291
 20
-2842.25
 30
0.000000
  70
    32
  0
VERTEX
  8
01
  5
11BA4
 10
-541.183
 20
-2842.31
 30
0.000000
  70
    32
  0
VERTEX
  8
01
  5
11BA5
 10
-541.071
 20
-2842.37
 30
0.000000
  70
    32
  0
VERTEX
  8
01
  5
11BA6
 10
-540.956
 20
-2842.43
 30
0.000000
  70
    32
  0
VERTEX
  8
01
  5
11BA7
 10
-540.838
 20
-2842.48
 30
0.000000
  70
    32
  0
VERTEX
  8
01
  5
11BA8
 10
-540.716
 20
-2842.53
 30
0.000000
  70
    32
  0
VERTEX
  8
01
  5
11BA9
 10
-540.591
 20
-2842.58
 30
0.000000
  70
    32
  0
VERTEX
  8
01
  5
11BAA
 10
-540.464
 20
-2842.62
 30
0.000000
  70
    32
  0
VERTEX
  8
01
  5
11BAB
 10
-540.334
 20
-2842.66
 30
0.000000
  70
    32
  0
VERTEX
  8
01
  5
11BAC
 10
-540.202
 20
-2842.70
 30
0.000000
  70
    32
  0
VERTEX
  8
01
  5
11BAD
 10
-540.068
 20
-2842.73
 30
0.000000
  70
    32
  0
VERTEX
  8
01
  5
11BAE
 10
-539.932
 20
-2842.76
 30
0.000000
  70
    32
  0
VERTEX
  8
01
  5
11BAF
 10
-539.794
 20
-2842.78
 30
0.000000
  70
    32
  0
VERTEX
  8
01
  5
11BB0
 10
-539.655
 20
-2842.81
 30
0.000000
  70
    32
  0
VERTEX
  8
01
  5
11BB1
 10
-539.514
 20
-2842.82
 30
0.000000
  70
    32
  0
VERTEX
  8
01
  5
11BB2
 10
-539.373
 20
-2842.84
 30
0.000000
  70
    32
  0
VERTEX
  8
01
  5
11BB3
 10
-539.231
 20
-2842.85
 30
0.000000
  70
    32
  0
VERTEX
  8
01
  5
11BB4
 10
-539.088
 20
-2842.85
 30
0.000000
  70
    32
  0
VERTEX
  8
01
  5
11BB5
 10
-538.946
 20
-2842.85
 30
0.000000
  70
    32
  0
VERTEX
  8
01
  5
11BB6
 10
-538.803
 20
-2842.85
 30
0.000000
  70
    32
  0
VERTEX
  8
01
  5
11BB7
 10
-538.660
 20
-2842.85
 30
0.000000
  70
    32
  0
VERTEX
  8
01
  5
11BB8
 10
-538.518
 20
-2842.84
 30
0.000000
  70
    32
  0
VERTEX
  8
01
  5
11BB9
 10
-538.377
 20
-2842.82
 30
0.000000
  70
    32
  0
VERTEX
  8
01
  5
11BBA
 10
-538.237
 20
-2842.81
 30
0.000000
  70
    32
  0
VERTEX
  8
01
  5
11BBB
 10
-538.097
 20
-2842.78
 30
0.000000
  70
    32
  0
VERTEX
  8
01
  5
11BBC
 10
-537.960
 20
-2842.76
 30
0.000000
  70
    32
  0
VERTEX
  8
01
  5
11BBD
 10
-537.823
 20
-2842.73
 30
0.000000
  70
    32
  0
VERTEX
  8
01
  5
11BBE
 10
-537.689
 20
-2842.70
 30
0.000000
  70
    32
  0
VERTEX
  8
01
  5
11BBF
 10
-537.557
 20
-2842.66
 30
0.000000
  70
    32
  0
VERTEX
  8
01
  5
11BC0
 10
-537.427
 20
-2842.62
 30
0.000000
  70
    32
  0
VERTEX
  8
01
  5
11BC1
 10
-537.300
 20
-2842.58
 30
0.000000
  70
    32
  0
VERTEX
  8
01
  5
11BC2
 10
-537.175
 20
-2842.53
 30
0.000000
  70
    32
  0
VERTEX
  8
01
  5
11BC3
 10
-537.053
 20
-2842.48
 30
0.000000
  70
    32
  0
VERTEX
  8
01
  5
11BC4
 10
-536.935
 20
-2842.43
 30
0.000000
  70
    32
  0
VERTEX
  8
01
  5
11BC5
 10
-536.820
 20
-2842.37
 30
0.000000
  70
    32
  0
VERTEX
  8
01
  5
11BC6
 10
-536.708
 20
-2842.31
 30
0.000000
  70
    32
  0
VERTEX
  8
01
  5
11BC7
 10
-536.600
 20
-2842.25
 30
0.000000
  70
    32
  0
VERTEX
  8
01
  5
11BC8
 10
-536.496
 20
-2842.18
 30
0.000000
  70
    32
  0
VERTEX
  8
01
  5
11BC9
 10
-536.396
 20
-2842.12
 30
0.000000
  70
    32
  0
VERTEX
  8
01
  5
11BCA
 10
-536.301
 20
-2842.05
 30
0.000000
  70
    32
  0
VERTEX
  8
01
  5
11BCB
 10
-536.209
 20
-2841.97
 30
0.000000
  70
    32
  0
VERTEX
  8
01
  5
11BCC
 10
-536.123
 20
-2841.90
 30
0.000000
  70
    32
  0
VERTEX
  8
01
  5
11BCD
 10
-536.041
 20
-2841.82
 30
0.000000
  70
    32
  0
VERTEX
  8
01
  5
11BCE
 10
-535.963
 20
-2841.74
 30
0.000000
  70
    32
  0
VERTEX
  8
01
  5
11BCF
 10
-535.891
 20
-2841.66
 30
0.000000
  70
    32
  0
VERTEX
  8
01
  5
11BD0
 10
-535.824
 20
-2841.57
 30
0.000000
  70
    32
  0
VERTEX
  8
01
  5
11BD1
 10
-535.762
 20
-2841.49
 30
0.000000
  70
    32
  0
VERTEX
  8
01
  5
11BD2
 10
-535.705
 20
-2841.40
 30
0.000000
  70
    32
  0
VERTEX
  8
01
  5
11BD3
 10
-535.654
 20
-2841.31
 30
0.000000
  70
    32
  0
VERTEX
  8
01
  5
11BD4
 10
-535.608
 20
-2841.22
 30
0.000000
  70
    32
  0
VERTEX
  8
01
  5
11BD5
 10
-535.568
 20
-2841.13
 30
0.000000
  70
    32
  0
VERTEX
  8
01
  5
11BD6
 10
-535.533
 20
-2841.03
 30
0.000000
  70
    32
  0
VERTEX
  8
01
  5
11BD7
 10
-535.504
 20
-2840.94
 30
0.000000
  70
    32
  0
VERTEX
  8
01
  5
11BD8
 10
-535.481
 20
-2840.85
 30
0.000000
  70
    32
  0
VERTEX
  8
01
  5
11BD9
 10
-535.464
 20
-2840.75
 30
0.000000
  70
    32
  0
VERTEX
  8
01
  5
11BDA
 10
-535.452
 20
-2840.66
 30
0.000000
  70
    32
  0
VERTEX
  8
01
  5
11BDB
 10
-535.446
 20
-2840.56
 30
0.000000
  70
    32
  0
VERTEX
  8
01
  5
11BDC
 10
-535.446
 20
-2840.46
 30
0.000000
  70
    32
  0
VERTEX
  8
01
  5
11BDD
 10
-535.452
 20
-2840.37
 30
0.000000
  70
    32
  0
VERTEX
  8
01
  5
11BDE
 10
-535.464
 20
-2840.27
 30
0.000000
  70
    32
  0
VERTEX
  8
01
  5
11BDF
 10
-535.481
 20
-2840.18
 30
0.000000
  70
    32
  0
VERTEX
  8
01
  5
11BE0
 10
-535.504
 20
-2840.08
 30
0.000000
  70
    32
  0
VERTEX
  8
01
  5
11BE1
 10
-535.533
 20
-2839.99
 30
0.000000
  70
    32
  0
VERTEX
  8
01
  5
11BE2
 10
-535.568
 20
-2839.90
 30
0.000000
  70
    32
  0
VERTEX
  8
01
  5
11BE3
 10
-535.608
 20
-2839.81
 30
0.000000
  70
    32
  0
VERTEX
  8
01
  5
11BE4
 10
-535.654
 20
-2839.72
 30
0.000000
  70
    32
  0
VERTEX
  8
01
  5
11BE5
 10
-535.705
 20
-2839.63
 30
0.000000
  70
    32
  0
VERTEX
  8
01
  5
11BE6
 10
-535.762
 20
-2839.54
 30
0.000000
  70
    32
  0
VERTEX
  8
01
  5
11BE7
 10
-535.824
 20
-2839.45
 30
0.000000
  70
    32
  0
VERTEX
  8
01
  5
11BE8
 10
-535.891
 20
-2839.37
 30
0.000000
  70
    32
  0
VERTEX
  8
01
  5
11BE9
 10
-535.963
 20
-2839.29
 30
0.000000
  70
    32
  0
VERTEX
  8
01
  5
11BEA
 10
-536.040
 20
-2839.21
 30
0.000000
  70
    32
  0
VERTEX
  8
01
  5
11BEB
 10
-536.122
 20
-2839.13
 30
0.000000
  70
    32
  0
VERTEX
  8
01
  5
11BEC
 10
-536.209
 20
-2839.05
 30
0.000000
  70
    32
  0
VERTEX
  8
01
  5
11BED
 10
-536.300
 20
-2838.98
 30
0.000000
  70
    32
  0
VERTEX
  8
01
  5
11BEE
 10
-536.396
 20
-2838.91
 30
0.000000
  70
    32
  0
VERTEX
  8
01
  5
11BEF
 10
-536.496
 20
-2838.84
 30
0.000000
  70
    32
  0
VERTEX
  8
01
  5
11BF0
 10
-536.600
 20
-2838.77
 30
0.000000
  70
    32
  0
VERTEX
  8
01
  5
11BF1
 10
-536.708
 20
-2838.71
 30
0.000000
  70
    32
  0
VERTEX
  8
01
  5
11BF2
 10
-536.819
 20
-2838.65
 30
0.000000
  70
    32
  0
VERTEX
  8
01
  5
11BF3
 10
-536.934
 20
-2838.60
 30
0.000000
  70
    32
  0
VERTEX
  8
01
  5
11BF4
 10
-537.053
 20
-2838.54
 30
0.000000
  70
    32
  0
VERTEX
  8
01
  5
11BF5
 10
-537.175
 20
-2838.49
 30
0.000000
  70
    32
  0
SEQEND
  8
01
  5
11BF6
  0
CIRCLE
  5
115F3
  8
01
 10
-538.94559069957529
 20
-2825.4623204963459
 30
0.0
 40
25.0
  0
CIRCLE
  5
115F4
  8
01
 10
-538.94559069957529
 20
-2825.4623204963459
 30
0.0
 40
13.149746934137511
  0
LINE
  5
115F5
  8
1CENTER
 10
-538.94559069957529
 20
-2837.4658963815182
 30
0.0
 11
-538.94559069957529
 21
-2831.38354695933
 31
0.0
  0
LINE
  5
115F6
  8
1CENTER
 10
-535.3012248816184
 20
-2816.4405032746072
 30
0.0
 11
-542.41209795191833
 21
-2816.4405032746072
 31
0.0
  0
LINE
  5
115F7
  8
1CENTER
 10
-535.3012248816184
 20
-2834.4405032746072
 30
0.0
 11
-542.41209795191833
 21
-2834.4405032746072
 31
0.0
  0
LINE
  5
115F8
  8
1CENTER
 10
-549.4455906995754
 20
-2828.939265642854
 30
0.0
 11
-549.4455906995754
 21
-2821.9081282162228
 31
0.0
  0
LINE
  5
115F9
  8
1CENTER
 10
-546.20962175190823
 20
-2825.4623204963459
 30
0.0
 11
-552.80412027221507
 21
-2825.4623204963459
 31
0.0
  0
LINE
  5
115FA
  8
1CENTER
 10
-538.94559069957529
 20
-2819.5953028524741
 30
0.0
 11
-538.94559069957529
 21
-2813.2511142547828
 31
0.0
  0
ARC
  5
115FB
  8
1PHANTOM
 10
-538.94559069957529
 20
-2825.4623204963459
 30
0.0
 40
15.249999998522981
 50
19.139474452952189
 51
160.86052554704781
  0
LINE
  5
115FC
  8
1PHANTOM
 10
-558.94559069957506
 20
-2829.962320496345
 30
0.0
 11
-558.94559069957506
 21
-2820.962320496345
 31
0.0
  0
CIRCLE
  5
115FD
  8
1PHANTOM
 10
-549.4455906995754
 20
-2825.4623204963459
 30
0.0
 40
2.1000000000000001
  0
CIRCLE
  5
115FE
  8
1PHANTOM
 10
-538.94559069957529
 20
-2825.4623204963459
 30
0.0
 40
3.8000000000010909
  0
LINE
  5
115FF
  8
1PHANTOM
 10
-518.94559069957506
 20
-2829.9623204963459
 30
0.0
 11
-518.94559069957506
 21
-2820.9623204963459
 31
0.0
  0
CIRCLE
  5
11600
  8
1PHANTOM
 10
-538.94559069957529
 20
-2834.4623204963459
 30
0.0
 40
2.5
  0
LINE
  5
11601
  8
1PHANTOM
 10
-558.44559069957506
 20
-2830.462320496345
 30
0.0
 11
-553.35262023223595
 21
-2830.462320496345
 31
0.0
  0
ARC
  5
11602
  8
1PHANTOM
 10
-558.4455906995754
 20
-2829.9623204963459
 30
0.0
 40
0.5
 50
180.0
 51
270.0
  0
ARC
  5
11603
  8
1PHANTOM
 10
-519.4455906995754
 20
-2829.9623204963459
 30
0.0
 40
0.5
 50
270.0
 51
0.0
  0
LINE
  5
11604
  8
1PHANTOM
 10
-524.53856116691475
 20
-2830.4623204963459
 30
0.0
 11
-519.44559069957506
 21
-2830.4623204963459
 31
0.0
  0
CIRCLE
  5
11605
  8
1PHANTOM
 10
-538.94559069957529
 20
-2816.4623204963459
 30
0.0
 40
2.5
  0
LINE
  5
11606
  8
1PHANTOM
 10
-558.44559069957506
 20
-2820.462320496345
 30
0.0
 11
-553.35262023223572
 21
-2820.462320496345
 31
0.0
  0
ARC
  5
11607
  8
1PHANTOM
 10
-558.4455906995754
 20
-2820.9623204963459
 30
0.0
 40
0.5
 50
90.0
 51
180.0
  0
ARC
  5
11608
  8
1PHANTOM
 10
-519.4455906995754
 20
-2820.9623204963459
 30
0.0
 40
0.5
 50
0.0
 51
90.0
  0
LINE
  5
11609
  8
1PHANTOM
 10
-524.53856116691475
 20
-2820.462320496345
 30
0.0
 11
-519.44559069957506
 21
-2820.462320496345
 31
0.0
  0
ARC
  5
1160A
  8
1PHANTOM
 10
-538.94559069957529
 20
-2825.4623204963459
 30
0.0
 40
15.249999998522981
 50
199.13947445295219
 51
340.86052554704781
  0
LINE
  5
1166A
  8
1PHANTOM
 10
-411.4455483126489
 20
-2811.9953715531292
 30
0.0
 11
-410.9455483126489
 21
-2810.953073331104
 31
0.0
  0
LINE
  5
1166B
  8
1PHANTOM
 10
-411.14522530939928
 20
-2816.4623204963459
 30
0.0
 11
-406.36538360077429
 21
-2816.4623204963459
 31
0.0
  0
LINE
  5
1166C
  8
1PHANTOM
 10
-411.4455483126489
 20
-2838.9292694395622
 30
0.0
 11
-410.9455483126489
 21
-2839.9715676615879
 31
0.0
  0
LINE
  5
1166D
  8
1PHANTOM
 10
-429.94554831264873
 20
-2829.4123204963462
 30
0.0
 11
-429.9455483126485
 21
-2821.5123204963461
 31
0.0
  0
ARC
  5
1166E
  8
1PHANTOM
 10
-419.84554831264848
 20
-2822.3623204963478
 30
0.0
 40
0.5
 50
270.0
 51
0.0
  0
ARC
  5
1166F
  8
1PHANTOM
 10
-420.84554831264859
 20
-2822.3623204963478
 30
0.0
 40
0.5
 50
180.0
 51
270.0
  0
ARC
  5
11670
  8
1PHANTOM
 10
-422.84554831264842
 20
-2822.1623204963462
 30
0.0
 40
0.5
 50
260.57968109715989
 51
0.0
  0
LINE
  5
11671
  8
1PHANTOM
 10
-428.94554831264838
 20
-2821.6570844607409
 30
0.0
 11
-422.92738622353897
 21
-2822.6555775858451
 31
0.0
  0
LINE
  5
11673
  8
1PHANTOM
 10
-411.4455483126489
 20
-2829.856575991219
 30
0.0
 11
-411.4455483126489
 21
-2838.9292694395622
 31
0.0
  0
LINE
  5
11674
  8
1PHANTOM
 10
-428.94554831264873
 20
-2829.2675565319519
 30
0.0
 11
-422.92738622353932
 21
-2828.2690634068472
 31
0.0
  0
LINE
  5
11675
  8
1PHANTOM
 10
-429.94554831264873
 20
-2829.4123204963462
 30
0.0
 11
-428.94554831264873
 21
-2829.4123204963462
 31
0.0
  0
LINE
  5
11676
  8
1PHANTOM
 10
-428.94554831264873
 20
-2829.4123204963462
 30
0.0
 11
-428.94554831264873
 21
-2829.2675565319528
 31
0.0
  0
LINE
  5
11677
  8
1PHANTOM
 10
-419.34554831264882
 20
-2829.462320496345
 30
0.0
 11
-419.34554831264882
 21
-2828.5623204963458
 31
0.0
  0
LINE
  5
11678
  8
1PHANTOM
 10
-421.3455483126487
 20
-2829.3073504025551
 30
0.0
 11
-421.34554831264859
 21
-2828.5623204963458
 31
0.0
  0
LINE
  5
11679
  8
1PHANTOM
 10
-422.34554831264848
 20
-2828.7623204963461
 30
0.0
 11
-422.34554831264848
 21
-2829.3021143669498
 31
0.0
  0
LINE
  5
1167A
  8
1PHANTOM
 10
-421.3455483126487
 20
-2829.3073504025551
 30
0.0
 11
-422.34554831264848
 21
-2829.3021143669498
 31
0.0
  0
LINE
  5
1167B
  8
1PHANTOM
 10
-420.84554831264859
 20
-2822.8623204963478
 30
0.0
 11
-419.84554831264848
 21
-2822.8623204963478
 31
0.0
  0
LINE
  5
1167C
  8
1PHANTOM
 10
-420.8455483126487
 20
-2828.0623204963458
 30
0.0
 11
-419.84554831264882
 21
-2828.0623204963458
 31
0.0
  0
ARC
  5
1167D
  8
1PHANTOM
 10
-419.84554831264882
 20
-2828.5623204963458
 30
0.0
 40
0.5
 50
0.0
 51
90.0
  0
ARC
  5
1167E
  8
1PHANTOM
 10
-420.8455483126487
 20
-2828.5623204963458
 30
0.0
 40
0.5
 50
90.0
 51
180.0
  0
ARC
  5
1167F
  8
1PHANTOM
 10
-422.84554831264882
 20
-2828.7623204963461
 30
0.0
 40
0.5
 50
0.0
 51
99.420318902866853
  0
LINE
  5
11680
  8
1PHANTOM
 10
-419.34554831264882
 20
-2829.462320496345
 30
0.0
 11
-417.3455483126487
 21
-2829.4623204963459
 31
0.0
  0
LINE
  5
11681
  8
1PHANTOM
 10
-417.3455483126487
 20
-2829.4623204963459
 30
0.0
 11
-417.3455483126487
 21
-2829.3282945449778
 31
0.0
  0
ARC
  5
11682
  8
1PHANTOM
 10
-411.94554831264918
 20
-2829.856575991219
 30
0.0
 40
0.5
 50
0.0
 51
89.7000000000005
  0
LINE
  5
11683
  8
1PHANTOM
 10
-411.94293033073308
 20
-2829.3565828450951
 30
0.0
 11
-417.3455483126487
 21
-2829.3282945449778
 31
0.0
  0
LINE
  5
11684
  8
1PHANTOM
 10
-411.4455483126489
 20
-2821.0680650014729
 30
0.0
 11
-411.4455483126489
 21
-2811.9953715531292
 31
0.0
  0
LINE
  5
11685
  8
1PHANTOM
 10
-429.9455483126485
 20
-2821.5123204963461
 30
0.0
 11
-428.94554831264838
 21
-2821.5123204963461
 31
0.0
  0
LINE
  5
11686
  8
1PHANTOM
 10
-428.94554831264838
 20
-2821.6570844607409
 30
0.0
 11
-428.94554831264838
 21
-2821.5123204963461
 31
0.0
  0
LINE
  5
11687
  8
1PHANTOM
 10
-419.34554831264848
 20
-2822.3623204963478
 30
0.0
 11
-419.34554831264848
 21
-2821.4623204963459
 31
0.0
  0
LINE
  5
11688
  8
1PHANTOM
 10
-422.34554831264848
 20
-2822.1623204963462
 30
0.0
 11
-422.34554831264848
 21
-2821.6225266257429
 31
0.0
  0
LINE
  5
11689
  8
1PHANTOM
 10
-421.34554831264859
 20
-2822.3623204963478
 30
0.0
 11
-421.34554831264859
 21
-2821.6172905901371
 31
0.0
  0
LINE
  5
1168A
  8
1PHANTOM
 10
-422.34554831264848
 20
-2821.6225266257429
 30
0.0
 11
-421.34554831264859
 21
-2821.6172905901371
 31
0.0
  0
LINE
  5
1168B
  8
1PHANTOM
 10
-417.3455483126487
 20
-2821.4623204963459
 30
0.0
 11
-417.3455483126487
 21
-2821.596346447714
 31
0.0
  0
LINE
  5
1168C
  8
1PHANTOM
 10
-419.34554831264848
 20
-2821.4623204963459
 30
0.0
 11
-417.3455483126487
 21
-2821.4623204963459
 31
0.0
  0
ARC
  5
1168D
  8
1PHANTOM
 10
-411.9455483126489
 20
-2821.0680650014729
 30
0.0
 40
0.5
 50
270.29999999999939
 51
0.0
  0
LINE
  5
1168E
  8
1PHANTOM
 10
-417.34554831264859
 20
-2821.596346447714
 30
0.0
 11
-411.94293033073308
 21
-2821.5680581475972
 31
0.0
  0
LINE
  5
1168F
  8
01
 10
-407.9455483126489
 20
-2800.440503326869
 30
0.0
 11
-407.9455483126489
 21
-2850.4841376658228
 31
0.0
  0
LINE
  5
11690
  8
1PHANTOM
 10
-407.94554831264873
 20
-2840.7123204948689
 30
0.0
 11
-407.9455483126489
 21
-2810.2123204978229
 31
0.0
  0
LINE
  5
11691
  8
1PHANTOM
 10
-409.9455483126489
 20
-2839.9715676615879
 30
0.0
 11
-409.9455483126489
 21
-2840.7123204948689
 31
0.0
  0
LINE
  5
11692
  8
01
 10
-410.4455483126489
 20
-2850.4623204963459
 30
0.0
 11
-407.9455483126489
 21
-2850.4841376658228
 31
0.0
  0
LINE
  5
11693
  8
1PHANTOM
 10
-410.9455483126489
 20
-2839.9715676615879
 30
0.0
 11
-409.9455483126489
 21
-2839.9715676615879
 31
0.0
  0
LINE
  5
11694
  8
1PHANTOM
 10
-409.9455483126489
 20
-2840.7123204948689
 30
0.0
 11
-407.94554831264873
 21
-2840.7123204948689
 31
0.0
  0
LINE
  5
11695
  8
1PHANTOM
 10
-410.9455483096458
 20
-2838.2623204702149
 30
0.0
 11
-410.9455483096458
 21
-2830.662320470215
 31
0.0
  0
LINE
  5
11696
  8
1PHANTOM
 10
-409.94554830964569
 20
-2838.2623204702149
 30
0.0
 11
-409.94554830964569
 21
-2830.662320470215
 31
0.0
  0
LINE
  5
11697
  8
1PHANTOM
 10
-410.9455483096458
 20
-2838.2623204702149
 30
0.0
 11
-409.94554830964569
 21
-2838.2623204702149
 31
0.0
  0
LINE
  5
11698
  8
1PHANTOM
 10
-410.9455483096458
 20
-2834.962320320215
 30
0.0
 11
-409.94554830964569
 21
-2833.962320620215
 31
0.0
  0
LINE
  5
11699
  8
1PHANTOM
 10
-409.9455483126489
 20
-2831.9623204963459
 30
0.0
 11
-407.9455483126489
 21
-2831.9623204963459
 31
0.0
  0
LINE
  5
1169A
  8
1PHANTOM
 10
-407.9455483126489
 20
-2836.9623204963459
 30
0.0
 11
-409.9455483126489
 21
-2836.9623204963459
 31
0.0
  0
LINE
  5
1169B
  8
1PHANTOM
 10
-406.36538360077429
 20
-2834.4623204963459
 30
0.0
 11
-410.88183262423053
 21
-2834.4623204963459
 31
0.0
  0
LINE
  5
1169C
  8
1PHANTOM
 10
-410.9455483096458
 20
-2830.662320470215
 30
0.0
 11
-409.94554830964569
 21
-2830.662320470215
 31
0.0
  0
LINE
  5
1169D
  8
1PHANTOM
 10
-410.9455483096458
 20
-2820.2623204702149
 30
0.0
 11
-410.9455483096458
 21
-2812.662320470215
 31
0.0
  0
LINE
  5
1169E
  8
1PHANTOM
 10
-409.94554830964569
 20
-2820.2623204702149
 30
0.0
 11
-409.94554830964569
 21
-2812.662320470215
 31
0.0
  0
LINE
  5
1169F
  8
1PHANTOM
 10
-409.9455483126489
 20
-2810.953073331104
 30
0.0
 11
-409.9455483126489
 21
-2810.2123204978229
 31
0.0
  0
LINE
  5
116A0
  8
1PHANTOM
 10
-410.9455483096458
 20
-2820.2623204702149
 30
0.0
 11
-409.94554830964569
 21
-2820.2623204702149
 31
0.0
  0
LINE
  5
116A1
  8
1PHANTOM
 10
-410.9455483096458
 20
-2816.962320320215
 30
0.0
 11
-409.94554830964569
 21
-2815.962320620215
 31
0.0
  0
LINE
  5
116A2
  8
1PHANTOM
 10
-409.9455483126489
 20
-2818.9623204963459
 30
0.0
 11
-407.9455483126489
 21
-2818.9623204963459
 31
0.0
  0
LINE
  5
116A3
  8
1PHANTOM
 10
-410.9455483096458
 20
-2812.662320470215
 30
0.0
 11
-409.94554830964569
 21
-2812.662320470215
 31
0.0
  0
LINE
  5
116A4
  8
1PHANTOM
 10
-409.9455483126489
 20
-2810.2123204978229
 30
0.0
 11
-407.9455483126489
 21
-2810.2123204978229
 31
0.0
  0
LINE
  5
116A5
  8
1PHANTOM
 10
-410.9455483126489
 20
-2810.953073331104
 30
0.0
 11
-409.9455483126489
 21
-2810.953073331104
 31
0.0
  0
LINE
  5
116A6
  8
1PHANTOM
 10
-407.9455483126489
 20
-2813.9623204963459
 30
0.0
 11
-409.9455483126489
 21
-2813.9623204963459
 31
0.0
  0
LINE
  5
116A7
  8
01
 10
-410.4455483126489
 20
-2800.4623204963459
 30
0.0
 11
-407.9455483126489
 21
-2800.440503326869
 31
0.0
  0
LINE
  5
116A8
  8
01
 10
-412.94554831264918
 20
-2848.602235352249
 30
0.0
 11
-412.94554831260842
 21
-2802.322405640442
 31
0.0
  0
ARC
  5
116A9
  8
01
 10
-412.44554831264912
 20
-2802.3224056404429
 30
0.0
 40
0.5
 50
122.37585126255991
 51
179.9999999999479
  0
ARC
  5
116AA
  8
01
 10
-413.24554831264891
 20
-2802.5928167589582
 30
0.0
 40
0.3
 50
359.99999999994787
 51
122.37585126255721
  0
ARC
  5
116AB
  8
01
 10
-412.44554831264912
 20
-2848.602235352249
 30
0.0
 40
0.5
 50
179.9999999999479
 51
237.62414873744279
  0
ARC
  5
116AC
  8
01
 10
-413.24554831264891
 20
-2848.3318242337341
 30
0.0
 40
0.3
 50
237.62414873744279
 51
359.99999999994787
  0
LINE
  5
116AD
  8
01
 10
-412.71328375480192
 20
-2801.9001287963961
 30
0.0
 11
-410.4455483126539
 21
-2800.4623204963459
 31
0.0
  0
LINE
  5
116AE
  8
01
 10
-412.71328375480198
 20
-2849.0245121962962
 30
0.0
 11
-410.44554831265418
 21
-2850.4623204963459
 31
0.0
  0
LINE
  5
116AF
  8
01
 10
-432.71325311566858
 20
-2814.5806740722428
 30
0.0
 11
-413.40618957794112
 21
-2802.3394506525292
 31
0.0
  0
LINE
  5
116B0
  8
01
 10
-432.71339913583807
 20
-2836.3438743395382
 30
0.0
 11
-413.40618957794112
 21
-2848.5851903401631
 31
0.0
  0
ARC
  5
116B1
  8
01
 10
-432.4456636936867
 20
-2835.9215974954941
 30
0.0
 40
0.5
 50
179.99960005350229
 51
237.62414873744561
  0
LINE
  5
116B3
  8
01
 10
-410.44554831265401
 20
-2800.4623204963459
 30
0.0
 11
-410.44554831265418
 21
-2850.4623204963459
 31
0.0
  0
LINE
  5
116B6
  8
01
 10
-438.9455679984311
 20
-2819.962274847861
 30
0.0
 11
-451.94559068471779
 21
-2819.96227484785
 31
0.0
  0
LINE
  5
116B7
  8
01
 10
-452.94567904151688
 20
-2838.1201942648108
 30
0.0
 11
-452.94550238447653
 21
-2812.8125561104789
 31
0.0
  0
LINE
  5
116B9
  8
01
 10
-438.94563954670588
 20
-2830.9622748475881
 30
0.0
 11
-451.94563605684732
 21
-2830.9622748475922
 31
0.0
  0
ARC
  5
116BA
  8
01
 10
-450.44559069957529
 20
-2825.4616842064061
 30
0.0
 40
13.5
 50
103.34196376265
 51
256.6572363441586
  0
ARC
  5
116BB
  8
01
 10
-433.44559068412838
 20
-2835.2780685023931
 30
0.0
 40
0.5
 50
236.31045900258729
 51
0.0
  0
LINE
  5
116BC
  8
01
 10
-433.7229369591077
 20
-2835.6940961983009
 30
0.0
 11
-437.72296190974509
 21
-2833.0274659936872
 31
0.0
  0
ARC
  5
116BD
  8
01
 10
-433.44552216630098
 20
-2815.6465772117772
 30
0.0
 40
0.5
 50
359.99960005373748
 51
123.6899444630062
  0
LINE
  5
116BE
  8
01
 10
-437.72291493787981
 20
-2817.8972347703202
 30
0.0
 11
-433.72287137085721
 21
-2815.2305514689001
 31
0.0
  0
ARC
  5
116C0
  8
01
 10
-453.44567897577127
 20
-2838.1107739102149
 30
0.0
 40
0.5
 50
256.65723634390571
 51
359.99960005332059
  0
ARC
  5
116C1
  8
01
 10
-451.9455906847142
 20
-2818.96227484785
 30
0.0
 40
1.0
 50
180.0
 51
270.0
  0
ARC
  5
116C2
  8
01
 10
-451.94563605684368
 20
-2831.9622748475922
 30
0.0
 40
1.0
 50
90.0
 51
179.99960005332059
  0
ARC
  5
116C3
  8
01
 10
-438.94561336883987
 20
-2831.9621805125421
 30
0.0
 40
1.0
 50
359.99980003437258
 51
90.0
  0
LINE
  5
116C5
  8
01
 10
-437.94561563476952
 20
-2832.6114365527528
 30
0.0
 11
-437.94556573328668
 21
-2818.3132587681639
 31
0.0
  0
ARC
  5
116C6
  8
01
 10
-437.44556573332358
 20
-2818.3132605131941
 30
0.0
 40
0.5
 50
123.6899444630062
 51
179.9998000347895
  0
ARC
  5
116C7
  8
01
 10
-437.44561563476958
 20
-2832.611438297783
 30
0.0
 40
0.5
 50
179.99980003437261
 51
236.3104590026974
  0
ARC
  5
116C8
  8
01
 10
-438.94556799842741
 20
-2818.962274847861
 30
0.0
 40
1.0
 50
270.0
 51
359.99980003458103
  0
LINE
  5
116C9
  8
01
 10
-432.94566369367448
 20
-2835.9215940053018
 30
0.0
 11
-432.94551767350498
 21
-2815.0029474260959
 31
0.0
  0
ARC
  5
116CA
  8
01
 10
-432.4455176735172
 20
-2815.0029509162878
 30
0.0
 40
0.5
 50
122.3758512625546
 51
179.99960005350229
  0
LINE
  5
11745
  8
1PHANTOM
 10
-542.94622698951582
 20
-2735.8622781175168
 30
0.0
 11
-542.94622698951582
 21
-2733.8622781175168
 31
0.0
  0
LINE
  5
11746
  8
1PHANTOM
 10
-534.94622698951582
 20
-2735.8622781175168
 30
0.0
 11
-534.94622698951537
 21
-2733.8622781175168
 31
0.0
  0
LINE
  5
11747
  8
1PHANTOM
 10
-518.94622698951605
 20
-2724.4622781175171
 30
0.0
 11
-558.94622698951571
 21
-2724.4622781175171
 31
0.0
  0
LINE
  5
11748
  8
1PHANTOM
 10
-553.69622698803892
 20
-2727.9622781175171
 30
0.0
 11
-543.34048248438864
 21
-2727.9622781175171
 31
0.0
  0
LINE
  5
11749
  8
1PHANTOM
 10
-523.69622699099284
 20
-2727.4622781175171
 30
0.0
 11
-523.69622699099284
 21
-2726.9622781175171
 31
0.0
  0
LINE
  5
1174A
  8
1PHANTOM
 10
-518.94622698951605
 20
-2726.9622781175171
 30
0.0
 11
-518.94622698951605
 21
-2724.4622781175171
 31
0.0
  0
LINE
  5
1174B
  8
1PHANTOM
 10
-524.19622699099261
 20
-2727.9622781175171
 30
0.0
 11
-523.69622699099261
 21
-2727.4622781175171
 31
0.0
  0
LINE
  5
1174C
  8
1PHANTOM
 10
-518.94622698951605
 20
-2726.9622781175171
 30
0.0
 11
-523.69622699099284
 21
-2726.9622781175171
 31
0.0
  0
ARC
  5
1174D
  8
1PHANTOM
 10
-543.34048248438864
 20
-2728.4622781175171
 30
0.0
 40
0.5
 50
0.3000000000124849
 51
90.0
  0
LINE
  5
1174E
  8
1PHANTOM
 10
-542.81220103814769
 20
-2733.8622781175168
 30
0.0
 11
-542.840489338265
 21
-2728.4596601356011
 31
0.0
  0
ARC
  5
1174F
  8
1PHANTOM
 10
-534.551971494643
 20
-2728.4622781175171
 30
0.0
 40
0.5
 50
90.0
 51
179.69999999998751
  0
LINE
  5
11750
  8
1PHANTOM
 10
-535.08025294088395
 20
-2733.8622781175168
 30
0.0
 11
-535.05196464076664
 21
-2728.4596601356011
 31
0.0
  0
LINE
  5
11751
  8
1PHANTOM
 10
-542.94622698951582
 20
-2733.8622781175168
 30
0.0
 11
-542.81220103814769
 21
-2733.8622781175168
 31
0.0
  0
LINE
  5
11752
  8
1PHANTOM
 10
-558.94622698951571
 20
-2726.9622781175171
 30
0.0
 11
-558.94622698951571
 21
-2724.4622781175171
 31
0.0
  0
LINE
  5
11753
  8
1PHANTOM
 10
-554.1962269880388
 20
-2727.4622781175171
 30
0.0
 11
-554.19622698803869
 21
-2726.9622781175181
 31
0.0
  0
LINE
  5
11754
  8
1PHANTOM
 10
-553.69622698803892
 20
-2727.9622781175171
 30
0.0
 11
-554.1962269880388
 21
-2727.4622781175171
 31
0.0
  0
LINE
  5
11755
  8
1PHANTOM
 10
-542.75146302512098
 20
-2745.4622781175171
 30
0.0
 11
-541.75296990001664
 21
-2739.4441160284068
 31
0.0
  0
LINE
  5
11756
  8
1PHANTOM
 10
-535.14099095390975
 20
-2745.4622781175171
 30
0.0
 11
-536.13948407901501
 21
-2739.4441160284082
 31
0.0
  0
LINE
  5
11757
  8
1PHANTOM
 10
-536.44622698951582
 20
-2737.3622781175168
 30
0.0
 11
-536.44622698951548
 21
-2736.3622781175168
 31
0.0
  0
ARC
  5
11758
  8
1PHANTOM
 10
-535.94622698951548
 20
-2736.3622781175168
 30
0.0
 40
0.5
 50
90.0
 51
180.0
  0
ARC
  5
11759
  8
1PHANTOM
 10
-535.64622698951587
 20
-2739.3622781175168
 30
0.0
 40
0.5
 50
90.0
 51
189.42031890286009
  0
ARC
  5
1175A
  8
1PHANTOM
 10
-535.94622698951582
 20
-2737.3622781175168
 30
0.0
 40
0.5
 50
180.0
 51
270.0
  0
LINE
  5
1175B
  8
1PHANTOM
 10
-541.446226989514
 20
-2737.3622781175168
 30
0.0
 11
-541.446226989514
 21
-2736.3622781175168
 31
0.0
  0
ARC
  5
1175C
  8
1PHANTOM
 10
-541.946226989514
 20
-2736.3622781175168
 30
0.0
 40
0.5
 50
0.0
 51
90.0
  0
ARC
  5
1175D
  8
1PHANTOM
 10
-542.24622698951578
 20
-2739.3622781175168
 30
0.0
 40
0.5
 50
350.57968109713983
 51
90.0
  0
ARC
  5
1175E
  8
1PHANTOM
 10
-541.946226989514
 20
-2737.3622781175168
 30
0.0
 40
0.5
 50
270.0
 51
0.0
  0
LINE
  5
1175F
  8
1PHANTOM
 10
-542.78602086011904
 20
-2738.8622781175168
 30
0.0
 11
-542.79125689572481
 21
-2737.8622781175168
 31
0.0
  0
LINE
  5
11760
  8
1PHANTOM
 10
-535.10643311891238
 20
-2738.8622781175168
 30
0.0
 11
-535.1011970833066
 21
-2737.8622781175181
 31
0.0
  0
LINE
  5
11761
  8
1PHANTOM
 10
-534.94622698951582
 20
-2735.8622781175168
 30
0.0
 11
-535.94622698951548
 21
-2735.8622781175168
 31
0.0
  0
LINE
  5
11762
  8
1PHANTOM
 10
-535.1011970833066
 20
-2737.8622781175181
 30
0.0
 11
-535.94622698951582
 21
-2737.8622781175181
 31
0.0
  0
LINE
  5
11763
  8
1PHANTOM
 10
-535.10643311891238
 20
-2738.8622781175168
 30
0.0
 11
-535.64622698951587
 21
-2738.8622781175168
 31
0.0
  0
LINE
  5
11764
  8
1PHANTOM
 10
-542.89622698951598
 20
-2746.4622781175171
 30
0.0
 11
-542.89622698951598
 21
-2745.4622781175171
 31
0.0
  0
LINE
  5
11765
  8
1PHANTOM
 10
-534.99622698951566
 20
-2746.4622781175171
 30
0.0
 11
-534.99622698951555
 21
-2745.4622781175171
 31
0.0
  0
LINE
  5
11766
  8
1PHANTOM
 10
-534.99622698951566
 20
-2746.4622781175171
 30
0.0
 11
-542.89622698951598
 21
-2746.4622781175171
 31
0.0
  0
LINE
  5
11767
  8
1PHANTOM
 10
-534.99622698951555
 20
-2745.4622781175171
 30
0.0
 11
-535.14099095390975
 21
-2745.4622781175171
 31
0.0
  0
LINE
  5
11768
  8
1PHANTOM
 10
-554.19622698803869
 20
-2726.9622781175171
 30
0.0
 11
-558.94622698951571
 21
-2726.9622781175171
 31
0.0
  0
LINE
  5
11769
  8
1PHANTOM
 10
-534.551971494643
 20
-2727.9622781175171
 30
0.0
 11
-524.19622699099261
 21
-2727.9622781175171
 31
0.0
  0
LINE
  5
1176A
  8
1PHANTOM
 10
-535.08025294088395
 20
-2733.8622781175168
 30
0.0
 11
-534.94622698951537
 21
-2733.8622781175168
 31
0.0
  0
LINE
  5
1176B
  8
1PHANTOM
 10
-541.946226989514
 20
-2735.8622781175168
 30
0.0
 11
-542.94622698951582
 21
-2735.8622781175168
 31
0.0
  0
LINE
  5
1176C
  8
1PHANTOM
 10
-541.946226989514
 20
-2737.8622781175168
 30
0.0
 11
-542.79125689572481
 21
-2737.8622781175168
 31
0.0
  0
LINE
  5
1176D
  8
1PHANTOM
 10
-542.24622698951578
 20
-2738.8622781175168
 30
0.0
 11
-542.78602086011904
 21
-2738.8622781175168
 31
0.0
  0
LINE
  5
1176E
  8
1PHANTOM
 10
-542.75146302512098
 20
-2745.4622781175171
 30
0.0
 11
-542.89622698951598
 21
-2745.4622781175171
 31
0.0
  0
LINE
  5
11770
  8
1PHANTOM
 10
-538.94622698951582
 20
-2727.6619551172712
 30
0.0
 11
-538.94622698951582
 21
-2722.8821134086461
 31
0.0
  0
LINE
  5
11771
  8
1PHANTOM
 10
-535.14622701564667
 20
-2727.4622781175171
 30
0.0
 11
-542.7462270156467
 21
-2727.4622781175171
 31
0.0
  0
LINE
  5
11772
  8
1PHANTOM
 10
-535.14622701564667
 20
-2726.4622781175181
 30
0.0
 11
-542.7462270156467
 21
-2726.4622781175181
 31
0.0
  0
LINE
  5
11773
  8
1PHANTOM
 10
-535.14622701564667
 20
-2727.4622781175171
 30
0.0
 11
-535.14622701564667
 21
-2726.4622781175181
 31
0.0
  0
LINE
  5
11774
  8
1PHANTOM
 10
-538.44622716564675
 20
-2727.4622781175171
 30
0.0
 11
-539.44622686564674
 21
-2726.4622781175181
 31
0.0
  0
LINE
  5
11775
  8
1PHANTOM
 10
-542.7462270156467
 20
-2727.4622781175171
 30
0.0
 11
-542.7462270156467
 21
-2726.4622781175181
 31
0.0
  0
TEXT
  5
1186A
  8
1TEXT
 10
-641.66523674335099
 20
-2750.4623205044441
 30
0.0
 40
7.0
  1
SA026XC0
  0
ARC
  5
11875
  8
01
 10
-453.4455023844481
 20
-2812.8125526202862
 30
0.0
 40
0.5
 50
359.9996000534249
 51
103.3419637626494
  0
ARC
  5
1187B
  8
01
 10
-526.29711634531805
 20
-2769.9623204895852
 30
0.0
 40
0.5
 50
346.65763627021738
 51
90.0
  0
ARC
  5
1187C
  8
01
 10
-551.59533763371292
 20
-2769.9623204895861
 30
0.0
 40
0.5
 50
90.0
 51
193.34236372978259
  0
TEXT
  5
11921
  8
1DIM1
 10
-499.96857378610781
 20
-2857.4329753379352
 30
0.0
 40
3.5
  1
材質：真鍮
  0
TEXT
  5
11922
  8
1DIM1
 10
-512.33524045277443
 20
-2863.2663086712678
 30
0.0
 40
3.5
  1
仕上げ：クローム
  0
SOLID
  5
11923
  8
1DIM1
 10
-461.18486940055033
 20
-2835.318129563726
 30
0.0
 11
-459.90190711944109
 21
-2833.748059853056
 31
0.0
 12
-460.60630829000303
 22
-2835.6493568056708
 32
0.0
 13
-460.60630829000303
 23
-2835.6493568056708
 33
0.0
  0
LINE
  5
11925
  8
1DIM
 10
-453.44567897577127
 20
-2838.6107739102149
 30
0.0
 11
-474.9455906995754
 21
-2838.6107739102149
 31
0.0
  0
LINE
  5
11926
  8
1DIM
 10
-453.56097529953809
 20
-2812.3260693066641
 30
0.0
 11
-474.9455906995754
 21
-2812.3260693066641
 31
0.0
  0
LINE
  5
11927
  8
1DIM
 10
-473.9455906995754
 20
-2836.6107739102149
 30
0.0
 11
-473.9455906995754
 21
-2814.3260693066641
 31
0.0
  0
TEXT
  5
1192B
  8
1DIM
 10
-504.3483073286057
 20
-2757.5815729985802
 30
0.0
 40
3.5
  1
材質：アクリル樹脂
  0
SOLID
  5
1192C
  8
1DIM
 10
-521.83194645660717
 20
-2742.2587233956551
 30
0.0
 11
-522.888290009402
 21
-2740.5280445087501
 31
0.0
 12
-521.32774484749177
 22
-2741.8225752765379
 32
0.0
 13
-521.32774484749177
 23
-2741.8225752765379
 33
0.0
  0
TEXT
  5
1192E
  8
1DIM
 10
-492.688454322837
 20
-2737.2002724110689
 30
0.0
 40
3.5
  1
材質：亜鉛ダイキャスト
  0
TEXT
  5
1192F
  8
1DIM
 10
-492.688454322837
 20
-2743.0336057444019
 30
0.0
 40
3.5
  1
仕上げ：クローム
  0
SOLID
  5
11930
  8
1DIM
 10
-513.42489954077894
 20
-2729.5612535506548
 30
0.0
 11
-514.76964185143163
 21
-2728.0437624537949
 31
0.0
 12
-513.00542903967005
 22
-2729.0430943635861
 32
0.0
 13
-513.00542903967005
 23
-2729.0430943635861
 33
0.0
  0
LINE
  5
11932
  8
1CENTER
 10
-549.44622698951582
 20
-2696.507781926879
 30
0.0
 11
-549.44622698951582
 21
-2729.3409149742538
 31
0.0
  0
LINE
  5
11934
  8
0
 10
-551.44618045361779
 20
-2713.0622734641429
 30
0.0
 11
-547.44618045361779
 21
-2712.2622827713199
 31
0.0
  0
LINE
  5
11935
  8
0
 10
-550.99336431155916
 20
-2701.6622745177528
 30
0.0
 11
-548.12540161022855
 21
-2700.8622811909131
 31
0.0
  0
LINE
  5
11936
  8
0
 10
-548.57821571463535
 20
-2699.2622801373059
 30
0.0
 11
-549.16649228967776
 21
-2698.9505102810549
 31
0.0
  0
LINE
  5
11937
  8
0
 10
-550.08337896287969
 20
-2700.2137113677982
 30
0.0
 11
-550.54055080351077
 21
-2700.062275571358
 31
0.0
  0
LINE
  5
11938
  8
0
 10
-548.12540161022855
 20
-2700.8622811909131
 30
0.0
 11
-548.67715107403194
 21
-2700.6795170482842
 31
0.0
  0
LINE
  5
11939
  8
0
 10
-550.54055080351077
 20
-2700.062275571358
 30
0.0
 11
-548.57821571463535
 21
-2699.2622801373059
 31
0.0
  0
LINE
  5
1193A
  8
0
 10
-550.94618045361779
 20
-2705.1622746275398
 30
0.0
 11
-551.44618045361779
 21
-2705.0622734641429
 31
0.0
  0
LINE
  5
1193B
  8
0
 10
-551.44618045361779
 20
-2705.0622734641429
 30
0.0
 11
-547.44618045361779
 21
-2704.2622827713199
 31
0.0
  0
LINE
  5
1193C
  8
0
 10
-547.44618045361779
 20
-2704.2622827713199
 30
0.0
 11
-547.94618045361779
 21
-2704.162281607923
 31
0.0
  0
LINE
  5
1193D
  8
0
 10
-550.94618045361779
 20
-2706.7622746275401
 30
0.0
 11
-551.44618045361779
 21
-2706.6622734641428
 31
0.0
  0
LINE
  5
1193E
  8
0
 10
-547.44618045361779
 20
-2705.8622827713211
 30
0.0
 11
-547.94618045361779
 21
-2705.7622816079238
 31
0.0
  0
LINE
  5
1193F
  8
0
 10
-551.44618045361779
 20
-2706.6622734641428
 30
0.0
 11
-547.44618045361779
 21
-2705.8622827713211
 31
0.0
  0
LINE
  5
11940
  8
0
 10
-550.94618045361779
 20
-2708.36227462754
 30
0.0
 11
-551.44618045361779
 21
-2708.2622734641432
 31
0.0
  0
LINE
  5
11941
  8
0
 10
-551.44618045361779
 20
-2708.2622734641432
 30
0.0
 11
-547.44618045361779
 21
-2707.462282771321
 31
0.0
  0
LINE
  5
11942
  8
0
 10
-547.44618045361779
 20
-2707.462282771321
 30
0.0
 11
-547.94618045361779
 21
-2707.3622816079228
 31
0.0
  0
LINE
  5
11943
  8
0
 10
-550.94618045361779
 20
-2703.36227462754
 30
0.0
 11
-551.44618045361779
 21
-2703.2622734641432
 31
0.0
  0
LINE
  5
11944
  8
0
 10
-550.52526585640908
 20
-2701.7750440301038
 30
0.0
 11
-550.99336431155916
 21
-2701.6622745177528
 31
0.0
  0
LINE
  5
11945
  8
0
 10
-547.67258750582175
 20
-2702.4622822445181
 30
0.0
 11
-548.20918124109301
 21
-2702.333011546888
 31
0.0
  0
LINE
  5
11946
  8
0
 10
-551.44618045361779
 20
-2703.2622734641432
 30
0.0
 11
-547.67258750582175
 21
-2702.4622822445181
 31
0.0
  0
LINE
  5
11947
  8
0
 10
-550.94618045361779
 20
-2711.5622746275399
 30
0.0
 11
-551.44618045361779
 21
-2711.462273464143
 31
0.0
  0
LINE
  5
11948
  8
0
 10
-547.44618045361779
 20
-2710.6622827713209
 30
0.0
 11
-547.94618045361779
 21
-2710.562281607924
 31
0.0
  0
LINE
  5
11949
  8
0
 10
-547.44618045361779
 20
-2709.06228277132
 30
0.0
 11
-547.94618045361779
 21
-2708.9622816079232
 31
0.0
  0
LINE
  5
1194A
  8
0
 10
-550.94618045361779
 20
-2709.96227462754
 30
0.0
 11
-551.44618045361779
 21
-2709.8622734641431
 31
0.0
  0
LINE
  5
1194B
  8
0
 10
-551.44618045361779
 20
-2709.8622734641431
 30
0.0
 11
-547.44618045361779
 21
-2709.06228277132
 31
0.0
  0
LINE
  5
1194C
  8
0
 10
-551.44618045361779
 20
-2711.462273464143
 30
0.0
 11
-547.44618045361779
 21
-2710.6622827713209
 31
0.0
  0
LINE
  5
1194D
  8
0
 10
-547.44618045361779
 20
-2712.2622827713199
 30
0.0
 11
-547.94618045361779
 21
-2712.162281607923
 31
0.0
  0
LINE
  5
1194E
  8
0
 10
-553.44622698951582
 20
-2727.6622688103371
 30
0.0
 11
-545.44622698951582
 21
-2727.6622874246959
 31
0.0
  0
LINE
  5
1194F
  8
0
 10
-551.44618045361779
 20
-2724.2622734641468
 30
0.0
 11
-547.44618045361779
 21
-2723.4622827713288
 31
0.0
  0
LINE
  5
11950
  8
0
 10
-550.94618045361779
 20
-2722.762274627541
 30
0.0
 11
-551.44618045361779
 21
-2722.6622734641428
 31
0.0
  0
LINE
  5
11951
  8
0
 10
-547.44618045361779
 20
-2723.4622827713288
 30
0.0
 11
-547.94618045361779
 21
-2723.362281607931
 31
0.0
  0
LINE
  5
11952
  8
0
 10
-550.94618045361779
 20
-2719.5622746275408
 30
0.0
 11
-551.44618045361779
 21
-2719.462273464143
 31
0.0
  0
LINE
  5
11953
  8
0
 10
-551.44618045361779
 20
-2721.0622734641429
 30
0.0
 11
-547.44618045361779
 21
-2720.2622827713249
 31
0.0
  0
LINE
  5
11954
  8
0
 10
-547.44618045361779
 20
-2720.2622827713249
 30
0.0
 11
-547.94618045361779
 21
-2720.1622816079271
 31
0.0
  0
LINE
  5
11955
  8
0
 10
-550.94618045361779
 20
-2721.1622746275411
 30
0.0
 11
-551.44618045361779
 21
-2721.0622734641429
 31
0.0
  0
LINE
  5
11956
  8
0
 10
-547.44618045361779
 20
-2721.8622827713252
 30
0.0
 11
-547.94618045361779
 21
-2721.762281607927
 31
0.0
  0
LINE
  5
11957
  8
0
 10
-547.44618045361779
 20
-2717.062282771321
 30
0.0
 11
-547.94618045361779
 21
-2716.9622816079232
 31
0.0
  0
LINE
  5
11958
  8
0
 10
-547.44618045361779
 20
-2718.662282771325
 30
0.0
 11
-547.94618045361779
 21
-2718.5622816079281
 31
0.0
  0
LINE
  5
11959
  8
0
 10
-550.94618045361779
 20
-2717.9622746275409
 30
0.0
 11
-551.44618045361779
 21
-2717.8622734641431
 31
0.0
  0
LINE
  5
1195A
  8
0
 10
-550.94618045361779
 20
-2716.36227462754
 30
0.0
 11
-551.44618045361779
 21
-2716.2622734641432
 31
0.0
  0
LINE
  5
1195B
  8
0
 10
-551.44618045361779
 20
-2717.8622734641431
 30
0.0
 11
-547.44618045361779
 21
-2717.062282771321
 31
0.0
  0
LINE
  5
1195C
  8
0
 10
-551.44618045361779
 20
-2719.462273464143
 30
0.0
 11
-547.44618045361779
 21
-2718.662282771325
 31
0.0
  0
LINE
  5
1195D
  8
0
 10
-551.44618045361779
 20
-2722.6622734641428
 30
0.0
 11
-547.44618045361779
 21
-2721.8622827713252
 31
0.0
  0
LINE
  5
1195E
  8
0
 10
-547.44618045361779
 20
-2715.462282771321
 30
0.0
 11
-547.94618045361779
 21
-2715.3622816079228
 31
0.0
  0
LINE
  5
1195F
  8
0
 10
-547.44618045361779
 20
-2713.8622827713202
 30
0.0
 11
-547.94618045361779
 21
-2713.7622816079238
 31
0.0
  0
LINE
  5
11960
  8
0
 10
-550.94618045361779
 20
-2714.762274627541
 30
0.0
 11
-551.44618045361779
 21
-2714.6622734641428
 31
0.0
  0
LINE
  5
11961
  8
0
 10
-550.94618045361779
 20
-2713.1622746275411
 30
0.0
 11
-551.44618045361779
 21
-2713.0622734641429
 31
0.0
  0
LINE
  5
11962
  8
0
 10
-551.44618045361779
 20
-2714.6622734641428
 30
0.0
 11
-547.44618045361779
 21
-2713.8622827713202
 31
0.0
  0
LINE
  5
11963
  8
0
 10
-551.44618045361779
 20
-2716.2622734641432
 30
0.0
 11
-547.44618045361779
 21
-2715.462282771321
 31
0.0
  0
LINE
  5
11964
  8
0
 10
-550.94618045361779
 20
-2724.362274627545
 30
0.0
 11
-551.44618045361779
 21
-2724.2622734641468
 31
0.0
  0
LINE
  5
11965
  8
0
 10
-547.44618045361779
 20
-2725.0622827713291
 30
0.0
 11
-547.94618045361779
 21
-2724.9622816079309
 31
0.0
  0
LINE
  5
11966
  8
0
 10
-547.94618045361779
 20
-2725.1622816079321
 30
0.0
 11
-547.44618045361779
 21
-2725.0622827713291
 31
0.0
  0
LINE
  5
11968
  8
1CENTER
 10
-538.94622704177766
 20
-2694.5013635263708
 30
0.0
 11
-538.94622704177766
 21
-2731.132554526826
 31
0.0
  0
LINE
  5
11969
  8
0
 10
-540.04055085577284
 20
-2699.562275571358
 30
0.0
 11
-538.0782157668973
 21
-2698.7622801373068
 31
0.0
  0
LINE
  5
1196A
  8
0
 10
-538.0782157668973
 20
-2698.7622801373068
 30
0.0
 11
-538.66649234193983
 21
-2698.450510281054
 31
0.0
  0
LINE
  5
1196B
  8
0
 10
-540.94618050587985
 20
-2721.962273464148
 30
0.0
 11
-536.94618050587985
 21
-2721.162282771329
 31
0.0
  0
LINE
  5
1196C
  8
0
 10
-540.94618050587985
 20
-2710.7622734641432
 30
0.0
 11
-536.94618050587985
 21
-2709.962282771321
 31
0.0
  0
LINE
  5
1196D
  8
0
 10
-540.94618050587985
 20
-2707.5622734641429
 30
0.0
 11
-536.94618050587985
 21
-2706.7622827713199
 31
0.0
  0
LINE
  5
1196E
  8
0
 10
-536.94618050587985
 20
-2706.7622827713199
 30
0.0
 11
-537.44618050587985
 21
-2706.662281607923
 31
0.0
  0
LINE
  5
1196F
  8
0
 10
-540.44618050587985
 20
-2706.0622746275399
 30
0.0
 11
-540.94618050587985
 21
-2705.962273464143
 31
0.0
  0
LINE
  5
11970
  8
0
 10
-536.94618050587985
 20
-2709.962282771321
 30
0.0
 11
-537.44618050587985
 21
-2709.8622816079228
 31
0.0
  0
LINE
  5
11971
  8
0
 10
-536.94618050587985
 20
-2708.3622827713202
 30
0.0
 11
-537.44618050587985
 21
-2708.2622816079238
 31
0.0
  0
LINE
  5
11972
  8
0
 10
-540.44618050587985
 20
-2707.6622746275411
 30
0.0
 11
-540.94618050587985
 21
-2707.5622734641429
 31
0.0
  0
LINE
  5
11973
  8
0
 10
-540.44618050587985
 20
-2709.2622746275401
 30
0.0
 11
-540.94618050587985
 21
-2709.1622734641428
 31
0.0
  0
LINE
  5
11974
  8
0
 10
-540.94618050587985
 20
-2709.1622734641428
 30
0.0
 11
-536.94618050587985
 21
-2708.3622827713202
 31
0.0
  0
LINE
  5
11975
  8
0
 10
-537.62540166249062
 20
-2700.3622811909122
 30
0.0
 11
-538.17715112629389
 21
-2700.1795170482842
 31
0.0
  0
LINE
  5
11976
  8
0
 10
-536.94618050587985
 20
-2703.562282771321
 30
0.0
 11
-537.44618050587985
 21
-2703.4622816079232
 31
0.0
  0
LINE
  5
11977
  8
0
 10
-536.94618050587985
 20
-2705.1622827713209
 30
0.0
 11
-537.44618050587985
 21
-2705.062281607924
 31
0.0
  0
LINE
  5
11978
  8
0
 10
-537.17258755808382
 20
-2701.9622822445172
 30
0.0
 11
-537.70918129335485
 21
-2701.833011546888
 31
0.0
  0
LINE
  5
11979
  8
0
 10
-540.02526590867114
 20
-2701.2750440301029
 30
0.0
 11
-540.493364363821
 21
-2701.1622745177528
 31
0.0
  0
LINE
  5
1197A
  8
0
 10
-540.44618050587985
 20
-2704.46227462754
 30
0.0
 11
-540.94618050587985
 21
-2704.3622734641431
 31
0.0
  0
LINE
  5
1197B
  8
0
 10
-540.44618050587985
 20
-2702.86227462754
 30
0.0
 11
-540.94618050587985
 21
-2702.7622734641441
 31
0.0
  0
LINE
  5
1197C
  8
0
 10
-539.58337901514165
 20
-2699.7137113677982
 30
0.0
 11
-540.04055085577284
 21
-2699.562275571358
 31
0.0
  0
LINE
  5
1197D
  8
0
 10
-540.493364363821
 20
-2701.1622745177528
 30
0.0
 11
-537.62540166249062
 21
-2700.3622811909122
 31
0.0
  0
LINE
  5
1197E
  8
0
 10
-540.94618050587985
 20
-2704.3622734641431
 30
0.0
 11
-536.94618050587985
 21
-2703.562282771321
 31
0.0
  0
LINE
  5
1197F
  8
0
 10
-540.94618050587985
 20
-2702.7622734641441
 30
0.0
 11
-537.17258755808382
 21
-2701.9622822445172
 31
0.0
  0
LINE
  5
11980
  8
0
 10
-540.94618050587985
 20
-2705.962273464143
 30
0.0
 11
-536.94618050587985
 21
-2705.1622827713209
 31
0.0
  0
LINE
  5
11981
  8
0
 10
-540.94618050587985
 20
-2718.7622734641468
 30
0.0
 11
-536.94618050587985
 21
-2717.9622827713288
 31
0.0
  0
LINE
  5
11982
  8
0
 10
-536.94618050587985
 20
-2717.9622827713288
 30
0.0
 11
-537.44618050587985
 21
-2717.8622816079319
 31
0.0
  0
LINE
  5
11983
  8
0
 10
-540.44618050587985
 20
-2717.262274627541
 30
0.0
 11
-540.94618050587985
 21
-2717.1622734641428
 31
0.0
  0
LINE
  5
11984
  8
0
 10
-536.94618050587985
 20
-2719.56228277133
 30
0.0
 11
-537.44618050587985
 21
-2719.4622816079318
 31
0.0
  0
LINE
  5
11985
  8
0
 10
-536.94618050587985
 20
-2721.162282771329
 30
0.0
 11
-537.44618050587985
 21
-2721.0622816079308
 31
0.0
  0
LINE
  5
11986
  8
0
 10
-540.44618050587985
 20
-2718.862274627545
 30
0.0
 11
-540.94618050587985
 21
-2718.7622734641468
 31
0.0
  0
LINE
  5
11987
  8
0
 10
-540.44618050587985
 20
-2720.462274627545
 30
0.0
 11
-540.94618050587985
 21
-2720.3622734641481
 31
0.0
  0
LINE
  5
11988
  8
0
 10
-540.94618050587985
 20
-2720.3622734641481
 30
0.0
 11
-536.94618050587985
 21
-2719.56228277133
 31
0.0
  0
LINE
  5
11989
  8
0
 10
-536.94618050587985
 20
-2713.162282771325
 30
0.0
 11
-537.44618050587985
 21
-2713.0622816079272
 31
0.0
  0
LINE
  5
1198A
  8
0
 10
-536.94618050587985
 20
-2711.562282771321
 30
0.0
 11
-537.44618050587985
 21
-2711.4622816079241
 31
0.0
  0
LINE
  5
1198B
  8
0
 10
-536.94618050587985
 20
-2716.3622827713252
 30
0.0
 11
-537.44618050587985
 21
-2716.262281607927
 31
0.0
  0
LINE
  5
1198C
  8
0
 10
-536.94618050587985
 20
-2714.7622827713249
 30
0.0
 11
-537.44618050587985
 21
-2714.6622816079271
 31
0.0
  0
LINE
  5
1198D
  8
0
 10
-540.44618050587985
 20
-2710.86227462754
 30
0.0
 11
-540.94618050587985
 21
-2710.7622734641432
 31
0.0
  0
LINE
  5
1198E
  8
0
 10
-540.44618050587985
 20
-2712.4622746275409
 30
0.0
 11
-540.94618050587985
 21
-2712.3622734641431
 31
0.0
  0
LINE
  5
1198F
  8
0
 10
-540.44618050587985
 20
-2715.6622746275411
 30
0.0
 11
-540.94618050587985
 21
-2715.5622734641429
 31
0.0
  0
LINE
  5
11990
  8
0
 10
-540.44618050587985
 20
-2714.0622746275408
 30
0.0
 11
-540.94618050587985
 21
-2713.962273464143
 31
0.0
  0
LINE
  5
11991
  8
0
 10
-540.94618050587985
 20
-2713.962273464143
 30
0.0
 11
-536.94618050587985
 21
-2713.162282771325
 31
0.0
  0
LINE
  5
11992
  8
0
 10
-540.94618050587985
 20
-2712.3622734641431
 30
0.0
 11
-536.94618050587985
 21
-2711.562282771321
 31
0.0
  0
LINE
  5
11993
  8
0
 10
-540.94618050587985
 20
-2715.5622734641429
 30
0.0
 11
-536.94618050587985
 21
-2714.7622827713249
 31
0.0
  0
LINE
  5
11994
  8
0
 10
-540.94618050587985
 20
-2717.1622734641428
 30
0.0
 11
-536.94618050587985
 21
-2716.3622827713252
 31
0.0
  0
LINE
  5
11995
  8
0
 10
-537.44618050587985
 20
-2727.4622816078181
 30
0.0
 11
-540.44618050587962
 21
-2727.4622746274331
 31
0.0
  0
LINE
  5
11996
  8
0
 10
-540.44618050587985
 20
-2726.8622746275501
 30
0.0
 11
-540.94618050587985
 21
-2726.7622734641518
 31
0.0
  0
LINE
  5
11997
  8
0
 10
-540.94618050587985
 20
-2726.7622734641518
 30
0.0
 11
-536.94618050587985
 21
-2725.9622827713329
 31
0.0
  0
LINE
  5
11998
  8
0
 10
-536.94618050587985
 20
-2725.9622827713329
 30
0.0
 11
-537.44618050587985
 21
-2725.862281607936
 31
0.0
  0
LINE
  5
11999
  8
0
 10
-540.44618050587985
 20
-2725.2622746275488
 30
0.0
 11
-540.94618050587985
 21
-2725.1622734641519
 31
0.0
  0
LINE
  5
1199A
  8
0
 10
-540.44618050587985
 20
-2723.6622746275498
 30
0.0
 11
-540.94618050587985
 21
-2723.562273464152
 31
0.0
  0
LINE
  5
1199B
  8
0
 10
-540.94618050587985
 20
-2723.562273464152
 30
0.0
 11
-536.94618050587985
 21
-2722.762282771334
 31
0.0
  0
LINE
  5
1199C
  8
0
 10
-536.94618050587985
 20
-2724.3622827713339
 30
0.0
 11
-537.44618050587985
 21
-2724.2622816079361
 31
0.0
  0
LINE
  5
1199D
  8
0
 10
-536.94618050587985
 20
-2722.762282771334
 30
0.0
 11
-537.44618050587985
 21
-2722.6622816079362
 31
0.0
  0
LINE
  5
1199E
  8
0
 10
-540.94618050587985
 20
-2725.1622734641519
 30
0.0
 11
-536.94618050587985
 21
-2724.3622827713339
 31
0.0
  0
LINE
  5
1199F
  8
0
 10
-540.44618050587985
 20
-2722.0622746275449
 30
0.0
 11
-540.94618050587985
 21
-2721.962273464148
 31
0.0
  0
LINE
  5
119A0
  8
1DIM
 10
-410.4455483126489
 20
-2850.4623204963459
 30
0.0
 11
-484.9455906995758
 21
-2850.4623204963459
 31
0.0
  0
LINE
  5
119A1
  8
1DIM
 10
-410.4455483126489
 20
-2800.4623204963459
 30
0.0
 11
-484.9455906995758
 21
-2800.4623204963459
 31
0.0
  0
LINE
  5
119A2
  8
1DIM
 10
-483.9455906995758
 20
-2848.4623204963459
 30
0.0
 11
-483.9455906995758
 21
-2802.4623204963459
 31
0.0
  0
LINE
  5
119A6
  8
1DIM
 10
-407.9455483126489
 20
-2850.4841376658228
 30
0.0
 11
-407.9455483126489
 21
-2861.4841376658228
 31
0.0
  0
LINE
  5
119A7
  8
1DIM
 10
-425.9455483126489
 20
-2837.9928170806761
 30
0.0
 11
-425.9455483126489
 21
-2861.4841376658228
 31
0.0
  0
LINE
  5
119A8
  8
1DIM
 10
-409.9455483126489
 20
-2860.4841376658228
 30
0.0
 11
-423.9455483126489
 21
-2860.4841376658228
 31
0.0
  0
LINE
  5
119AC
  8
1CENTER
 10
-379.9910521220109
 20
-2825.4623204963459
 30
0.0
 11
-412.8241851693856
 21
-2825.4623204963459
 31
0.0
  0
LINE
  5
119AE
  8
0
 10
-396.54554365927481
 20
-2823.4623670322439
 30
0.0
 11
-395.74555296645218
 21
-2827.4623670322439
 31
0.0
  0
LINE
  5
119AF
  8
0
 10
-385.145544712885
 20
-2823.9151831743029
 30
0.0
 11
-384.34555138604378
 21
-2826.7831458756341
 31
0.0
  0
LINE
  5
119B0
  8
0
 10
-382.7455503324382
 20
-2826.3303317712262
 30
0.0
 11
-382.43378047618609
 21
-2825.742055196185
 31
0.0
  0
LINE
  5
119B1
  8
0
 10
-383.69698156292958
 20
-2824.825168522982
 30
0.0
 11
-383.54554576648923
 21
-2824.3679966823511
 31
0.0
  0
LINE
  5
119B2
  8
0
 10
-384.34555138604378
 20
-2826.7831458756341
 30
0.0
 11
-384.16278724341589
 21
-2826.2313964118298
 31
0.0
  0
LINE
  5
119B3
  8
0
 10
-383.54554576648923
 20
-2824.3679966823511
 30
0.0
 11
-382.7455503324382
 21
-2826.3303317712262
 31
0.0
  0
LINE
  5
119B4
  8
0
 10
-388.64554482267181
 20
-2823.9623670322439
 30
0.0
 11
-388.5455436592747
 21
-2823.4623670322439
 31
0.0
  0
LINE
  5
119B5
  8
0
 10
-388.5455436592747
 20
-2823.4623670322439
 30
0.0
 11
-387.74555296645212
 21
-2827.4623670322439
 31
0.0
  0
LINE
  5
119B6
  8
0
 10
-387.74555296645212
 20
-2827.4623670322439
 30
0.0
 11
-387.6455518030549
 21
-2826.9623670322439
 31
0.0
  0
LINE
  5
119B7
  8
0
 10
-390.24554482267177
 20
-2823.9623670322439
 30
0.0
 11
-390.14554365927472
 21
-2823.4623670322439
 31
0.0
  0
LINE
  5
119B8
  8
0
 10
-389.34555296645209
 20
-2827.4623670322439
 30
0.0
 11
-389.24555180305498
 21
-2826.9623670322439
 31
0.0
  0
LINE
  5
119B9
  8
0
 10
-390.14554365927472
 20
-2823.4623670322439
 30
0.0
 11
-389.34555296645209
 21
-2827.4623670322439
 31
0.0
  0
LINE
  5
119BA
  8
0
 10
-391.8455448226718
 20
-2823.9623670322439
 30
0.0
 11
-391.74554365927469
 21
-2823.4623670322439
 31
0.0
  0
LINE
  5
119BB
  8
0
 10
-391.74554365927469
 20
-2823.4623670322439
 30
0.0
 11
-390.94555296645211
 21
-2827.4623670322439
 31
0.0
  0
LINE
  5
119BC
  8
0
 10
-390.94555296645211
 20
-2827.4623670322439
 30
0.0
 11
-390.845551803055
 21
-2826.9623670322439
 31
0.0
  0
LINE
  5
119BD
  8
0
 10
-386.84554482267191
 20
-2823.9623670322439
 30
0.0
 11
-386.7455436592748
 21
-2823.4623670322439
 31
0.0
  0
LINE
  5
119BE
  8
0
 10
-385.25831422523498
 20
-2824.383281629453
 30
0.0
 11
-385.145544712885
 21
-2823.9151831743029
 31
0.0
  0
LINE
  5
119BF
  8
0
 10
-385.94555243964948
 20
-2827.2359599800402
 30
0.0
 11
-385.81628174201961
 21
-2826.699366244769
 31
0.0
  0
LINE
  5
119C0
  8
0
 10
-386.7455436592748
 20
-2823.4623670322439
 30
0.0
 11
-385.94555243964948
 21
-2827.2359599800402
 31
0.0
  0
LINE
  5
119C1
  8
0
 10
-395.0455448226719
 20
-2823.9623670322439
 30
0.0
 11
-394.94554365927468
 21
-2823.4623670322439
 31
0.0
  0
LINE
  5
119C2
  8
0
 10
-394.1455529664521
 20
-2827.4623670322439
 30
0.0
 11
-394.04555180305522
 21
-2826.9623670322439
 31
0.0
  0
LINE
  5
119C3
  8
0
 10
-392.54555296645208
 20
-2827.4623670322439
 30
0.0
 11
-392.44555180305503
 21
-2826.9623670322439
 31
0.0
  0
LINE
  5
119C4
  8
0
 10
-393.44554482267182
 20
-2823.9623670322439
 30
0.0
 11
-393.34554365927471
 21
-2823.4623670322439
 31
0.0
  0
LINE
  5
119C5
  8
0
 10
-393.34554365927471
 20
-2823.4623670322439
 30
0.0
 11
-392.54555296645208
 21
-2827.4623670322439
 31
0.0
  0
LINE
  5
119C6
  8
0
 10
-394.94554365927468
 20
-2823.4623670322439
 30
0.0
 11
-394.1455529664521
 21
-2827.4623670322439
 31
0.0
  0
LINE
  5
119C7
  8
0
 10
-395.74555296645218
 20
-2827.4623670322439
 30
0.0
 11
-395.64555180305501
 21
-2826.9623670322439
 31
0.0
  0
LINE
  5
119C8
  8
0
 10
-411.14553900546832
 20
-2821.4623204963459
 30
0.0
 11
-411.1455576198274
 21
-2829.4623204963459
 31
0.0
  0
LINE
  5
119C9
  8
0
 10
-407.74554365927901
 20
-2823.4623670322439
 30
0.0
 11
-406.94555296646081
 21
-2827.4623670322439
 31
0.0
  0
LINE
  5
119CA
  8
0
 10
-406.2455448226724
 20
-2823.9623670322439
 30
0.0
 11
-406.14554365927478
 21
-2823.4623670322439
 31
0.0
  0
LINE
  5
119CB
  8
0
 10
-406.94555296646081
 20
-2827.4623670322439
 30
0.0
 11
-406.84555180306307
 21
-2826.9623670322439
 31
0.0
  0
LINE
  5
119CC
  8
0
 10
-403.04554482267241
 20
-2823.9623670322439
 30
0.0
 11
-402.94554365927468
 21
-2823.4623670322439
 31
0.0
  0
LINE
  5
119CD
  8
0
 10
-404.54554365927493
 20
-2823.4623670322439
 30
0.0
 11
-403.74555296645661
 21
-2827.4623670322439
 31
0.0
  0
LINE
  5
119CE
  8
0
 10
-403.74555296645661
 20
-2827.4623670322439
 30
0.0
 11
-403.64555180305888
 21
-2826.9623670322439
 31
0.0
  0
LINE
  5
119CF
  8
0
 10
-404.64554482267249
 20
-2823.9623670322439
 30
0.0
 11
-404.54554365927493
 21
-2823.4623670322439
 31
0.0
  0
LINE
  5
119D0
  8
0
 10
-405.34555296645652
 20
-2827.4623670322439
 30
0.0
 11
-405.24555180305879
 21
-2826.9623670322439
 31
0.0
  0
LINE
  5
119D1
  8
0
 10
-400.54555296645208
 20
-2827.4623670322439
 30
0.0
 11
-400.44555180305503
 21
-2826.9623670322439
 31
0.0
  0
LINE
  5
119D2
  8
0
 10
-402.14555296645648
 20
-2827.4623670322439
 30
0.0
 11
-402.0455518030588
 21
-2826.9623670322439
 31
0.0
  0
LINE
  5
119D3
  8
0
 10
-401.44554482267239
 20
-2823.9623670322439
 30
0.0
 11
-401.34554365927471
 21
-2823.4623670322439
 31
0.0
  0
LINE
  5
119D4
  8
0
 10
-399.84554482267191
 20
-2823.9623670322439
 30
0.0
 11
-399.7455436592748
 21
-2823.4623670322439
 31
0.0
  0
LINE
  5
119D5
  8
0
 10
-401.34554365927471
 20
-2823.4623670322439
 30
0.0
 11
-400.54555296645208
 21
-2827.4623670322439
 31
0.0
  0
LINE
  5
119D6
  8
0
 10
-402.94554365927468
 20
-2823.4623670322439
 30
0.0
 11
-402.14555296645648
 21
-2827.4623670322439
 31
0.0
  0
LINE
  5
119D7
  8
0
 10
-406.14554365927478
 20
-2823.4623670322439
 30
0.0
 11
-405.34555296645652
 21
-2827.4623670322439
 31
0.0
  0
LINE
  5
119D8
  8
0
 10
-398.94555296645223
 20
-2827.4623670322439
 30
0.0
 11
-398.845551803055
 21
-2826.9623670322439
 31
0.0
  0
LINE
  5
119D9
  8
0
 10
-397.34555296645209
 20
-2827.4623670322439
 30
0.0
 11
-397.24555180305498
 21
-2826.9623670322439
 31
0.0
  0
LINE
  5
119DA
  8
0
 10
-398.24554482267177
 20
-2823.9623670322439
 30
0.0
 11
-398.14554365927472
 21
-2823.4623670322439
 31
0.0
  0
LINE
  5
119DB
  8
0
 10
-396.64554482267192
 20
-2823.9623670322439
 30
0.0
 11
-396.54554365927481
 21
-2823.4623670322439
 31
0.0
  0
LINE
  5
119DC
  8
0
 10
-398.14554365927472
 20
-2823.4623670322439
 30
0.0
 11
-397.34555296645209
 21
-2827.4623670322439
 31
0.0
  0
LINE
  5
119DD
  8
0
 10
-399.7455436592748
 20
-2823.4623670322439
 30
0.0
 11
-398.94555296645223
 21
-2827.4623670322439
 31
0.0
  0
LINE
  5
119DE
  8
0
 10
-407.84554482267669
 20
-2823.9623670322439
 30
0.0
 11
-407.74554365927901
 21
-2823.4623670322439
 31
0.0
  0
LINE
  5
119DF
  8
0
 10
-408.545552966461
 20
-2827.4623670322439
 30
0.0
 11
-408.44555180306332
 21
-2826.9623670322439
 31
0.0
  0
LINE
  5
119E0
  8
0
 10
-408.6455518030632
 20
-2826.9623670322439
 30
0.0
 11
-408.545552966461
 21
-2827.4623670322439
 31
0.0
  0
LINE
  5
119E1
  8
1CENTER
 10
-425.9455483126489
 20
-2837.9928170806761
 30
0.0
 11
-425.9455483126489
 21
-2828.0335759763361
 31
0.0
  0
LINE
  5
119E5
  8
1HATCH
 10
-428.4455483126489
 20
-2836.996589393993
 30
0.0
 11
-428.4455483126489
 21
-2830.7465885939928
 31
0.0
  0
LINE
  5
119E6
  8
1HATCH
 10
-423.4455483126489
 20
-2836.996589393993
 30
0.0
 11
-423.4455483126489
 21
-2830.7465885939928
 31
0.0
  0
LINE
  5
119E7
  8
0
 10
-428.9455483126489
 20
-2836.496589393993
 30
0.0
 11
-428.9455483126489
 21
-2830.996589393993
 31
0.0
  0
LINE
  5
119E8
  8
0
 10
-422.9455483126489
 20
-2836.496589393993
 30
0.0
 11
-422.9455483126489
 21
-2830.996589393993
 31
0.0
  0
LINE
  5
119E9
  8
1HATCH
 10
-428.1490526126488
 20
-2836.9869271939929
 30
0.0
 11
-427.34007686158208
 21
-2834.9965898939931
 31
0.0
  0
LINE
  5
119EA
  8
1HATCH
 10
-424.53806661020991
 20
-2834.9965898939931
 30
0.0
 11
-423.69383071264889
 21
-2836.9745141939929
 31
0.0
  0
LINE
  5
119EB
  8
0
 10
-428.44554711264891
 20
-2836.9965883939931
 30
0.0
 11
-428.94554761264891
 21
-2836.4965879939932
 31
0.0
  0
LINE
  5
119EC
  8
0
 10
-423.4455483126489
 20
-2836.996589393993
 30
0.0
 11
-428.4455483126489
 21
-2836.996589393993
 31
0.0
  0
LINE
  5
119ED
  8
0
 10
-423.44554571264888
 20
-2836.9965888939928
 30
0.0
 11
-422.9455516126489
 21
-2836.496594593993
 31
0.0
  0
LINE
  5
119EF
  8
0
 10
-428.9455483126489
 20
-2830.9965875939929
 30
0.0
 11
-427.9455483126489
 21
-2830.496589393993
 31
0.0
  0
LINE
  5
119F0
  8
0
 10
-422.9455483126489
 20
-2830.9965875939929
 30
0.0
 11
-423.9455483126489
 21
-2830.496589393993
 31
0.0
  0
LINE
  5
119F1
  8
1HATCH
 10
-423.9455483126489
 20
-2830.496589393993
 30
0.0
 11
-427.9455483126489
 21
-2830.496589393993
 31
0.0
  0
ARC
  5
119F2
  8
0
 10
-427.4455483126489
 20
-2829.496589393993
 30
0.0
 40
0.5
 50
90.0
 51
180.00000300001071
  0
LINE
  5
119F3
  8
0
 10
-427.9455483126489
 20
-2830.496589393993
 30
0.0
 11
-427.9455483126489
 21
-2829.4965894201732
 31
0.0
  0
LINE
  5
119F4
  8
0
 10
-423.9455483126489
 20
-2830.496589393993
 30
0.0
 11
-423.9455483126489
 21
-2829.496589393993
 31
0.0
  0
ARC
  5
119F5
  8
0
 10
-424.4455483126489
 20
-2829.496589393993
 30
0.0
 40
0.5
 50
0.0
 51
90.0
  0
LINE
  5
119F6
  8
0
 10
-424.4455483126489
 20
-2828.996589393993
 30
0.0
 11
-427.4455483126489
 21
-2828.996589393993
 31
0.0
  0
LINE
  5
119F7
  8
1HATCH
 10
-424.53806661020991
 20
-2834.9965898939931
 30
0.0
 11
-427.34007686158208
 21
-2834.9965898939931
 31
0.0
  0
POINT
  5
119F8
  8
0
 10
-425.9455483126489
 20
-2828.996589393993
 30
0.0
  0
LINE
  5
119FA
  8
1CENTER
 10
-377.98463371849948
 20
-2816.4623204440841
 30
0.0
 11
-414.61582471895451
 21
-2816.4623204440841
 31
0.0
  0
LINE
  5
119FB
  8
0
 10
-383.04554576348579
 20
-2815.3679966300888
 30
0.0
 11
-382.24555032943482
 21
-2817.3303317189639
 31
0.0
  0
LINE
  5
119FC
  8
0
 10
-382.24555032943482
 20
-2817.3303317189639
 30
0.0
 11
-381.93378047318271
 21
-2816.7420551439218
 31
0.0
  0
LINE
  5
119FD
  8
0
 10
-405.44554365627579
 20
-2814.4623669799821
 30
0.0
 11
-404.64555296345748
 21
-2818.462366979983
 31
0.0
  0
LINE
  5
119FE
  8
0
 10
-394.24554365627142
 20
-2814.4623669799821
 30
0.0
 11
-393.44555296344879
 21
-2818.462366979983
 31
0.0
  0
LINE
  5
119FF
  8
0
 10
-391.04554365627138
 20
-2814.4623669799821
 30
0.0
 11
-390.2455529634488
 21
-2818.462366979983
 31
0.0
  0
LINE
  5
11A00
  8
0
 10
-390.2455529634488
 20
-2818.462366979983
 30
0.0
 11
-390.14555180005158
 21
-2817.9623669799821
 31
0.0
  0
LINE
  5
11A01
  8
0
 10
-389.54554481966858
 20
-2814.9623669799821
 30
0.0
 11
-389.44554365627141
 21
-2814.4623669799821
 31
0.0
  0
LINE
  5
11A02
  8
0
 10
-393.44555296344879
 20
-2818.462366979983
 30
0.0
 11
-393.34555180005162
 21
-2817.9623669799821
 31
0.0
  0
LINE
  5
11A03
  8
0
 10
-391.84555296344871
 20
-2818.462366979983
 30
0.0
 11
-391.7455518000516
 21
-2817.9623669799821
 31
0.0
  0
LINE
  5
11A04
  8
0
 10
-391.14554481966849
 20
-2814.9623669799821
 30
0.0
 11
-391.04554365627138
 21
-2814.4623669799821
 31
0.0
  0
LINE
  5
11A05
  8
0
 10
-392.7455448196684
 20
-2814.9623669799821
 30
0.0
 11
-392.64554365627129
 21
-2814.4623669799821
 31
0.0
  0
LINE
  5
11A06
  8
0
 10
-392.64554365627129
 20
-2814.4623669799821
 30
0.0
 11
-391.84555296344871
 21
-2818.462366979983
 31
0.0
  0
LINE
  5
11A07
  8
0
 10
-383.84555138304052
 20
-2817.7831458233709
 30
0.0
 11
-383.6627872404124
 21
-2817.231396359568
 31
0.0
  0
LINE
  5
11A08
  8
0
 10
-387.04555296344881
 20
-2818.462366979983
 30
0.0
 11
-386.9455518000517
 21
-2817.9623669799821
 31
0.0
  0
LINE
  5
11A09
  8
0
 10
-388.64555296344878
 20
-2818.462366979983
 30
0.0
 11
-388.54555180005178
 21
-2817.9623669799821
 31
0.0
  0
LINE
  5
11A0A
  8
0
 10
-385.4455524366461
 20
-2818.2359599277779
 30
0.0
 11
-385.31628173901618
 21
-2817.6993661925071
 31
0.0
  0
LINE
  5
11A0B
  8
0
 10
-384.7583142222316
 20
-2815.3832815771898
 30
0.0
 11
-384.64554470988162
 21
-2814.9151831220411
 31
0.0
  0
LINE
  5
11A0C
  8
0
 10
-387.94554481966838
 20
-2814.9623669799821
 30
0.0
 11
-387.84554365627127
 21
-2814.4623669799821
 31
0.0
  0
LINE
  5
11A0D
  8
0
 10
-386.34554481966859
 20
-2814.9623669799821
 30
0.0
 11
-386.24554365627142
 21
-2814.4623669799821
 31
0.0
  0
LINE
  5
11A0E
  8
0
 10
-383.1969815599262
 20
-2815.8251684707202
 30
0.0
 11
-383.04554576348579
 21
-2815.3679966300888
 31
0.0
  0
LINE
  5
11A0F
  8
0
 10
-384.64554470988162
 20
-2814.9151831220411
 30
0.0
 11
-383.84555138304052
 21
-2817.7831458233709
 31
0.0
  0
LINE
  5
11A10
  8
0
 10
-387.84554365627127
 20
-2814.4623669799821
 30
0.0
 11
-387.04555296344881
 21
-2818.462366979983
 31
0.0
  0
LINE
  5
11A11
  8
0
 10
-386.24554365627142
 20
-2814.4623669799821
 30
0.0
 11
-385.4455524366461
 21
-2818.2359599277779
 31
0.0
  0
LINE
  5
11A12
  8
0
 10
-389.44554365627141
 20
-2814.4623669799821
 30
0.0
 11
-388.64555296344878
 21
-2818.462366979983
 31
0.0
  0
LINE
  5
11A13
  8
0
 10
-402.24554365627569
 20
-2814.4623669799821
 30
0.0
 11
-401.44555296345749
 21
-2818.462366979983
 31
0.0
  0
LINE
  5
11A14
  8
0
 10
-401.44555296345749
 20
-2818.462366979983
 30
0.0
 11
-401.34555180005981
 21
-2817.9623669799821
 31
0.0
  0
LINE
  5
11A15
  8
0
 10
-400.74554481966902
 20
-2814.9623669799821
 30
0.0
 11
-400.64554365627129
 21
-2814.4623669799821
 31
0.0
  0
LINE
  5
11A16
  8
0
 10
-403.04555296345762
 20
-2818.462366979983
 30
0.0
 11
-402.94555180005989
 21
-2817.9623669799821
 31
0.0
  0
LINE
  5
11A17
  8
0
 10
-404.64555296345748
 20
-2818.462366979983
 30
0.0
 11
-404.5455518000598
 21
-2817.9623669799821
 31
0.0
  0
LINE
  5
11A18
  8
0
 10
-402.34554481967342
 20
-2814.9623669799821
 30
0.0
 11
-402.24554365627569
 21
-2814.4623669799821
 31
0.0
  0
LINE
  5
11A19
  8
0
 10
-403.9455448196735
 20
-2814.9623669799821
 30
0.0
 11
-403.84554365627588
 21
-2814.4623669799821
 31
0.0
  0
LINE
  5
11A1A
  8
0
 10
-403.84554365627588
 20
-2814.4623669799821
 30
0.0
 11
-403.04555296345762
 21
-2818.462366979983
 31
0.0
  0
LINE
  5
11A1B
  8
0
 10
-396.6455529634531
 20
-2818.462366979983
 30
0.0
 11
-396.54555180005542
 21
-2817.9623669799821
 31
0.0
  0
LINE
  5
11A1C
  8
0
 10
-395.04555296344881
 20
-2818.462366979983
 30
0.0
 11
-394.9455518000517
 21
-2817.9623669799821
 31
0.0
  0
LINE
  5
11A1D
  8
0
 10
-399.8455529634532
 20
-2818.462366979983
 30
0.0
 11
-399.74555180005552
 21
-2817.9623669799821
 31
0.0
  0
LINE
  5
11A1E
  8
0
 10
-398.24555296345329
 20
-2818.462366979983
 30
0.0
 11
-398.14555180005561
 21
-2817.9623669799821
 31
0.0
  0
LINE
  5
11A1F
  8
0
 10
-394.34554481966848
 20
-2814.9623669799821
 30
0.0
 11
-394.24554365627142
 21
-2814.4623669799821
 31
0.0
  0
LINE
  5
11A20
  8
0
 10
-395.94554481966918
 20
-2814.9623669799821
 30
0.0
 11
-395.84554365627127
 21
-2814.4623669799821
 31
0.0
  0
LINE
  5
11A21
  8
0
 10
-399.14554481966923
 20
-2814.9623669799821
 30
0.0
 11
-399.04554365627149
 21
-2814.4623669799821
 31
0.0
  0
LINE
  5
11A22
  8
0
 10
-397.54554481966898
 20
-2814.9623669799821
 30
0.0
 11
-397.44554365627141
 21
-2814.4623669799821
 31
0.0
  0
LINE
  5
11A23
  8
0
 10
-397.44554365627141
 20
-2814.4623669799821
 30
0.0
 11
-396.6455529634531
 21
-2818.462366979983
 31
0.0
  0
LINE
  5
11A24
  8
0
 10
-395.84554365627127
 20
-2814.4623669799821
 30
0.0
 11
-395.04555296344881
 21
-2818.462366979983
 31
0.0
  0
LINE
  5
11A25
  8
0
 10
-399.04554365627149
 20
-2814.4623669799821
 30
0.0
 11
-398.24555296345329
 21
-2818.462366979983
 31
0.0
  0
LINE
  5
11A26
  8
0
 10
-400.64554365627129
 20
-2814.4623669799821
 30
0.0
 11
-399.8455529634532
 21
-2818.462366979983
 31
0.0
  0
LINE
  5
11A27
  8
0
 10
-410.9455517999462
 20
-2817.9623669799821
 30
0.0
 11
-410.94554481956152
 21
-2814.9623669799821
 31
0.0
  0
LINE
  5
11A28
  8
0
 10
-410.34554481967751
 20
-2814.9623669799821
 30
0.0
 11
-410.24554365627989
 21
-2814.4623669799821
 31
0.0
  0
LINE
  5
11A29
  8
0
 10
-410.24554365627989
 20
-2814.4623669799821
 30
0.0
 11
-409.44555296346169
 21
-2818.462366979983
 31
0.0
  0
LINE
  5
11A2A
  8
0
 10
-409.44555296346169
 20
-2818.462366979983
 30
0.0
 11
-409.34555180006402
 21
-2817.9623669799821
 31
0.0
  0
LINE
  5
11A2B
  8
0
 10
-408.7455448196776
 20
-2814.9623669799821
 30
0.0
 11
-408.64554365627998
 21
-2814.4623669799821
 31
0.0
  0
LINE
  5
11A2C
  8
0
 10
-407.1455448196777
 20
-2814.9623669799821
 30
0.0
 11
-407.04554365628002
 21
-2814.4623669799821
 31
0.0
  0
LINE
  5
11A2D
  8
0
 10
-407.04554365628002
 20
-2814.4623669799821
 30
0.0
 11
-406.24555296346182
 21
-2818.462366979983
 31
0.0
  0
LINE
  5
11A2E
  8
0
 10
-407.84555296346173
 20
-2818.462366979983
 30
0.0
 11
-407.74555180006411
 21
-2817.9623669799821
 31
0.0
  0
LINE
  5
11A2F
  8
0
 10
-406.24555296346182
 20
-2818.462366979983
 30
0.0
 11
-406.14555180006408
 21
-2817.9623669799821
 31
0.0
  0
LINE
  5
11A30
  8
0
 10
-408.64554365627998
 20
-2814.4623669799821
 30
0.0
 11
-407.84555296346173
 21
-2818.462366979983
 31
0.0
  0
LINE
  5
11A31
  8
0
 10
-405.54554481967352
 20
-2814.9623669799821
 30
0.0
 11
-405.44554365627579
 21
-2814.4623669799821
 31
0.0
  0
LINE
  5
11A33
  8
1CENTER
 10
-377.98463371849948
 20
-2834.4623204440841
 30
0.0
 11
-414.61582471895451
 21
-2834.4623204440841
 31
0.0
  0
LINE
  5
11A34
  8
0
 10
-383.04554576348579
 20
-2833.3679966300888
 30
0.0
 11
-382.24555032943482
 21
-2835.3303317189639
 31
0.0
  0
LINE
  5
11A35
  8
0
 10
-382.24555032943482
 20
-2835.3303317189639
 30
0.0
 11
-381.93378047318271
 21
-2834.7420551439232
 31
0.0
  0
LINE
  5
11A36
  8
0
 10
-405.44554365627579
 20
-2832.4623669799821
 30
0.0
 11
-404.64555296345748
 21
-2836.4623669799821
 31
0.0
  0
LINE
  5
11A37
  8
0
 10
-394.24554365627142
 20
-2832.4623669799821
 30
0.0
 11
-393.44555296344879
 21
-2836.4623669799821
 31
0.0
  0
LINE
  5
11A38
  8
0
 10
-391.04554365627138
 20
-2832.4623669799821
 30
0.0
 11
-390.2455529634488
 21
-2836.4623669799821
 31
0.0
  0
LINE
  5
11A39
  8
0
 10
-390.2455529634488
 20
-2836.4623669799821
 30
0.0
 11
-390.14555180005158
 21
-2835.9623669799821
 31
0.0
  0
LINE
  5
11A3A
  8
0
 10
-389.54554481966858
 20
-2832.9623669799821
 30
0.0
 11
-389.44554365627141
 21
-2832.4623669799821
 31
0.0
  0
LINE
  5
11A3B
  8
0
 10
-393.44555296344879
 20
-2836.4623669799821
 30
0.0
 11
-393.34555180005162
 21
-2835.9623669799821
 31
0.0
  0
LINE
  5
11A3C
  8
0
 10
-391.84555296344871
 20
-2836.4623669799821
 30
0.0
 11
-391.7455518000516
 21
-2835.9623669799821
 31
0.0
  0
LINE
  5
11A3D
  8
0
 10
-391.14554481966849
 20
-2832.9623669799821
 30
0.0
 11
-391.04554365627138
 21
-2832.4623669799821
 31
0.0
  0
LINE
  5
11A3E
  8
0
 10
-392.7455448196684
 20
-2832.9623669799821
 30
0.0
 11
-392.64554365627129
 21
-2832.4623669799821
 31
0.0
  0
LINE
  5
11A3F
  8
0
 10
-392.64554365627129
 20
-2832.4623669799821
 30
0.0
 11
-391.84555296344871
 21
-2836.4623669799821
 31
0.0
  0
LINE
  5
11A40
  8
0
 10
-383.84555138304052
 20
-2835.7831458233718
 30
0.0
 11
-383.6627872404124
 21
-2835.231396359568
 31
0.0
  0
LINE
  5
11A41
  8
0
 10
-387.04555296344881
 20
-2836.4623669799821
 30
0.0
 11
-386.9455518000517
 21
-2835.9623669799821
 31
0.0
  0
LINE
  5
11A42
  8
0
 10
-388.64555296344878
 20
-2836.4623669799821
 30
0.0
 11
-388.54555180005178
 21
-2835.9623669799821
 31
0.0
  0
LINE
  5
11A43
  8
0
 10
-385.4455524366461
 20
-2836.2359599277779
 30
0.0
 11
-385.31628173901618
 21
-2835.6993661925071
 31
0.0
  0
LINE
  5
11A44
  8
0
 10
-384.7583142222316
 20
-2833.3832815771912
 30
0.0
 11
-384.64554470988162
 21
-2832.9151831220411
 31
0.0
  0
LINE
  5
11A45
  8
0
 10
-387.94554481966838
 20
-2832.9623669799821
 30
0.0
 11
-387.84554365627127
 21
-2832.4623669799821
 31
0.0
  0
LINE
  5
11A46
  8
0
 10
-386.34554481966859
 20
-2832.9623669799821
 30
0.0
 11
-386.24554365627142
 21
-2832.4623669799821
 31
0.0
  0
LINE
  5
11A47
  8
0
 10
-383.1969815599262
 20
-2833.8251684707202
 30
0.0
 11
-383.04554576348579
 21
-2833.3679966300888
 31
0.0
  0
LINE
  5
11A48
  8
0
 10
-384.64554470988162
 20
-2832.9151831220411
 30
0.0
 11
-383.84555138304052
 21
-2835.7831458233718
 31
0.0
  0
LINE
  5
11A49
  8
0
 10
-387.84554365627127
 20
-2832.4623669799821
 30
0.0
 11
-387.04555296344881
 21
-2836.4623669799821
 31
0.0
  0
LINE
  5
11A4A
  8
0
 10
-386.24554365627142
 20
-2832.4623669799821
 30
0.0
 11
-385.4455524366461
 21
-2836.2359599277779
 31
0.0
  0
LINE
  5
11A4B
  8
0
 10
-389.44554365627141
 20
-2832.4623669799821
 30
0.0
 11
-388.64555296344878
 21
-2836.4623669799821
 31
0.0
  0
LINE
  5
11A4C
  8
0
 10
-402.24554365627569
 20
-2832.4623669799821
 30
0.0
 11
-401.44555296345749
 21
-2836.4623669799821
 31
0.0
  0
LINE
  5
11A4D
  8
0
 10
-401.44555296345749
 20
-2836.4623669799821
 30
0.0
 11
-401.34555180005981
 21
-2835.9623669799821
 31
0.0
  0
LINE
  5
11A4E
  8
0
 10
-400.74554481966902
 20
-2832.9623669799821
 30
0.0
 11
-400.64554365627129
 21
-2832.4623669799821
 31
0.0
  0
LINE
  5
11A4F
  8
0
 10
-403.04555296345762
 20
-2836.4623669799821
 30
0.0
 11
-402.94555180005989
 21
-2835.9623669799821
 31
0.0
  0
LINE
  5
11A50
  8
0
 10
-404.64555296345748
 20
-2836.4623669799821
 30
0.0
 11
-404.5455518000598
 21
-2835.9623669799821
 31
0.0
  0
LINE
  5
11A51
  8
0
 10
-402.34554481967342
 20
-2832.9623669799821
 30
0.0
 11
-402.24554365627569
 21
-2832.4623669799821
 31
0.0
  0
LINE
  5
11A52
  8
0
 10
-403.9455448196735
 20
-2832.9623669799821
 30
0.0
 11
-403.84554365627588
 21
-2832.4623669799821
 31
0.0
  0
LINE
  5
11A53
  8
0
 10
-403.84554365627588
 20
-2832.4623669799821
 30
0.0
 11
-403.04555296345762
 21
-2836.4623669799821
 31
0.0
  0
LINE
  5
11A54
  8
0
 10
-396.6455529634531
 20
-2836.4623669799821
 30
0.0
 11
-396.54555180005542
 21
-2835.9623669799821
 31
0.0
  0
LINE
  5
11A55
  8
0
 10
-395.04555296344881
 20
-2836.4623669799821
 30
0.0
 11
-394.9455518000517
 21
-2835.9623669799821
 31
0.0
  0
LINE
  5
11A56
  8
0
 10
-399.8455529634532
 20
-2836.4623669799821
 30
0.0
 11
-399.74555180005552
 21
-2835.9623669799821
 31
0.0
  0
LINE
  5
11A57
  8
0
 10
-398.24555296345329
 20
-2836.4623669799821
 30
0.0
 11
-398.14555180005561
 21
-2835.9623669799821
 31
0.0
  0
LINE
  5
11A58
  8
0
 10
-394.34554481966848
 20
-2832.9623669799821
 30
0.0
 11
-394.24554365627142
 21
-2832.4623669799821
 31
0.0
  0
LINE
  5
11A59
  8
0
 10
-395.94554481966918
 20
-2832.9623669799821
 30
0.0
 11
-395.84554365627127
 21
-2832.4623669799821
 31
0.0
  0
LINE
  5
11A5A
  8
0
 10
-399.14554481966923
 20
-2832.9623669799821
 30
0.0
 11
-399.04554365627149
 21
-2832.4623669799821
 31
0.0
  0
LINE
  5
11A5B
  8
0
 10
-397.54554481966898
 20
-2832.9623669799821
 30
0.0
 11
-397.44554365627141
 21
-2832.4623669799821
 31
0.0
  0
LINE
  5
11A5C
  8
0
 10
-397.44554365627141
 20
-2832.4623669799821
 30
0.0
 11
-396.6455529634531
 21
-2836.4623669799821
 31
0.0
  0
LINE
  5
11A5D
  8
0
 10
-395.84554365627127
 20
-2832.4623669799821
 30
0.0
 11
-395.04555296344881
 21
-2836.4623669799821
 31
0.0
  0
LINE
  5
11A5E
  8
0
 10
-399.04554365627149
 20
-2832.4623669799821
 30
0.0
 11
-398.24555296345329
 21
-2836.4623669799821
 31
0.0
  0
LINE
  5
11A5F
  8
0
 10
-400.64554365627129
 20
-2832.4623669799821
 30
0.0
 11
-399.8455529634532
 21
-2836.4623669799821
 31
0.0
  0
LINE
  5
11A60
  8
0
 10
-410.9455517999462
 20
-2835.9623669799821
 30
0.0
 11
-410.94554481956152
 21
-2832.9623669799821
 31
0.0
  0
LINE
  5
11A61
  8
0
 10
-410.34554481967751
 20
-2832.9623669799821
 30
0.0
 11
-410.24554365627989
 21
-2832.4623669799821
 31
0.0
  0
LINE
  5
11A62
  8
0
 10
-410.24554365627989
 20
-2832.4623669799821
 30
0.0
 11
-409.44555296346169
 21
-2836.4623669799821
 31
0.0
  0
LINE
  5
11A63
  8
0
 10
-409.44555296346169
 20
-2836.4623669799821
 30
0.0
 11
-409.34555180006402
 21
-2835.9623669799821
 31
0.0
  0
LINE
  5
11A64
  8
0
 10
-408.7455448196776
 20
-2832.9623669799821
 30
0.0
 11
-408.64554365627998
 21
-2832.4623669799821
 31
0.0
  0
LINE
  5
11A65
  8
0
 10
-407.1455448196777
 20
-2832.9623669799821
 30
0.0
 11
-407.04554365628002
 21
-2832.4623669799821
 31
0.0
  0
LINE
  5
11A66
  8
0
 10
-407.04554365628002
 20
-2832.4623669799821
 30
0.0
 11
-406.24555296346182
 21
-2836.4623669799821
 31
0.0
  0
LINE
  5
11A67
  8
0
 10
-407.84555296346173
 20
-2836.4623669799821
 30
0.0
 11
-407.74555180006411
 21
-2835.9623669799821
 31
0.0
  0
LINE
  5
11A68
  8
0
 10
-406.24555296346182
 20
-2836.4623669799821
 30
0.0
 11
-406.14555180006408
 21
-2835.9623669799821
 31
0.0
  0
LINE
  5
11A69
  8
0
 10
-408.64554365627998
 20
-2832.4623669799821
 30
0.0
 11
-407.84555296346173
 21
-2836.4623669799821
 31
0.0
  0
LINE
  5
11A6A
  8
0
 10
-405.54554481967352
 20
-2832.9623669799821
 30
0.0
 11
-405.44554365627579
 21
-2832.4623669799821
 31
0.0
  0
LINE
  5
11A6B
  8
1DIM
 10
-377.98463371849948
 20
-2834.4623204440841
 30
0.0
 11
-366.94554831264901
 21
-2834.4623204440841
 31
0.0
  0
LINE
  5
11A6C
  8
1DIM
 10
-377.98463371849948
 20
-2816.4623204440841
 30
0.0
 11
-366.94554831264901
 21
-2816.4623204440841
 31
0.0
  0
LINE
  5
11A6D
  8
1DIM
 10
-367.9455483126489
 20
-2832.4623204440841
 30
0.0
 11
-367.9455483126489
 21
-2818.4623204440841
 31
0.0
  0
LINE
  5
11A71
  8
1DIM
 10
-377.98463371849948
 20
-2816.4623204440841
 30
0.0
 11
-366.94554831264901
 21
-2816.4623204440841
 31
0.0
  0
LINE
  5
11A72
  8
1DIM
 10
-407.9455483126489
 20
-2800.440503326869
 30
0.0
 11
-366.94554831264901
 21
-2800.440503326869
 31
0.0
  0
LINE
  5
11A73
  8
1DIM
 10
-367.9455483126489
 20
-2814.4623204440841
 30
0.0
 11
-367.9455483126489
 21
-2802.440503326869
 31
0.0
  0
TEXT
  5
11A77
  8
1HATCH
 10
-404.29044707025798
 20
-2764.1448885202772
 30
0.0
 40
3.5
  1
PB
  0
SOLID
  5
11A78
  8
1HATCH
 10
-403.38591695861498
 20
-2783.2976495239659
 30
0.0
 11
-403.36557969057088
 21
-2785.3251350372661
 31
0.0
 12
-404.0423805160072
 22
-2783.4138392062132
 32
0.0
 13
-404.0423805160072
 23
-2783.4138392062132
 33
0.0
  0
SOLID
  5
11A7A
  8
1DIM
 10
-395.32239614608432
 20
-2783.3020360540659
 30
0.0
 11
-394.86759747662973
 21
-2785.277958441553
 31
0.0
 12
-395.93865212746101
 22
-2783.55634494078
 32
0.0
 13
-395.93865212746101
 23
-2783.55634494078
 33
0.0
  0
TEXT
  5
11A7C
  8
1DIM
 10
-398.12310257571937
 20
-2770.1462345374011
 30
0.0
 40
3.5
  1
合板9mm以上
  0
LINE
  5
11A7D
  8
1DIM
 10
-463.94559069957529
 20
-2825.4616842064061
 30
0.0
 11
-463.94559069957529
 21
-2789.4623205044441
 31
0.0
  0
LINE
  5
11A7E
  8
1DIM
 10
-407.9455483126489
 20
-2790.4623205044441
 30
0.0
 11
-407.9455483126489
 21
-2789.4623205044441
 31
0.0
  0
LINE
  5
11A7F
  8
1DIM
 10
-461.94559069957529
 20
-2790.4623205044441
 30
0.0
 11
-409.9455483126489
 21
-2790.4623205044441
 31
0.0
  0
TEXT
  5
11A83
  8
1DIM
 10
-438.86223617277881
 20
-2789.7623205044438
 30
0.0
 40
3.5
  1
56 
  0
LINE
  5
11A84
  8
0
  6
BYBLOCK
 10
-409.9455483126489
 20
-2789.9264221244439
 30
0.0
 11
-407.9455483126489
 21
-2790.4623205044441
 31
0.0
  0
LINE
  5
11A85
  8
0
  6
BYBLOCK
 10
-407.9455483126489
 20
-2790.4623205044441
 30
0.0
 11
-409.9455483126489
 21
-2790.9982188844442
 31
0.0
  0
LINE
  5
11A86
  8
0
  6
BYBLOCK
 10
-407.9455483126489
 20
-2790.4623205044441
 30
0.0
 11
-409.9455483126489
 21
-2790.4623205044441
 31
0.0
  0
LINE
  5
11A87
  8
0
  6
BYBLOCK
 10
-461.94559069957529
 20
-2790.9982188844442
 30
0.0
 11
-463.94559069957529
 21
-2790.4623205044441
 31
0.0
  0
LINE
  5
11A88
  8
0
  6
BYBLOCK
 10
-463.94559069957529
 20
-2790.4623205044441
 30
0.0
 11
-461.94559069957529
 21
-2789.9264221244439
 31
0.0
  0
LINE
  5
11A89
  8
0
  6
BYBLOCK
 10
-463.94559069957529
 20
-2790.4623205044441
 30
0.0
 11
-461.94559069957529
 21
-2790.4623205044441
 31
0.0
  0
LINE
  5
11A8A
  8
1DIM
 10
-395.63052413677269
 20
-2783.429190497423
 30
0.0
 11
-400.82310257571942
 21
-2770.846234537401
 31
0.0
  0
LINE
  5
11A8B
  8
1DIM
 10
-400.82310257571942
 20
-2770.846234537401
 30
0.0
 11
-368.92310257571938
 21
-2770.846234537401
 31
0.0
  0
LINE
  5
11A8C
  8
1HATCH
 10
-403.71414873731101
 20
-2783.3557443650898
 30
0.0
 11
-406.99044707025803
 21
-2764.8448885202761
 31
0.0
  0
LINE
  5
11A8D
  8
1HATCH
 10
-406.99044707025803
 20
-2764.8448885202761
 30
0.0
 11
-398.45711373692461
 21
-2764.8448885202761
 31
0.0
  0
TEXT
  5
11A8E
  8
1DIM
 10
-368.64554831264849
 20
-2810.7847452188112
 30
0.0
 40
3.5
  1
16 
 50
90.0
  0
LINE
  5
11A8F
  8
0
  6
BYBLOCK
 10
-368.481446692649
 20
-2802.440503326869
 30
0.0
 11
-367.9455483126489
 21
-2800.440503326869
 31
0.0
  0
LINE
  5
11A90
  8
0
  6
BYBLOCK
 10
-367.9455483126489
 20
-2800.440503326869
 30
0.0
 11
-367.4096499326489
 21
-2802.440503326869
 31
0.0
  0
LINE
  5
11A91
  8
0
  6
BYBLOCK
 10
-367.9455483126489
 20
-2800.440503326869
 30
0.0
 11
-367.9455483126489
 21
-2802.440503326869
 31
0.0
  0
LINE
  5
11A92
  8
0
  6
BYBLOCK
 10
-367.4096499326489
 20
-2814.4623204440841
 30
0.0
 11
-367.9455483126489
 21
-2816.4623204440841
 31
0.0
  0
LINE
  5
11A93
  8
0
  6
BYBLOCK
 10
-367.9455483126489
 20
-2816.4623204440841
 30
0.0
 11
-368.481446692649
 21
-2814.4623204440841
 31
0.0
  0
LINE
  5
11A94
  8
0
  6
BYBLOCK
 10
-367.9455483126489
 20
-2816.4623204440841
 30
0.0
 11
-367.9455483126489
 21
-2814.4623204440841
 31
0.0
  0
TEXT
  5
11A95
  8
1DIM
 10
-368.64554831264849
 20
-2827.795653777418
 30
0.0
 40
3.5
  1
18 
 50
90.0
  0
LINE
  5
11A96
  8
0
  6
BYBLOCK
 10
-368.481446692649
 20
-2818.4623204440841
 30
0.0
 11
-367.9455483126489
 21
-2816.4623204440841
 31
0.0
  0
LINE
  5
11A97
  8
0
  6
BYBLOCK
 10
-367.9455483126489
 20
-2816.4623204440841
 30
0.0
 11
-367.4096499326489
 21
-2818.4623204440841
 31
0.0
  0
LINE
  5
11A98
  8
0
  6
BYBLOCK
 10
-367.9455483126489
 20
-2816.4623204440841
 30
0.0
 11
-367.9455483126489
 21
-2818.4623204440841
 31
0.0
  0
LINE
  5
11A99
  8
0
  6
BYBLOCK
 10
-367.4096499326489
 20
-2832.4623204440841
 30
0.0
 11
-367.9455483126489
 21
-2834.4623204440841
 31
0.0
  0
LINE
  5
11A9A
  8
0
  6
BYBLOCK
 10
-367.9455483126489
 20
-2834.4623204440841
 30
0.0
 11
-368.481446692649
 21
-2832.4623204440841
 31
0.0
  0
LINE
  5
11A9B
  8
0
  6
BYBLOCK
 10
-367.9455483126489
 20
-2834.4623204440841
 30
0.0
 11
-367.9455483126489
 21
-2832.4623204440841
 31
0.0
  0
LINE
  5
11A9C
  8
0
 10
-380.94554830980798
 20
-2834.462366979983
 30
0.0
 11
-386.24554481966959
 21
-2832.9623669799821
 31
0.0
  0
LINE
  5
11A9D
  8
0
 10
-386.24554481966959
 20
-2832.9623669799821
 30
0.0
 11
-410.94554481956152
 21
-2832.9623669799821
 31
0.0
  0
LINE
  5
11A9E
  8
0
 10
-380.94554830980798
 20
-2834.462366979983
 30
0.0
 11
-386.24555180005319
 21
-2835.9623669799821
 31
0.0
  0
LINE
  5
11A9F
  8
0
 10
-410.94554016586329
 20
-2830.9623204440841
 30
0.0
 11
-410.94554481956152
 21
-2832.9623669799821
 31
0.0
  0
LINE
  5
11AA0
  8
0
 10
-386.24555180005319
 20
-2835.9623669799821
 30
0.0
 11
-410.9455517999462
 21
-2835.9623669799821
 31
0.0
  0
LINE
  5
11AA1
  8
0
 10
-410.94554016586329
 20
-2830.9623204440841
 30
0.0
 11
-412.04554365605873
 21
-2830.9623204440841
 31
0.0
  0
LINE
  5
11AA2
  8
0
 10
-410.9455517999462
 20
-2835.9623669799821
 30
0.0
 11
-410.94555645342763
 21
-2837.9623204440841
 31
0.0
  0
ARC
  5
11AA3
  8
0
 10
-412.04554365605873
 20
-2832.4623204440841
 30
0.0
 40
1.5
 50
90.0
 51
179.99986668447491
  0
LINE
  5
11AA4
  8
0
 10
-410.94555645342763
 20
-2837.9623204440841
 30
0.0
 11
-412.04555296323832
 21
-2837.9623204440841
 31
0.0
  0
LINE
  5
11AA5
  8
0
 10
-413.54554365605469
 20
-2832.4623169538918
 30
0.0
 11
-413.54555296323417
 21
-2836.4623169538918
 31
0.0
  0
ARC
  5
11AA6
  8
0
 10
-412.04555296323832
 20
-2836.4623204440841
 30
0.0
 40
1.5
 50
179.99986668447491
 51
270.0
  0
LINE
  5
11AA7
  8
0
 10
-380.94554830980798
 20
-2816.4623669799821
 30
0.0
 11
-386.24554481966959
 21
-2814.9623669799821
 31
0.0
  0
LINE
  5
11AA8
  8
0
 10
-386.24554481966959
 20
-2814.9623669799821
 30
0.0
 11
-410.94554481956152
 21
-2814.9623669799821
 31
0.0
  0
LINE
  5
11AA9
  8
0
 10
-380.94554830980798
 20
-2816.4623669799821
 30
0.0
 11
-386.24555180005319
 21
-2817.9623669799821
 31
0.0
  0
LINE
  5
11AAA
  8
0
 10
-410.94554016586329
 20
-2812.9623204440841
 30
0.0
 11
-410.94554481956152
 21
-2814.9623669799821
 31
0.0
  0
LINE
  5
11AAB
  8
0
 10
-386.24555180005319
 20
-2817.9623669799821
 30
0.0
 11
-410.9455517999462
 21
-2817.9623669799821
 31
0.0
  0
LINE
  5
11AAC
  8
0
 10
-410.94554016586329
 20
-2812.9623204440841
 30
0.0
 11
-412.04554365605873
 21
-2812.9623204440841
 31
0.0
  0
LINE
  5
11AAD
  8
0
 10
-410.9455517999462
 20
-2817.9623669799821
 30
0.0
 11
-410.94555645342763
 21
-2819.9623204440841
 31
0.0
  0
ARC
  5
11AAE
  8
0
 10
-412.04554365605873
 20
-2814.4623204440841
 30
0.0
 40
1.5
 50
90.0
 51
179.99986668447491
  0
LINE
  5
11AAF
  8
0
 10
-410.94555645342763
 20
-2819.9623204440841
 30
0.0
 11
-412.04555296323832
 21
-2819.9623204440841
 31
0.0
  0
LINE
  5
11AB0
  8
0
 10
-413.54554365605469
 20
-2814.4623169538918
 30
0.0
 11
-413.54555296323417
 21
-2818.4623169538918
 31
0.0
  0
ARC
  5
11AB1
  8
0
 10
-412.04555296323832
 20
-2818.4623204440841
 30
0.0
 40
1.5
 50
179.99986668447491
 51
270.0
  0
ARC
  5
11AB2
  8
1HATCH
 10
-427.4455483126489
 20
-2829.496589393993
 30
0.0
 40
0.5000000000000002
 50
90.0
 51
180.0
  0
LINE
  5
11AB3
  8
1HATCH
 10
-427.9455483126489
 20
-2829.496589393993
 30
0.0
 11
-427.9455483126489
 21
-2830.496589393993
 31
0.0
  0
LINE
  5
11AB4
  8
1HATCH
 10
-424.4455483126489
 20
-2828.996589393993
 30
0.0
 11
-427.4455483126489
 21
-2828.996589393993
 31
0.0
  0
LINE
  5
11AB5
  8
1HATCH
 10
-427.9455483126489
 20
-2830.496589393993
 30
0.0
 11
-423.9455483126489
 21
-2830.496589393993
 31
0.0
  0
ARC
  5
11AB6
  8
1HATCH
 10
-424.4455483126489
 20
-2829.496589393993
 30
0.0
 40
0.5
 50
0.0
 51
90.0
  0
LINE
  5
11AB7
  8
1HATCH
 10
-423.9455483126489
 20
-2830.496589393993
 30
0.0
 11
-423.9455483126489
 21
-2829.496589393993
 31
0.0
  0
LINE
  5
11AB8
  8
1HATCH
 10
-428.94554831264901
 20
-2830.9965875939929
 30
0.0
 11
-428.9455483126489
 21
-2836.4965872939929
 31
0.0
  0
LINE
  5
11AB9
  8
1HATCH
 10
-428.9455483126489
 20
-2836.4965872939929
 30
0.0
 11
-428.4455483126489
 21
-2836.996587193993
 31
0.0
  0
LINE
  5
11ABA
  8
1HATCH
 10
-428.4455483126489
 20
-2830.7465884939929
 30
0.0
 11
-428.94554831264901
 21
-2830.9965875939929
 31
0.0
  0
LINE
  5
11ABB
  8
1HATCH
 10
-428.4455483126489
 20
-2836.996587193993
 30
0.0
 11
-428.4455483126489
 21
-2830.7465884939929
 31
0.0
  0
LINE
  5
11ABC
  8
1HATCH
 10
-427.94554831264901
 20
-2830.496589393993
 30
0.0
 11
-428.4455483126489
 21
-2830.7465884939929
 31
0.0
  0
LINE
  5
11ABD
  8
1HATCH
 10
-428.4455483126489
 20
-2830.7465884939929
 30
0.0
 11
-428.4455483126489
 21
-2836.996587193993
 31
0.0
  0
LINE
  5
11ABE
  8
1HATCH
 10
-423.9455483126489
 20
-2830.496589393993
 30
0.0
 11
-427.94554831264901
 21
-2830.496589393993
 31
0.0
  0
LINE
  5
11ABF
  8
1HATCH
 10
-428.4455483126489
 20
-2836.996587193993
 30
0.0
 11
-428.44554611264857
 21
-2836.996589393993
 31
0.0
  0
LINE
  5
11AC0
  8
1HATCH
 10
-423.4455483126489
 20
-2830.7465884939929
 30
0.0
 11
-423.9455483126489
 21
-2830.496589393993
 31
0.0
  0
LINE
  5
11AC1
  8
1HATCH
 10
-428.44554611264857
 20
-2836.996589393993
 30
0.0
 11
-423.4455483126489
 21
-2836.996589393993
 31
0.0
  0
LINE
  5
11AC2
  8
1HATCH
 10
-423.4455483126489
 20
-2836.996589393993
 30
0.0
 11
-423.4455483126489
 21
-2830.7465884939929
 31
0.0
  0
LINE
  5
11AC3
  8
0
 10
-428.4455483126489
 20
-2836.996589393993
 30
0.0
 11
-428.4455483126489
 21
-2836.996587193993
 31
0.0
  0
LINE
  5
11AC4
  8
0
 10
-423.44554831264901
 20
-2836.996589393993
 30
0.0
 11
-428.4455483126489
 21
-2836.996589393993
 31
0.0
  0
LINE
  5
11AC5
  8
0
 10
-428.4455483126489
 20
-2836.996587193993
 30
0.0
 11
-428.9455483126489
 21
-2836.4965872939929
 31
0.0
  0
LINE
  5
11AC6
  8
0
 10
-423.44554831264901
 20
-2836.9965914939939
 30
0.0
 11
-423.44554831264901
 21
-2836.996589393993
 31
0.0
  0
LINE
  5
11AC7
  8
0
 10
-428.9455483126489
 20
-2836.4965872939929
 30
0.0
 11
-428.9455483126489
 21
-2830.9965875939929
 31
0.0
  0
LINE
  5
11AC8
  8
0
 10
-422.94554831264878
 20
-2836.496591293992
 30
0.0
 11
-423.44554831264901
 21
-2836.9965914939939
 31
0.0
  0
LINE
  5
11AC9
  8
0
 10
-428.9455483126489
 20
-2830.9965875939929
 30
0.0
 11
-427.9455483126489
 21
-2830.496589393993
 31
0.0
  0
LINE
  5
11ACA
  8
0
 10
-422.94554831264901
 20
-2830.9965875939929
 30
0.0
 11
-422.94554831264878
 21
-2836.496591293992
 31
0.0
  0
LINE
  5
11ACB
  8
0
 10
-427.9455483126489
 20
-2830.496589393993
 30
0.0
 11
-427.9455483126489
 21
-2829.496589393993
 31
0.0
  0
LINE
  5
11ACC
  8
0
 10
-423.9455483126489
 20
-2830.496589393993
 30
0.0
 11
-422.94554831264901
 21
-2830.9965875939929
 31
0.0
  0
ARC
  5
11ACD
  8
0
 10
-427.4455483126489
 20
-2829.496589393993
 30
0.0
 40
0.5000000000000004
 50
90.0
 51
180.0
  0
LINE
  5
11ACE
  8
0
 10
-423.9455483126489
 20
-2829.496589393993
 30
0.0
 11
-423.9455483126489
 21
-2830.496589393993
 31
0.0
  0
LINE
  5
11ACF
  8
0
 10
-427.4455483126489
 20
-2828.996589393993
 30
0.0
 11
-424.4455483126489
 21
-2828.996589393993
 31
0.0
  0
ARC
  5
11AD0
  8
0
 10
-424.4455483126489
 20
-2829.496589393993
 30
0.0
 40
0.5
 50
0.0
 51
90.0
  0
LINE
  5
11AD1
  8
0
 10
-386.74554482267251
 20
-2823.9623670322439
 30
0.0
 11
-408.6455099207962
 21
-2823.9623670322439
 31
0.0
  0
LINE
  5
11AD2
  8
0
 10
-411.14553900546832
 20
-2821.4623204963459
 30
0.0
 11
-408.6455099207962
 21
-2823.9623670322439
 31
0.0
  0
LINE
  5
11AD3
  8
0
 10
-381.44554831281141
 20
-2825.4623670322439
 30
0.0
 11
-386.74554482267251
 21
-2823.9623670322439
 31
0.0
  0
LINE
  5
11AD4
  8
0
 10
-411.14553900546832
 20
-2821.4623204963459
 30
0.0
 11
-411.4455390054693
 21
-2821.4623204963459
 31
0.0
  0
LINE
  5
11AD5
  8
0
 10
-381.44554831281141
 20
-2825.4623670322439
 30
0.0
 11
-386.74555180305669
 21
-2826.9623670322439
 31
0.0
  0
LINE
  5
11AD6
  8
0
 10
-411.4455390054693
 20
-2821.4623204963459
 30
0.0
 11
-411.44555761982849
 21
-2829.4623204963459
 31
0.0
  0
LINE
  5
11AD7
  8
0
 10
-386.74555180305669
 20
-2826.9623670322439
 30
0.0
 11
-408.64557507116137
 21
-2826.9623670322439
 31
0.0
  0
LINE
  5
11AD8
  8
0
 10
-411.1455576198274
 20
-2829.4623204963459
 30
0.0
 11
-411.44555761982849
 21
-2829.4623204963459
 31
0.0
  0
LINE
  5
11AD9
  8
0
 10
-411.1455576198274
 20
-2829.4623204963459
 30
0.0
 11
-408.64557507116137
 21
-2826.9623670322439
 31
0.0
  0
TEXT
  5
11ADA
  8
1DIM
 10
-419.27888164598221
 20
-2859.784137665823
 30
0.0
 40
3.5
  1
18 
  0
LINE
  5
11ADB
  8
0
  6
BYBLOCK
 10
-423.9455483126489
 20
-2861.020036045823
 30
0.0
 11
-425.9455483126489
 21
-2860.4841376658228
 31
0.0
  0
LINE
  5
11ADC
  8
0
  6
BYBLOCK
 10
-425.9455483126489
 20
-2860.4841376658228
 30
0.0
 11
-423.9455483126489
 21
-2859.9482392858231
 31
0.0
  0
LINE
  5
11ADD
  8
0
  6
BYBLOCK
 10
-425.9455483126489
 20
-2860.4841376658228
 30
0.0
 11
-423.9455483126489
 21
-2860.4841376658228
 31
0.0
  0
LINE
  5
11ADE
  8
0
  6
BYBLOCK
 10
-409.9455483126489
 20
-2859.9482392858231
 30
0.0
 11
-407.9455483126489
 21
-2860.4841376658228
 31
0.0
  0
LINE
  5
11ADF
  8
0
  6
BYBLOCK
 10
-407.9455483126489
 20
-2860.4841376658228
 30
0.0
 11
-409.9455483126489
 21
-2861.020036045823
 31
0.0
  0
LINE
  5
11AE0
  8
0
  6
BYBLOCK
 10
-407.9455483126489
 20
-2860.4841376658228
 30
0.0
 11
-409.9455483126489
 21
-2860.4841376658228
 31
0.0
  0
TEXT
  5
11AE1
  8
1DIM
 10
-484.64559069957528
 20
-2830.5662940833822
 30
0.0
 40
3.5
  1
φ50
 50
90.0
  0
LINE
  5
11AE2
  8
0
  6
BYBLOCK
 10
-484.48148907957579
 20
-2802.4623204963459
 30
0.0
 11
-483.9455906995758
 21
-2800.4623204963459
 31
0.0
  0
LINE
  5
11AE3
  8
0
  6
BYBLOCK
 10
-483.9455906995758
 20
-2800.4623204963459
 30
0.0
 11
-483.40969231957581
 21
-2802.4623204963459
 31
0.0
  0
LINE
  5
11AE4
  8
0
  6
BYBLOCK
 10
-483.9455906995758
 20
-2800.4623204963459
 30
0.0
 11
-483.9455906995758
 21
-2802.4623204963459
 31
0.0
  0
LINE
  5
11AE5
  8
0
  6
BYBLOCK
 10
-483.40969231957581
 20
-2848.4623204963459
 30
0.0
 11
-483.9455906995758
 21
-2850.4623204963459
 31
0.0
  0
LINE
  5
11AE6
  8
0
  6
BYBLOCK
 10
-483.9455906995758
 20
-2850.4623204963459
 30
0.0
 11
-484.48148907957579
 21
-2848.4623204963459
 31
0.0
  0
LINE
  5
11AE7
  8
0
  6
BYBLOCK
 10
-483.9455906995758
 20
-2850.4623204963459
 30
0.0
 11
-483.9455906995758
 21
-2848.4623204963459
 31
0.0
  0
LINE
  5
11AE8
  8
0
 10
-538.94618050587985
 20
-2697.4622781176799
 30
0.0
 11
-540.44618050587985
 21
-2702.762274627541
 31
0.0
  0
LINE
  5
11AE9
  8
0
 10
-540.44618050587985
 20
-2702.762274627541
 30
0.0
 11
-540.44618050587962
 21
-2727.4622746274331
 31
0.0
  0
LINE
  5
11AEA
  8
0
 10
-538.94618050587985
 20
-2697.4622781176799
 30
0.0
 11
-537.44618050587974
 21
-2702.7622816079252
 31
0.0
  0
LINE
  5
11AEB
  8
0
 10
-542.44622704177755
 20
-2727.4622699737351
 30
0.0
 11
-540.44618050587962
 21
-2727.4622746274331
 31
0.0
  0
LINE
  5
11AEC
  8
0
 10
-537.44618050587974
 20
-2702.7622816079252
 30
0.0
 11
-537.44618050587985
 21
-2727.4622816078181
 31
0.0
  0
LINE
  5
11AED
  8
0
 10
-542.44622704177755
 20
-2727.4622699737351
 30
0.0
 11
-542.44622704177777
 21
-2728.562273463931
 31
0.0
  0
LINE
  5
11AEE
  8
0
 10
-537.44618050587985
 20
-2727.4622816078181
 30
0.0
 11
-535.44622704177766
 21
-2727.4622862613001
 31
0.0
  0
ARC
  5
11AEF
  8
0
 10
-540.94622704177766
 20
-2728.562273463931
 30
0.0
 40
1.5
 50
180.0
 51
269.99986668447059
  0
LINE
  5
11AF0
  8
0
 10
-535.44622704177766
 20
-2727.4622862613001
 30
0.0
 11
-535.44622704177766
 21
-2728.5622827711099
 31
0.0
  0
LINE
  5
11AF1
  8
0
 10
-540.94623053197006
 20
-2730.0622734639269
 30
0.0
 11
-536.94623053197006
 21
-2730.0622827711059
 31
0.0
  0
ARC
  5
11AF2
  8
0
 10
-536.94622704177766
 20
-2728.5622827711099
 30
0.0
 40
1.5
 50
269.99986668447059
 51
0.0
  0
LINE
  5
11AF3
  8
0
 10
-550.94618045361779
 20
-2703.262274627541
 30
0.0
 11
-550.94618045361779
 21
-2725.1622397256642
 31
0.0
  0
LINE
  5
11AF4
  8
0
 10
-553.44622698951582
 20
-2727.6622688103371
 30
0.0
 11
-550.94618045361779
 21
-2725.1622397256642
 31
0.0
  0
LINE
  5
11AF5
  8
0
 10
-549.4461804536179
 20
-2697.9622781176799
 30
0.0
 11
-550.94618045361779
 21
-2703.262274627541
 31
0.0
  0
LINE
  5
11AF6
  8
0
 10
-553.44622698951582
 20
-2727.6622688103371
 30
0.0
 11
-553.44622698951582
 21
-2727.9622688103382
 31
0.0
  0
LINE
  5
11AF7
  8
0
 10
-549.4461804536179
 20
-2697.9622781176799
 30
0.0
 11
-547.94618045361779
 21
-2703.2622816079252
 31
0.0
  0
LINE
  5
11AF8
  8
0
 10
-553.44622698951582
 20
-2727.9622688103382
 30
0.0
 11
-545.44622698951582
 21
-2727.962287424697
 31
0.0
  0
LINE
  5
11AF9
  8
0
 10
-547.94618045361779
 20
-2703.2622816079252
 30
0.0
 11
-547.94618045361779
 21
-2725.1623048760298
 31
0.0
  0
LINE
  5
11AFA
  8
0
 10
-545.44622698951582
 20
-2727.6622874246959
 30
0.0
 11
-545.44622698951582
 21
-2727.962287424697
 31
0.0
  0
LINE
  5
11AFB
  8
0
 10
-545.44622698951582
 20
-2727.6622874246959
 30
0.0
 11
-547.94618045361779
 21
-2725.1623048760298
 31
0.0
  0
LINE
  5
11AFC
  8
1DIM
 10
-513.21516429022438
 20
-2729.3021739571209
 30
0.0
 11
-495.38845432283699
 21
-2743.7336057444022
 31
0.0
  0
LINE
  5
11AFD
  8
1DIM
 10
-495.38845432283699
 20
-2743.7336057444022
 30
0.0
 11
-447.4217876561703
 21
-2743.7336057444022
 31
0.0
  0
LINE
  5
11AFE
  8
1DIM
 10
-521.57984565204947
 20
-2742.040649336097
 30
0.0
 11
-507.04830732860557
 21
-2758.8395868631701
 31
0.0
  0
LINE
  5
11AFF
  8
1DIM
 10
-507.04830732860557
 20
-2758.8395868631701
 30
0.0
 11
-467.48164066193902
 21
-2758.8395868631701
 31
0.0
  0
TEXT
  5
11B00
  8
1DIM
 10
-474.64559069957488
 20
-2830.8579607500478
 30
0.0
 40
3.5
  1
φ26
 50
90.0
  0
LINE
  5
11B01
  8
0
  6
BYBLOCK
 10
-474.4814890795754
 20
-2814.3260693066641
 30
0.0
 11
-473.9455906995754
 21
-2812.3260693066641
 31
0.0
  0
LINE
  5
11B02
  8
0
  6
BYBLOCK
 10
-473.9455906995754
 20
-2812.3260693066641
 30
0.0
 11
-473.40969231957541
 21
-2814.3260693066641
 31
0.0
  0
LINE
  5
11B03
  8
0
  6
BYBLOCK
 10
-473.9455906995754
 20
-2812.3260693066641
 30
0.0
 11
-473.9455906995754
 21
-2814.3260693066641
 31
0.0
  0
LINE
  5
11B04
  8
0
  6
BYBLOCK
 10
-473.40969231957541
 20
-2836.6107739102149
 30
0.0
 11
-473.9455906995754
 21
-2838.6107739102149
 31
0.0
  0
LINE
  5
11B05
  8
0
  6
BYBLOCK
 10
-473.9455906995754
 20
-2838.6107739102149
 30
0.0
 11
-474.4814890795754
 21
-2836.6107739102149
 31
0.0
  0
LINE
  5
11B06
  8
0
  6
BYBLOCK
 10
-473.9455906995754
 20
-2838.6107739102149
 30
0.0
 11
-473.9455906995754
 21
-2836.6107739102149
 31
0.0
  0
LINE
  5
11B07
  8
1DIM1
 10
-460.89558884527668
 20
-2835.4837431846981
 30
0.0
 11
-477.2019071194411
 21
-2863.9663086712681
 31
0.0
  0
LINE
  5
11B08
  8
1DIM1
 10
-477.2019071194411
 20
-2863.9663086712681
 30
0.0
 11
-512.56857378610766
 21
-2863.9663086712681
 31
0.0
  0
VIEWPORT
  5
57
 67
     1
  8
0
 10
33.033524695922608
 20
-39.924994806443692
 30
0.0
 40
783.02047211220054
 41
519.21464728083345
 68
     1
 69
     1
1001
ACAD
1000
MVIEW
1002
{
1070
    16
1010
0.0
1020
0.0
1030
0.0
1010
0.0
1020
0.0
1030
1.0
1040
0.0
1040
519.21464728083345
1040
33.033524695922608
1040
-39.924994806443692
1040
50.0
1040
0.0
1040
0.0
1070
     0
1070
   100
1070
     1
1070
     1
1070
     0
1070
     0
1070
     0
1070
     0
1040
0.0
1040
0.0
1040
0.0
1040
10.0
1040
10.0
1040
10.0
1040
10.0
1070
     0
1002
{
1002
}
1002
}
  0
ENDSEC
  0
EOF
