  0
SECTION
  2
HEADER
  9
$ACADVER
  1
AC1009
  9
$INSBASE
 10
0.0
 20
0.0
 30
0.0
  9
$EXTMIN
 10
-915.73733729400283
 20
-2850.8699027229368
 30
0.0
  9
$EXTMAX
 10
-588.70178790888622
 20
-2673.607849856081
 30
0.0
  9
$LIMMIN
 10
0.0
 20
0.0
  9
$LIMMAX
 10
420.0
 20
297.0
  9
$ORTHOMODE
 70
     0
  9
$REGENMODE
 70
     1
  9
$FILLMODE
 70
     1
  9
$QTEXTMODE
 70
     0
  9
$MIRRTEXT
 70
     0
  9
$DRAGMODE
 70
     2
  9
$LTSCALE
 40
0.5
  9
$OSMODE
 70
  2173
  9
$ATTMODE
 70
     1
  9
$TEXTSIZE
 40
4.0
  9
$TRACEWID
 40
1.0
  9
$TEXTSTYLE
  7
STANDARD
  9
$CLAYER
  8
1TEXT
  9
$CELTYPE
  6
BYLAYER
  9
$CECOLOR
 62
   256
  9
$DIMSCALE
 40
1.0
  9
$DIMASZ
 40
2.0
  9
$DIMEXO
 40
0.0
  9
$DIMDLI
 40
7.0
  9
$DIMRND
 40
0.0
  9
$DIMDLE
 40
0.0
  9
$DIMEXE
 40
1.0
  9
$DIMTP
 40
0.0
  9
$DIMTM
 40
0.0
  9
$DIMTXT
 40
3.5
  9
$DIMCEN
 40
0.0
  9
$DIMTSZ
 40
0.0
  9
$DIMTOL
 70
     0
  9
$DIMLIM
 70
     0
  9
$DIMTIH
 70
     0
  9
$DIMTOH
 70
     0
  9
$DIMSE1
 70
     0
  9
$DIMSE2
 70
     0
  9
$DIMTAD
 70
     1
  9
$DIMZIN
 70
     8
  9
$DIMBLK
  1

  9
$DIMASO
 70
     1
  9
$DIMSHO
 70
     1
  9
$DIMPOST
  1
 
  9
$DIMAPOST
  1

  9
$DIMALT
 70
     0
  9
$DIMALTD
 70
     2
  9
$DIMALTF
 40
25.399999999999999
  9
$DIMLFAC
 40
1.0
  9
$DIMTOFL
 70
     1
  9
$DIMTVP
 40
0.0
  9
$DIMTIX
 70
     0
  9
$DIMSOXD
 70
     0
  9
$DIMSAH
 70
     1
  9
$DIMBLK1
  1
OPEN30
  9
$DIMBLK2
  1
OPEN30
  9
$DIMSTYLE
  2
NEWX10
  9
$DIMCLRD
 70
   256
  9
$DIMCLRE
 70
   256
  9
$DIMCLRT
 70
   201
  9
$DIMTFAC
 40
0.7
  9
$DIMGAP
 40
0.7
  9
$LUNITS
 70
     2
  9
$LUPREC
 70
     4
  9
$SKETCHINC
 40
1.0
  9
$FILLETRAD
 40
0.0
  9
$AUNITS
 70
     0
  9
$AUPREC
 70
     2
  9
$MENU
  1
acad
  9
$ELEVATION
 40
0.0
  9
$PELEVATION
 40
0.0
  9
$THICKNESS
 40
0.0
  9
$LIMCHECK
 70
     0
  9
$BLIPMODE
 70
     0
  9
$CHAMFERA
 40
0.5
  9
$CHAMFERB
 40
0.5
  9
$SKPOLY
 70
     0
  9
$TDCREATE
 40
2453033.7326634838
  9
$TDUPDATE
 40
2453551.7132134261
  9
$TDINDWG
 40
1.6370245718000001
  9
$TDUSRTIMER
 40
1.6370245718000001
  9
$USRTIMER
 70
     1
  9
$ANGBASE
 50
0.0
  9
$ANGDIR
 70
     0
  9
$PDMODE
 70
     0
  9
$PDSIZE
 40
0.0
  9
$PLINEWID
 40
0.0
  9
$COORDS
 70
     2
  9
$SPLFRAME
 70
     0
  9
$SPLINETYPE
 70
     6
  9
$SPLINESEGS
 70
     8
  9
$ATTDIA
 70
     0
  9
$ATTREQ
 70
     1
  9
$HANDLING
 70
     1
  9
$HANDSEED
  5
159FF
  9
$SURFTAB1
 70
     6
  9
$SURFTAB2
 70
     6
  9
$SURFTYPE
 70
     6
  9
$SURFU
 70
     6
  9
$SURFV
 70
     6
  9
$UCSNAME
  2

  9
$UCSORG
 10
0.0
 20
0.0
 30
0.0
  9
$UCSXDIR
 10
1.0
 20
0.0
 30
0.0
  9
$UCSYDIR
 10
0.0
 20
1.0
 30
0.0
  9
$PUCSNAME
  2

  9
$PUCSORG
 10
0.0
 20
0.0
 30
0.0
  9
$PUCSXDIR
 10
1.0
 20
0.0
 30
0.0
  9
$PUCSYDIR
 10
0.0
 20
1.0
 30
0.0
  9
$USERI1
 70
     0
  9
$USERI2
 70
     0
  9
$USERI3
 70
     0
  9
$USERI4
 70
     0
  9
$USERI5
 70
     0
  9
$USERR1
 40
0.0
  9
$USERR2
 40
0.0
  9
$USERR3
 40
0.0
  9
$USERR4
 40
0.0
  9
$USERR5
 40
0.0
  9
$WORLDVIEW
 70
     1
  9
$SHADEDGE
 70
     3
  9
$SHADEDIF
 70
    70
  9
$TILEMODE
 70
     1
  9
$MAXACTVP
 70
    48
  9
$PLIMCHECK
 70
     0
  9
$PEXTMIN
 10
1.0000000000000000E+020
 20
1.0000000000000000E+020
 30
1.0000000000000000E+020
  9
$PEXTMAX
 10
-1.0000000000000000E+020
 20
-1.0000000000000000E+020
 30
-1.0000000000000000E+020
  9
$PLIMMIN
 10
0.0
 20
0.0
  9
$PLIMMAX
 10
420.0
 20
297.0
  9
$UNITMODE
 70
     0
  9
$VISRETAIN
 70
     1
  9
$PLINEGEN
 70
     0
  9
$PSLTSCALE
 70
     1
  0
ENDSEC
  0
SECTION
  2
TABLES
  0
TABLE
  2
VPORT
 70
     5
  0
VPORT
  2
*ACTIVE
 70
     0
 10
0.0
 20
0.0
 11
1.0
 21
1.0
 12
-752.17903762232174
 22
-2762.2255809382168
 13
0.0
 23
0.0
 14
10.0
 24
10.0
 15
10.0
 25
10.0
 16
0.0
 26
0.0
 36
1.0
 17
0.0
 27
0.0
 37
0.0
 40
229.57238916095849
 41
1.508086253369272
 42
50.0
 43
0.0
 44
0.0
 50
0.0
 51
0.0
 71
     0
 72
   100
 73
     1
 74
     1
 75
     0
 76
     0
 77
     0
 78
     0
  0
ENDTAB
  0
TABLE
  2
LTYPE
 70
    15
  0
LTYPE
  2
CONTINUOUS
 70
     0
  3
Solid line
 72
    65
 73
     0
 40
0.0
  0
LTYPE
  2
CENTER2
 70
     0
  3
Center (.5x) ___ _ ___ _ ___ _ ___ _ ___ _ ___
 72
    65
 73
     4
 40
28.574999999999999
 49
19.050000000000001
 49
-3.1749999999999989
 49
3.1749999999999989
 49
-3.1749999999999989
  0
LTYPE
  2
XREF1|CENTER2
 70
    48
  3
Center (.5x) ___ _ ___ _ ___ _ ___ _ ___ _ ___
 72
    65
 73
     4
 40
28.574999999999999
 49
19.050000000000001
 49
-3.1749999999999989
 49
3.1749999999999989
 49
-3.1749999999999989
  0
LTYPE
  2
PHANTOM2
 70
     0
  3
Phantom (.5x) ___ _ _ ___ _ _ ___ _ _ ___ _ _
 72
    65
 73
     6
 40
31.75
 49
15.875
 49
-3.1749999999999989
 49
3.1749999999999989
 49
-3.1749999999999989
 49
3.1749999999999989
 49
-3.1749999999999989
  0
LTYPE
  2
A3WAKUDAKE|CENTER2
 70
    48
  3
Center (.5x) ___ _ ___ _ ___ _ ___ _ ___ _ ___
 72
    65
 73
     4
 40
28.574999999999999
 49
19.050000000000001
 49
-3.1749999999999989
 49
3.1749999999999989
 49
-3.1749999999999989
  0
ENDTAB
  0
TABLE
  2
LAYER
 70
    44
  0
LAYER
  2
0
 70
     0
 62
     7
  6
CONTINUOUS
  0
LAYER
  2
1CENTER
 70
     0
 62
     7
  6
CENTER2
  0
LAYER
  2
1TEXT
 70
     0
 62
     7
  6
CONTINUOUS
  0
LAYER
  2
1DIM
 70
     0
 62
     7
  6
CONTINUOUS
  0
LAYER
  2
1PHANTOM
 70
     0
 62
     7
  6
PHANTOM2
  0
LAYER
  2
01
 70
     0
 62
     1
  6
CONTINUOUS
  0
LAYER
  2
1HATCH
 70
     0
 62
     7
  6
CONTINUOUS
  0
LAYER
  2
XREF1|1CENTER
 70
    48
 62
     7
  6
XREF1|CENTER2
  0
LAYER
  2
A3WAKUDAKE|THICK
 70
    48
 62
     7
  6
CONTINUOUS
  0
LAYER
  2
A3WAKUDAKE|POINT
 70
    48
 62
     7
  6
CONTINUOUS
  0
LAYER
  2
A3WAKUDAKE|1CENTER
 70
    48
 62
     7
  6
A3WAKUDAKE|CENTER2
  0
LAYER
  2
A3WAKUDAKE|0-6
 70
    48
 62
     7
  6
CONTINUOUS
  0
LAYER
  2
A3WAKUDAKE|1DIM
 70
    48
 62
     7
  6
CONTINUOUS
  0
ENDTAB
  0
TABLE
  2
STYLE
 70
    22
  0
STYLE
  2
STANDARD
 70
     0
 40
0.0
 41
1.0
 50
0.0
 71
     0
 42
4.0
  3
txt.shx
  4
extfont.shx
  0
ENDTAB
  0
TABLE
  2
VIEW
 70
     0
  0
ENDTAB
  0
TABLE
  2
UCS
 70
     0
  0
ENDTAB
  0
TABLE
  2
APPID
 70
     9
  0
APPID
  2
ACAD
 70
     0
  0
APPID
  2
DRAWINGVARIABLESXDATA
 70
     0
  0
APPID
  2
CONTENTTABDATA
 70
     0
  0
APPID
  2
CONTENTCURRENTTAB
 70
     0
  0
APPID
  2
CONTENTBLOCKDESCRIPTION
 70
     0
  0
APPID
  2
CONTENTBLOCKICON
 70
     0
  0
APPID
  2
CONTENTLONGBLOCKNAME
 70
     0
  0
APPID
  2
ACAD_PSEXT
 70
     0
  0
APPID
  2
ACAD_DSTYLE_DIMTEXT_FILL
 70
     0
  0
ENDTAB
  0
TABLE
  2
DIMSTYLE
 70
     9
  0
DIMSTYLE
  2
NEWX10
 70
     0
  3
 
  4

  5

  6
OPEN30
  7
OPEN30
 40
1.0
 41
2.0
 42
0.0
 43
7.0
 44
1.0
 45
0.0
 46
0.0
 47
0.0
 48
0.0
140
3.5
141
0.0
142
0.0
143
25.399999999999999
144
1.0
145
0.0
146
0.7
147
0.7
 71
     0
 72
     0
 73
     0
 74
     0
 75
     0
 76
     0
 77
     1
 78
     8
170
     0
171
     2
172
     1
173
     1
174
     0
175
     0
176
   256
177
   256
178
   201
  0
ENDTAB
  0
ENDSEC
  0
SECTION
  2
BLOCKS
  0
BLOCK
  8
0
  2
$MODEL_SPACE
 70
     0
 10
0.0
 20
0.0
 30
0.0
  3
$MODEL_SPACE
  1

  0
ENDBLK
  5
1A
  8
0
  0
BLOCK
 67
     1
  8
0
  2
$PAPER_SPACE
 70
     0
 10
0.0
 20
0.0
 30
0.0
  3
$PAPER_SPACE
  1

  0
ENDBLK
  5
17
 67
     1
  8
0
  0
BLOCK
  8
0
  2
_OPEN30
 70
     0
 10
0.0
 20
0.0
 30
0.0
  3
_OPEN30
  1

  0
LINE
  5
44
  8
0
  6
BYBLOCK
 62
     0
 10
-1.0
 20
0.26794919
 30
0.0
 11
0.0
 21
0.0
 31
0.0
  0
LINE
  5
45
  8
0
  6
BYBLOCK
 62
     0
 10
0.0
 20
0.0
 30
0.0
 11
-1.0
 21
-0.26794919
 31
0.0
  0
LINE
  5
46
  8
0
  6
BYBLOCK
 62
     0
 10
0.0
 20
0.0
 30
0.0
 11
-1.0
 21
0.0
 31
0.0
  0
ENDBLK
  5
47
  8
0
  0
BLOCK
  8
0
  2
XREF1
 70
    36
 10
0.0
 20
0.0
 30
0.0
  3
XREF1
  1
D:\ACLT\FORMAT\KAWAJUN(9)図面用.dwg
  0
ENDBLK
  5
5D
  8
0
  0
BLOCK
  8
0
  2
A3WAKUDAKE
 70
    36
 10
0.0
 20
0.0
 30
0.0
  3
A3WAKUDAKE
  1
D:\ACLT\FORMAT\A3WAKUdake.dwg
  0
ENDBLK
  5
6DC
  8
0
  0
BLOCK
  8
0
  2
*U55
 70
     1
 10
0.0
 20
0.0
 30
0.0
  3
*U55
  1

  0
TEXT
  5
1561F
  8
0
 62
   201
 10
-63.717024855154058
 20
-3.810911908990481
 30
0.0
 40
3.5
  1
φ5
 50
48.83031736650419
  0
ENDBLK
  5
15621
  8
0
  0
BLOCK
  8
0
  2
*U56
 70
     1
 10
0.0
 20
0.0
 30
0.0
  3
*U56
  1

  0
TEXT
  5
15623
  8
1TEXT
 62
   201
 10
21.614708555164611
 20
22.401236958861659
 30
0.0
 40
2.0
  1
二文字
  0
TEXT
  5
15624
  8
1TEXT
 62
   201
 10
21.614708555164611
 20
19.067903625528331
 30
0.0
 40
2.0
  1
(別途指定)
  0
TEXT
  5
15625
  8
1TEXT
 62
   201
 10
21.614708555164611
 20
15.73457029219499
 30
0.0
 40
2.0
  1
天地 約1.8
  0
TEXT
  5
15626
  8
1TEXT
 62
   201
 10
21.614708555164611
 20
12.401236958861659
 30
0.0
 40
2.0
  1
凸0.2
  0
ENDBLK
  5
15628
  8
0
  0
BLOCK
  8
0
  2
*U57
 70
     1
 10
0.0
 20
0.0
 30
0.0
  3
*U57
  1

  0
SOLID
  5
1562A
  8
1DIM
 10
17.769912945885331
 20
22.805130681268722
 30
0.0
 11
17.678379796037799
 21
23.814783819854821
 31
0.0
 12
18.0924202800296
 22
22.889392953575271
 32
0.0
 13
18.0924202800296
 23
22.889392953575271
 33
0.0
  0
POLYLINE
  5
1562B
  8
1DIM
 66
     1
 10
0.0
 20
0.0
 30
0.0
  0
VERTEX
  5
1562C
  8
1DIM
 10
17.931166612957469
 20
22.847261817422002
 30
0.0
  0
VERTEX
  5
1562D
  8
1DIM
 10
20.91703607932029
 20
11.41907722970881
 30
0.0
  0
VERTEX
  5
1562E
  8
1DIM
 10
35.143226555510758
 20
11.41907722970881
 30
0.0
  0
SEQEND
  5
1562F
  8
1DIM
  0
ENDBLK
  5
15631
  8
0
  0
BLOCK
  8
0
  2
*U58
 70
     1
 10
0.0
 20
0.0
 30
0.0
  3
*U58
  1

  0
TEXT
  5
15633
  8
1DIM
 62
   201
 10
8.9421530727463576
 20
19.285028579396069
 30
0.0
 40
2.0
  1
枠
  0
TEXT
  5
15634
  8
1DIM
 62
   201
 10
7.0754864060796914
 20
15.951695246062741
 30
0.0
 40
2.0
  1
φ5
  0
TEXT
  5
15635
  8
1DIM
 62
   201
 10
4.7421530727463583
 20
12.61836191272941
 30
0.0
 40
2.0
  1
凹0.3
  0
ENDBLK
  5
15637
  8
0
  0
BLOCK
  8
0
  2
*U59
 70
     1
 10
0.0
 20
0.0
 30
0.0
  3
*U59
  1

  0
SOLID
  5
15639
  8
1DIM
 10
14.77538895849114
 20
20.894651819020488
 30
0.0
 11
15.75963814806016
 21
22.667323431007279
 31
0.0
 12
15.403512140193291
 22
20.67125595278117
 32
0.0
 13
15.403512140193291
 23
20.67125595278117
 33
0.0
  0
POLYLINE
  5
1563A
  8
1DIM
 66
     1
 10
0.0
 20
0.0
 30
0.0
  0
VERTEX
  5
1563B
  8
1DIM
 10
15.089450549342221
 20
20.782953885900831
 30
0.0
  0
VERTEX
  5
1563C
  8
1DIM
 10
11.821762131327951
 20
11.59517937383526
 30
0.0
  0
VERTEX
  5
1563D
  8
1DIM
 10
2.3789049884708091
 20
11.59517937383526
 30
0.0
  0
SEQEND
  5
1563E
  8
1DIM
  0
ENDBLK
  5
15640
  8
0
  0
BLOCK
  8
0
  2
*U60
 70
     1
 10
0.0
 20
0.0
 30
0.0
  3
*U60
  1

  0
TEXT
  5
15643
  8
1TEXT
 10
14.9745471932972
 20
24.09947430071913
 30
0.0
 40
1.8
  1
XY
  0
ENDBLK
  5
15645
  8
0
  0
BLOCK
  8
0
  2
*U61
 70
     1
 10
0.0
 20
0.0
 30
0.0
  3
*U61
  1

  0
LINE
  5
15647
  8
0
 10
-4.1999999999999877
 20
-1.9999999999999849
 30
0.0
 11
-0.3500000000000227
 21
-2.0
 31
0.0
  0
LINE
  5
15648
  8
0
 10
0.0
 20
-1.6499999999998629
 30
0.0
 11
-0.3500000000000227
 21
-2.0
 31
0.0
  0
LINE
  5
15649
  8
0
 10
-6.0
 20
-0.200000000000017
 30
0.0
 11
-4.1999999999999877
 21
-1.9999999999999849
 31
0.0
  0
LINE
  5
1564A
  8
0
 10
0.0
 20
1.649999999999977
 30
0.0
 11
0.0
 21
-1.6499999999998629
 31
0.0
  0
LINE
  5
1564B
  8
0
 10
-6.0
 20
0.2000000000000028
 30
0.0
 11
-6.0
 21
-0.200000000000017
 31
0.0
  0
LINE
  5
1564C
  8
0
 10
-0.3500000000000227
 20
2.0
 30
0.0
 11
0.0
 21
1.649999999999977
 31
0.0
  0
LINE
  5
1564D
  8
0
 10
-6.0
 20
0.2000000000000028
 30
0.0
 11
-4.2000000000000446
 21
2.0
 31
0.0
  0
LINE
  5
1564E
  8
0
 10
-4.2000000000000446
 20
2.0
 30
0.0
 11
-0.3500000000000227
 21
2.0
 31
0.0
  0
ENDBLK
  5
15650
  8
0
  0
BLOCK
  8
0
  2
*U62
 70
     1
 10
0.0
 20
0.0
 30
0.0
  3
*U62
  1

  0
LINE
  5
15652
  8
0
 10
-5.6499999999999773
 20
2.0000000000000142
 30
0.0
 11
-0.3500000000000227
 21
2.0
 31
0.0
  0
LINE
  5
15653
  8
0
 10
-5.6499999999999773
 20
2.0000000000000142
 30
0.0
 11
-6.0
 21
1.6499999999999631
 31
0.0
  0
LINE
  5
15654
  8
0
 10
-0.3500000000000227
 20
2.0
 30
0.0
 11
0.0
 21
1.649999999999977
 31
0.0
  0
LINE
  5
15655
  8
0
 10
-6.0
 20
1.6499999999999631
 30
0.0
 11
-6.0
 21
-1.6499999999998629
 31
0.0
  0
LINE
  5
15656
  8
0
 10
0.0
 20
1.649999999999977
 30
0.0
 11
0.0
 21
-1.6499999999998629
 31
0.0
  0
LINE
  5
15657
  8
0
 10
-6.0
 20
-1.6499999999998629
 30
0.0
 11
-5.6499999999999773
 21
-1.9999999999999849
 31
0.0
  0
LINE
  5
15658
  8
0
 10
0.0
 20
-1.6499999999998629
 30
0.0
 11
-0.3500000000000227
 21
-2.0
 31
0.0
  0
LINE
  5
15659
  8
0
 10
-5.6499999999999773
 20
-1.9999999999999849
 30
0.0
 11
-0.3500000000000227
 21
-2.0
 31
0.0
  0
ENDBLK
  5
1565B
  8
0
  0
BLOCK
  8
0
  2
*X63
 70
     1
 10
0.0
 20
0.0
 30
0.0
  3
*X63
  1

  0
LINE
  5
1565D
  8
0
 62
     0
 10
10.35561001165331
 20
1.7353216665921991
 30
0.0
 11
1.735321666592085
 21
10.35561001165342
 31
0.0
  0
LINE
  5
1565E
  8
0
 62
     0
 10
0.0000000000001137
 20
8.4988292298177157
 30
0.0
 11
-1.838891835213303
 21
10.337721065031021
 31
0.0
  0
LINE
  5
1565F
  8
0
 62
     0
 10
8.4988292298179431
 20
-0.0000000000001137
 30
0.0
 11
0.0000000000001137
 21
8.4988292298177157
 31
0.0
  0
LINE
  5
15660
  8
0
 62
     0
 10
10.337721065031131
 20
-1.838891835213303
 30
0.0
 11
8.4988292298179431
 21
-0.0000000000001137
 31
0.0
  0
LINE
  5
15661
  8
0
 62
     0
 10
-0.2377810848388435
 20
5.1445078662289907
 30
0.0
 11
-4.5542045235814612
 21
9.4609313049716093
 31
0.0
  0
LINE
  5
15662
  8
0
 62
     0
 10
9.4609313049714956
 20
-4.5542045235813466
 30
0.0
 11
5.1445078662289907
 21
-0.2377810848388435
 31
0.0
  0
LINE
  5
15663
  8
0
 62
     0
 10
-2.9244738727450108
 20
4.2390982057073643
 30
0.0
 11
-6.7381554127728123
 21
8.0527797457351653
 31
0.0
  0
LINE
  5
15664
  8
0
 62
     0
 10
8.0527797457350516
 20
-6.7381554127726977
 30
0.0
 11
4.2390982057073643
 21
-2.9244738727450108
 31
0.0
  0
LINE
  5
15665
  8
0
 62
     0
 10
-4.5977163449367699
 20
2.3202382294715558
 30
0.0
 11
-8.4755144637537114
 21
6.1980363482883831
 31
0.0
  0
LINE
  5
15666
  8
0
 62
     0
 10
6.1980363482882694
 20
-8.4755144637535977
 30
0.0
 11
2.3202382294715558
 21
-4.5977163449367699
 31
0.0
  0
LINE
  5
15667
  8
0
 62
     0
 10
-5.0907718486563454
 20
-0.7788087152364369
 30
0.0
 11
-5.8695805638927823
 21
0.0
 31
0.0
  0
LINE
  5
15668
  8
0
 62
     0
 10
-5.8695805638928951
 20
0.0
 30
0.0
 11
-9.9540062277598054
 21
4.0844256638669094
 31
0.0
  0
LINE
  5
15669
  8
0
 62
     0
 10
3.8851808324346839
 20
-9.7547613963275808
 30
0.0
 11
2.0
 21
-7.8695805638928951
 31
0.0
  0
LINE
  5
1566A
  8
0
 62
     0
 10
-9.4616830123206892
 20
0.0
 30
0.0
 11
-18.103896804350711
 21
8.6422137920301338
 31
0.0
  0
LINE
  5
1566B
  8
0
 62
     0
 10
-2.0000000000001128
 20
-7.4616830123204627
 30
0.0
 11
-9.4616830123204636
 21
-0.0000000000001137
 31
0.0
  0
LINE
  5
1566C
  8
0
 62
     0
 10
-13.05378546074826
 20
0.0000000000001137
 30
0.0
 11
-15.175214195387071
 21
2.1214287346389251
 31
0.0
  0
LINE
  5
1566D
  8
0
 62
     0
 10
-16.603785460748661
 20
3.5500000000005221
 30
0.0
 11
-23.851266556543241
 21
10.79748109579509
 31
0.0
  0
LINE
  5
1566E
  8
0
 62
     0
 10
-2.9878714975766338
 20
-10.065913963171511
 30
0.0
 11
-13.053785460748029
 21
-0.0000000000001137
 31
0.0
  0
LINE
  5
1566F
  8
0
 62
     0
 10
-20.195887909176118
 20
3.5500000000002951
 30
0.0
 11
-28.659515684223379
 21
12.013627775047439
 31
0.0
  0
LINE
  5
15670
  8
0
 62
     0
 10
-29.100013291500659
 20
12.454125382324831
 30
0.0
 11
-29.745874817675372
 21
13.09998690849943
 31
0.0
  0
LINE
  5
15671
  8
0
 62
     0
 10
-12.628969351714661
 20
-4.0169185574611674
 30
0.0
 11
-14.93702132611565
 21
-1.7088665830602841
 31
0.0
  0
LINE
  5
15672
  8
0
 62
     0
 10
-23.78799035760369
 20
3.550000000000181
 30
0.0
 11
-27.799999599999751
 21
7.5620092423962433
 31
0.0
  0
LINE
  5
15673
  8
0
 62
     0
 10
-31.237990357603621
 20
11.00000000000011
 30
0.0
 11
-33.000000200000052
 21
12.762009842396539
 31
0.0
  0
LINE
  5
15674
  8
0
 62
     0
 10
-13.78316865624026
 20
-6.454821701363243
 30
0.0
 11
-16.687990357603208
 21
-3.5500000000002951
 31
0.0
  0
LINE
  5
15675
  8
0
 62
     0
 10
-16.124704244214509
 20
-7.7053885618167888
 30
0.0
 11
-20.280092806031231
 21
-3.5500000000000682
 31
0.0
  0
LINE
  5
15676
  8
0
 62
     0
 10
-18.57318348346837
 20
-8.849011770990387
 30
0.0
 11
-20.133604742031139
 21
-7.2885905124276169
 31
0.0
  0
LINE
  5
15677
  8
0
 62
     0
 10
-24.295840827822978
 20
-6.7184568750635663
 30
0.0
 11
-27.132148651443231
 21
-3.8821490514432071
 31
0.0
  0
LINE
  5
15678
  8
0
 62
     0
 10
-23.818861225215301
 20
-10.787538926098931
 30
0.0
 11
-27.799999599999872
 21
-6.8064005513143684
 31
0.0
  0
LINE
  5
15679
  8
0
 62
     0
 10
-26.63513577162314
 20
-11.56336682811866
 30
0.0
 11
-28.117386294735979
 21
-10.081116305005819
 31
0.0
  0
LINE
  5
1567A
  8
0
 62
     0
 10
-29.133782390785999
 20
-12.656822657383479
 30
0.0
 11
-30.790605048169478
 21
-11.00000000000011
 31
0.0
  0
LINE
  5
1567B
  8
0
 62
     0
 10
-31.632707496597501
 20
-13.749999999999661
 30
0.0
 11
-33.000000200000159
 21
-12.38270729659712
 31
0.0
  0
ENDBLK
  5
1567D
  8
0
  0
BLOCK
  8
0
  2
*X64
 70
     1
 10
0.0
 20
0.0
 30
0.0
  3
*X64
  1

  0
LINE
  5
1567F
  8
0
 62
     0
 10
-0.0000000000000284
 20
-9.5063084520140251
 30
0.0
 11
1.2436915465089271
 21
-10.749999998522981
 31
0.0
  0
LINE
  5
15680
  8
0
 62
     0
 10
1.3407299661463119
 20
-9.5
 30
0.0
 11
1.8000087437750381
 21
-9.9592787776287253
 31
0.0
  0
LINE
  5
15681
  8
0
 62
     0
 10
-0.0000000000000568
 20
-4.118154779372559
 30
0.0
 11
0.8818452206275254
 21
-5.0000000000001128
 31
0.0
  0
LINE
  5
15682
  8
0
 62
     0
 10
0.0
 20
-2.7711163612121932
 30
0.0
 11
1.8000087437751511
 21
-4.5711251049873454
 31
0.0
  0
LINE
  5
15683
  8
0
 62
     0
 10
0.0
 20
-1.4240779430518271
 30
0.0
 11
2.125922055471249
 21
-3.5499999985230768
 31
0.0
  0
LINE
  5
15684
  8
0
 62
     0
 10
-0.0000000000000284
 20
-0.0770395248914611
 30
0.0
 11
3.222960475108493
 21
-3.2999999999999821
 31
0.0
  0
LINE
  5
15685
  8
0
 62
     0
 10
1.269998893268933
 20
0.0
 30
0.0
 11
4.5699988932688882
 21
-3.2999999999999541
 31
0.0
  0
LINE
  5
15686
  8
0
 62
     0
 10
-0.0000000000000284
 20
1.2699988932689621
 30
0.0
 11
1.269998893268905
 21
0.0000000000000284
 31
0.0
  0
LINE
  5
15687
  8
0
 62
     0
 10
2.6170373114292711
 20
0.0
 30
0.0
 11
5.9170373114292261
 21
-3.2999999999999541
 31
0.0
  0
LINE
  5
15688
  8
0
 62
     0
 10
-0.0000000000000568
 20
2.6170373114293279
 30
0.0
 11
2.6170373114292711
 21
0.0
 31
0.0
  0
LINE
  5
15689
  8
0
 62
     0
 10
3.9640757295896658
 20
0.0
 30
0.0
 11
7.2640757295896199
 21
-3.2999999999999541
 31
0.0
  0
LINE
  5
1568A
  8
0
 62
     0
 10
-0.0000000000000284
 20
3.9640757295896938
 30
0.0
 11
3.9640757295896369
 21
0.0
 31
0.0
  0
LINE
  5
1568B
  8
0
 62
     0
 10
5.3111141477500894
 20
-0.0000000000000568
 30
0.0
 11
8.6111141477499871
 21
-3.2999999999999821
 31
0.0
  0
LINE
  5
1568C
  8
0
 62
     0
 10
0.3111141477501178
 20
4.9999999999998863
 30
0.0
 11
5.3111141477500317
 21
0.0
 31
0.0
  0
LINE
  5
1568D
  8
0
 62
     0
 10
3.3581525659104439
 20
3.2999999999999541
 30
0.0
 11
6.6581525659103704
 21
0.0
 31
0.0
  0
LINE
  5
1568E
  8
0
 62
     0
 10
6.6581525659104548
 20
-0.0000000000000568
 30
0.0
 11
9.5072519243349518
 21
-2.8490993584245521
 31
0.0
  0
LINE
  5
1568F
  8
0
 62
     0
 10
1.65815256591037
 20
5.0
 30
0.0
 11
1.8000087437750381
 21
4.8581438221353599
 31
0.0
  0
LINE
  5
15690
  8
0
 62
     0
 10
8.0051909840708202
 20
-0.0000000000000853
 30
0.0
 11
11.167075174998409
 21
-3.1618841909276512
 31
0.0
  0
LINE
  5
15691
  8
0
 62
     0
 10
4.7051909840708097
 20
3.2999999999999541
 30
0.0
 11
8.0051909840707651
 21
0.0
 31
0.0
  0
LINE
  5
15692
  8
0
 62
     0
 10
9.3522294022312167
 20
-0.0000000000000853
 30
0.0
 11
12.652229402231111
 21
-3.2999999999999541
 31
0.0
  0
LINE
  5
15693
  8
0
 62
     0
 10
6.0522294022312053
 20
3.2999999999999261
 30
0.0
 11
9.3522294022311598
 21
0.0
 31
0.0
  0
LINE
  5
15694
  8
0
 62
     0
 10
7.3992678203915707
 20
3.2999999999999261
 30
0.0
 11
10.699267820391499
 21
0.0
 31
0.0
  0
LINE
  5
15695
  8
0
 62
     0
 10
10.699267820391579
 20
-0.0000000000000853
 30
0.0
 11
12.90000019999991
 21
-2.2007323796084099
 31
0.0
  0
LINE
  5
15696
  8
0
 62
     0
 10
-0.0000000000000284
 20
10.699267820391521
 30
0.0
 11
1.1992678203915259
 21
9.5
 31
0.0
  0
LINE
  5
15697
  8
0
 62
     0
 10
9.2443367211198222
 20
2.8019695174320409
 30
0.0
 11
12.046306238551891
 21
0.0
 31
0.0
  0
LINE
  5
15698
  8
0
 62
     0
 10
12.046306238551979
 20
-0.0000000000000853
 30
0.0
 11
14.046306238551949
 21
-2.000000000000056
 31
0.0
  0
LINE
  5
15699
  8
0
 62
     0
 10
1.2963062400290251
 20
10.74999999852287
 30
0.0
 11
1.8000087437750381
 21
10.246297494776851
 31
0.0
  0
LINE
  5
1569A
  8
0
 62
     0
 10
13.393344656712371
 20
-0.0000000000001137
 30
0.0
 11
15.393344656712291
 21
-2.000000000000056
 31
0.0
  0
LINE
  5
1569B
  8
0
 62
     0
 10
15.90000020000002
 20
-2.5066555432877911
 30
0.0
 11
16.143344656712259
 21
-2.750000000000028
 31
0.0
  0
LINE
  5
1569C
  8
0
 62
     0
 10
10.379815373485821
 20
3.0135292832264038
 30
0.0
 11
13.39334465671226
 21
0.0
 31
0.0
  0
LINE
  5
1569D
  8
0
 62
     0
 10
14.74038307487274
 20
-0.0000000000000853
 30
0.0
 11
16.995191537436309
 21
-2.2548084625636871
 31
0.0
  0
LINE
  5
1569E
  8
0
 62
     0
 10
11.513261852327391
 20
3.227121222545235
 30
0.0
 11
14.74038307487262
 21
0.0
 31
0.0
  0
LINE
  5
1569F
  8
0
 62
     0
 10
14.0874214930331
 20
1.9999999999998861
 30
0.0
 11
16.087421493032991
 21
0.0
 31
0.0
  0
LINE
  5
156A0
  8
0
 62
     0
 10
16.087421493033101
 20
-0.0000000000001137
 30
0.0
 11
17.00000000000005
 21
-0.9125785069670656
 31
0.0
  0
LINE
  5
156A1
  8
0
 62
     0
 10
12.78742149303284
 20
3.300000000000181
 30
0.0
 11
12.90000019999988
 21
3.1874212930331391
 31
0.0
  0
LINE
  5
156A2
  8
0
 62
     0
 10
15.43445991119358
 20
1.999999999999801
 30
0.0
 11
17.000000000000082
 21
0.4344599111932724
 31
0.0
  0
LINE
  5
156A3
  8
0
 62
     0
 10
16.031498329353749
 20
2.75
 30
0.0
 11
17.000000000000082
 21
1.7814983293536379
 31
0.0
  0
ENDBLK
  5
156A5
  8
0
  0
BLOCK
  8
0
  2
*X65
 70
     1
 10
0.0
 20
0.0
 30
0.0
  3
*X65
  1

  0
LINE
  5
156A7
  8
0
 62
     0
 10
13.41339771754258
 20
-3.163142703204584
 30
0.0
 11
14.23685749679546
 21
-3.986602482457442
 31
0.0
  0
LINE
  5
156A8
  8
0
 62
     0
 10
13.43543246913447
 20
-2.7361646487429989
 30
0.0
 11
14.66383555125705
 21
-3.9645677308655531
 31
0.0
  0
LINE
  5
156A9
  8
0
 62
     0
 10
13.57832483846698
 20
-2.4300442120220671
 30
0.0
 11
14.969955987978009
 21
-3.821675361533067
 31
0.0
  0
LINE
  5
156AA
  8
0
 62
     0
 10
13.79845481036614
 20
-2.2011613778677481
 30
0.0
 11
15.198838822132331
 21
-3.601545389633912
 31
0.0
  0
LINE
  5
156AB
  8
0
 62
     0
 10
14.09420797036085
 20
-2.04790173180902
 30
0.0
 11
15.352098468191031
 21
-3.3057922296391662
 31
0.0
  0
LINE
  5
156AC
  8
0
 62
     0
 10
14.50036871342669
 20
-2.005049668821413
 30
0.0
 11
15.39495053117866
 21
-2.8996314865733832
 31
0.0
  0
LINE
  5
156AD
  8
0
 62
     0
 10
13.48049176570316
 20
2.6069297273297991
 30
0.0
 11
14.00692992732988
 21
2.0804915657031131
 31
0.0
  0
LINE
  5
156AE
  8
0
 62
     0
 10
13.408249854336271
 20
3.1281844447501612
 30
0.0
 11
14.52818464475018
 21
2.0082496543362529
 31
0.0
  0
LINE
  5
156AF
  8
0
 62
     0
 10
13.51667895516789
 20
3.468768149971992
 30
0.0
 11
14.86876834997204
 21
2.1166787551678108
 31
0.0
  0
LINE
  5
156B0
  8
0
 62
     0
 10
13.71033322290037
 20
3.7241266882929831
 30
0.0
 11
15.124126888293031
 21
2.3103330229002941
 31
0.0
  0
LINE
  5
156B1
  8
0
 62
     0
 10
13.977233952031639
 20
3.9062387652151642
 30
0.0
 11
15.306238965215179
 21
2.5772337520315882
 31
0.0
  0
LINE
  5
156B2
  8
0
 62
     0
 10
14.334624784025429
 20
3.9978607392748131
 30
0.0
 11
15.39786093927486
 21
2.9346245840254142
 31
0.0
  0
LINE
  5
156B3
  8
0
 62
     0
 10
14.93953507999831
 20
3.8419632493554161
 30
0.0
 11
15.24196344935546
 21
3.5395348799982278
 31
0.0
  0
ENDBLK
  5
156B5
  8
0
  0
BLOCK
  8
0
  2
*X66
 70
     1
 10
0.0
 20
0.0
 30
0.0
  3
*X66
  1

  0
LINE
  5
156B7
  8
0
 62
     0
 10
6.8579485945102761
 20
5.150000099999942
 30
0.0
 11
1.636218397399261
 21
10.37173029711095
 31
0.0
  0
LINE
  5
156B8
  8
0
 62
     0
 10
0.0000000000001137
 20
8.4158462460825376
 30
0.0
 11
-1.909133603078998
 21
10.32497984916165
 31
0.0
  0
LINE
  5
156B9
  8
0
 62
     0
 10
3.2658461460825938
 20
5.150000099999942
 30
0.0
 11
0.0000000000001137
 21
8.4158462460825376
 31
0.0
  0
LINE
  5
156BA
  8
0
 62
     0
 10
-0.3262563023448592
 20
5.150000099999942
 30
0.0
 11
-4.6100846621066012
 21
9.4338284597616848
 31
0.0
  0
LINE
  5
156BB
  8
0
 62
     0
 10
-3.9183587507726538
 20
5.150000099999942
 30
0.0
 11
-6.7832174315673219
 21
8.0148587807946114
 31
0.0
  0
LINE
  5
156BC
  8
0
 62
     0
 10
8.0148587807946114
 20
-6.7832174315674356
 30
0.0
 11
6.3816414492273452
 21
-5.1500001000001703
 31
0.0
  0
LINE
  5
156BD
  8
0
 62
     0
 10
-7.5104611992003347
 20
5.150000099999942
 30
0.0
 11
-8.5000000000001137
 21
6.1395389007996073
 31
0.0
  0
LINE
  5
156BE
  8
0
 62
     0
 10
6.1499847166651298
 20
-8.5104458158656371
 30
0.0
 11
2.789539000799663
 21
-5.1500001000000557
 31
0.0
  0
LINE
  5
156BF
  8
0
 62
     0
 10
0.0
 20
-5.9525635476279604
 30
0.0
 11
-0.8025634476280174
 21
-5.1500001000000557
 31
0.0
  0
LINE
  5
156C0
  8
0
 62
     0
 10
4.0606450332290933
 20
-10.01320858085716
 30
0.0
 11
0.0000000000002274
 21
-5.9525635476283014
 31
0.0
  0
LINE
  5
156C1
  8
0
 62
     0
 10
0.0
 20
-9.5446659960557554
 30
0.0
 11
-4.3946658960555851
 21
-5.1500001000000557
 31
0.0
  0
LINE
  5
156C2
  8
0
 62
     0
 10
8.7087069959245582
 20
-18.2533729919802
 30
0.0
 11
0.0000000000003411
 21
-9.5446659960559828
 31
0.0
  0
LINE
  5
156C3
  8
0
 62
     0
 10
1.925088887040374
 20
-15.061857331523809
 30
0.0
 11
0.0
 21
-13.13676844448343
 31
0.0
  0
LINE
  5
156C4
  8
0
 62
     0
 10
0.0
 20
-13.13676844448343
 30
0.0
 11
-7.9867683444833801
 21
-5.1500001000000557
 31
0.0
  0
LINE
  5
156C5
  8
0
 62
     0
 10
10.833910220719069
 20
-23.97067866520263
 30
0.0
 11
3.54999999999984
 21
-16.686768444483391
 31
0.0
  0
LINE
  5
156C6
  8
0
 62
     0
 10
12.03432820925218
 20
-28.763199102163071
 30
0.0
 11
3.5499999999999541
 21
-20.278870892910842
 31
0.0
  0
LINE
  5
156C7
  8
0
 62
     0
 10
-1.761475686666472
 20
-14.96739520624442
 30
0.0
 11
-4.0379039399838339
 21
-12.69096695292717
 31
0.0
  0
LINE
  5
156C8
  8
0
 62
     0
 10
13.099999999999911
 20
-29.8288708929108
 30
0.0
 11
12.37112930708906
 21
-29.100000199999961
 31
0.0
  0
LINE
  5
156C9
  8
0
 62
     0
 10
7.4790262586612917
 20
-27.799999599999872
 30
0.0
 11
3.54999999999984
 21
-23.870973341338409
 31
0.0
  0
LINE
  5
156CA
  8
0
 62
     0
 10
-3.5500000000000682
 20
-16.7709733413385
 30
0.0
 11
-6.4848783247022084
 21
-13.83609501663636
 31
0.0
  0
LINE
  5
156CB
  8
0
 62
     0
 10
12.67902685866159
 20
-33.000000200000159
 30
0.0
 11
11.00000000000011
 21
-31.320973341338689
 31
0.0
  0
LINE
  5
156CC
  8
0
 62
     0
 10
-3.5499999999999541
 20
-20.363075789766409
 30
0.0
 11
-7.7330368020898268
 21
-16.180038987676539
 31
0.0
  0
LINE
  5
156CD
  8
0
 62
     0
 10
-3.5499999999999541
 20
-23.95517823819409
 30
0.0
 11
-8.8741186659308369
 21
-18.631059572263212
 31
0.0
  0
LINE
  5
156CE
  8
0
 62
     0
 10
-3.9236405433106252
 20
-27.173640143311101
 30
0.0
 11
-9.901571718252967
 21
-21.195708968368759
 31
0.0
  0
LINE
  5
156CF
  8
0
 62
     0
 10
-6.8893835350494319
 20
-27.799999599999872
 30
0.0
 11
-10.8070040231338
 21
-23.882379111915501
 31
0.0
  0
LINE
  5
156D0
  8
0
 62
     0
 10
-10.130989661818029
 20
-28.150495921658951
 30
0.0
 11
-11.57961971301688
 21
-26.7018658704601
 31
0.0
  0
LINE
  5
156D1
  8
0
 62
     0
 10
-10.999999999999771
 20
-30.873588031904781
 30
0.0
 11
-12.716460966271249
 21
-29.15712706563329
 31
0.0
  0
LINE
  5
156D2
  8
0
 62
     0
 10
-12.465690280332071
 20
-33.000000200000159
 30
0.0
 11
-13.76550531945383
 21
-31.700185160878501
 31
0.0
  0
ENDBLK
  5
156D4
  8
0
  0
BLOCK
  8
0
  2
*X67
 70
     1
 10
0.0
 20
0.0
 30
0.0
  3
*X67
  1

  0
LINE
  5
156D6
  8
0
 62
     0
 10
17.749270850893371
 20
-61.46873075173783
 30
0.0
 11
18.00000000000006
 21
-61.218001602631091
 31
0.0
  0
LINE
  5
156D7
  8
0
 62
     0
 10
15.504206820626109
 20
-61.46873075173783
 30
0.0
 11
18.00000000000011
 21
-58.972937572363769
 31
0.0
  0
LINE
  5
156D8
  8
0
 62
     0
 10
13.259142790358849
 20
-61.46873075173783
 30
0.0
 11
18.00000000000011
 21
-56.727873542096518
 31
0.0
  0
LINE
  5
156D9
  8
0
 62
     0
 10
11.014078760091589
 20
-61.46873075173778
 30
0.0
 11
18.00000000000011
 21
-54.482809511829259
 31
0.0
  0
LINE
  5
156DA
  8
0
 62
     0
 10
9.0000000000000568
 20
-61.237745481561952
 30
0.0
 11
18.00000000000006
 21
-52.237745481561937
 31
0.0
  0
LINE
  5
156DB
  8
0
 62
     0
 10
9.0000000000000568
 20
-58.992681451294679
 30
0.0
 11
18.00000000000011
 21
-49.992681451294622
 31
0.0
  0
LINE
  5
156DC
  8
0
 62
     0
 10
9.0000000000001137
 20
-56.747617421027421
 30
0.0
 11
18.00000000000011
 21
-47.747617421027371
 31
0.0
  0
LINE
  5
156DD
  8
0
 62
     0
 10
9.0000000000001137
 20
-54.50255339076012
 30
0.0
 11
18.000000000000171
 21
-45.502553390759999
 31
0.0
  0
LINE
  5
156DE
  8
0
 62
     0
 10
9.0
 20
-52.257489360492848
 30
0.0
 11
18.00000000000011
 21
-43.257489360492741
 31
0.0
  0
LINE
  5
156DF
  8
0
 62
     0
 10
9.0000000000000568
 20
-50.01242533022554
 30
0.0
 11
18.00000000000011
 21
-41.012425330225483
 31
0.0
  0
LINE
  5
156E0
  8
0
 62
     0
 10
9.0000000000000568
 20
-47.767361299958267
 30
0.0
 11
18.00000000000011
 21
-38.767361299958232
 31
0.0
  0
LINE
  5
156E1
  8
0
 62
     0
 10
9.0000000000000568
 20
-45.522297269690966
 30
0.0
 11
18.00000000000011
 21
-36.52229726969091
 31
0.0
  0
LINE
  5
156E2
  8
0
 62
     0
 10
9.0000000000000568
 20
-43.277233239423651
 30
0.0
 11
18.000000000000171
 21
-34.277233239423538
 31
0.0
  0
LINE
  5
156E3
  8
0
 62
     0
 10
9.0000000000000568
 20
-41.032169209156393
 30
0.0
 11
18.000000000000171
 21
-32.03216920915628
 31
0.0
  0
LINE
  5
156E4
  8
0
 62
     0
 10
9.0000000000000568
 20
-38.787105178889142
 30
0.0
 11
18.000000000000231
 21
-29.787105178889021
 31
0.0
  0
LINE
  5
156E5
  8
0
 62
     0
 10
9.0000000000000568
 20
-36.54204114862182
 30
0.0
 11
18.000000000000171
 21
-27.54204114862171
 31
0.0
  0
LINE
  5
156E6
  8
0
 62
     0
 10
8.9999999999999432
 20
-34.296977118354619
 30
0.0
 11
18.000000000000171
 21
-25.296977118354391
 31
0.0
  0
LINE
  5
156E7
  8
0
 62
     0
 10
9.0
 20
-32.051913088087311
 30
0.0
 11
18.000000000000171
 21
-23.051913088087129
 31
0.0
  0
LINE
  5
156E8
  8
0
 62
     0
 10
9.0
 20
-29.806849057820049
 30
0.0
 11
18.000000000000231
 21
-20.806849057819822
 31
0.0
  0
LINE
  5
156E9
  8
0
 62
     0
 10
9.0
 20
-27.56178502755273
 30
0.0
 11
18.000000000000231
 21
-18.561785027552499
 31
0.0
  0
LINE
  5
156EA
  8
0
 62
     0
 10
8.9999999999999432
 20
-25.316720997285479
 30
0.0
 11
18.000000000000231
 21
-16.316720997285241
 31
0.0
  0
LINE
  5
156EB
  8
0
 62
     0
 10
8.9999999999999432
 20
-23.07165696701821
 30
0.0
 11
18.000000000000231
 21
-14.071656967017979
 31
0.0
  0
LINE
  5
156EC
  8
0
 62
     0
 10
8.9999999999999432
 20
-20.826592936750899
 30
0.0
 11
18.000000000000231
 21
-11.826592936750609
 31
0.0
  0
LINE
  5
156ED
  8
0
 62
     0
 10
8.9999999999999432
 20
-18.58152890648358
 30
0.0
 11
18.000000000000171
 21
-9.5815289064833564
 31
0.0
  0
LINE
  5
156EE
  8
0
 62
     0
 10
16.353366242229299
 20
-8.9830986339870265
 30
0.0
 11
16.58651145322483
 21
-8.7499534229914389
 31
0.0
  0
LINE
  5
156EF
  8
0
 62
     0
 10
8.9999999999999432
 20
-16.336464876216318
 30
0.0
 11
16.264414818379521
 21
-9.0720500578367478
 31
0.0
  0
LINE
  5
156F0
  8
0
 62
     0
 10
17.341447422598829
 20
-5.7499534233501768
 30
0.0
 11
18.00000000000011
 21
-5.091400845948896
 31
0.0
  0
LINE
  5
156F1
  8
0
 62
     0
 10
8.9999999999999432
 20
-14.091400845949069
 30
0.0
 11
14.34144742402435
 21
-8.7499534219246584
 31
0.0
  0
LINE
  5
156F2
  8
0
 62
     0
 10
15.09638339339835
 20
-5.7499534222833404
 30
0.0
 11
15.475887752038769
 21
-5.3704490636429218
 31
0.0
  0
LINE
  5
156F3
  8
0
 62
     0
 10
15.516052887897841
 20
-5.3302839277838521
 30
0.0
 11
18.00000000000011
 21
-2.8463368156815809
 31
0.0
  0
LINE
  5
156F4
  8
0
 62
     0
 10
9.0
 20
-11.84633681568169
 30
0.0
 11
12.096383394823871
 21
-8.7499534208578211
 31
0.0
  0
LINE
  5
156F5
  8
0
 62
     0
 10
12.85131936419776
 20
-5.7499534212166159
 30
0.0
 11
18.00000000000006
 21
-0.6012727854143236
 31
0.0
  0
LINE
  5
156F6
  8
0
 62
     0
 10
8.9999999999999432
 20
-9.6012727854144373
 30
0.0
 11
9.8085489289221073
 21
-8.7927238564922732
 31
0.0
  0
LINE
  5
156F7
  8
0
 62
     0
 10
10.76769871211496
 20
-5.5885100430321577
 30
0.0
 11
18.00000000000006
 21
1.6437912448529339
 31
0.0
  0
LINE
  5
156F8
  8
0
 62
     0
 10
8.9999999999999432
 20
-5.11114472487992
 30
0.0
 11
18.00000000000006
 21
3.8888552751201919
 31
0.0
  0
LINE
  5
156F9
  8
0
 62
     0
 10
8.9999999999999432
 20
-2.866080694612605
 30
0.0
 11
17.61612726817793
 21
5.7500465735653838
 31
0.0
  0
LINE
  5
156FA
  8
0
 62
     0
 10
8.9999999999999432
 20
-0.6210166643452908
 30
0.0
 11
15.37106323897728
 21
5.7500465746320506
 31
0.0
  0
LINE
  5
156FB
  8
0
 62
     0
 10
16.125999208351288
 20
8.7500465742733127
 30
0.0
 11
18.00000000000011
 21
10.62404736592214
 31
0.0
  0
LINE
  5
156FC
  8
0
 62
     0
 10
8.9999999999999432
 20
1.624047365921967
 30
0.0
 11
13.02099569600597
 21
5.645043061927935
 31
0.0
  0
LINE
  5
156FD
  8
0
 62
     0
 10
13.98014547919882
 20
8.8492568753880505
 30
0.0
 11
18.00000000000011
 21
12.869111396189391
 31
0.0
  0
LINE
  5
156FE
  8
0
 62
     0
 10
9.0
 20
3.869111396189282
 30
0.0
 11
10.88093518057638
 21
5.7500465767656124
 31
0.0
  0
LINE
  5
156FF
  8
0
 62
     0
 10
11.635871149950271
 20
8.7500465764068736
 30
0.0
 11
18.00000000000011
 21
15.114175426456709
 31
0.0
  0
LINE
  5
15700
  8
0
 62
     0
 10
9.3908071207497414
 20
8.7500465774735972
 30
0.0
 11
18.00000000000006
 21
17.359239456723969
 31
0.0
  0
LINE
  5
15701
  8
0
 62
     0
 10
9.0000000000001137
 20
10.604303486991229
 30
0.0
 11
18.00000000000006
 21
19.604303486991231
 31
0.0
  0
LINE
  5
15702
  8
0
 62
     0
 10
9.0000000000001137
 20
12.849367517258541
 30
0.0
 11
18.00000000000011
 21
21.849367517258599
 31
0.0
  0
LINE
  5
15703
  8
0
 62
     0
 10
9.0000000000001137
 20
15.094431547525859
 30
0.0
 11
18.00000000000011
 21
24.094431547525861
 31
0.0
  0
LINE
  5
15704
  8
0
 62
     0
 10
9.0000000000000568
 20
17.339495577793109
 30
0.0
 11
18.00000000000011
 21
26.339495577793169
 31
0.0
  0
LINE
  5
15705
  8
0
 62
     0
 10
9.0000000000000568
 20
19.584559608060371
 30
0.0
 11
18.00000000000011
 21
28.584559608060431
 31
0.0
  0
LINE
  5
15706
  8
0
 62
     0
 10
9.0000000000001137
 20
21.82962363832775
 30
0.0
 11
18.00000000000011
 21
30.82962363832775
 31
0.0
  0
LINE
  5
15707
  8
0
 62
     0
 10
9.0000000000000568
 20
24.074687668595001
 30
0.0
 11
18.00000000000006
 21
33.074687668594997
 31
0.0
  0
LINE
  5
15708
  8
0
 62
     0
 10
9.0000000000000568
 20
26.31975169886227
 30
0.0
 11
18.00000000000006
 21
35.319751698862262
 31
0.0
  0
LINE
  5
15709
  8
0
 62
     0
 10
9.0000000000001137
 20
28.564815729129521
 30
0.0
 11
18.00000000000011
 21
37.564815729129577
 31
0.0
  0
LINE
  5
1570A
  8
0
 62
     0
 10
9.0000000000001137
 20
30.809879759396839
 30
0.0
 11
18.00000000000011
 21
39.809879759396892
 31
0.0
  0
LINE
  5
1570B
  8
0
 62
     0
 10
9.0000000000000568
 20
33.054943789664151
 30
0.0
 11
18.00000000000011
 21
42.0549437896642
 31
0.0
  0
LINE
  5
1570C
  8
0
 62
     0
 10
9.0000000000000568
 20
35.300007819931409
 30
0.0
 11
18.00000000000011
 21
44.300007819931459
 31
0.0
  0
LINE
  5
1570D
  8
0
 62
     0
 10
9.0000000000000568
 20
37.545071850198667
 30
0.0
 11
16.07742504976892
 21
44.622496899967523
 31
0.0
  0
LINE
  5
1570E
  8
0
 62
     0
 10
9.0000000000001137
 20
39.790135880466039
 30
0.0
 11
13.83236101950166
 21
44.622496899967587
 31
0.0
  0
LINE
  5
1570F
  8
0
 62
     0
 10
9.0000000000000568
 20
42.035199910733297
 30
0.0
 11
11.587296989234339
 21
44.622496899967587
 31
0.0
  0
LINE
  5
15710
  8
0
 62
     0
 10
9.0000000000001137
 20
44.280263941000548
 30
0.0
 11
9.3422329589670881
 21
44.622496899967587
 31
0.0
  0
ENDBLK
  5
15712
  8
0
  0
BLOCK
  8
0
  2
*X68
 70
     1
 10
0.0
 20
0.0
 30
0.0
  3
*X68
  1

  0
LINE
  5
15714
  8
0
 62
     0
 10
4.01579819129564
 20
-61.431188349899848
 30
0.0
 11
4.01579819129564
 21
-61.431188349899848
 31
0.0
  0
LINE
  5
15715
  8
0
 62
     0
 10
3.5476270824212111
 20
-61.002188568063907
 30
0.0
 11
3.5476270824212111
 21
-61.002188568063907
 31
0.0
  0
LINE
  5
15716
  8
0
 62
     0
 10
1.0195030944992971
 20
-58.685589746149809
 30
0.0
 11
1.0195030944992971
 21
-58.685589746149809
 31
0.0
  0
LINE
  5
15717
  8
0
 62
     0
 10
8.6550676192222316
 20
-56.456296513577612
 30
0.0
 11
8.6550676192222316
 21
-56.456296513577612
 31
0.0
  0
LINE
  5
15718
  8
0
 62
     0
 10
6.4452999853349269
 20
-54.431417543311952
 30
0.0
 11
6.4452999853349269
 21
-54.431417543311952
 31
0.0
  0
LINE
  5
15719
  8
0
 62
     0
 10
5.9771288764604993
 20
-54.002417761476011
 30
0.0
 11
5.9771288764604993
 21
-54.002417761476011
 31
0.0
  0
LINE
  5
1571A
  8
0
 62
     0
 10
3.449004888538584
 20
-51.685818939561912
 30
0.0
 11
3.449004888538584
 21
-51.685818939561912
 31
0.0
  0
LINE
  5
1571B
  8
0
 62
     0
 10
1.23923725465128
 20
-49.660939969296251
 30
0.0
 11
1.23923725465128
 21
-49.660939969296251
 31
0.0
  0
LINE
  5
1571C
  8
0
 62
     0
 10
0.7710661457768521
 20
-49.23194018746031
 30
0.0
 11
0.7710661457768521
 21
-49.23194018746031
 31
0.0
  0
LINE
  5
1571D
  8
0
 62
     0
 10
8.8748017793742875
 20
-47.431646736724133
 30
0.0
 11
8.8748017793742875
 21
-47.431646736724133
 31
0.0
  0
LINE
  5
1571E
  8
0
 62
     0
 10
8.4066306704998581
 20
-47.002646954888192
 30
0.0
 11
8.4066306704998581
 21
-47.002646954888192
 31
0.0
  0
LINE
  5
1571F
  8
0
 62
     0
 10
5.8785066825779433
 20
-44.686048132974094
 30
0.0
 11
5.8785066825779433
 21
-44.686048132974094
 31
0.0
  0
LINE
  5
15720
  8
0
 62
     0
 10
3.668739048690639
 20
-42.661169162708433
 30
0.0
 11
3.668739048690639
 21
-42.661169162708433
 31
0.0
  0
LINE
  5
15721
  8
0
 62
     0
 10
3.200567939816211
 20
-42.232169380872492
 30
0.0
 11
3.200567939816211
 21
-42.232169380872492
 31
0.0
  0
LINE
  5
15722
  8
0
 62
     0
 10
0.6724439518942967
 20
-39.915570558958393
 30
0.0
 11
0.6724439518942967
 21
-39.915570558958393
 31
0.0
  0
LINE
  5
15723
  8
0
 62
     0
 10
8.3080084766172941
 20
-37.68627732638619
 30
0.0
 11
8.3080084766172941
 21
-37.68627732638619
 31
0.0
  0
LINE
  5
15724
  8
0
 62
     0
 10
6.0982408427299903
 20
-35.661398356120543
 30
0.0
 11
6.0982408427299903
 21
-35.661398356120543
 31
0.0
  0
LINE
  5
15725
  8
0
 62
     0
 10
5.630069733855561
 20
-35.232398574284602
 30
0.0
 11
5.630069733855561
 21
-35.232398574284602
 31
0.0
  0
LINE
  5
15726
  8
0
 62
     0
 10
3.1019457459336461
 20
-32.915799752370503
 30
0.0
 11
3.1019457459336461
 21
-32.915799752370503
 31
0.0
  0
LINE
  5
15727
  8
0
 62
     0
 10
0.8921781120463432
 20
-30.890920782104839
 30
0.0
 11
0.8921781120463432
 21
-30.890920782104839
 31
0.0
  0
LINE
  5
15728
  8
0
 62
     0
 10
0.4240070031719147
 20
-30.461921000268891
 30
0.0
 11
0.4240070031719147
 21
-30.461921000268891
 31
0.0
  0
LINE
  5
15729
  8
0
 62
     0
 10
8.5277426367693003
 20
-28.661627549532721
 30
0.0
 11
8.5277426367693003
 21
-28.661627549532721
 31
0.0
  0
LINE
  5
1572A
  8
0
 62
     0
 10
8.0595715278948692
 20
-28.232627767696769
 30
0.0
 11
8.0595715278948692
 21
-28.232627767696769
 31
0.0
  0
LINE
  5
1572B
  8
0
 62
     0
 10
5.5314475399729552
 20
-25.916028945782671
 30
0.0
 11
5.5314475399729552
 21
-25.916028945782671
 31
0.0
  0
LINE
  5
1572C
  8
0
 62
     0
 10
3.321679906085651
 20
-23.89114997551701
 30
0.0
 11
3.321679906085651
 21
-23.89114997551701
 31
0.0
  0
LINE
  5
1572D
  8
0
 62
     0
 10
2.853508797211223
 20
-23.462150193681069
 30
0.0
 11
2.853508797211223
 21
-23.462150193681069
 31
0.0
  0
LINE
  5
1572E
  8
0
 62
     0
 10
0.3253848092893086
 20
-21.14555137176697
 30
0.0
 11
0.3253848092893086
 21
-21.14555137176697
 31
0.0
  0
LINE
  5
1572F
  8
0
 62
     0
 10
7.960949334012235
 20
-18.916258139194781
 30
0.0
 11
7.960949334012235
 21
-18.916258139194781
 31
0.0
  0
LINE
  5
15730
  8
0
 62
     0
 10
5.751181700124933
 20
-16.89137916892912
 30
0.0
 11
5.751181700124933
 21
-16.89137916892912
 31
0.0
  0
LINE
  5
15731
  8
0
 62
     0
 10
5.2830105912505037
 20
-16.462379387093169
 30
0.0
 11
5.2830105912505037
 21
-16.462379387093169
 31
0.0
  0
LINE
  5
15732
  8
0
 62
     0
 10
2.7548866033285888
 20
-14.14578056517907
 30
0.0
 11
2.7548866033285888
 21
-14.14578056517907
 31
0.0
  0
LINE
  5
15733
  8
0
 62
     0
 10
0.5451189694412864
 20
-12.12090159491342
 30
0.0
 11
0.5451189694412864
 21
-12.12090159491342
 31
0.0
  0
LINE
  5
15734
  8
0
 62
     0
 10
0.0769478605668576
 20
-11.69190181307747
 30
0.0
 11
0.0769478605668576
 21
-11.69190181307747
 31
0.0
  0
LINE
  5
15735
  8
0
 62
     0
 10
8.1806834941643185
 20
-9.8916083623412607
 30
0.0
 11
8.1806834941643185
 21
-9.8916083623412607
 31
0.0
  0
LINE
  5
15736
  8
0
 62
     0
 10
7.71251238528989
 20
-9.4626085805053162
 30
0.0
 11
7.71251238528989
 21
-9.4626085805053162
 31
0.0
  0
LINE
  5
15737
  8
0
 62
     0
 10
2.9746207634806661
 20
-5.1211307883256101
 30
0.0
 11
2.9746207634806661
 21
-5.1211307883256101
 31
0.0
  0
LINE
  5
15738
  8
0
 62
     0
 10
2.506449654606238
 20
-4.6921310064896664
 30
0.0
 11
2.506449654606238
 21
-4.6921310064896664
 31
0.0
  0
LINE
  5
15739
  8
0
 62
     0
 10
7.6138901914073207
 20
-0.1462389520033798
 30
0.0
 11
7.6138901914073207
 21
-0.1462389520033798
 31
0.0
  0
LINE
  5
1573A
  8
0
 62
     0
 10
5.4041225575200169
 20
1.8786400182622769
 30
0.0
 11
5.4041225575200169
 21
1.8786400182622769
 31
0.0
  0
LINE
  5
1573B
  8
0
 62
     0
 10
4.9359514486455893
 20
2.307639800098221
 30
0.0
 11
4.9359514486455893
 21
2.307639800098221
 31
0.0
  0
LINE
  5
1573C
  8
0
 62
     0
 10
2.407827460723674
 20
4.6242386220123208
 30
0.0
 11
2.407827460723674
 21
4.6242386220123208
 31
0.0
  0
LINE
  5
1573D
  8
0
 62
     0
 10
7.8336243515593544
 20
8.8784108248501266
 30
0.0
 11
7.8336243515593544
 21
8.8784108248501266
 31
0.0
  0
LINE
  5
1573E
  8
0
 62
     0
 10
7.3654532426849251
 20
9.3074106066860711
 30
0.0
 11
7.3654532426849251
 21
9.3074106066860711
 31
0.0
  0
LINE
  5
1573F
  8
0
 62
     0
 10
4.8373292547630111
 20
11.62400942860017
 30
0.0
 11
4.8373292547630111
 21
11.62400942860017
 31
0.0
  0
LINE
  5
15740
  8
0
 62
     0
 10
2.6275616208757082
 20
13.64888839886583
 30
0.0
 11
2.6275616208757082
 21
13.64888839886583
 31
0.0
  0
LINE
  5
15741
  8
0
 62
     0
 10
2.1593905120012789
 20
14.07788818070177
 30
0.0
 11
2.1593905120012789
 21
14.07788818070177
 31
0.0
  0
LINE
  5
15742
  8
0
 62
     0
 10
7.2668310488023229
 20
18.623780235188089
 30
0.0
 11
7.2668310488023229
 21
18.623780235188089
 31
0.0
  0
LINE
  5
15743
  8
0
 62
     0
 10
5.0570634149150191
 20
20.648659205453761
 30
0.0
 11
5.0570634149150191
 21
20.648659205453761
 31
0.0
  0
LINE
  5
15744
  8
0
 62
     0
 10
4.5888923060405906
 20
21.077658987289698
 30
0.0
 11
4.5888923060405906
 21
21.077658987289698
 31
0.0
  0
LINE
  5
15745
  8
0
 62
     0
 10
2.0607683181186771
 20
23.3942578092038
 30
0.0
 11
2.0607683181186771
 21
23.3942578092038
 31
0.0
  0
LINE
  5
15746
  8
0
 62
     0
 10
7.4865652089542847
 20
27.648430012041619
 30
0.0
 11
7.4865652089542847
 21
27.648430012041619
 31
0.0
  0
LINE
  5
15747
  8
0
 62
     0
 10
7.0183941000798571
 20
28.07742979387756
 30
0.0
 11
7.0183941000798571
 21
28.07742979387756
 31
0.0
  0
LINE
  5
15748
  8
0
 62
     0
 10
4.4902701121579423
 20
30.394028615791662
 30
0.0
 11
4.4902701121579423
 21
30.394028615791662
 31
0.0
  0
LINE
  5
15749
  8
0
 62
     0
 10
2.2805024782706389
 20
32.418907586057323
 30
0.0
 11
2.2805024782706389
 21
32.418907586057323
 31
0.0
  0
LINE
  5
1574A
  8
0
 62
     0
 10
1.81233136939621
 20
32.847907367893256
 30
0.0
 11
1.81233136939621
 21
32.847907367893256
 31
0.0
  0
LINE
  5
1574B
  8
0
 62
     0
 10
6.9197719061972807
 20
37.393799422379502
 30
0.0
 11
6.9197719061972807
 21
37.393799422379502
 31
0.0
  0
LINE
  5
1574C
  8
0
 62
     0
 10
4.7100042723099769
 20
39.418678392645162
 30
0.0
 11
4.7100042723099769
 21
39.418678392645162
 31
0.0
  0
LINE
  5
1574D
  8
0
 62
     0
 10
4.2418331634355493
 20
39.847678174481111
 30
0.0
 11
4.2418331634355493
 21
39.847678174481111
 31
0.0
  0
LINE
  5
1574E
  8
0
 62
     0
 10
1.713709175513634
 20
42.164276996395202
 30
0.0
 11
1.713709175513634
 21
42.164276996395202
 31
0.0
  0
LINE
  5
1574F
  8
0
 62
     0
 10
7.6039294291079393
 20
-61.37093519581228
 30
0.0
 11
7.6039294291079393
 21
-61.37093519581228
 31
0.0
  0
LINE
  5
15750
  8
0
 62
     0
 10
2.569725889050825
 20
-58.163793833590091
 30
0.0
 11
2.569725889050825
 21
-58.163793833590091
 31
0.0
  0
LINE
  5
15751
  8
0
 62
     0
 10
6.62366390120894
 20
-55.692888177442953
 30
0.0
 11
6.62366390120894
 21
-55.692888177442953
 31
0.0
  0
LINE
  5
15752
  8
0
 62
     0
 10
5.5525567650265764
 20
-55.010517674842482
 30
0.0
 11
5.5525567650265764
 21
-55.010517674842482
 31
0.0
  0
LINE
  5
15753
  8
0
 62
     0
 10
0.5183532249694629
 20
-51.803376312620287
 30
0.0
 11
0.5183532249694629
 21
-51.803376312620287
 31
0.0
  0
LINE
  5
15754
  8
0
 62
     0
 10
8.4282769273839921
 20
-51.789004465834807
 30
0.0
 11
8.4282769273839921
 21
-51.789004465834807
 31
0.0
  0
LINE
  5
15755
  8
0
 62
     0
 10
4.5722912371274811
 20
-49.332470656473127
 30
0.0
 11
4.5722912371274811
 21
-49.332470656473127
 31
0.0
  0
LINE
  5
15756
  8
0
 62
     0
 10
3.501184100945117
 20
-48.650100153872657
 30
0.0
 11
3.501184100945117
 21
-48.650100153872657
 31
0.0
  0
LINE
  5
15757
  8
0
 62
     0
 10
6.3769042633026087
 20
-45.428586944865053
 30
0.0
 11
6.3769042633026087
 21
-45.428586944865053
 31
0.0
  0
LINE
  5
15758
  8
0
 62
     0
 10
2.5209185730460968
 20
-42.972053135503373
 30
0.0
 11
2.5209185730460968
 21
-42.972053135503373
 31
0.0
  0
LINE
  5
15759
  8
0
 62
     0
 10
1.4498114368637329
 20
-42.289682632902903
 30
0.0
 11
1.4498114368637329
 21
-42.289682632902903
 31
0.0
  0
LINE
  5
1575A
  8
0
 62
     0
 10
4.3255315992211782
 20
-39.068169423895192
 30
0.0
 11
4.3255315992211782
 21
-39.068169423895192
 31
0.0
  0
LINE
  5
1575B
  8
0
 62
     0
 10
0.4695459089646658
 20
-36.611635614533512
 30
0.0
 11
0.4695459089646658
 21
-36.611635614533512
 31
0.0
  0
LINE
  5
1575C
  8
0
 62
     0
 10
8.3794696113792817
 20
-36.597263767748082
 30
0.0
 11
8.3794696113792817
 21
-36.597263767748082
 31
0.0
  0
LINE
  5
1575D
  8
0
 62
     0
 10
7.3083624751969172
 20
-35.914893265147612
 30
0.0
 11
7.3083624751969172
 21
-35.914893265147612
 31
0.0
  0
LINE
  5
1575E
  8
0
 62
     0
 10
2.2741589351398028
 20
-32.707751902925423
 30
0.0
 11
2.2741589351398028
 21
-32.707751902925423
 31
0.0
  0
LINE
  5
1575F
  8
0
 62
     0
 10
6.328096947297821
 20
-30.236846246778288
 30
0.0
 11
6.328096947297821
 21
-30.236846246778288
 31
0.0
  0
LINE
  5
15760
  8
0
 62
     0
 10
5.2569898111154574
 20
-29.554475744177829
 30
0.0
 11
5.2569898111154574
 21
-29.554475744177829
 31
0.0
  0
LINE
  5
15761
  8
0
 62
     0
 10
0.2227862710583442
 20
-26.34733438195563
 30
0.0
 11
0.2227862710583442
 21
-26.34733438195563
 31
0.0
  0
LINE
  5
15762
  8
0
 62
     0
 10
8.1327099734729629
 20
-26.332962535170171
 30
0.0
 11
8.1327099734729629
 21
-26.332962535170171
 31
0.0
  0
LINE
  5
15763
  8
0
 62
     0
 10
4.27672428321645
 20
-23.876428725808481
 30
0.0
 11
4.27672428321645
 21
-23.876428725808481
 31
0.0
  0
LINE
  5
15764
  8
0
 62
     0
 10
3.2056171470340851
 20
-23.194058223208021
 30
0.0
 11
3.2056171470340851
 21
-23.194058223208021
 31
0.0
  0
LINE
  5
15765
  8
0
 62
     0
 10
6.08133730939148
 20
-19.97254501420036
 30
0.0
 11
6.08133730939148
 21
-19.97254501420036
 31
0.0
  0
LINE
  5
15766
  8
0
 62
     0
 10
2.225351619134968
 20
-17.51601120483868
 30
0.0
 11
2.225351619134968
 21
-17.51601120483868
 31
0.0
  0
LINE
  5
15767
  8
0
 62
     0
 10
1.1542444829526031
 20
-16.83364070223821
 30
0.0
 11
1.1542444829526031
 21
-16.83364070223821
 31
0.0
  0
LINE
  5
15768
  8
0
 62
     0
 10
4.0299646453101081
 20
-13.61212749323059
 30
0.0
 11
4.0299646453101081
 21
-13.61212749323059
 31
0.0
  0
LINE
  5
15769
  8
0
 62
     0
 10
0.1739789550535956
 20
-11.15559368386891
 30
0.0
 11
0.1739789550535956
 21
-11.15559368386891
 31
0.0
  0
LINE
  5
1576A
  8
0
 62
     0
 10
8.0839026574682151
 20
-11.14122183708349
 30
0.0
 11
8.0839026574682151
 21
-11.14122183708349
 31
0.0
  0
LINE
  5
1576B
  8
0
 62
     0
 10
7.0127955212858497
 20
-10.45885133448302
 30
0.0
 11
7.0127955212858497
 21
-10.45885133448302
 31
0.0
  0
LINE
  5
1576C
  8
0
 62
     0
 10
6.0325299933867882
 20
-4.7808043161136462
 30
0.0
 11
6.0325299933867882
 21
-4.7808043161136462
 31
0.0
  0
LINE
  5
1576D
  8
0
 62
     0
 10
4.9614228572044228
 20
-4.0984338135131786
 30
0.0
 11
4.9614228572044228
 21
-4.0984338135131786
 31
0.0
  0
LINE
  5
1576E
  8
0
 62
     0
 10
7.8371430195619052
 20
-0.8769206045055604
 30
0.0
 11
7.8371430195619052
 21
-0.8769206045055604
 31
0.0
  0
LINE
  5
1576F
  8
0
 62
     0
 10
3.9811573293053919
 20
1.5796132048561189
 30
0.0
 11
3.9811573293053919
 21
1.5796132048561189
 31
0.0
  0
LINE
  5
15770
  8
0
 62
     0
 10
2.9100501931230269
 20
2.2619837074565861
 30
0.0
 11
2.9100501931230269
 21
2.2619837074565861
 31
0.0
  0
LINE
  5
15771
  8
0
 62
     0
 10
5.7857703554804303
 20
5.4834969164642349
 30
0.0
 11
5.7857703554804303
 21
5.4834969164642349
 31
0.0
  0
LINE
  5
15772
  8
0
 62
     0
 10
3.734397691399074
 20
11.84391443743405
 30
0.0
 11
3.734397691399074
 21
11.84391443743405
 31
0.0
  0
LINE
  5
15773
  8
0
 62
     0
 10
7.7883357035571521
 20
14.31482009358125
 30
0.0
 11
7.7883357035571521
 21
14.31482009358125
 31
0.0
  0
LINE
  5
15774
  8
0
 62
     0
 10
6.7172285673747876
 20
14.997190596181721
 30
0.0
 11
6.7172285673747876
 21
14.997190596181721
 31
0.0
  0
LINE
  5
15775
  8
0
 62
     0
 10
1.6830250273176739
 20
18.204331958403909
 30
0.0
 11
1.6830250273176739
 21
18.204331958403909
 31
0.0
  0
LINE
  5
15776
  8
0
 62
     0
 10
5.7369630394757527
 20
20.675237614551001
 30
0.0
 11
5.7369630394757527
 21
20.675237614551001
 31
0.0
  0
LINE
  5
15777
  8
0
 62
     0
 10
4.6658559032933891
 20
21.357608117151461
 30
0.0
 11
4.6658559032933891
 21
21.357608117151461
 31
0.0
  0
LINE
  5
15778
  8
0
 62
     0
 10
7.5415760656507649
 20
24.57912132615909
 30
0.0
 11
7.5415760656507649
 21
24.57912132615909
 31
0.0
  0
LINE
  5
15779
  8
0
 62
     0
 10
3.685590375394252
 20
27.03565513552077
 30
0.0
 11
3.685590375394252
 21
27.03565513552077
 31
0.0
  0
LINE
  5
1577A
  8
0
 62
     0
 10
2.614483239211888
 20
27.71802563812124
 30
0.0
 11
2.614483239211888
 21
27.71802563812124
 31
0.0
  0
LINE
  5
1577B
  8
0
 62
     0
 10
5.4902034015693664
 20
30.939538847128901
 30
0.0
 11
5.4902034015693664
 21
30.939538847128901
 31
0.0
  0
LINE
  5
1577C
  8
0
 62
     0
 10
1.6342177113128531
 20
33.396072656490567
 30
0.0
 11
1.6342177113128531
 21
33.396072656490567
 31
0.0
  0
LINE
  5
1577D
  8
0
 62
     0
 10
0.5631105751304892
 20
34.078443159091037
 30
0.0
 11
0.5631105751304892
 21
34.078443159091037
 31
0.0
  0
LINE
  5
1577E
  8
0
 62
     0
 10
8.4730342775450875
 20
34.092815005876503
 30
0.0
 11
8.4730342775450875
 21
34.092815005876503
 31
0.0
  0
LINE
  5
1577F
  8
0
 62
     0
 10
3.4388307374879732
 20
37.299956368098691
 30
0.0
 11
3.4388307374879732
 21
37.299956368098691
 31
0.0
  0
LINE
  5
15780
  8
0
 62
     0
 10
7.492768749646034
 20
39.77086202424583
 30
0.0
 11
7.492768749646034
 21
39.77086202424583
 31
0.0
  0
LINE
  5
15781
  8
0
 62
     0
 10
6.4216616134636686
 20
40.4532325268463
 30
0.0
 11
6.4216616134636686
 21
40.4532325268463
 31
0.0
  0
LINE
  5
15782
  8
0
 62
     0
 10
1.387458073406556
 20
43.660373889068488
 30
0.0
 11
1.387458073406556
 21
43.660373889068488
 31
0.0
  0
LINE
  5
15783
  8
0
 62
     0
 10
8.2994528038308442
 20
-55.941633358613942
 30
0.0
 11
8.2994528038308442
 21
-55.941633358613942
 31
0.0
  0
LINE
  5
15784
  8
0
 62
     0
 10
6.2344714465614741
 20
-56.213493311769859
 30
0.0
 11
6.2344714465614741
 21
-56.213493311769859
 31
0.0
  0
LINE
  5
15785
  8
0
 62
     0
 10
4.9123797239194982
 20
-56.387549989095298
 30
0.0
 11
4.9123797239194982
 21
-56.387549989095298
 31
0.0
  0
LINE
  5
15786
  8
0
 62
     0
 10
1.462349895310912
 20
-56.84175503278265
 30
0.0
 11
1.462349895310912
 21
-56.84175503278265
 31
0.0
  0
LINE
  5
15787
  8
0
 62
     0
 10
5.957582726691057
 20
-49.673504027099071
 30
0.0
 11
5.957582726691057
 21
-49.673504027099071
 31
0.0
  0
LINE
  5
15788
  8
0
 62
     0
 10
3.8926013694216861
 20
-49.945363980255003
 30
0.0
 11
3.8926013694216861
 21
-49.945363980255003
 31
0.0
  0
LINE
  5
15789
  8
0
 62
     0
 10
2.5705096467797102
 20
-50.119420657580442
 30
0.0
 11
2.5705096467797102
 21
-50.119420657580442
 31
0.0
  0
LINE
  5
1578A
  8
0
 62
     0
 10
8.3878342008016062
 20
-42.777112974571473
 30
0.0
 11
8.3878342008016062
 21
-42.777112974571473
 31
0.0
  0
LINE
  5
1578B
  8
0
 62
     0
 10
7.0657424781596294
 20
-42.951169651896898
 30
0.0
 11
7.0657424781596294
 21
-42.951169651896898
 31
0.0
  0
LINE
  5
1578C
  8
0
 62
     0
 10
3.615712649551043
 20
-43.40537469558425
 30
0.0
 11
3.615712649551043
 21
-43.40537469558425
 31
0.0
  0
LINE
  5
1578D
  8
0
 62
     0
 10
1.5507312922816709
 20
-43.677234648740168
 30
0.0
 11
1.5507312922816709
 21
-43.677234648740168
 31
0.0
  0
LINE
  5
1578E
  8
0
 62
     0
 10
0.2286395696396954
 20
-43.851291326065613
 30
0.0
 11
0.2286395696396954
 21
-43.851291326065613
 31
0.0
  0
LINE
  5
1578F
  8
0
 62
     0
 10
8.1109454809310098
 20
-36.23712368990072
 30
0.0
 11
8.1109454809310098
 21
-36.23712368990072
 31
0.0
  0
LINE
  5
15790
  8
0
 62
     0
 10
6.045964123661637
 20
-36.508983643056638
 30
0.0
 11
6.045964123661637
 21
-36.508983643056638
 31
0.0
  0
LINE
  5
15791
  8
0
 62
     0
 10
4.7238724010196611
 20
-36.683040320382077
 30
0.0
 11
4.7238724010196611
 21
-36.683040320382077
 31
0.0
  0
LINE
  5
15792
  8
0
 62
     0
 10
1.2738425724110749
 20
-37.137245364069422
 30
0.0
 11
1.2738425724110749
 21
-37.137245364069422
 31
0.0
  0
LINE
  5
15793
  8
0
 62
     0
 10
5.7690754037913328
 20
-29.96899435838586
 30
0.0
 11
5.7690754037913328
 21
-29.96899435838586
 31
0.0
  0
LINE
  5
15794
  8
0
 62
     0
 10
3.7040940465219601
 20
-30.240854311541781
 30
0.0
 11
3.7040940465219601
 21
-30.240854311541781
 31
0.0
  0
LINE
  5
15795
  8
0
 62
     0
 10
2.382002323879985
 20
-30.41491098886722
 30
0.0
 11
2.382002323879985
 21
-30.41491098886722
 31
0.0
  0
LINE
  5
15796
  8
0
 62
     0
 10
8.1993268779017701
 20
-23.07260330585823
 30
0.0
 11
8.1993268779017701
 21
-23.07260330585823
 31
0.0
  0
LINE
  5
15797
  8
0
 62
     0
 10
6.8772351552597932
 20
-23.246659983183669
 30
0.0
 11
6.8772351552597932
 21
-23.246659983183669
 31
0.0
  0
LINE
  5
15798
  8
0
 62
     0
 10
3.4272053266512059
 20
-23.700865026871011
 30
0.0
 11
3.4272053266512059
 21
-23.700865026871011
 31
0.0
  0
LINE
  5
15799
  8
0
 62
     0
 10
1.3622239693818341
 20
-23.972724980026928
 30
0.0
 11
1.3622239693818341
 21
-23.972724980026928
 31
0.0
  0
LINE
  5
1579A
  8
0
 62
     0
 10
0.0401322467398583
 20
-24.146781657352371
 30
0.0
 11
0.0401322467398583
 21
-24.146781657352371
 31
0.0
  0
LINE
  5
1579B
  8
0
 62
     0
 10
7.9224381580313974
 20
-16.532614021187449
 30
0.0
 11
7.9224381580313974
 21
-16.532614021187449
 31
0.0
  0
LINE
  5
1579C
  8
0
 62
     0
 10
5.8574568007620247
 20
-16.804473974343381
 30
0.0
 11
5.8574568007620247
 21
-16.804473974343381
 31
0.0
  0
LINE
  5
1579D
  8
0
 62
     0
 10
4.5353650781200487
 20
-16.978530651668819
 30
0.0
 11
4.5353650781200487
 21
-16.978530651668819
 31
0.0
  0
LINE
  5
1579E
  8
0
 62
     0
 10
1.0853352495114641
 20
-17.432735695356151
 30
0.0
 11
1.0853352495114641
 21
-17.432735695356151
 31
0.0
  0
LINE
  5
1579F
  8
0
 62
     0
 10
5.5805680808913829
 20
-10.26448468967264
 30
0.0
 11
5.5805680808913829
 21
-10.26448468967264
 31
0.0
  0
LINE
  5
157A0
  8
0
 62
     0
 10
3.5155867236220111
 20
-10.53634464282856
 30
0.0
 11
3.5155867236220111
 21
-10.53634464282856
 31
0.0
  0
LINE
  5
157A1
  8
0
 62
     0
 10
2.193495000980036
 20
-10.710401320154
 30
0.0
 11
2.193495000980036
 21
-10.710401320154
 31
0.0
  0
LINE
  5
157A2
  8
0
 62
     0
 10
8.0108195550021595
 20
-3.3680936371449901
 30
0.0
 11
8.0108195550021595
 21
-3.3680936371449901
 31
0.0
  0
LINE
  5
157A3
  8
0
 62
     0
 10
6.6887278323601818
 20
-3.5421503144704292
 30
0.0
 11
6.6887278323601818
 21
-3.5421503144704292
 31
0.0
  0
LINE
  5
157A4
  8
0
 62
     0
 10
3.2386980037515962
 20
-3.9963553581577642
 30
0.0
 11
3.2386980037515962
 21
-3.9963553581577642
 31
0.0
  0
LINE
  5
157A5
  8
0
 62
     0
 10
1.1737166464822231
 20
-4.2682153113136883
 30
0.0
 11
1.1737166464822231
 21
-4.2682153113136883
 31
0.0
  0
LINE
  5
157A6
  8
0
 62
     0
 10
7.7339308351315621
 20
3.1718956475257549
 30
0.0
 11
7.7339308351315621
 21
3.1718956475257549
 31
0.0
  0
LINE
  5
157A7
  8
0
 62
     0
 10
5.6689494778621903
 20
2.9000356943698322
 30
0.0
 11
5.6689494778621903
 21
2.9000356943698322
 31
0.0
  0
LINE
  5
157A8
  8
0
 62
     0
 10
4.3468577552202143
 20
2.7259790170443932
 30
0.0
 11
4.3468577552202143
 21
2.7259790170443932
 31
0.0
  0
LINE
  5
157A9
  8
0
 62
     0
 10
0.896827926611628
 20
2.2717739733570581
 30
0.0
 11
0.896827926611628
 21
2.2717739733570581
 31
0.0
  0
LINE
  5
157AA
  8
0
 62
     0
 10
2.0049876780801821
 20
8.9941083485592426
 30
0.0
 11
2.0049876780801821
 21
8.9941083485592426
 31
0.0
  0
LINE
  5
157AB
  8
0
 62
     0
 10
8.8420905866000723
 20
9.8942300227279318
 30
0.0
 11
8.8420905866000723
 21
9.8942300227279318
 31
0.0
  0
LINE
  5
157AC
  8
0
 62
     0
 10
5.3920607579914854
 20
9.4400249790405972
 30
0.0
 11
5.3920607579914854
 21
9.4400249790405972
 31
0.0
  0
LINE
  5
157AD
  8
0
 62
     0
 10
3.3270794007221132
 20
9.1681650258846741
 30
0.0
 11
3.3270794007221132
 21
9.1681650258846741
 31
0.0
  0
LINE
  5
157AE
  8
0
 62
     0
 10
7.8223122321023224
 20
16.336416031568241
 30
0.0
 11
7.8223122321023224
 21
16.336416031568241
 31
0.0
  0
LINE
  5
157AF
  8
0
 62
     0
 10
6.5002205094603456
 20
16.162359354242799
 30
0.0
 11
6.5002205094603456
 21
16.162359354242799
 31
0.0
  0
LINE
  5
157B0
  8
0
 62
     0
 10
3.05019068085176
 20
15.708154310555461
 30
0.0
 11
3.05019068085176
 21
15.708154310555461
 31
0.0
  0
LINE
  5
157B1
  8
0
 62
     0
 10
0.9852093235823877
 20
15.436294357399539
 30
0.0
 11
0.9852093235823877
 21
15.436294357399539
 31
0.0
  0
LINE
  5
157B2
  8
0
 62
     0
 10
7.5454235122316131
 20
22.87640531623898
 30
0.0
 11
7.5454235122316131
 21
22.87640531623898
 31
0.0
  0
LINE
  5
157B3
  8
0
 62
     0
 10
5.4804421549622413
 20
22.604545363083059
 30
0.0
 11
5.4804421549622413
 21
22.604545363083059
 31
0.0
  0
LINE
  5
157B4
  8
0
 62
     0
 10
4.1583504323202654
 20
22.43048868575762
 30
0.0
 11
4.1583504323202654
 21
22.43048868575762
 31
0.0
  0
LINE
  5
157B5
  8
0
 62
     0
 10
0.7083206037116793
 20
21.976283642070278
 30
0.0
 11
0.7083206037116793
 21
21.976283642070278
 31
0.0
  0
LINE
  5
157B6
  8
0
 62
     0
 10
8.6535832637005257
 20
29.598739691441182
 30
0.0
 11
8.6535832637005257
 21
29.598739691441182
 31
0.0
  0
LINE
  5
157B7
  8
0
 62
     0
 10
5.2035534350919379
 20
29.14453464775384
 30
0.0
 11
5.2035534350919379
 21
29.14453464775384
 31
0.0
  0
LINE
  5
157B8
  8
0
 62
     0
 10
3.1385720778225661
 20
28.872674694597919
 30
0.0
 11
3.1385720778225661
 21
28.872674694597919
 31
0.0
  0
LINE
  5
157B9
  8
0
 62
     0
 10
1.8164803551805899
 20
28.69861801727248
 30
0.0
 11
1.8164803551805899
 21
28.69861801727248
 31
0.0
  0
LINE
  5
157BA
  8
0
 62
     0
 10
7.6338049092024871
 20
36.040925700281463
 30
0.0
 11
7.6338049092024871
 21
36.040925700281463
 31
0.0
  0
LINE
  5
157BB
  8
0
 62
     0
 10
6.3117131865605112
 20
35.866869022956017
 30
0.0
 11
6.3117131865605112
 21
35.866869022956017
 31
0.0
  0
LINE
  5
157BC
  8
0
 62
     0
 10
2.8616833579519252
 20
35.412663979268679
 30
0.0
 11
2.8616833579519252
 21
35.412663979268679
 31
0.0
  0
LINE
  5
157BD
  8
0
 62
     0
 10
0.7967020006825532
 20
35.140804026112761
 30
0.0
 11
0.7967020006825532
 21
35.140804026112761
 31
0.0
  0
LINE
  5
157BE
  8
0
 62
     0
 10
7.3569161893318897
 20
42.580914984952237
 30
0.0
 11
7.3569161893318897
 21
42.580914984952237
 31
0.0
  0
LINE
  5
157BF
  8
0
 62
     0
 10
5.2919348320625179
 20
42.309055031796319
 30
0.0
 11
5.2919348320625179
 21
42.309055031796319
 31
0.0
  0
LINE
  5
157C0
  8
0
 62
     0
 10
3.969843109420542
 20
42.134998354470881
 30
0.0
 11
3.969843109420542
 21
42.134998354470881
 31
0.0
  0
LINE
  5
157C1
  8
0
 62
     0
 10
0.5198132808119568
 20
41.680793310783542
 30
0.0
 11
0.5198132808119568
 21
41.680793310783542
 31
0.0
  0
LINE
  5
157C2
  8
0
 62
     0
 10
6.4354054388360371
 20
-59.471602609558943
 30
0.0
 11
6.4354054388360371
 21
-59.471602609558943
 31
0.0
  0
LINE
  5
157C3
  8
0
 62
     0
 10
6.275402309237827
 20
-54.577470236265448
 30
0.0
 11
6.275402309237827
 21
-54.577470236265448
 31
0.0
  0
LINE
  5
157C4
  8
0
 62
     0
 10
3.0008363971857528
 20
-57.09013303449894
 30
0.0
 11
3.0008363971857528
 21
-57.09013303449894
 31
0.0
  0
LINE
  5
157C5
  8
0
 62
     0
 10
6.1153991796394154
 20
-49.683337862972039
 30
0.0
 11
6.1153991796394154
 21
-49.683337862972039
 31
0.0
  0
LINE
  5
157C6
  8
0
 62
     0
 10
2.840833267587342
 20
-52.196000661205531
 30
0.0
 11
2.840833267587342
 21
-52.196000661205531
 31
0.0
  0
LINE
  5
157C7
  8
0
 62
     0
 10
5.9553960500409788
 20
-44.789205489678679
 30
0.0
 11
5.9553960500409788
 21
-44.789205489678679
 31
0.0
  0
LINE
  5
157C8
  8
0
 62
     0
 10
2.6808301379889059
 20
-47.301868287912171
 30
0.0
 11
2.6808301379889059
 21
-47.301868287912171
 31
0.0
  0
LINE
  5
157C9
  8
0
 62
     0
 10
8.8583714966390943
 20
-37.544766991268268
 30
0.0
 11
8.8583714966390943
 21
-37.544766991268268
 31
0.0
  0
LINE
  5
157CA
  8
0
 62
     0
 10
5.7953929204426924
 20
-39.895073116385142
 30
0.0
 11
5.7953929204426924
 21
-39.895073116385142
 31
0.0
  0
LINE
  5
157CB
  8
0
 62
     0
 10
2.520827008390619
 20
-42.40773591461862
 30
0.0
 11
2.520827008390619
 21
-42.40773591461862
 31
0.0
  0
LINE
  5
157CC
  8
0
 62
     0
 10
8.6983683670406258
 20
-32.650634617974859
 30
0.0
 11
8.6983683670406258
 21
-32.650634617974859
 31
0.0
  0
LINE
  5
157CD
  8
0
 62
     0
 10
5.635389790844223
 20
-35.000940743091732
 30
0.0
 11
5.635389790844223
 21
-35.000940743091732
 31
0.0
  0
LINE
  5
157CE
  8
0
 62
     0
 10
2.3608238787921501
 20
-37.513603541325217
 30
0.0
 11
2.3608238787921501
 21
-37.513603541325217
 31
0.0
  0
LINE
  5
157CF
  8
0
 62
     0
 10
8.5383652374421573
 20
-27.756502244681499
 30
0.0
 11
8.5383652374421573
 21
-27.756502244681499
 31
0.0
  0
LINE
  5
157D0
  8
0
 62
     0
 10
5.4753866612457553
 20
-30.106808369798369
 30
0.0
 11
5.4753866612457553
 21
-30.106808369798369
 31
0.0
  0
LINE
  5
157D1
  8
0
 62
     0
 10
2.2008207491936811
 20
-32.619471168031872
 30
0.0
 11
2.2008207491936811
 21
-32.619471168031872
 31
0.0
  0
LINE
  5
157D2
  8
0
 62
     0
 10
8.3783621078436887
 20
-22.862369871388101
 30
0.0
 11
8.3783621078436887
 21
-22.862369871388101
 31
0.0
  0
LINE
  5
157D3
  8
0
 62
     0
 10
5.3153835316472859
 20
-25.21267599650497
 30
0.0
 11
5.3153835316472859
 21
-25.21267599650497
 31
0.0
  0
LINE
  5
157D4
  8
0
 62
     0
 10
2.040817619595213
 20
-27.725338794738459
 30
0.0
 11
2.040817619595213
 21
-27.725338794738459
 31
0.0
  0
LINE
  5
157D5
  8
0
 62
     0
 10
8.2183589782453996
 20
-17.968237498094609
 30
0.0
 11
8.2183589782453996
 21
-17.968237498094609
 31
0.0
  0
LINE
  5
157D6
  8
0
 62
     0
 10
5.1553804020489977
 20
-20.318543623211479
 30
0.0
 11
5.1553804020489977
 21
-20.318543623211479
 31
0.0
  0
LINE
  5
157D7
  8
0
 62
     0
 10
1.880814489996925
 20
-22.831206421444971
 30
0.0
 11
1.880814489996925
 21
-22.831206421444971
 31
0.0
  0
LINE
  5
157D8
  8
0
 62
     0
 10
8.0583558486470217
 20
-13.074105124801131
 30
0.0
 11
8.0583558486470217
 21
-13.074105124801131
 31
0.0
  0
LINE
  5
157D9
  8
0
 62
     0
 10
4.9953772724506189
 20
-15.424411249918
 30
0.0
 11
4.9953772724506189
 21
-15.424411249918
 31
0.0
  0
LINE
  5
157DA
  8
0
 62
     0
 10
1.720811360398546
 20
-17.937074048151491
 30
0.0
 11
1.720811360398546
 21
-17.937074048151491
 31
0.0
  0
LINE
  5
157DB
  8
0
 62
     0
 10
4.835374142852241
 20
-10.53027887662458
 30
0.0
 11
4.835374142852241
 21
-10.53027887662458
 31
0.0
  0
LINE
  5
157DC
  8
0
 62
     0
 10
1.5608082308001681
 20
-13.04294167485808
 30
0.0
 11
1.5608082308001681
 21
-13.04294167485808
 31
0.0
  0
LINE
  5
157DD
  8
0
 62
     0
 10
4.6753710132538711
 20
-5.6361465033311111
 30
0.0
 11
4.6753710132538711
 21
-5.6361465033311111
 31
0.0
  0
LINE
  5
157DE
  8
0
 62
     0
 10
7.7383495894502312
 20
-3.2858403782142722
 30
0.0
 11
7.7383495894502312
 21
-3.2858403782142722
 31
0.0
  0
LINE
  5
157DF
  8
0
 62
     0
 10
7.5783464598517973
 20
1.608291995079111
 30
0.0
 11
7.5783464598517973
 21
1.608291995079111
 31
0.0
  0
LINE
  5
157E0
  8
0
 62
     0
 10
4.5153678836553954
 20
-0.7420141300377581
 30
0.0
 11
4.5153678836553954
 21
-0.7420141300377581
 31
0.0
  0
LINE
  5
157E1
  8
0
 62
     0
 10
1.240801971603321
 20
-3.2546769282712522
 30
0.0
 11
1.240801971603321
 21
-3.2546769282712522
 31
0.0
  0
LINE
  5
157E2
  8
0
 62
     0
 10
4.3553647540568701
 20
4.1521182432556483
 30
0.0
 11
4.3553647540568701
 21
4.1521182432556483
 31
0.0
  0
LINE
  5
157E3
  8
0
 62
     0
 10
1.080798842004796
 20
1.6394554450221539
 30
0.0
 11
1.080798842004796
 21
1.6394554450221539
 31
0.0
  0
LINE
  5
157E4
  8
0
 62
     0
 10
7.2583402006548212
 20
11.39655674166589
 30
0.0
 11
7.2583402006548212
 21
11.39655674166589
 31
0.0
  0
LINE
  5
157E5
  8
0
 62
     0
 10
4.1953616244584193
 20
9.0462506165490275
 30
0.0
 11
4.1953616244584193
 21
9.0462506165490275
 31
0.0
  0
LINE
  5
157E6
  8
0
 62
     0
 10
7.0983370710565712
 20
16.290689114959349
 30
0.0
 11
7.0983370710565712
 21
16.290689114959349
 31
0.0
  0
LINE
  5
157E7
  8
0
 62
     0
 10
4.0353584948601702
 20
13.94038298984249
 30
0.0
 11
4.0353584948601702
 21
13.94038298984249
 31
0.0
  0
LINE
  5
157E8
  8
0
 62
     0
 10
0.7607925828080968
 20
11.427720191608991
 30
0.0
 11
0.7607925828080968
 21
11.427720191608991
 31
0.0
  0
LINE
  5
157E9
  8
0
 62
     0
 10
6.9383339414581933
 20
21.18482148825278
 30
0.0
 11
6.9383339414581933
 21
21.18482148825278
 31
0.0
  0
LINE
  5
157EA
  8
0
 62
     0
 10
3.8753553652617909
 20
18.83451536313591
 30
0.0
 11
3.8753553652617909
 21
18.83451536313591
 31
0.0
  0
LINE
  5
157EB
  8
0
 62
     0
 10
0.6007894532097184
 20
16.321852564902411
 30
0.0
 11
0.6007894532097184
 21
16.321852564902411
 31
0.0
  0
LINE
  5
157EC
  8
0
 62
     0
 10
6.7783308118597239
 20
26.078953861546189
 30
0.0
 11
6.7783308118597239
 21
26.078953861546189
 31
0.0
  0
LINE
  5
157ED
  8
0
 62
     0
 10
3.7153522356633228
 20
23.728647736429309
 30
0.0
 11
3.7153522356633228
 21
23.728647736429309
 31
0.0
  0
LINE
  5
157EE
  8
0
 62
     0
 10
0.4407863236112499
 20
21.21598493819582
 30
0.0
 11
0.4407863236112499
 21
21.21598493819582
 31
0.0
  0
LINE
  5
157EF
  8
0
 62
     0
 10
6.6183276822614934
 20
30.97308623483967
 30
0.0
 11
6.6183276822614934
 21
30.97308623483967
 31
0.0
  0
LINE
  5
157F0
  8
0
 62
     0
 10
3.555349106065091
 20
28.6227801097228
 30
0.0
 11
3.555349106065091
 21
28.6227801097228
 31
0.0
  0
LINE
  5
157F1
  8
0
 62
     0
 10
0.2807831940130185
 20
26.110117311489311
 30
0.0
 11
0.2807831940130185
 21
26.110117311489311
 31
0.0
  0
LINE
  5
157F2
  8
0
 62
     0
 10
6.458324552662968
 20
35.867218608133022
 30
0.0
 11
6.458324552662968
 21
35.867218608133022
 31
0.0
  0
LINE
  5
157F3
  8
0
 62
     0
 10
3.3953459764665661
 20
33.516912483016149
 30
0.0
 11
3.3953459764665661
 21
33.516912483016149
 31
0.0
  0
LINE
  5
157F4
  8
0
 62
     0
 10
0.1207800644144936
 20
31.004249684782661
 30
0.0
 11
0.1207800644144936
 21
31.004249684782661
 31
0.0
  0
LINE
  5
157F5
  8
0
 62
     0
 10
6.2983214230645901
 20
40.761350981426489
 30
0.0
 11
6.2983214230645901
 21
40.761350981426489
 31
0.0
  0
LINE
  5
157F6
  8
0
 62
     0
 10
3.2353428468681882
 20
38.41104485630963
 30
0.0
 11
3.2353428468681882
 21
38.41104485630963
 31
0.0
  0
LINE
  5
157F7
  8
0
 62
     0
 10
3.0753397172696291
 20
43.305177229602961
 30
0.0
 11
3.0753397172696291
 21
43.305177229602961
 31
0.0
  0
ENDBLK
  5
157F9
  8
0
  0
BLOCK
  8
0
  2
*U69
 70
     1
 10
0.0
 20
0.0
 30
0.0
  3
*U69
  1

  0
SOLID
  5
157FB
  8
1DIM
 10
12.044443127533439
 20
38.649918419518762
 30
0.0
 11
13.168864624287609
 21
36.962675873603018
 31
0.0
 12
11.55800886922316
 22
38.194038877548998
 32
0.0
 13
11.55800886922316
 23
38.194038877548998
 33
0.0
  0
POLYLINE
  5
157FC
  8
1DIM
 66
     1
 10
0.0
 20
0.0
 30
0.0
  0
VERTEX
  5
157FD
  8
1DIM
 10
11.8012259983783
 20
38.42197864853388
 30
0.0
  0
VERTEX
  5
157FE
  8
1DIM
 10
-2.0871988093631928
 20
53.241256546509689
 30
0.0
  0
VERTEX
  5
157FF
  8
1DIM
 10
-33.987198809363193
 20
53.241256546509689
 30
0.0
  0
SEQEND
  5
15800
  8
1DIM
  0
ENDBLK
  5
15802
  8
0
  0
BLOCK
  8
0
  2
*U70
 70
     1
 10
0.0
 20
0.0
 30
0.0
  3
*U70
  1

  0
TEXT
  5
15804
  8
1DIM
 62
   201
 10
-31.153865476029861
 20
53.941256546509692
 30
0.0
 40
3.5
  1
裏板9mm以上
  0
ENDBLK
  5
15806
  8
0
  0
BLOCK
  8
0
  2
*U71
 70
     1
 10
0.0
 20
0.0
 30
0.0
  3
*U71
  1

  0
LINE
  5
15808
  8
0
 10
-29.999999999837598
 20
0.0000465358979227
 30
0.0
 11
-24.700003489975941
 21
-1.4999534641020771
 31
0.0
  0
LINE
  5
15809
  8
0
 10
-24.700003489975941
 20
-1.4999534641020771
 30
0.0
 11
-0.0000034900840618
 21
-1.499953464101849
 31
0.0
  0
LINE
  5
1580A
  8
0
 10
-29.999999999837598
 20
0.0000465358979227
 30
0.0
 11
-24.6999965095923
 21
1.5000465358980359
 31
0.0
  0
LINE
  5
1580B
  8
0
 10
-0.0000081437821464
 20
-3.4999999999998859
 30
0.0
 11
-0.0000034900840618
 21
-1.499953464101849
 31
0.0
  0
LINE
  5
1580C
  8
0
 10
-24.6999965095923
 20
1.5000465358980359
 30
0.0
 11
0.0000034903006139
 21
1.500046535897922
 31
0.0
  0
LINE
  5
1580D
  8
0
 10
-0.0000081437821464
 20
-3.4999999999998859
 30
0.0
 11
1.0999953464131731
 21
-3.5
 31
0.0
  0
LINE
  5
1580E
  8
0
 10
0.0000034903006139
 20
1.500046535897922
 30
0.0
 11
0.0000081437821322
 21
3.5
 31
0.0
  0
ARC
  5
1580F
  8
0
 10
1.0999953464131731
 20
-2.0
 30
0.0
 40
1.5
 50
270.0
 51
359.99986668447059
  0
LINE
  5
15810
  8
0
 10
0.0000081437821322
 20
3.5
 30
0.0
 11
1.100004653592769
 21
3.5
 31
0.0
  0
LINE
  5
15811
  8
0
 10
2.5999953464091159
 20
-2.0000034901923982
 30
0.0
 11
2.6000046535887051
 21
1.9999965098076009
 31
0.0
  0
ARC
  5
15812
  8
0
 10
1.100004653592769
 20
2.0
 30
0.0
 40
1.5
 50
359.99986668447059
 51
90.0
  0
ENDBLK
  5
15814
  8
0
  0
BLOCK
  8
0
  2
*U72
 70
     1
 10
0.0
 20
0.0
 30
0.0
  3
*U72
  1

  0
LINE
  5
15816
  8
0
 10
-9.6499999999999773
 20
2.0
 30
0.0
 11
-0.0000000000000284
 21
2.0
 31
0.0
  0
LINE
  5
15817
  8
0
 10
-9.6499999999999773
 20
2.0
 30
0.0
 11
-10.0
 21
1.649999999999977
 31
0.0
  0
LINE
  5
15818
  8
0
 10
0.0
 20
3.4999999999999432
 30
0.0
 11
-0.0000000000000284
 21
2.0
 31
0.0
  0
LINE
  5
15819
  8
0
 10
-10.0
 20
1.649999999999977
 30
0.0
 11
-10.0
 21
-1.6499999999998629
 31
0.0
  0
LINE
  5
1581A
  8
0
 10
0.0
 20
3.4999999999999432
 30
0.0
 11
0.5999999999999375
 21
3.4999999999999432
 31
0.0
  0
LINE
  5
1581B
  8
0
 10
-10.0
 20
-1.6499999999998629
 30
0.0
 11
-9.6499999999999773
 21
-2.0
 31
0.0
  0
ARC
  5
1581C
  8
0
 10
0.5999999999999944
 20
1.4999999999999429
 30
0.0
 40
2.0
 50
0.0
 51
90.000000000001606
  0
LINE
  5
1581D
  8
0
 10
-9.6499999999999773
 20
-2.0
 30
0.0
 11
0.0000000000000568
 21
-2.0
 31
0.0
  0
LINE
  5
1581E
  8
0
 10
2.5999999999999939
 20
1.4999999999999429
 30
0.0
 11
2.5999999999999939
 21
-1.5
 31
0.0
  0
LINE
  5
1581F
  8
0
 10
0.0000000000000568
 20
-2.0
 30
0.0
 11
0.0
 21
-3.5
 31
0.0
  0
ARC
  5
15820
  8
0
 10
0.5999999999999944
 20
-1.5
 30
0.0
 40
2.0
 50
270.0
 51
0.0
  0
LINE
  5
15821
  8
0
 10
0.0
 20
-3.5
 30
0.0
 11
0.5999999999999944
 21
-3.5
 31
0.0
  0
ENDBLK
  5
15823
  8
0
  0
BLOCK
  8
0
  2
*U73
 70
     1
 10
0.0
 20
0.0
 30
0.0
  3
*U73
  1

  0
LINE
  5
15849
  8
0
 10
-24.650013959859319
 20
-1.9997699899806769
 30
0.0
 11
-2.3000325751651469
 21
-1.999978593270384
 31
0.0
  0
LINE
  5
1584A
  8
0
 10
-0.3000279215265778
 20
-3.9999972077595198
 30
0.0
 11
-2.3000325751651469
 21
-1.999978593270384
 31
0.0
  0
LINE
  5
1584B
  8
0
 10
-25.000011516714508
 20
-1.649767320475461
 30
0.0
 11
-24.650013959859319
 21
-1.9997699899806769
 31
0.0
  0
LINE
  5
1584C
  8
0
 10
-0.3000279215265778
 20
-3.9999972077595198
 30
0.0
 11
-0.0000279215387877
 21
-3.9999999999133702
 31
0.0
  0
LINE
  5
1584D
  8
0
 10
-24.999988481445051
 20
1.650232679454916
 30
0.0
 11
-25.000011516714508
 21
-1.649767320475461
 31
0.0
  0
LINE
  5
1584E
  8
0
 10
0.0000279215387877
 20
3.9999999999134839
 30
0.0
 11
-0.0000279215387877
 21
-3.9999999999133702
 31
0.0
  0
LINE
  5
1584F
  8
0
 10
-24.999988481445051
 20
1.650232679454916
 30
0.0
 11
-24.649986038320591
 21
2.0002300099321242
 31
0.0
  0
LINE
  5
15850
  8
0
 10
-0.299972078449116
 20
4.0000027920673338
 30
0.0
 11
0.0000279215387877
 21
3.9999999999134839
 31
0.0
  0
LINE
  5
15851
  8
0
 10
-24.649986038320591
 20
2.0002300099321242
 30
0.0
 11
-2.299976732000899
 21
2.0000214063830981
 31
0.0
  0
LINE
  5
15852
  8
0
 10
-0.299972078449116
 20
4.0000027920673338
 30
0.0
 11
-2.299976732000899
 21
2.0000214063830981
 31
0.0
  0
ENDBLK
  5
15854
  8
0
  0
BLOCK
  8
0
  2
*X74
 70
     1
 10
0.0
 20
0.0
 30
0.0
  3
*X74
  1

  0
LINE
  5
15856
  8
0
 62
     0
 10
16.671990294007681
 20
-61.391691274362131
 30
0.0
 11
18.0
 21
-60.063681568369759
 31
0.0
  0
LINE
  5
15857
  8
0
 62
     0
 10
14.42692626374037
 20
-61.391691274362131
 30
0.0
 11
17.99999999999994
 21
-57.818617538102501
 31
0.0
  0
LINE
  5
15858
  8
0
 62
     0
 10
12.18186223347311
 20
-61.391691274362131
 30
0.0
 11
18.0
 21
-55.573553507835179
 31
0.0
  0
LINE
  5
15859
  8
0
 62
     0
 10
9.9367982032057398
 20
-61.391691274362181
 30
0.0
 11
18.0
 21
-53.328489477567928
 31
0.0
  0
LINE
  5
1585A
  8
0
 62
     0
 10
9.0000000000001137
 20
-60.083425447300549
 30
0.0
 11
18.0
 21
-51.083425447300669
 31
0.0
  0
LINE
  5
1585B
  8
0
 62
     0
 10
9.0000000000000568
 20
-57.83836141703329
 30
0.0
 11
17.99999999999994
 21
-48.838361417033411
 31
0.0
  0
LINE
  5
1585C
  8
0
 62
     0
 10
9.0000000000000568
 20
-55.593297386765919
 30
0.0
 11
17.99999999999994
 21
-46.593297386766032
 31
0.0
  0
LINE
  5
1585D
  8
0
 62
     0
 10
9.0000000000000568
 20
-53.348233356498667
 30
0.0
 11
17.99999999999994
 21
-44.348233356498781
 31
0.0
  0
LINE
  5
1585E
  8
0
 62
     0
 10
9.0000000000000568
 20
-51.103169326231409
 30
0.0
 11
18.00000000000006
 21
-42.103169326231459
 31
0.0
  0
LINE
  5
1585F
  8
0
 62
     0
 10
9.0000000000000568
 20
-48.858105295964087
 30
0.0
 11
18.0
 21
-39.858105295964208
 31
0.0
  0
LINE
  5
15860
  8
0
 62
     0
 10
9.0000000000000568
 20
-46.613041265696722
 30
0.0
 11
18.0
 21
-37.613041265696843
 31
0.0
  0
LINE
  5
15861
  8
0
 62
     0
 10
9.0000000000000568
 20
-44.367977235429457
 30
0.0
 11
18.0
 21
-35.367977235429578
 31
0.0
  0
LINE
  5
15862
  8
0
 62
     0
 10
9.0000000000000568
 20
-42.122913205162213
 30
0.0
 11
18.0
 21
-33.12291320516232
 31
0.0
  0
LINE
  5
15863
  8
0
 62
     0
 10
9.0
 20
-39.877849174894948
 30
0.0
 11
17.99999999999994
 21
-30.877849174895061
 31
0.0
  0
LINE
  5
15864
  8
0
 62
     0
 10
9.0
 20
-37.63278514462769
 30
0.0
 11
18.0
 21
-28.63278514462769
 31
0.0
  0
LINE
  5
15865
  8
0
 62
     0
 10
9.0
 20
-35.387721114360431
 30
0.0
 11
18.0
 21
-26.387721114360431
 31
0.0
  0
LINE
  5
15866
  8
0
 62
     0
 10
8.9999999999999432
 20
-33.14265708409318
 30
0.0
 11
17.99999999999994
 21
-24.14265708409317
 31
0.0
  0
LINE
  5
15867
  8
0
 62
     0
 10
8.9999999999999432
 20
-30.897593053825918
 30
0.0
 11
17.99999999999994
 21
-21.897593053825918
 31
0.0
  0
LINE
  5
15868
  8
0
 62
     0
 10
8.9999999999999432
 20
-28.65252902355866
 30
0.0
 11
17.99999999999994
 21
-19.65252902355866
 31
0.0
  0
LINE
  5
15869
  8
0
 62
     0
 10
8.9999999999999432
 20
-26.407464993291399
 30
0.0
 11
18.0
 21
-17.407464993291342
 31
0.0
  0
LINE
  5
1586A
  8
0
 62
     0
 10
9.0
 20
-24.16240096302403
 30
0.0
 11
17.99999999999994
 21
-15.16240096302403
 31
0.0
  0
LINE
  5
1586B
  8
0
 62
     0
 10
8.9999999999999432
 20
-21.917336932756712
 30
0.0
 11
17.99999999999994
 21
-12.91733693275671
 31
0.0
  0
LINE
  5
1586C
  8
0
 62
     0
 10
8.9999999999999432
 20
-19.67227290248945
 30
0.0
 11
17.99999999999994
 21
-10.67227290248945
 31
0.0
  0
LINE
  5
1586D
  8
0
 62
     0
 10
8.9999999999999432
 20
-17.427208872222192
 30
0.0
 11
15.821190608570189
 21
-10.606018263652
 31
0.0
  0
LINE
  5
1586E
  8
0
 62
     0
 10
16.78433035397688
 20
-7.3978144879779393
 30
0.0
 11
18.0
 21
-6.1821448419548801
 31
0.0
  0
LINE
  5
1586F
  8
0
 62
     0
 10
8.9999999999998863
 20
-15.182144841954941
 30
0.0
 11
13.682098306056441
 21
-10.500046535898431
 31
0.0
  0
LINE
  5
15870
  8
0
 62
     0
 10
11.14073620626419
 20
-10.796344605423309
 30
0.0
 11
11.437034275789189
 21
-10.50004653589837
 31
0.0
  0
LINE
  5
15871
  8
0
 62
     0
 10
14.437034275789189
 20
-7.5000465358983197
 30
0.0
 11
18.00000000000006
 21
-3.9370808116874509
 31
0.0
  0
LINE
  5
15872
  8
0
 62
     0
 10
8.9999999999998863
 20
-12.93708081168762
 30
0.0
 11
11.072835431113271
 21
-10.86424538057423
 31
0.0
  0
LINE
  5
15873
  8
0
 62
     0
 10
12.191970245521761
 20
-7.5000465358984911
 30
0.0
 11
18.00000000000006
 21
-1.692016781420193
 31
0.0
  0
LINE
  5
15874
  8
0
 62
     0
 10
9.0
 20
-10.69201678142031
 30
0.0
 11
9.1919702455219294
 21
-10.50004653589837
 31
0.0
  0
LINE
  5
15875
  8
0
 62
     0
 10
10.32448800965261
 20
-7.1224647415003801
 30
0.0
 11
18.00000000000006
 21
0.5530472488470651
 31
0.0
  0
LINE
  5
15876
  8
0
 62
     0
 10
9.9469062152545007
 20
-7.5000465358984911
 30
0.0
 11
10.26327872882478
 21
-7.1836740223282041
 31
0.0
  0
LINE
  5
15877
  8
0
 62
     0
 10
8.9999999999999432
 20
-6.2018887208857896
 30
0.0
 11
18.0
 21
2.7981112791143228
 31
0.0
  0
LINE
  5
15878
  8
0
 62
     0
 10
8.9999999999999432
 20
-3.956824690618475
 30
0.0
 11
18.00000000000006
 21
5.0431753093816951
 31
0.0
  0
LINE
  5
15879
  8
0
 62
     0
 10
8.9999999999999432
 20
-1.711760660351217
 30
0.0
 11
18.00000000000006
 21
7.2882393396489533
 31
0.0
  0
LINE
  5
1587A
  8
0
 62
     0
 10
8.9999999999999432
 20
0.533303369916041
 30
0.0
 11
15.827771837741579
 21
7.3610752076577342
 31
0.0
  0
LINE
  5
1587B
  8
0
 62
     0
 10
16.79123737884305
 20
10.56960477902652
 30
0.0
 11
18.0
 21
11.778367400183519
 31
0.0
  0
LINE
  5
1587C
  8
0
 62
     0
 10
8.9999999999999432
 20
2.7783674001834688
 30
0.0
 11
13.721586063918149
 21
7.4999534641016794
 31
0.0
  0
LINE
  5
1587D
  8
0
 62
     0
 10
11.13086412323616
 20
7.154295553686949
 30
0.0
 11
11.47652203365084
 21
7.4999534641015648
 31
0.0
  0
LINE
  5
1587E
  8
0
 62
     0
 10
14.47652203365084
 20
10.499953464101621
 30
0.0
 11
18.00000000000011
 21
14.02343143045084
 31
0.0
  0
LINE
  5
1587F
  8
0
 62
     0
 10
8.9999999999999432
 20
5.023431430450727
 30
0.0
 11
11.079416660284719
 21
7.102848090735506
 31
0.0
  0
LINE
  5
15880
  8
0
 62
     0
 10
12.231458003383411
 20
10.49995346410145
 30
0.0
 11
18.00000000000006
 21
16.26849546071816
 31
0.0
  0
LINE
  5
15881
  8
0
 62
     0
 10
8.9999999999999432
 20
7.2684954607179861
 30
0.0
 11
9.2314580033835796
 21
7.4999534641015648
 31
0.0
  0
LINE
  5
15882
  8
0
 62
     0
 10
10.33106923882394
 20
10.844628729809241
 30
0.0
 11
18.00000000000006
 21
18.513559490985411
 31
0.0
  0
LINE
  5
15883
  8
0
 62
     0
 10
9.9863939731161508
 20
10.49995346410145
 30
0.0
 11
10.25340664579676
 21
10.766966136782059
 31
0.0
  0
LINE
  5
15884
  8
0
 62
     0
 10
9.0000000000000568
 20
11.75862352125273
 30
0.0
 11
18.0
 21
20.75862352125273
 31
0.0
  0
LINE
  5
15885
  8
0
 62
     0
 10
9.0000000000001137
 20
14.00368755152004
 30
0.0
 11
18.0
 21
23.003687551519992
 31
0.0
  0
LINE
  5
15886
  8
0
 62
     0
 10
9.0000000000001137
 20
16.2487515817873
 30
0.0
 11
18.00000000000011
 21
25.24875158178725
 31
0.0
  0
LINE
  5
15887
  8
0
 62
     0
 10
9.0000000000000568
 20
18.493815612054561
 30
0.0
 11
18.00000000000006
 21
27.493815612054512
 31
0.0
  0
LINE
  5
15888
  8
0
 62
     0
 10
9.0000000000000568
 20
20.73887964232188
 30
0.0
 11
18.00000000000006
 21
29.73887964232182
 31
0.0
  0
LINE
  5
15889
  8
0
 62
     0
 10
9.0000000000000568
 20
22.983943672589131
 30
0.0
 11
18.00000000000006
 21
31.983943672589081
 31
0.0
  0
LINE
  5
1588A
  8
0
 62
     0
 10
9.0000000000001705
 20
25.22900770285645
 30
0.0
 11
18.00000000000006
 21
34.229007702856343
 31
0.0
  0
LINE
  5
1588B
  8
0
 62
     0
 10
9.0000000000001137
 20
27.474071733123711
 30
0.0
 11
18.00000000000011
 21
36.474071733123708
 31
0.0
  0
LINE
  5
1588C
  8
0
 62
     0
 10
9.0000000000001137
 20
29.71913576339103
 30
0.0
 11
18.00000000000011
 21
38.719135763391023
 31
0.0
  0
LINE
  5
1588D
  8
0
 62
     0
 10
9.0000000000001137
 20
31.964199793658281
 30
0.0
 11
18.00000000000011
 21
40.964199793658281
 31
0.0
  0
LINE
  5
1588E
  8
0
 62
     0
 10
9.0000000000001137
 20
34.209263823925539
 30
0.0
 11
18.00000000000011
 21
43.209263823925539
 31
0.0
  0
LINE
  5
1588F
  8
0
 62
     0
 10
9.0000000000000568
 20
36.454327854192968
 30
0.0
 11
17.245208523150438
 21
44.699536377343229
 31
0.0
  0
LINE
  5
15890
  8
0
 62
     0
 10
9.0000000000000568
 20
38.699391884460113
 30
0.0
 11
15.00014449288318
 21
44.699536377343229
 31
0.0
  0
LINE
  5
15891
  8
0
 62
     0
 10
9.0000000000000568
 20
40.944455914727477
 30
0.0
 11
12.75508046261592
 21
44.699536377343229
 31
0.0
  0
LINE
  5
15892
  8
0
 62
     0
 10
9.0000000000001137
 20
43.189519944994743
 30
0.0
 11
10.510016432348721
 21
44.699536377343229
 31
0.0
  0
ENDBLK
  5
15894
  8
0
  0
BLOCK
  8
0
  2
*X75
 70
     1
 10
0.0
 20
0.0
 30
0.0
  3
*X75
  1

  0
LINE
  5
15896
  8
0
 62
     0
 10
4.719668856187476
 20
-60.905108537765202
 30
0.0
 11
4.719668856187476
 21
-60.905108537765202
 31
0.0
  0
LINE
  5
15897
  8
0
 62
     0
 10
2.5099012223001722
 20
-58.880229567499541
 30
0.0
 11
2.5099012223001722
 21
-58.880229567499541
 31
0.0
  0
LINE
  5
15898
  8
0
 62
     0
 10
2.0417301134257442
 20
-58.4512297856636
 30
0.0
 11
2.0417301134257442
 21
-58.4512297856636
 31
0.0
  0
LINE
  5
15899
  8
0
 62
     0
 10
7.1491706502268144
 20
-53.905337731177347
 30
0.0
 11
7.1491706502268144
 21
-53.905337731177347
 31
0.0
  0
LINE
  5
1589A
  8
0
 62
     0
 10
4.9394030163395106
 20
-51.880458760911701
 30
0.0
 11
4.9394030163395106
 21
-51.880458760911701
 31
0.0
  0
LINE
  5
1589B
  8
0
 62
     0
 10
4.471231907465083
 20
-51.451458979075753
 30
0.0
 11
4.471231907465083
 21
-51.451458979075753
 31
0.0
  0
LINE
  5
1589C
  8
0
 62
     0
 10
1.943107919543168
 20
-49.134860157161647
 30
0.0
 11
1.943107919543168
 21
-49.134860157161647
 31
0.0
  0
LINE
  5
1589D
  8
0
 62
     0
 10
7.3689048103787469
 20
-44.880687954323847
 30
0.0
 11
7.3689048103787469
 21
-44.880687954323847
 31
0.0
  0
LINE
  5
1589E
  8
0
 62
     0
 10
6.9007337015043193
 20
-44.451688172487913
 30
0.0
 11
6.9007337015043193
 21
-44.451688172487913
 31
0.0
  0
LINE
  5
1589F
  8
0
 62
     0
 10
4.3726097135824036
 20
-42.135089350573821
 30
0.0
 11
4.3726097135824036
 21
-42.135089350573821
 31
0.0
  0
LINE
  5
158A0
  8
0
 62
     0
 10
2.1628420796950998
 20
-40.11021038030816
 30
0.0
 11
2.1628420796950998
 21
-40.11021038030816
 31
0.0
  0
LINE
  5
158A1
  8
0
 62
     0
 10
1.694670970820672
 20
-39.681210598472219
 30
0.0
 11
1.694670970820672
 21
-39.681210598472219
 31
0.0
  0
LINE
  5
158A2
  8
0
 62
     0
 10
6.8021115076217677
 20
-35.135318543985953
 30
0.0
 11
6.8021115076217677
 21
-35.135318543985953
 31
0.0
  0
LINE
  5
158A3
  8
0
 62
     0
 10
4.592343873734464
 20
-33.110439573720278
 30
0.0
 11
4.592343873734464
 21
-33.110439573720278
 31
0.0
  0
LINE
  5
158A4
  8
0
 62
     0
 10
4.1241727648600364
 20
-32.681439791884351
 30
0.0
 11
4.1241727648600364
 21
-32.681439791884351
 31
0.0
  0
LINE
  5
158A5
  8
0
 62
     0
 10
1.5960487769381211
 20
-30.364840969970238
 30
0.0
 11
1.5960487769381211
 21
-30.364840969970238
 31
0.0
  0
LINE
  5
158A6
  8
0
 62
     0
 10
7.0218456677738237
 20
-26.110668767132399
 30
0.0
 11
7.0218456677738237
 21
-26.110668767132399
 31
0.0
  0
LINE
  5
158A7
  8
0
 62
     0
 10
6.5536745588993961
 20
-25.681668985296461
 30
0.0
 11
6.5536745588993961
 21
-25.681668985296461
 31
0.0
  0
LINE
  5
158A8
  8
0
 62
     0
 10
4.0255505709774813
 20
-23.365070163382359
 30
0.0
 11
4.0255505709774813
 21
-23.365070163382359
 31
0.0
  0
LINE
  5
158A9
  8
0
 62
     0
 10
1.8157829370901779
 20
-21.340191193116699
 30
0.0
 11
1.8157829370901779
 21
-21.340191193116699
 31
0.0
  0
LINE
  5
158AA
  8
0
 62
     0
 10
1.347611828215749
 20
-20.911191411280761
 30
0.0
 11
1.347611828215749
 21
-20.911191411280761
 31
0.0
  0
LINE
  5
158AB
  8
0
 62
     0
 10
8.9831763529386919
 20
-18.681898178708529
 30
0.0
 11
8.9831763529386919
 21
-18.681898178708529
 31
0.0
  0
LINE
  5
158AC
  8
0
 62
     0
 10
6.4550523650167762
 20
-16.365299356794441
 30
0.0
 11
6.4550523650167762
 21
-16.365299356794441
 31
0.0
  0
LINE
  5
158AD
  8
0
 62
     0
 10
4.2452847311294732
 20
-14.34042038652878
 30
0.0
 11
4.2452847311294732
 21
-14.34042038652878
 31
0.0
  0
LINE
  5
158AE
  8
0
 62
     0
 10
3.7771136222550439
 20
-13.911420604692839
 30
0.0
 11
3.7771136222550439
 21
-13.911420604692839
 31
0.0
  0
LINE
  5
158AF
  8
0
 62
     0
 10
1.248989634333129
 20
-11.59482178277873
 30
0.0
 11
1.248989634333129
 21
-11.59482178277873
 31
0.0
  0
LINE
  5
158B0
  8
0
 62
     0
 10
6.6747865251688028
 20
-7.340649579940961
 30
0.0
 11
6.6747865251688028
 21
-7.340649579940961
 31
0.0
  0
LINE
  5
158B1
  8
0
 62
     0
 10
6.2066154162943752
 20
-6.9116497981050173
 30
0.0
 11
6.2066154162943752
 21
-6.9116497981050173
 31
0.0
  0
LINE
  5
158B2
  8
0
 62
     0
 10
3.6784914283724599
 20
-4.5950509761909171
 30
0.0
 11
3.6784914283724599
 21
-4.5950509761909171
 31
0.0
  0
LINE
  5
158B3
  8
0
 62
     0
 10
1.468723794485157
 20
-2.5701720059252589
 30
0.0
 11
1.468723794485157
 21
-2.5701720059252589
 31
0.0
  0
LINE
  5
158B4
  8
0
 62
     0
 10
1.0005526856107281
 20
-2.1411722240893152
 30
0.0
 11
1.0005526856107281
 21
-2.1411722240893152
 31
0.0
  0
LINE
  5
158B5
  8
0
 62
     0
 10
8.6361172103337154
 20
0.0881210084828284
 30
0.0
 11
8.6361172103337154
 21
0.0881210084828284
 31
0.0
  0
LINE
  5
158B6
  8
0
 62
     0
 10
6.1079932224118014
 20
2.4047198303969282
 30
0.0
 11
6.1079932224118014
 21
2.4047198303969282
 31
0.0
  0
LINE
  5
158B7
  8
0
 62
     0
 10
3.8982255885244972
 20
4.4295988006625846
 30
0.0
 11
3.8982255885244972
 21
4.4295988006625846
 31
0.0
  0
LINE
  5
158B8
  8
0
 62
     0
 10
3.4300544796500692
 20
4.85859858249853
 30
0.0
 11
3.4300544796500692
 21
4.85859858249853
 31
0.0
  0
LINE
  5
158B9
  8
0
 62
     0
 10
0.9019304917281541
 20
7.1751974044126294
 30
0.0
 11
0.9019304917281541
 21
7.1751974044126294
 31
0.0
  0
LINE
  5
158BA
  8
0
 62
     0
 10
6.3277273825637756
 20
11.42936960725048
 30
0.0
 11
6.3277273825637756
 21
11.42936960725048
 31
0.0
  0
LINE
  5
158BB
  8
0
 62
     0
 10
5.8595562736893481
 20
11.85836938908642
 30
0.0
 11
5.8595562736893481
 21
11.85836938908642
 31
0.0
  0
LINE
  5
158BC
  8
0
 62
     0
 10
3.3314322857674332
 20
14.17496821100052
 30
0.0
 11
3.3314322857674332
 21
14.17496821100052
 31
0.0
  0
LINE
  5
158BD
  8
0
 62
     0
 10
1.121664651880129
 20
16.199847181266179
 30
0.0
 11
1.121664651880129
 21
16.199847181266179
 31
0.0
  0
LINE
  5
158BE
  8
0
 62
     0
 10
0.6534935430057013
 20
16.628846963102131
 30
0.0
 11
0.6534935430057013
 21
16.628846963102131
 31
0.0
  0
LINE
  5
158BF
  8
0
 62
     0
 10
8.757229176603154
 20
18.429140413838351
 30
0.0
 11
8.757229176603154
 21
18.429140413838351
 31
0.0
  0
LINE
  5
158C0
  8
0
 62
     0
 10
8.2890580677287247
 20
18.858140195674299
 30
0.0
 11
8.2890580677287247
 21
18.858140195674299
 31
0.0
  0
LINE
  5
158C1
  8
0
 62
     0
 10
5.7609340798068081
 20
21.174739017588401
 30
0.0
 11
5.7609340798068081
 21
21.174739017588401
 31
0.0
  0
LINE
  5
158C2
  8
0
 62
     0
 10
3.5511664459195051
 20
23.199617987854051
 30
0.0
 11
3.5511664459195051
 21
23.199617987854051
 31
0.0
  0
LINE
  5
158C3
  8
0
 62
     0
 10
3.0829953370450758
 20
23.628617769689999
 30
0.0
 11
3.0829953370450758
 21
23.628617769689999
 31
0.0
  0
LINE
  5
158C4
  8
0
 62
     0
 10
0.5548713491231618
 20
25.945216591604101
 30
0.0
 11
0.5548713491231618
 21
25.945216591604101
 31
0.0
  0
LINE
  5
158C5
  8
0
 62
     0
 10
8.1904358738460896
 20
28.17450982417618
 30
0.0
 11
8.1904358738460896
 21
28.17450982417618
 31
0.0
  0
LINE
  5
158C6
  8
0
 62
     0
 10
5.9806682399587858
 20
30.199388794441841
 30
0.0
 11
5.9806682399587858
 21
30.199388794441841
 31
0.0
  0
LINE
  5
158C7
  8
0
 62
     0
 10
5.5124971310843582
 20
30.628388576277789
 30
0.0
 11
5.5124971310843582
 21
30.628388576277789
 31
0.0
  0
LINE
  5
158C8
  8
0
 62
     0
 10
2.984373143162443
 20
32.944987398191877
 30
0.0
 11
2.984373143162443
 21
32.944987398191877
 31
0.0
  0
LINE
  5
158C9
  8
0
 62
     0
 10
0.7746055092751402
 20
34.969866368457538
 30
0.0
 11
0.7746055092751402
 21
34.969866368457538
 31
0.0
  0
LINE
  5
158CA
  8
0
 62
     0
 10
0.3064344004007115
 20
35.398866150293493
 30
0.0
 11
0.3064344004007115
 21
35.398866150293493
 31
0.0
  0
LINE
  5
158CB
  8
0
 62
     0
 10
8.41017003399811
 20
37.199159601029763
 30
0.0
 11
8.41017003399811
 21
37.199159601029763
 31
0.0
  0
LINE
  5
158CC
  8
0
 62
     0
 10
7.9419989251236807
 20
37.628159382865697
 30
0.0
 11
7.9419989251236807
 21
37.628159382865697
 31
0.0
  0
LINE
  5
158CD
  8
0
 62
     0
 10
5.4138749372017658
 20
39.944758204779802
 30
0.0
 11
5.4138749372017658
 21
39.944758204779802
 31
0.0
  0
LINE
  5
158CE
  8
0
 62
     0
 10
3.204107303314462
 20
41.969637175045463
 30
0.0
 11
3.204107303314462
 21
41.969637175045463
 31
0.0
  0
LINE
  5
158CF
  8
0
 62
     0
 10
2.735936194440034
 20
42.398636956881397
 30
0.0
 11
2.735936194440034
 21
42.398636956881397
 31
0.0
  0
LINE
  5
158D0
  8
0
 62
     0
 10
3.8802392881250851
 20
-61.296643484138428
 30
0.0
 11
3.8802392881250851
 21
-61.296643484138428
 31
0.0
  0
LINE
  5
158D1
  8
0
 62
     0
 10
6.7559594504826217
 20
-58.075130275130718
 30
0.0
 11
6.7559594504826217
 21
-58.075130275130718
 31
0.0
  0
LINE
  5
158D2
  8
0
 62
     0
 10
2.8999737602261102
 20
-55.618596465769052
 30
0.0
 11
2.8999737602261102
 21
-55.618596465769052
 31
0.0
  0
LINE
  5
158D3
  8
0
 62
     0
 10
1.8288666240437459
 20
-54.936225963168582
 30
0.0
 11
1.8288666240437459
 21
-54.936225963168582
 31
0.0
  0
LINE
  5
158D4
  8
0
 62
     0
 10
4.7045867864011877
 20
-51.714712754160921
 30
0.0
 11
4.7045867864011877
 21
-51.714712754160921
 31
0.0
  0
LINE
  5
158D5
  8
0
 62
     0
 10
0.8486010961446758
 20
-49.258178944799241
 30
0.0
 11
0.8486010961446758
 21
-49.258178944799241
 31
0.0
  0
LINE
  5
158D6
  8
0
 62
     0
 10
8.7585247985592201
 20
-49.243807098013797
 30
0.0
 11
8.7585247985592201
 21
-49.243807098013797
 31
0.0
  0
LINE
  5
158D7
  8
0
 62
     0
 10
7.6874176623768546
 20
-48.561436595413333
 30
0.0
 11
7.6874176623768546
 21
-48.561436595413333
 31
0.0
  0
LINE
  5
158D8
  8
0
 62
     0
 10
2.6532141223197412
 20
-45.354295233191131
 30
0.0
 11
2.6532141223197412
 21
-45.354295233191131
 31
0.0
  0
LINE
  5
158D9
  8
0
 62
     0
 10
6.7071521344778677
 20
-42.883389577044078
 30
0.0
 11
6.7071521344778677
 21
-42.883389577044078
 31
0.0
  0
LINE
  5
158DA
  8
0
 62
     0
 10
5.6360449982955041
 20
-42.201019074443607
 30
0.0
 11
5.6360449982955041
 21
-42.201019074443607
 31
0.0
  0
LINE
  5
158DB
  8
0
 62
     0
 10
0.6018414582383905
 20
-38.993877712221433
 30
0.0
 11
0.6018414582383905
 21
-38.993877712221433
 31
0.0
  0
LINE
  5
158DC
  8
0
 62
     0
 10
8.5117651606529581
 20
-38.97950586543589
 30
0.0
 11
8.5117651606529581
 21
-38.97950586543589
 31
0.0
  0
LINE
  5
158DD
  8
0
 62
     0
 10
4.6557794703964452
 20
-36.522972056074209
 30
0.0
 11
4.6557794703964452
 21
-36.522972056074209
 31
0.0
  0
LINE
  5
158DE
  8
0
 62
     0
 10
3.5846723342140798
 20
-35.840601553473739
 30
0.0
 11
3.5846723342140798
 21
-35.840601553473739
 31
0.0
  0
LINE
  5
158DF
  8
0
 62
     0
 10
6.4603924965714628
 20
-32.619088344466078
 30
0.0
 11
6.4603924965714628
 21
-32.619088344466078
 31
0.0
  0
LINE
  5
158E0
  8
0
 62
     0
 10
2.6044068063149499
 20
-30.162554535104402
 30
0.0
 11
2.6044068063149499
 21
-30.162554535104402
 31
0.0
  0
LINE
  5
158E1
  8
0
 62
     0
 10
1.5332996701325861
 20
-29.480184032503931
 30
0.0
 11
1.5332996701325861
 21
-29.480184032503931
 31
0.0
  0
LINE
  5
158E2
  8
0
 62
     0
 10
4.4090198324901886
 20
-26.258670823496349
 30
0.0
 11
4.4090198324901886
 21
-26.258670823496349
 31
0.0
  0
LINE
  5
158E3
  8
0
 62
     0
 10
0.5530341422336775
 20
-23.802137014134669
 30
0.0
 11
0.5530341422336775
 21
-23.802137014134669
 31
0.0
  0
LINE
  5
158E4
  8
0
 62
     0
 10
8.4629578446482672
 20
-23.78776516734921
 30
0.0
 11
8.4629578446482672
 21
-23.78776516734921
 31
0.0
  0
LINE
  5
158E5
  8
0
 62
     0
 10
7.3918507084659044
 20
-23.105394664748751
 30
0.0
 11
7.3918507084659044
 21
-23.105394664748751
 31
0.0
  0
LINE
  5
158E6
  8
0
 62
     0
 10
2.3576471684087901
 20
-19.898253302526548
 30
0.0
 11
2.3576471684087901
 21
-19.898253302526548
 31
0.0
  0
LINE
  5
158E7
  8
0
 62
     0
 10
6.4115851805667248
 20
-17.427347646379371
 30
0.0
 11
6.4115851805667248
 21
-17.427347646379371
 31
0.0
  0
LINE
  5
158E8
  8
0
 62
     0
 10
5.3404780443843611
 20
-16.7449771437789
 30
0.0
 11
5.3404780443843611
 21
-16.7449771437789
 31
0.0
  0
LINE
  5
158E9
  8
0
 62
     0
 10
0.3062745043272478
 20
-13.53783578155671
 30
0.0
 11
0.3062745043272478
 21
-13.53783578155671
 31
0.0
  0
LINE
  5
158EA
  8
0
 62
     0
 10
8.2161982067418311
 20
-13.52346393477128
 30
0.0
 11
8.2161982067418311
 21
-13.52346393477128
 31
0.0
  0
LINE
  5
158EB
  8
0
 62
     0
 10
4.3602125164853183
 20
-11.0669301254096
 30
0.0
 11
4.3602125164853183
 21
-11.0669301254096
 31
0.0
  0
LINE
  5
158EC
  8
0
 62
     0
 10
6.1648255426604877
 20
-7.1630464138015846
 30
0.0
 11
6.1648255426604877
 21
-7.1630464138015846
 31
0.0
  0
LINE
  5
158ED
  8
0
 62
     0
 10
2.3088398524039762
 20
-4.7065126044399053
 30
0.0
 11
2.3088398524039762
 21
-4.7065126044399053
 31
0.0
  0
LINE
  5
158EE
  8
0
 62
     0
 10
1.237732716221611
 20
-4.0241421018394377
 30
0.0
 11
1.237732716221611
 21
-4.0241421018394377
 31
0.0
  0
LINE
  5
158EF
  8
0
 62
     0
 10
4.1134528785791007
 20
-0.802628892831747
 30
0.0
 11
4.1134528785791007
 21
-0.802628892831747
 31
0.0
  0
LINE
  5
158F0
  8
0
 62
     0
 10
0.2574671883225893
 20
1.6539049165299331
 30
0.0
 11
0.2574671883225893
 21
1.6539049165299331
 31
0.0
  0
LINE
  5
158F1
  8
0
 62
     0
 10
8.1673908907370851
 20
1.6682767633154569
 30
0.0
 11
8.1673908907370851
 21
1.6682767633154569
 31
0.0
  0
LINE
  5
158F2
  8
0
 62
     0
 10
7.0962837545547197
 20
2.350647265915923
 30
0.0
 11
7.0962837545547197
 21
2.350647265915923
 31
0.0
  0
LINE
  5
158F3
  8
0
 62
     0
 10
2.0620802144976071
 20
5.557788628138117
 30
0.0
 11
2.0620802144976071
 21
5.557788628138117
 31
0.0
  0
LINE
  5
158F4
  8
0
 62
     0
 10
0.0107075504163213
 20
11.91820614910781
 30
0.0
 11
0.0107075504163213
 21
11.91820614910781
 31
0.0
  0
LINE
  5
158F5
  8
0
 62
     0
 10
7.9206312528308631
 20
11.932577995893361
 30
0.0
 11
7.9206312528308631
 21
11.932577995893361
 31
0.0
  0
LINE
  5
158F6
  8
0
 62
     0
 10
4.0646455625743521
 20
14.389111805255039
 30
0.0
 11
4.0646455625743521
 21
14.389111805255039
 31
0.0
  0
LINE
  5
158F7
  8
0
 62
     0
 10
2.9935384263919871
 20
15.07148230785551
 30
0.0
 11
2.9935384263919871
 21
15.07148230785551
 31
0.0
  0
LINE
  5
158F8
  8
0
 62
     0
 10
5.8692585887494468
 20
18.292995516863161
 30
0.0
 11
5.8692585887494468
 21
18.292995516863161
 31
0.0
  0
LINE
  5
158F9
  8
0
 62
     0
 10
2.0132728984929349
 20
20.749529326224842
 30
0.0
 11
2.0132728984929349
 21
20.749529326224842
 31
0.0
  0
LINE
  5
158FA
  8
0
 62
     0
 10
0.9421657623105714
 20
21.431899828825308
 30
0.0
 11
0.9421657623105714
 21
21.431899828825308
 31
0.0
  0
LINE
  5
158FB
  8
0
 62
     0
 10
8.8520894647250579
 20
21.44627167561082
 30
0.0
 11
8.8520894647250579
 21
21.44627167561082
 31
0.0
  0
LINE
  5
158FC
  8
0
 62
     0
 10
3.817885924667944
 20
24.653413037833008
 30
0.0
 11
3.817885924667944
 21
24.653413037833008
 31
0.0
  0
LINE
  5
158FD
  8
0
 62
     0
 10
7.8718239368261278
 20
27.124318693980069
 30
0.0
 11
7.8718239368261278
 21
27.124318693980069
 31
0.0
  0
LINE
  5
158FE
  8
0
 62
     0
 10
6.8007168006437642
 20
27.806689196580539
 30
0.0
 11
6.8007168006437642
 21
27.806689196580539
 31
0.0
  0
LINE
  5
158FF
  8
0
 62
     0
 10
1.76651326058665
 20
31.013830558802731
 30
0.0
 11
1.76651326058665
 21
31.013830558802731
 31
0.0
  0
LINE
  5
15900
  8
0
 62
     0
 10
5.8204512727446627
 20
33.484736214949912
 30
0.0
 11
5.8204512727446627
 21
33.484736214949912
 31
0.0
  0
LINE
  5
15901
  8
0
 62
     0
 10
4.749344136562299
 20
34.167106717550368
 30
0.0
 11
4.749344136562299
 21
34.167106717550368
 31
0.0
  0
LINE
  5
15902
  8
0
 62
     0
 10
7.6250642989196979
 20
37.388619926558029
 30
0.0
 11
7.6250642989196979
 21
37.388619926558029
 31
0.0
  0
LINE
  5
15903
  8
0
 62
     0
 10
3.769078608663186
 20
39.845153735919709
 30
0.0
 11
3.769078608663186
 21
39.845153735919709
 31
0.0
  0
LINE
  5
15904
  8
0
 62
     0
 10
2.697971472480821
 20
40.527524238520179
 30
0.0
 11
2.697971472480821
 21
40.527524238520179
 31
0.0
  0
LINE
  5
15905
  8
0
 62
     0
 10
5.5736916348382826
 20
43.749037447527833
 30
0.0
 11
5.5736916348382826
 21
43.749037447527833
 31
0.0
  0
LINE
  5
15906
  8
0
 62
     0
 10
8.5586983347236547
 20
-60.733363906378372
 30
0.0
 11
8.5586983347236547
 21
-60.733363906378372
 31
0.0
  0
LINE
  5
15907
  8
0
 62
     0
 10
6.493716977454282
 20
-61.00522385953429
 30
0.0
 11
6.493716977454282
 21
-61.00522385953429
 31
0.0
  0
LINE
  5
15908
  8
0
 62
     0
 10
5.1716252548123061
 20
-61.179280536859729
 30
0.0
 11
5.1716252548123061
 21
-61.179280536859729
 31
0.0
  0
LINE
  5
15909
  8
0
 62
     0
 10
6.2168282575837468
 20
-54.465234574863508
 30
0.0
 11
6.2168282575837468
 21
-54.465234574863508
 31
0.0
  0
LINE
  5
1590A
  8
0
 62
     0
 10
4.151846900314375
 20
-54.737094528019441
 30
0.0
 11
4.151846900314375
 21
-54.737094528019441
 31
0.0
  0
LINE
  5
1590B
  8
0
 62
     0
 10
2.829755177672399
 20
-54.911151205344872
 30
0.0
 11
2.829755177672399
 21
-54.911151205344872
 31
0.0
  0
LINE
  5
1590C
  8
0
 62
     0
 10
8.6470797316944097
 20
-47.568843522335911
 30
0.0
 11
8.6470797316944097
 21
-47.568843522335911
 31
0.0
  0
LINE
  5
1590D
  8
0
 62
     0
 10
7.324988009052432
 20
-47.742900199661349
 30
0.0
 11
7.324988009052432
 21
-47.742900199661349
 31
0.0
  0
LINE
  5
1590E
  8
0
 62
     0
 10
3.8749581804438469
 20
-48.197105243348688
 30
0.0
 11
3.8749581804438469
 21
-48.197105243348688
 31
0.0
  0
LINE
  5
1590F
  8
0
 62
     0
 10
1.8099768231744751
 20
-48.468965196504612
 30
0.0
 11
1.8099768231744751
 21
-48.468965196504612
 31
0.0
  0
LINE
  5
15910
  8
0
 62
     0
 10
0.4878851005324989
 20
-48.643021873830051
 30
0.0
 11
0.4878851005324989
 21
-48.643021873830051
 31
0.0
  0
LINE
  5
15911
  8
0
 62
     0
 10
8.3701910118238132
 20
-41.028854237665151
 30
0.0
 11
8.3701910118238132
 21
-41.028854237665151
 31
0.0
  0
LINE
  5
15912
  8
0
 62
     0
 10
6.3052096545544423
 20
-41.300714190821083
 30
0.0
 11
6.3052096545544423
 21
-41.300714190821083
 31
0.0
  0
LINE
  5
15913
  8
0
 62
     0
 10
4.9831179319124663
 20
-41.474770868146521
 30
0.0
 11
4.9831179319124663
 21
-41.474770868146521
 31
0.0
  0
LINE
  5
15914
  8
0
 62
     0
 10
1.5330881033038799
 20
-41.928975911833859
 30
0.0
 11
1.5330881033038799
 21
-41.928975911833859
 31
0.0
  0
LINE
  5
15915
  8
0
 62
     0
 10
6.0283209346837987
 20
-34.76072490615033
 30
0.0
 11
6.0283209346837987
 21
-34.76072490615033
 31
0.0
  0
LINE
  5
15916
  8
0
 62
     0
 10
3.9633395774144269
 20
-35.032584859306262
 30
0.0
 11
3.9633395774144269
 21
-35.032584859306262
 31
0.0
  0
LINE
  5
15917
  8
0
 62
     0
 10
2.6412478547724509
 20
-35.206641536631693
 30
0.0
 11
2.6412478547724509
 21
-35.206641536631693
 31
0.0
  0
LINE
  5
15918
  8
0
 62
     0
 10
8.4585724087945735
 20
-27.8643338536227
 30
0.0
 11
8.4585724087945735
 21
-27.8643338536227
 31
0.0
  0
LINE
  5
15919
  8
0
 62
     0
 10
7.1364806861525958
 20
-28.038390530948138
 30
0.0
 11
7.1364806861525958
 21
-28.038390530948138
 31
0.0
  0
LINE
  5
1591A
  8
0
 62
     0
 10
3.6864508575440111
 20
-28.49259557463547
 30
0.0
 11
3.6864508575440111
 21
-28.49259557463547
 31
0.0
  0
LINE
  5
1591B
  8
0
 62
     0
 10
1.621469500274638
 20
-28.764455527791402
 30
0.0
 11
1.621469500274638
 21
-28.764455527791402
 31
0.0
  0
LINE
  5
1591C
  8
0
 62
     0
 10
0.2993777776326627
 20
-28.93851220511683
 30
0.0
 11
0.2993777776326627
 21
-28.93851220511683
 31
0.0
  0
LINE
  5
1591D
  8
0
 62
     0
 10
8.1816836889240907
 20
-21.324344568951911
 30
0.0
 11
8.1816836889240907
 21
-21.324344568951911
 31
0.0
  0
LINE
  5
1591E
  8
0
 62
     0
 10
6.116702331654718
 20
-21.596204522107829
 30
0.0
 11
6.116702331654718
 21
-21.596204522107829
 31
0.0
  0
LINE
  5
1591F
  8
0
 62
     0
 10
4.7946106090127421
 20
-21.770261199433271
 30
0.0
 11
4.7946106090127421
 21
-21.770261199433271
 31
0.0
  0
LINE
  5
15920
  8
0
 62
     0
 10
1.3445807804041561
 20
-22.224466243120609
 30
0.0
 11
1.3445807804041561
 21
-22.224466243120609
 31
0.0
  0
LINE
  5
15921
  8
0
 62
     0
 10
5.8398136117840771
 20
-15.05621523743708
 30
0.0
 11
5.8398136117840771
 21
-15.05621523743708
 31
0.0
  0
LINE
  5
15922
  8
0
 62
     0
 10
3.7748322545147039
 20
-15.328075190592999
 30
0.0
 11
3.7748322545147039
 21
-15.328075190592999
 31
0.0
  0
LINE
  5
15923
  8
0
 62
     0
 10
2.452740531872728
 20
-15.50213186791844
 30
0.0
 11
2.452740531872728
 21
-15.50213186791844
 31
0.0
  0
LINE
  5
15924
  8
0
 62
     0
 10
7.9931763660241417
 20
-1.61983490023871
 30
0.0
 11
7.9931763660241417
 21
-1.61983490023871
 31
0.0
  0
LINE
  5
15925
  8
0
 62
     0
 10
5.9281950087547699
 20
-1.8916948533946341
 30
0.0
 11
5.9281950087547699
 21
-1.8916948533946341
 31
0.0
  0
LINE
  5
15926
  8
0
 62
     0
 10
4.606103286112794
 20
-2.065751530720072
 30
0.0
 11
4.606103286112794
 21
-2.065751530720072
 31
0.0
  0
LINE
  5
15927
  8
0
 62
     0
 10
1.1560734575042091
 20
-2.5199565744074079
 30
0.0
 11
1.1560734575042091
 21
-2.5199565744074079
 31
0.0
  0
LINE
  5
15928
  8
0
 62
     0
 10
5.6513062888843519
 20
4.648294431276164
 30
0.0
 11
5.6513062888843519
 21
4.648294431276164
 31
0.0
  0
LINE
  5
15929
  8
0
 62
     0
 10
3.586324931614981
 20
4.3764344781202409
 30
0.0
 11
3.586324931614981
 21
4.3764344781202409
 31
0.0
  0
LINE
  5
1592A
  8
0
 62
     0
 10
2.2642332089730042
 20
4.2023778007948032
 30
0.0
 11
2.2642332089730042
 21
4.2023778007948032
 31
0.0
  0
LINE
  5
1592B
  8
0
 62
     0
 10
3.3094362117444769
 20
10.916423762791
 30
0.0
 11
3.3094362117444769
 21
10.916423762791
 31
0.0
  0
LINE
  5
1592C
  8
0
 62
     0
 10
1.2444548544750369
 20
10.644563809635081
 30
0.0
 11
1.2444548544750369
 21
10.644563809635081
 31
0.0
  0
LINE
  5
1592D
  8
0
 62
     0
 10
8.081557762995029
 20
11.54468548380378
 30
0.0
 11
8.081557762995029
 21
11.54468548380378
 31
0.0
  0
LINE
  5
1592E
  8
0
 62
     0
 10
6.7594660403530522
 20
11.37062880647834
 30
0.0
 11
6.7594660403530522
 21
11.37062880647834
 31
0.0
  0
LINE
  5
1592F
  8
0
 62
     0
 10
7.8046690431244183
 20
18.084674768474539
 30
0.0
 11
7.8046690431244183
 21
18.084674768474539
 31
0.0
  0
LINE
  5
15930
  8
0
 62
     0
 10
5.7396876858550456
 20
17.812814815318621
 30
0.0
 11
5.7396876858550456
 21
17.812814815318621
 31
0.0
  0
LINE
  5
15931
  8
0
 62
     0
 10
4.4175959632130697
 20
17.638758137993179
 30
0.0
 11
4.4175959632130697
 21
17.638758137993179
 31
0.0
  0
LINE
  5
15932
  8
0
 62
     0
 10
0.9675661346044847
 20
17.184553094305841
 30
0.0
 11
0.9675661346044847
 21
17.184553094305841
 31
0.0
  0
LINE
  5
15933
  8
0
 62
     0
 10
8.9128287945932172
 20
24.807009143676751
 30
0.0
 11
8.9128287945932172
 21
24.807009143676751
 31
0.0
  0
LINE
  5
15934
  8
0
 62
     0
 10
5.4627989659846303
 20
24.35280409998941
 30
0.0
 11
5.4627989659846303
 21
24.35280409998941
 31
0.0
  0
LINE
  5
15935
  8
0
 62
     0
 10
3.3978176087152572
 20
24.080944146833492
 30
0.0
 11
3.3978176087152572
 21
24.080944146833492
 31
0.0
  0
LINE
  5
15936
  8
0
 62
     0
 10
2.0757258860732808
 20
23.90688746950805
 30
0.0
 11
2.0757258860732808
 21
23.90688746950805
 31
0.0
  0
LINE
  5
15937
  8
0
 62
     0
 10
7.8930504400952897
 20
31.249195152517011
 30
0.0
 11
7.8930504400952897
 21
31.249195152517011
 31
0.0
  0
LINE
  5
15938
  8
0
 62
     0
 10
6.5709587174533137
 20
31.075138475191579
 30
0.0
 11
6.5709587174533137
 21
31.075138475191579
 31
0.0
  0
LINE
  5
15939
  8
0
 62
     0
 10
3.1209288888447282
 20
30.620933431504241
 30
0.0
 11
3.1209288888447282
 21
30.620933431504241
 31
0.0
  0
LINE
  5
1593A
  8
0
 62
     0
 10
1.0559475315753559
 20
30.34907347834832
 30
0.0
 11
1.0559475315753559
 21
30.34907347834832
 31
0.0
  0
LINE
  5
1593B
  8
0
 62
     0
 10
7.6161617202245822
 20
37.789184437187778
 30
0.0
 11
7.6161617202245822
 21
37.789184437187778
 31
0.0
  0
LINE
  5
1593C
  8
0
 62
     0
 10
5.5511803629552086
 20
37.517324484031853
 30
0.0
 11
5.5511803629552086
 21
37.517324484031853
 31
0.0
  0
LINE
  5
1593D
  8
0
 62
     0
 10
4.2290886403132326
 20
37.343267806706422
 30
0.0
 11
4.2290886403132326
 21
37.343267806706422
 31
0.0
  0
LINE
  5
1593E
  8
0
 62
     0
 10
0.7790588117046476
 20
36.889062763019083
 30
0.0
 11
0.7790588117046476
 21
36.889062763019083
 31
0.0
  0
LINE
  5
1593F
  8
0
 62
     0
 10
8.7243214716932656
 20
44.511518812389951
 30
0.0
 11
8.7243214716932656
 21
44.511518812389951
 31
0.0
  0
LINE
  5
15940
  8
0
 62
     0
 10
5.2742916430846796
 20
44.05731376870262
 30
0.0
 11
5.2742916430846796
 21
44.05731376870262
 31
0.0
  0
LINE
  5
15941
  8
0
 62
     0
 10
3.2093102858153082
 20
43.785453815546688
 30
0.0
 11
3.2093102858153082
 21
43.785453815546688
 31
0.0
  0
LINE
  5
15942
  8
0
 62
     0
 10
1.887218563173332
 20
43.61139713822125
 30
0.0
 11
1.887218563173332
 21
43.61139713822125
 31
0.0
  0
LINE
  5
15943
  8
0
 62
     0
 10
8.2992554627512423
 20
-60.099467008910388
 30
0.0
 11
8.2992554627512423
 21
-60.099467008910388
 31
0.0
  0
LINE
  5
15944
  8
0
 62
     0
 10
8.1392523331528608
 20
-55.205334635616929
 30
0.0
 11
8.1392523331528608
 21
-55.205334635616929
 31
0.0
  0
LINE
  5
15945
  8
0
 62
     0
 10
5.076273756956458
 20
-57.555640760733802
 30
0.0
 11
5.076273756956458
 21
-57.555640760733802
 31
0.0
  0
LINE
  5
15946
  8
0
 62
     0
 10
1.8017078449043851
 20
-60.06830355896728
 30
0.0
 11
1.8017078449043851
 21
-60.06830355896728
 31
0.0
  0
LINE
  5
15947
  8
0
 62
     0
 10
7.9792492035542066
 20
-50.311202262323569
 30
0.0
 11
7.9792492035542066
 21
-50.311202262323569
 31
0.0
  0
LINE
  5
15948
  8
0
 62
     0
 10
4.9162706273578047
 20
-52.661508387440442
 30
0.0
 11
4.9162706273578047
 21
-52.661508387440442
 31
0.0
  0
LINE
  5
15949
  8
0
 62
     0
 10
1.6417047153057309
 20
-55.174171185673941
 30
0.0
 11
1.6417047153057309
 21
-55.174171185673941
 31
0.0
  0
LINE
  5
1594A
  8
0
 62
     0
 10
7.8192460739558518
 20
-45.41706988903023
 30
0.0
 11
7.8192460739558518
 21
-45.41706988903023
 31
0.0
  0
LINE
  5
1594B
  8
0
 62
     0
 10
4.7562674977594499
 20
-47.767376014147089
 30
0.0
 11
4.7562674977594499
 21
-47.767376014147089
 31
0.0
  0
LINE
  5
1594C
  8
0
 62
     0
 10
1.4817015857073761
 20
-50.280038812380589
 30
0.0
 11
1.4817015857073761
 21
-50.280038812380589
 31
0.0
  0
LINE
  5
1594D
  8
0
 62
     0
 10
7.6592429443577439
 20
-40.522937515736587
 30
0.0
 11
7.6592429443577439
 21
-40.522937515736587
 31
0.0
  0
LINE
  5
1594E
  8
0
 62
     0
 10
4.596264368161342
 20
-42.87324364085346
 30
0.0
 11
4.596264368161342
 21
-42.87324364085346
 31
0.0
  0
LINE
  5
1594F
  8
0
 62
     0
 10
1.3216984561092691
 20
-45.385906439086959
 30
0.0
 11
1.3216984561092691
 21
-45.385906439086959
 31
0.0
  0
LINE
  5
15950
  8
0
 62
     0
 10
7.4992398147591617
 20
-35.628805142443262
 30
0.0
 11
7.4992398147591617
 21
-35.628805142443262
 31
0.0
  0
LINE
  5
15951
  8
0
 62
     0
 10
4.4362612385627598
 20
-37.979111267560121
 30
0.0
 11
4.4362612385627598
 21
-37.979111267560121
 31
0.0
  0
LINE
  5
15952
  8
0
 62
     0
 10
1.1616953265106871
 20
-40.491774065793606
 30
0.0
 11
1.1616953265106871
 21
-40.491774065793606
 31
0.0
  0
LINE
  5
15953
  8
0
 62
     0
 10
7.3392366851608069
 20
-30.734672769149899
 30
0.0
 11
7.3392366851608069
 21
-30.734672769149899
 31
0.0
  0
LINE
  5
15954
  8
0
 62
     0
 10
4.2762581089644049
 20
-33.084978894266769
 30
0.0
 11
4.2762581089644049
 21
-33.084978894266769
 31
0.0
  0
LINE
  5
15955
  8
0
 62
     0
 10
1.001692196912332
 20
-35.597641692500261
 30
0.0
 11
1.001692196912332
 21
-35.597641692500261
 31
0.0
  0
LINE
  5
15956
  8
0
 62
     0
 10
7.1792335555623392
 20
-25.84054039585649
 30
0.0
 11
7.1792335555623392
 21
-25.84054039585649
 31
0.0
  0
LINE
  5
15957
  8
0
 62
     0
 10
4.1162549793659373
 20
-28.190846520973359
 30
0.0
 11
4.1162549793659373
 21
-28.190846520973359
 31
0.0
  0
LINE
  5
15958
  8
0
 62
     0
 10
0.8416890673138636
 20
-30.703509319206859
 30
0.0
 11
0.8416890673138636
 21
-30.703509319206859
 31
0.0
  0
LINE
  5
15959
  8
0
 62
     0
 10
7.0192304259640501
 20
-20.946408022562949
 30
0.0
 11
7.0192304259640501
 21
-20.946408022562949
 31
0.0
  0
LINE
  5
1595A
  8
0
 62
     0
 10
3.9562518497676491
 20
-23.296714147679818
 30
0.0
 11
3.9562518497676491
 21
-23.296714147679818
 31
0.0
  0
LINE
  5
1595B
  8
0
 62
     0
 10
0.6816859377155757
 20
-25.809376945913311
 30
0.0
 11
0.6816859377155757
 21
-25.809376945913311
 31
0.0
  0
LINE
  5
1595C
  8
0
 62
     0
 10
6.8592272963655807
 20
-16.052275649269589
 30
0.0
 11
6.8592272963655807
 21
-16.052275649269589
 31
0.0
  0
LINE
  5
1595D
  8
0
 62
     0
 10
3.7962487201691801
 20
-18.402581774386459
 30
0.0
 11
3.7962487201691801
 21
-18.402581774386459
 31
0.0
  0
LINE
  5
1595E
  8
0
 62
     0
 10
0.5216828081171072
 20
-20.915244572619962
 30
0.0
 11
0.5216828081171072
 21
-20.915244572619962
 31
0.0
  0
LINE
  5
1595F
  8
0
 62
     0
 10
6.6992241667671131
 20
-11.15814327597619
 30
0.0
 11
6.6992241667671131
 21
-11.15814327597619
 31
0.0
  0
LINE
  5
15960
  8
0
 62
     0
 10
3.6362455905707121
 20
-13.50844940109306
 30
0.0
 11
3.6362455905707121
 21
-13.50844940109306
 31
0.0
  0
LINE
  5
15961
  8
0
 62
     0
 10
0.3616796785186386
 20
-16.021112199326549
 30
0.0
 11
0.3616796785186386
 21
-16.021112199326549
 31
0.0
  0
LINE
  5
15962
  8
0
 62
     0
 10
6.5392210371686241
 20
-6.2640109026828332
 30
0.0
 11
6.5392210371686241
 21
-6.2640109026828332
 31
0.0
  0
LINE
  5
15963
  8
0
 62
     0
 10
0.2016765489201704
 20
-11.126979826033139
 30
0.0
 11
0.2016765489201704
 21
-11.126979826033139
 31
0.0
  0
LINE
  5
15964
  8
0
 62
     0
 10
6.37921790757047
 20
-1.3698785293892941
 30
0.0
 11
6.37921790757047
 21
-1.3698785293892941
 31
0.0
  0
LINE
  5
15965
  8
0
 62
     0
 10
3.316239331374069
 20
-3.7201846545061632
 30
0.0
 11
3.316239331374069
 21
-3.7201846545061632
 31
0.0
  0
LINE
  5
15966
  8
0
 62
     0
 10
0.041673419321996
 20
-6.2328474527396569
 30
0.0
 11
0.041673419321996
 21
-6.2328474527396569
 31
0.0
  0
LINE
  5
15967
  8
0
 62
     0
 10
6.2192147779718221
 20
3.5242538439039741
 30
0.0
 11
6.2192147779718221
 21
3.5242538439039741
 31
0.0
  0
LINE
  5
15968
  8
0
 62
     0
 10
3.1562362017754202
 20
1.173947718787105
 30
0.0
 11
3.1562362017754202
 21
1.173947718787105
 31
0.0
  0
LINE
  5
15969
  8
0
 62
     0
 10
2.9962330721770178
 20
6.0680800920805931
 30
0.0
 11
2.9962330721770178
 21
6.0680800920805931
 31
0.0
  0
LINE
  5
1596A
  8
0
 62
     0
 10
5.8992085187751311
 20
13.31251859049098
 30
0.0
 11
5.8992085187751311
 21
13.31251859049098
 31
0.0
  0
LINE
  5
1596B
  8
0
 62
     0
 10
2.8362299425787301
 20
10.96221246537411
 30
0.0
 11
2.8362299425787301
 21
10.96221246537411
 31
0.0
  0
LINE
  5
1596C
  8
0
 62
     0
 10
5.7392053891766626
 20
18.206650963784352
 30
0.0
 11
5.7392053891766626
 21
18.206650963784352
 31
0.0
  0
LINE
  5
1596D
  8
0
 62
     0
 10
2.6762268129802611
 20
15.856344838667489
 30
0.0
 11
2.6762268129802611
 21
15.856344838667489
 31
0.0
  0
LINE
  5
1596E
  8
0
 62
     0
 10
5.5792022595783752
 20
23.10078333707779
 30
0.0
 11
5.5792022595783752
 21
23.10078333707779
 31
0.0
  0
LINE
  5
1596F
  8
0
 62
     0
 10
2.5162236833819742
 20
20.75047721196092
 30
0.0
 11
2.5162236833819742
 21
20.75047721196092
 31
0.0
  0
LINE
  5
15970
  8
0
 62
     0
 10
8.8448988533574582
 20
30.623547560830851
 30
0.0
 11
8.8448988533574582
 21
30.623547560830851
 31
0.0
  0
LINE
  5
15971
  8
0
 62
     0
 10
5.4191991299799058
 20
27.994915710371188
 30
0.0
 11
5.4191991299799058
 21
27.994915710371188
 31
0.0
  0
LINE
  5
15972
  8
0
 62
     0
 10
2.3562205537835048
 20
25.644609585254329
 30
0.0
 11
2.3562205537835048
 21
25.644609585254329
 31
0.0
  0
LINE
  5
15973
  8
0
 62
     0
 10
8.6848957237588778
 20
35.517679934124253
 30
0.0
 11
8.6848957237588778
 21
35.517679934124253
 31
0.0
  0
LINE
  5
15974
  8
0
 62
     0
 10
5.2591960003813236
 20
32.889048083664598
 30
0.0
 11
5.2591960003813236
 21
32.889048083664598
 31
0.0
  0
LINE
  5
15975
  8
0
 62
     0
 10
2.1962174241849231
 20
30.538741958547732
 30
0.0
 11
2.1962174241849231
 21
30.538741958547732
 31
0.0
  0
LINE
  5
15976
  8
0
 62
     0
 10
8.5248925941605211
 20
40.411812307417598
 30
0.0
 11
8.5248925941605211
 21
40.411812307417598
 31
0.0
  0
LINE
  5
15977
  8
0
 62
     0
 10
5.0991928707829688
 20
37.78318045695795
 30
0.0
 11
5.0991928707829688
 21
37.78318045695795
 31
0.0
  0
LINE
  5
15978
  8
0
 62
     0
 10
2.0362142945865682
 20
35.432874331841077
 30
0.0
 11
2.0362142945865682
 21
35.432874331841077
 31
0.0
  0
LINE
  5
15979
  8
0
 62
     0
 10
4.9391897411846823
 20
42.677312830251488
 30
0.0
 11
4.9391897411846823
 21
42.677312830251488
 31
0.0
  0
LINE
  5
1597A
  8
0
 62
     0
 10
1.87621116498828
 20
40.327006705134622
 30
0.0
 11
1.87621116498828
 21
40.327006705134622
 31
0.0
  0
ENDBLK
  5
1597C
  8
0
  0
BLOCK
  8
0
  2
*U76
 70
     1
 10
0.0
 20
0.0
 30
0.0
  3
*U76
  1

  0
TEXT
  5
1597E
  8
1DIM
 62
   201
 10
-31.153865476029861
 20
54.018296023885341
 30
0.0
 40
3.5
  1
裏板9mm以上
  0
ENDBLK
  5
15980
  8
0
  0
BLOCK
  8
0
  2
*U77
 70
     1
 10
0.0
 20
0.0
 30
0.0
  3
*U77
  1

  0
SOLID
  5
15982
  8
1DIM
 10
12.044443127533439
 20
38.726957896894412
 30
0.0
 11
13.168864624287609
 21
37.039715350978668
 31
0.0
 12
11.55800886922316
 22
38.271078354924647
 32
0.0
 13
11.55800886922316
 23
38.271078354924647
 33
0.0
  0
POLYLINE
  5
15983
  8
1DIM
 66
     1
 10
0.0
 20
0.0
 30
0.0
  0
VERTEX
  5
15984
  8
1DIM
 10
11.8012259983783
 20
38.499018125909529
 30
0.0
  0
VERTEX
  5
15985
  8
1DIM
 10
-2.0871988093631928
 20
53.318296023885338
 30
0.0
  0
VERTEX
  5
15986
  8
1DIM
 10
-33.987198809363193
 20
53.318296023885338
 30
0.0
  0
SEQEND
  5
15987
  8
1DIM
  0
ENDBLK
  5
15989
  8
0
  0
BLOCK
  8
0
  2
*U78
 70
     1
 10
0.0
 20
0.0
 30
0.0
  3
*U78
  1

  0
LINE
  5
1598B
  8
0
 10
-0.3500000000000227
 20
2.0
 30
0.0
 11
0.0
 21
1.649999999999977
 31
0.0
  0
LINE
  5
1598C
  8
0
 10
-10.20000000000004
 20
2.0
 30
0.0
 11
-0.3500000000000227
 21
2.0
 31
0.0
  0
LINE
  5
1598D
  8
0
 10
0.0
 20
1.649999999999977
 30
0.0
 11
0.0
 21
-1.6499999999998629
 31
0.0
  0
LINE
  5
1598E
  8
0
 10
-12.0
 20
0.2000000000000028
 30
0.0
 11
-10.20000000000004
 21
2.0
 31
0.0
  0
LINE
  5
1598F
  8
0
 10
0.0
 20
-1.6499999999998629
 30
0.0
 11
-0.3500000000000227
 21
-2.0
 31
0.0
  0
LINE
  5
15990
  8
0
 10
-12.0
 20
0.2000000000000028
 30
0.0
 11
-12.0
 21
-0.200000000000017
 31
0.0
  0
LINE
  5
15991
  8
0
 10
-10.19999999999999
 20
-1.9999999999999849
 30
0.0
 11
-0.3500000000000227
 21
-2.0
 31
0.0
  0
LINE
  5
15992
  8
0
 10
-12.0
 20
-0.200000000000017
 30
0.0
 11
-10.19999999999999
 21
-1.9999999999999849
 31
0.0
  0
ENDBLK
  5
15994
  8
0
  0
BLOCK
  8
0
  2
*U79
 70
     1
 10
0.0
 20
0.0
 30
0.0
  3
*U79
  1

  0
LINE
  5
15996
  8
0
 10
-7.9999999999999991
 20
2.5
 30
0.0
 11
-7.9999978000002088
 21
2.4999999999999432
 31
0.0
  0
LINE
  5
15997
  8
0
 10
-7.9999999999999991
 20
-2.4999999999999432
 30
0.0
 11
-7.9999999999999991
 21
2.5
 31
0.0
  0
LINE
  5
15998
  8
0
 10
-7.9999978000002088
 20
2.4999999999999432
 30
0.0
 11
-7.4999979000001629
 21
3.0
 31
0.0
  0
LINE
  5
15999
  8
0
 10
-8.0000021000010921
 20
-2.4999999999999432
 30
0.0
 11
-7.9999999999999991
 21
-2.4999999999999432
 31
0.0
  0
LINE
  5
1599A
  8
0
 10
-7.4999979000001629
 20
3.0
 30
0.0
 11
-1.999998199999983
 21
3.0
 31
0.0
  0
LINE
  5
1599B
  8
0
 10
-7.5000018999986429
 20
-3.000000000000056
 30
0.0
 11
-8.0000021000010921
 21
-2.4999999999999432
 31
0.0
  0
LINE
  5
1599C
  8
0
 10
-1.999998199999983
 20
3.0
 30
0.0
 11
-1.49999999999998
 21
2.0
 31
0.0
  0
LINE
  5
1599D
  8
0
 10
-1.999998199999959
 20
-2.9999999999999432
 30
0.0
 11
-7.5000018999986429
 21
-3.000000000000056
 31
0.0
  0
LINE
  5
1599E
  8
0
 10
-1.49999999999998
 20
2.0
 30
0.0
 11
-0.5000000000000004
 21
2.0
 31
0.0
  0
LINE
  5
1599F
  8
0
 10
-1.50000000000001
 20
-2.0
 30
0.0
 11
-1.999998199999959
 21
-2.9999999999999432
 31
0.0
  0
ARC
  5
159A0
  8
0
 10
-0.5000000000000006
 20
1.5
 30
0.0
 40
0.5000000000000004
 50
0.0
 51
90.0
  0
LINE
  5
159A1
  8
0
 10
-0.5
 20
-2.0
 30
0.0
 11
-1.50000000000001
 21
-2.0
 31
0.0
  0
LINE
  5
159A2
  8
0
 10
-0.0000000000000001
 20
1.5
 30
0.0
 11
-0.0000000000000001
 21
-1.5
 31
0.0
  0
ARC
  5
159A3
  8
0
 10
-0.5
 20
-1.5
 30
0.0
 40
0.5
 50
270.0
 51
0.0
  0
ENDBLK
  5
159A5
  8
0
  0
BLOCK
  8
0
  2
*U80
 70
     1
 10
0.0
 20
0.0
 30
0.0
  3
*U80
  1

  0
LINE
  5
159A7
  8
1HATCH
 10
-1.5
 20
2.000000000000056
 30
0.0
 11
-1.7499990999999879
 21
2.5
 31
0.0
  0
LINE
  5
159A8
  8
1HATCH
 10
-1.7499990999999879
 20
2.5
 30
0.0
 11
-7.999997800000223
 21
2.5
 31
0.0
  0
LINE
  5
159A9
  8
1HATCH
 10
-1.5
 20
-2.000000000000056
 30
0.0
 11
-1.5
 21
2.000000000000056
 31
0.0
  0
LINE
  5
159AA
  8
1HATCH
 10
-7.999997800000223
 20
2.5
 30
0.0
 11
-7.9999999999999991
 21
2.4999977999997318
 31
0.0
  0
LINE
  5
159AB
  8
1HATCH
 10
-1.749999099999981
 20
-2.5
 30
0.0
 11
-1.5
 21
-2.000000000000056
 31
0.0
  0
LINE
  5
159AC
  8
1HATCH
 10
-7.9999999999999991
 20
2.4999977999997318
 30
0.0
 11
-7.9999999999999991
 21
-2.5
 31
0.0
  0
LINE
  5
159AD
  8
1HATCH
 10
-7.9999999999999991
 20
-2.5
 30
0.0
 11
-1.749999099999981
 21
-2.5
 31
0.0
  0
ENDBLK
  5
159AF
  8
0
  0
BLOCK
  8
0
  2
*U81
 70
     1
 10
0.0
 20
0.0
 30
0.0
  3
*U81
  1

  0
LINE
  5
159B1
  8
1HATCH
 10
-1.9999981999999989
 20
3.000000000000056
 30
0.0
 11
-7.4999979000001362
 21
3.0
 31
0.0
  0
LINE
  5
159B2
  8
1HATCH
 10
-7.4999979000001362
 20
3.0
 30
0.0
 11
-7.999997800000143
 21
2.5
 31
0.0
  0
LINE
  5
159B3
  8
1HATCH
 10
-1.749999099999983
 20
2.5
 30
0.0
 11
-1.9999981999999989
 21
3.000000000000056
 31
0.0
  0
LINE
  5
159B4
  8
1HATCH
 10
-7.999997800000143
 20
2.5
 30
0.0
 11
-1.749999099999983
 21
2.5
 31
0.0
  0
ENDBLK
  5
159B6
  8
0
  0
BLOCK
  8
0
  2
*U82
 70
     1
 10
0.0
 20
0.0
 30
0.0
  3
*U82
  1

  0
ARC
  5
159B8
  8
1HATCH
 10
-0.5000000000000002
 20
1.5
 30
0.0
 40
0.5000000000000002
 50
0.0
 51
90.000000000000028
  0
LINE
  5
159B9
  8
1HATCH
 10
-0.5000000000000004
 20
2.0
 30
0.0
 11
-1.5
 21
2.0
 31
0.0
  0
LINE
  5
159BA
  8
1HATCH
 10
0.0
 20
-1.5
 30
0.0
 11
0.0
 21
1.5
 31
0.0
  0
LINE
  5
159BB
  8
1HATCH
 10
-1.5
 20
2.0
 30
0.0
 11
-1.5
 21
-2.0
 31
0.0
  0
ARC
  5
159BC
  8
1HATCH
 10
-0.5
 20
-1.5
 30
0.0
 40
0.5
 50
270.0
 51
0.0
  0
LINE
  5
159BD
  8
1HATCH
 10
-1.5
 20
-2.0
 30
0.0
 11
-0.5
 21
-2.0
 31
0.0
  0
ENDBLK
  5
159BF
  8
0
  0
BLOCK
  8
0
  2
*U83
 70
     1
 10
0.0
 20
0.0
 30
0.0
  3
*U83
  1

  0
LINE
  5
159C1
  8
0
 10
-14.649999999999981
 20
2.0
 30
0.0
 11
-0.0000000000000284
 21
2.0
 31
0.0
  0
LINE
  5
159C2
  8
0
 10
-14.649999999999981
 20
2.0
 30
0.0
 11
-15.0
 21
1.649999999999977
 31
0.0
  0
LINE
  5
159C3
  8
0
 10
0.0
 20
3.4999999999999432
 30
0.0
 11
-0.0000000000000284
 21
2.0
 31
0.0
  0
LINE
  5
159C4
  8
0
 10
-15.0
 20
1.649999999999977
 30
0.0
 11
-15.0
 21
-1.6499999999998629
 31
0.0
  0
LINE
  5
159C5
  8
0
 10
0.0
 20
3.4999999999999432
 30
0.0
 11
0.5999999999999375
 21
3.4999999999999432
 31
0.0
  0
LINE
  5
159C6
  8
0
 10
-15.0
 20
-1.6499999999998629
 30
0.0
 11
-14.649999999999981
 21
-2.0
 31
0.0
  0
ARC
  5
159C7
  8
0
 10
0.5999999999999944
 20
1.4999999999999429
 30
0.0
 40
2.0
 50
0.0
 51
90.000000000001606
  0
LINE
  5
159C8
  8
0
 10
-14.649999999999981
 20
-2.0
 30
0.0
 11
0.0000000000000568
 21
-2.0
 31
0.0
  0
LINE
  5
159C9
  8
0
 10
2.5999999999999939
 20
1.4999999999999429
 30
0.0
 11
2.5999999999999939
 21
-1.5
 31
0.0
  0
LINE
  5
159CA
  8
0
 10
0.0000000000000568
 20
-2.0
 30
0.0
 11
0.0
 21
-3.5
 31
0.0
  0
ARC
  5
159CB
  8
0
 10
0.5999999999999944
 20
-1.5
 30
0.0
 40
2.0
 50
270.0
 51
0.0
  0
LINE
  5
159CC
  8
0
 10
0.0
 20
-3.5
 30
0.0
 11
0.5999999999999944
 21
-3.5
 31
0.0
  0
ENDBLK
  5
159CE
  8
0
  0
BLOCK
  8
0
  2
*U84
 70
     1
 10
0.0
 20
0.0
 30
0.0
  3
*U84
  1

  0
LINE
  5
159D0
  8
0
 10
-24.70000348997651
 20
-1.4999534641020771
 30
0.0
 11
-2.8000383918526941
 21
-1.4999534641020771
 31
0.0
  0
LINE
  5
159D1
  8
0
 10
-0.3000093071805736
 20
-4.0
 30
0.0
 11
-2.8000383918526941
 21
-1.4999534641020771
 31
0.0
  0
LINE
  5
159D2
  8
0
 10
-29.999999999837598
 20
0.0000465358979227
 30
0.0
 11
-24.70000348997651
 21
-1.4999534641020771
 31
0.0
  0
LINE
  5
159D3
  8
0
 10
-0.3000093071805736
 20
-4.0
 30
0.0
 11
-0.0000093071795959
 21
-4.0
 31
0.0
  0
LINE
  5
159D4
  8
0
 10
-29.999999999837598
 20
0.0000465358979227
 30
0.0
 11
-24.69999650959226
 21
1.500046535897922
 31
0.0
  0
LINE
  5
159D5
  8
0
 10
-0.0000093071795959
 20
-4.0
 30
0.0
 11
0.0000093071795959
 21
4.0
 31
0.0
  0
LINE
  5
159D6
  8
0
 10
-24.69999650959226
 20
1.500046535897922
 30
0.0
 11
-2.7999732414874918
 21
1.500046535897922
 31
0.0
  0
LINE
  5
159D7
  8
0
 10
-0.2999906928214955
 20
4.0
 30
0.0
 11
0.0000093071795959
 21
4.0
 31
0.0
  0
LINE
  5
159D8
  8
0
 10
-0.2999906928214955
 20
4.0
 30
0.0
 11
-2.7999732414874918
 21
1.500046535897922
 31
0.0
  0
ENDBLK
  5
159DA
  8
0
  0
BLOCK
  8
0
  2
*U85
 70
     1
 10
0.0
 20
0.0
 30
0.0
  3
*U85
  1

  0
TEXT
  5
159DC
  8
1DIM
 62
   201
 10
-648.81303831494643
 20
-2780.8187870222268
 30
0.0
 40
3.5
  1
11 
 50
90.0
  0
ENDBLK
  5
159DE
  8
0
  0
BLOCK
  8
0
  2
*U86
 70
     1
 10
0.0
 20
0.0
 30
0.0
  3
*U86
  1

  0
TEXT
  5
159E0
  8
1DIM
 62
   201
 10
-648.81303831494654
 20
-2797.1937875972271
 30
0.0
 40
3.5
  1
20 
 50
90.0
  0
ENDBLK
  5
159E2
  8
0
  0
BLOCK
  8
0
  2
*U87
 70
     1
 10
0.0
 20
0.0
 30
0.0
  3
*U87
  1

  0
TEXT
  5
159E4
  8
1DIM
 62
   201
 10
-748.81303831494643
 20
-2797.4854536138942
 30
0.0
 40
3.5
  1
42
 50
90.0
  0
ENDBLK
  5
159E6
  8
0
  0
BLOCK
  8
0
  2
*U88
 70
     1
 10
0.0
 20
0.0
 30
0.0
  3
*U88
  1

  0
TEXT
  5
159E8
  8
1DIM
 62
   201
 10
-810.73806526434794
 20
-2834.8687877472271
 30
0.0
 40
3.5
  1
20
  0
ENDBLK
  5
159EA
  8
0
  0
BLOCK
  8
0
  2
*U89
 70
     1
 10
0.0
 20
0.0
 30
0.0
  3
*U89
  1

  0
TEXT
  5
159EC
  8
1DIM
 62
   201
 10
-703.32137164828009
 20
-2822.4187877472282
 30
0.0
 40
3.5
  1
20.5 
  0
ENDBLK
  5
159EE
  8
0
  0
BLOCK
  8
0
  2
*U90
 70
     1
 10
0.0
 20
0.0
 30
0.0
  3
*U90
  1

  0
TEXT
  5
159F0
  8
1DIM
 62
   201
 10
-810.73803831494661
 20
-2844.8687877472271
 30
0.0
 40
3.5
  1
40 
  0
ENDBLK
  5
159F2
  8
0
  0
BLOCK
  8
0
  2
*U91
 70
     1
 10
0.0
 20
0.0
 30
0.0
  3
*U91
  1

  0
TEXT
  5
159F4
  8
01
 62
   201
 10
-670.81355494917204
 20
-2609.0594801095071
 30
0.0
 40
3.5
  1
10 
 50
90.0
  0
ENDBLK
  5
159F6
  8
0
  0
BLOCK
  8
0
  2
*U92
 70
     1
 10
0.0
 20
0.0
 30
0.0
  3
*U92
  1

  0
TEXT
  5
159F8
  8
01
 62
   201
 10
-769.32970961591514
 20
-2700.160451113893
 30
0.0
 40
3.5
  1
10.5 
 50
90.0
  0
ENDBLK
  5
159FA
  8
0
  0
BLOCK
  8
0
  2
*U93
 70
     1
 10
0.0
 20
0.0
 30
0.0
  3
*U93
  1

  0
TEXT
  5
159FC
  8
1DIM
 62
   201
 10
-719.02970548161341
 20
-2752.368787747228
 30
0.0
 40
3.5
  1
56 
  0
ENDBLK
  5
159FE
  8
0
  0
ENDSEC
  0
SECTION
  2
ENTITIES
  0
LINE
  5
15030
  8
01
 10
-679.11303831494672
 20
-2754.568786097228
 30
0.0
 11
-679.11303831494672
 21
-2834.5687860972271
 31
0.0
  0
LINE
  5
15031
  8
01
 10
-670.11303831494672
 20
-2754.568786097228
 30
0.0
 11
-670.11303831494672
 21
-2834.5687860972271
 31
0.0
  0
LINE
  5
15032
  8
01
 10
-688.11303831494672
 20
-2754.568786097228
 30
0.0
 11
-688.11303831494672
 21
-2834.5687860972271
 31
0.0
  0
LINE
  5
15037
  8
1DIM
 10
-658.70178790888622
 20
-2843.8699027229368
 30
0.0
 11
-588.70178790888622
 21
-2843.8699027229368
 31
0.0
  0
TEXT
  5
15038
  8
1TEXT
 10
-651.94940695650519
 20
-2842.3699027229368
 30
0.0
 40
4.0
  1
表面処理：
 72
     1
 11
-641.30178790888613
 21
-2842.3699027229368
 31
0.0
  0
LINE
  5
15039
  8
1DIM
 10
-658.70178790888622
 20
-2836.8699027229368
 30
0.0
 11
-588.70178790888622
 21
-2836.8699027229368
 31
0.0
  0
LINE
  5
1503A
  8
1DIM
 10
-658.70178790888622
 20
-2836.8699027229368
 30
0.0
 11
-588.70178790888622
 21
-2836.8699027229368
 31
0.0
  0
LINE
  5
1503B
  8
1DIM
 10
-623.7017879088861
 20
-2836.8699027229368
 30
0.0
 11
-623.7017879088861
 21
-2850.8699027229368
 31
0.0
  0
TEXT
  5
1503C
  8
1TEXT
 10
-613.10178790888608
 20
-2842.3699027229368
 30
0.0
 40
4.0
  1
コード
 72
     1
 11
-606.30178790888613
 21
-2842.3699027229368
 31
0.0
  0
LINE
  5
1503D
  8
1DIM
 10
-658.70178790888622
 20
-2850.8699027229368
 30
0.0
 11
-588.70178790888622
 21
-2850.8699027229368
 31
0.0
  0
LINE
  5
1503E
  8
1DIM
 10
-658.70178790888622
 20
-2850.8699027229368
 30
0.0
 11
-658.70178790888622
 21
-2836.8699027229368
 31
0.0
  0
LINE
  5
1503F
  8
1DIM
 10
-588.70178790888622
 20
-2850.8699027229368
 30
0.0
 11
-588.70178790888622
 21
-2836.8699027229368
 31
0.0
  0
TEXT
  5
15040
  8
1TEXT
 10
-650.63512124221938
 20
-2849.2051913824612
 30
0.0
 40
4.0
  1
クローム
 72
     1
 11
-641.30178790888613
 21
-2849.2051913824612
 31
0.0
  0
TEXT
  5
15041
  8
1TEXT
 10
-619.63512124221904
 20
-2849.5842597065871
 30
0.0
 40
4.0
  1
SA285XC
 72
     1
 11
-606.30178790888567
 21
-2849.5842597065871
 31
0.0
  0
TEXT
  5
15042
  8
1TEXT
 10
-915.73733729400283
 20
-2713.5687844472268
 30
0.0
 40
8.0
  1
SA285XC
  0
LINE
  5
15051
  8
1PHANTOM
 10
-823.31586131494657
 20
-2798.8114297472271
 30
0.0
 11
-812.3557063149467
 21
-2809.7715847472268
 31
0.0
  0
LINE
  5
15052
  8
1PHANTOM
 10
-803.87042631494649
 20
-2809.7715847472268
 30
0.0
 11
-792.91026731494674
 21
-2798.8114297472271
 31
0.0
  0
LINE
  5
15053
  8
01
 10
-828.11303831494661
 20
-2774.0687796472271
 30
0.0
 11
-828.11303831494661
 21
-2815.0687877472269
 31
0.0
  0
LINE
  5
15054
  8
01
 10
-788.11303831494672
 20
-2774.0687844472268
 30
0.0
 11
-788.11303831494672
 21
-2815.0687877472269
 31
0.0
  0
LINE
  5
15055
  8
01
 10
-827.61303831494672
 20
-2815.5687877472269
 30
0.0
 11
-788.61303831494672
 21
-2815.5687877472269
 31
0.0
  0
LINE
  5
15056
  8
01
 10
-827.61303831494672
 20
-2815.5687807472268
 30
0.0
 11
-828.11303831494661
 21
-2815.0687807472268
 31
0.0
  0
ARC
  5
15057
  8
1PHANTOM
 10
-808.11306831494653
 20
-2805.528947747227
 30
0.0
 40
6.0
 50
225.00000000000921
 51
314.99999999999079
  0
LINE
  5
15058
  8
01
 10
-788.11303831494672
 20
-2815.0687807472268
 30
0.0
 11
-788.61303831494672
 21
-2815.5687807472268
 31
0.0
  0
LINE
  5
15059
  8
1PHANTOM
 10
-823.31586131494657
 20
-2790.3261507472271
 30
0.0
 11
-812.3557063149467
 21
-2779.365990747227
 31
0.0
  0
LINE
  5
1505A
  8
01
 10
-827.61303831494672
 20
-2773.5687844472268
 30
0.0
 11
-788.61303831494672
 21
-2773.5687844472268
 31
0.0
  0
LINE
  5
1505B
  8
01
 10
-817.61306831494664
 20
-2804.5687877472269
 30
0.0
 11
-798.61306831494664
 21
-2804.5687877472269
 31
0.0
  0
LINE
  5
1505C
  8
01
 10
-817.61306831494664
 20
-2784.5687841472268
 30
0.0
 11
-798.61306831494664
 21
-2784.5687841472268
 31
0.0
  0
LINE
  5
1505D
  8
01
 10
-818.11306831494664
 20
-2785.0687841472268
 30
0.0
 11
-818.11306831494664
 21
-2804.0687877472269
 31
0.0
  0
LINE
  5
1505E
  8
01
 10
-818.11306831494664
 20
-2804.0687687472268
 30
0.0
 11
-817.61306831494664
 21
-2804.5687687472268
 31
0.0
  0
ARC
  5
1505F
  8
1PHANTOM
 10
-819.07322331494663
 20
-2794.5687917472269
 30
0.0
 40
6.0
 50
134.99999999999079
 51
225.00000000000921
  0
CIRCLE
  5
15060
  8
1PHANTOM
 10
-818.11306831494664
 20
-2794.5687917472269
 30
0.0
 40
2.25
  0
LINE
  5
15062
  8
01
 10
-817.61306831494664
 20
-2784.5687696472269
 30
0.0
 11
-818.11306831494664
 21
-2785.068780847228
 31
0.0
  0
LINE
  5
15063
  8
01
 10
-828.11303831494661
 20
-2774.0687796472271
 30
0.0
 11
-827.61303831494672
 21
-2773.5687796472271
 31
0.0
  0
LINE
  5
15064
  8
1PHANTOM
 10
-803.87042631494649
 20
-2779.365990747227
 30
0.0
 11
-792.91026731494674
 21
-2790.3261507472271
 31
0.0
  0
CIRCLE
  5
15065
  8
1PHANTOM
 10
-808.11306831494653
 20
-2794.5687917472269
 30
0.0
 40
5.0
  0
LINE
  5
15066
  8
01
 10
-798.11306831494664
 20
-2785.0687841472268
 30
0.0
 11
-798.11306831494664
 21
-2804.0687877472269
 31
0.0
  0
CIRCLE
  5
15067
  8
1PHANTOM
 10
-808.11306831494653
 20
-2804.5687917472269
 30
0.0
 40
2.5
  0
LINE
  5
15068
  8
01
 10
-798.61306831494664
 20
-2804.5687687472268
 30
0.0
 11
-798.11306831494664
 21
-2804.0687577472272
 31
0.0
  0
ARC
  5
15069
  8
1PHANTOM
 10
-797.15291231494655
 20
-2794.5687917472269
 30
0.0
 40
6.0
 50
314.99997000001503
 51
45.000026000006613
  0
CIRCLE
  5
1506A
  8
1PHANTOM
 10
-808.11306831494653
 20
-2784.5687957472269
 30
0.0
 40
2.5
  0
ARC
  5
1506B
  8
1PHANTOM
 10
-808.11306831494653
 20
-2783.6086367472271
 30
0.0
 40
6.0
 50
44.999973999993387
 51
135.00002999998489
  0
LINE
  5
1506C
  8
01
 10
-798.11306831494664
 20
-2785.068759347228
 30
0.0
 11
-798.61306831494664
 21
-2784.5687589472268
 31
0.0
  0
LINE
  5
1506D
  8
01
 10
-788.61303831494672
 20
-2773.5687796472271
 30
0.0
 11
-788.11303831494672
 21
-2774.0687796472271
 31
0.0
  0
LINE
  5
15071
  8
1PHANTOM
 10
-813.11303781494667
 20
-2731.5687844472259
 30
0.0
 11
-813.11303781494655
 21
-2708.5687834472269
 31
0.0
  0
LINE
  5
15072
  8
1PHANTOM
 10
-803.11303781494678
 20
-2731.5687844472259
 30
0.0
 11
-803.11303781494655
 21
-2708.5687834472269
 31
0.0
  0
LINE
  5
15073
  8
01
 10
-818.11303831494649
 20
-2713.5687824472261
 30
0.0
 11
-818.11303831494672
 21
-2759.068782447227
 31
0.0
  0
LINE
  5
15074
  8
01
 10
-798.11303831494661
 20
-2713.5687824472261
 30
0.0
 11
-798.11303831494672
 21
-2759.068782447227
 31
0.0
  0
LINE
  5
15078
  8
1PHANTOM
 10
-804.11303781494678
 20
-2732.5687844472259
 30
0.0
 11
-812.11303781494678
 21
-2732.5687844472259
 31
0.0
  0
LINE
  5
15079
  8
1PHANTOM
 10
-812.11303781494678
 20
-2732.5687854472271
 30
0.0
 11
-813.11303781494667
 21
-2731.5687844472259
 31
0.0
  0
LINE
  5
1507A
  8
1PHANTOM
 10
-804.11303781494678
 20
-2732.5687834472269
 30
0.0
 11
-803.11303781494678
 21
-2731.5687844472259
 31
0.0
  0
LINE
  5
1507B
  8
1PHANTOM
 10
-813.86303881494666
 20
-2707.568782447227
 30
0.0
 11
-815.86303881494655
 21
-2705.5687814472271
 31
0.0
  0
LINE
  5
1507C
  8
1PHANTOM
 10
-822.36303881494655
 20
-2707.5687834472269
 30
0.0
 11
-813.86303881494666
 21
-2707.5687834472269
 31
0.0
  0
LINE
  5
1507D
  8
1PHANTOM
 10
-791.15288281494657
 20
-2703.5687844472259
 30
0.0
 11
-825.07319381494665
 21
-2703.5687844472259
 31
0.0
  0
LINE
  5
1507E
  8
1PHANTOM
 10
-791.15288281494657
 20
-2708.5687834472269
 30
0.0
 11
-825.07319381494665
 21
-2708.5687834472269
 31
0.0
  0
LINE
  5
1507F
  8
01
 10
-827.61303831494672
 20
-2713.568782447227
 30
0.0
 11
-788.61306831494664
 21
-2713.568782447227
 31
0.0
  0
LINE
  5
15080
  8
01
 10
-828.11303831494683
 20
-2703.5687844472268
 30
0.0
 11
-788.11303831494661
 21
-2703.5687844472259
 31
0.0
  0
LINE
  5
15081
  8
01
 10
-828.11303831494683
 20
-2703.5687844472268
 30
0.0
 11
-828.11303831494661
 21
-2713.068782447227
 31
0.0
  0
LINE
  5
15082
  8
01
 10
-828.11303831494661
 20
-2713.0687754472269
 30
0.0
 11
-827.61303831494672
 21
-2713.5687754472269
 31
0.0
  0
LINE
  5
15083
  8
1PHANTOM
 10
-825.07319381494665
 20
-2708.5687834472269
 30
0.0
 11
-825.07319381494665
 21
-2703.5687844472259
 31
0.0
  0
LINE
  5
15084
  8
1PHANTOM
 10
-822.36303881494655
 20
-2708.5687834472269
 30
0.0
 11
-822.36303881494655
 21
-2707.5687834472269
 31
0.0
  0
LINE
  5
15085
  8
1PHANTOM
 10
-822.36303881494655
 20
-2707.5687844472259
 30
0.0
 11
-820.36303881494655
 21
-2705.5687814472271
 31
0.0
  0
LINE
  5
15086
  8
1PHANTOM
 10
-812.61303831494672
 20
-2705.5687644472268
 30
0.0
 11
-803.61303831494672
 21
-2705.5687644472268
 31
0.0
  0
LINE
  5
15087
  8
1PHANTOM
 10
-813.86303881494666
 20
-2708.5687834472269
 30
0.0
 11
-813.86303881494666
 21
-2707.5687834472269
 31
0.0
  0
LINE
  5
15088
  8
1PHANTOM
 10
-812.61303831494672
 20
-2708.5687644472268
 30
0.0
 11
-812.61303831494672
 21
-2705.5687644472268
 31
0.0
  0
LINE
  5
15089
  8
1PHANTOM
 10
-803.61303831494672
 20
-2708.5687644472268
 30
0.0
 11
-803.61303831494672
 21
-2705.5687844472268
 31
0.0
  0
LINE
  5
1508A
  8
01
 10
-788.11303831494661
 20
-2703.5687844472259
 30
0.0
 11
-788.11303831494672
 21
-2713.068782447227
 31
0.0
  0
LINE
  5
1508B
  8
01
 10
-788.61303831494672
 20
-2713.5687754472269
 30
0.0
 11
-788.11303831494672
 21
-2713.0687674472269
 31
0.0
  0
LINE
  5
1508C
  8
1PHANTOM
 10
-791.15288281494657
 20
-2708.5687834472269
 30
0.0
 11
-791.15288281494657
 21
-2703.5687844472259
 31
0.0
  0
LINE
  5
1508D
  8
1PHANTOM
 10
-711.11303611494657
 20
-2804.2518573468251
 30
0.0
 11
-706.11303831494672
 21
-2804.2518573468251
 31
0.0
  0
LINE
  5
1508E
  8
1PHANTOM
 10
-711.61303831494672
 20
-2798.251855546825
 30
0.0
 11
-710.61303831494672
 21
-2797.7518573468251
 31
0.0
  0
LINE
  5
1508F
  8
1PHANTOM
 10
-713.37186736004935
 20
-2797.370186758917
 30
0.0
 11
-706.37186736004935
 21
-2795.4945424118991
 31
0.0
  0
LINE
  5
15090
  8
1PHANTOM
 10
-716.11305631488278
 20
-2789.5687895972269
 30
0.0
 11
-693.11303831494672
 21
-2789.5687895972269
 31
0.0
  0
LINE
  5
150A1
  8
1PHANTOM
 10
-717.11304831494658
 20
-2790.5687895972269
 30
0.0
 11
-716.1130483149467
 21
-2789.5687815972269
 31
0.0
  0
LINE
  5
150A2
  8
1PHANTOM
 10
-711.11303831494661
 20
-2804.2518551468252
 30
0.0
 11
-711.11303831494661
 21
-2798.001856446826
 31
0.0
  0
LINE
  5
150A3
  8
1PHANTOM
 10
-711.61303831494672
 20
-2798.251855546825
 30
0.0
 11
-711.61303831494672
 21
-2803.7518552468259
 31
0.0
  0
LINE
  5
150A4
  8
1PHANTOM
 10
-711.61303831494672
 20
-2803.7518552468259
 30
0.0
 11
-711.11303831494661
 21
-2804.2518551468252
 31
0.0
  0
LINE
  5
150A5
  8
1PHANTOM
 10
-714.1130483149467
 20
-2798.3361125852061
 30
0.0
 11
-714.1130483149467
 21
-2799.5687855972269
 31
0.0
  0
ARC
  5
150A6
  8
1PHANTOM
 10
-713.11304831494658
 20
-2798.3361125852061
 30
0.0
 40
1.0
 50
104.9999999999944
 51
180.0
  0
LINE
  5
150A7
  8
1PHANTOM
 10
-717.11304831494658
 20
-2798.5687855972269
 30
0.0
 11
-716.1130483149467
 21
-2799.5687855972269
 31
0.0
  0
LINE
  5
150A8
  8
1PHANTOM
 10
-716.1130483149467
 20
-2799.5687855972269
 30
0.0
 11
-714.1130483149467
 21
-2799.5687855972269
 31
0.0
  0
LINE
  5
150A9
  8
1PHANTOM
 10
-717.11304831494658
 20
-2790.5687895972269
 30
0.0
 11
-717.11304831494658
 21
-2798.5687855972269
 31
0.0
  0
LINE
  5
150AA
  8
1PHANTOM
 10
-693.11303831494672
 20
-2799.5687855972269
 30
0.0
 11
-693.11303831494672
 21
-2811.528941597227
 31
0.0
  0
LINE
  5
150AB
  8
1PHANTOM
 10
-688.11303831494672
 20
-2777.6086305972271
 30
0.0
 11
-688.11303831494672
 21
-2811.528941597227
 31
0.0
  0
LINE
  5
150B0
  8
1PHANTOM
 10
-693.11303831494672
 20
-2811.528941597227
 30
0.0
 11
-688.11303831494672
 21
-2811.528941597227
 31
0.0
  0
LINE
  5
150B1
  8
1PHANTOM
 10
-705.11304831494658
 20
-2799.5687855972269
 30
0.0
 11
-693.11303831494672
 21
-2799.5687855972269
 31
0.0
  0
LINE
  5
150B2
  8
1PHANTOM
 10
-705.61303831494672
 20
-2798.251855546825
 30
0.0
 11
-705.61303831494672
 21
-2803.7518592468241
 31
0.0
  0
LINE
  5
150B3
  8
1PHANTOM
 10
-706.11303831494672
 20
-2804.2518573468251
 30
0.0
 11
-706.11303831494672
 21
-2798.001856446826
 31
0.0
  0
LINE
  5
150B4
  8
1CENTER
 10
-708.61303831494672
 20
-2805.4065502337089
 30
0.0
 11
-708.61303831494672
 21
-2795.4473091293689
 31
0.0
  0
LINE
  5
150B5
  8
1PHANTOM
 10
-710.8165426149468
 20
-2804.242195146825
 30
0.0
 11
-710.00756686388002
 21
-2802.2518578468262
 31
0.0
  0
LINE
  5
150B6
  8
1PHANTOM
 10
-707.20555661250785
 20
-2802.2518578468262
 30
0.0
 11
-710.00756686388002
 21
-2802.2518578468262
 31
0.0
  0
LINE
  5
150B7
  8
1PHANTOM
 10
-707.20555661250785
 20
-2802.2518578468262
 30
0.0
 11
-706.36132071494683
 21
-2804.2297821468251
 31
0.0
  0
LINE
  5
150B8
  8
1PHANTOM
 10
-705.61303831494672
 20
-2803.7518592468241
 30
0.0
 11
-706.11303831494672
 21
-2804.251859446827
 31
0.0
  0
LINE
  5
150BA
  8
1PHANTOM
 10
-706.61303831494672
 20
-2797.7518573468251
 30
0.0
 11
-710.61303831494672
 21
-2797.7518573468251
 31
0.0
  0
LINE
  5
150BB
  8
1PHANTOM
 10
-706.61303831494672
 20
-2797.7518573468251
 30
0.0
 11
-710.61303831494672
 21
-2797.7518573468251
 31
0.0
  0
LINE
  5
150BC
  8
1PHANTOM
 10
-706.61303831494672
 20
-2797.7518573468251
 30
0.0
 11
-705.61303831494672
 21
-2798.251855546825
 31
0.0
  0
ARC
  5
150BD
  8
1PHANTOM
 10
-706.1130483149467
 20
-2796.4604682381878
 30
0.0
 40
1.0
 50
0.0
 51
104.9999999999944
  0
LINE
  5
150BE
  8
1PHANTOM
 10
-705.11304831494658
 20
-2796.4604682381878
 30
0.0
 11
-705.11304831494658
 21
-2799.5687855972269
 31
0.0
  0
LINE
  5
150BF
  8
1PHANTOM
 10
-693.11303831494672
 20
-2800.0687855972269
 30
0.0
 11
-690.11303831494672
 21
-2800.0687855972269
 31
0.0
  0
LINE
  5
150C0
  8
1PHANTOM
 10
-693.11303831494672
 20
-2809.0687855972269
 30
0.0
 11
-690.11303831494672
 21
-2809.0687855972269
 31
0.0
  0
LINE
  5
150C1
  8
1PHANTOM
 10
-690.11303831494672
 20
-2800.0687855972269
 30
0.0
 11
-690.11303831494672
 21
-2809.0687855972269
 31
0.0
  0
LINE
  5
150C4
  8
1PHANTOM
 10
-693.11303831494672
 20
-2777.6086305972271
 30
0.0
 11
-693.11303831494672
 21
-2789.5687895972269
 31
0.0
  0
LINE
  5
150C5
  8
1PHANTOM
 10
-693.11303831494672
 20
-2780.0687895972269
 30
0.0
 11
-690.11303831494672
 21
-2780.0687895972269
 31
0.0
  0
LINE
  5
150C6
  8
1PHANTOM
 10
-693.11303831494672
 20
-2789.0687895972269
 30
0.0
 11
-690.11305831494656
 21
-2789.0687895972269
 31
0.0
  0
LINE
  5
150C7
  8
1PHANTOM
 10
-690.11303831494672
 20
-2780.0687895972269
 30
0.0
 11
-690.11303831494672
 21
-2789.0687895972269
 31
0.0
  0
LINE
  5
150C8
  8
1PHANTOM
 10
-693.11303831494672
 20
-2777.6086305972271
 30
0.0
 11
-688.11303831494672
 21
-2777.6086305972271
 31
0.0
  0
LINE
  5
150CB
  8
1PHANTOM
 10
-811.91303831494622
 20
-2705.5687644472268
 30
0.0
 11
-804.31303831494631
 21
-2705.5687644472268
 31
0.0
  0
LINE
  5
150CC
  8
1PHANTOM
 10
-804.31303831494631
 20
-2706.5687732890469
 30
0.0
 11
-804.31303831494631
 21
-2705.5687644472268
 31
0.0
  0
LINE
  5
150CD
  8
1PHANTOM
 10
-811.91303831494622
 20
-2706.5687556054058
 30
0.0
 11
-811.91303831494622
 21
-2705.5687644472268
 31
0.0
  0
LINE
  5
150CE
  8
1CENTER
 10
-808.11306831494653
 20
-2787.5687841472268
 30
0.0
 11
-808.11306831494653
 21
-2781.5687841472268
 31
0.0
  0
LINE
  5
150CF
  8
1CENTER
 10
-811.11306831494664
 20
-2784.5687841472268
 30
0.0
 11
-805.11306831494664
 21
-2784.5687841472268
 31
0.0
  0
LINE
  5
150D0
  8
1CENTER
 10
-808.11306831494653
 20
-2807.5687877472269
 30
0.0
 11
-808.11306831494653
 21
-2801.5687877472269
 31
0.0
  0
LINE
  5
150D1
  8
1CENTER
 10
-811.11306831494664
 20
-2804.5687877472269
 30
0.0
 11
-805.11306831494664
 21
-2804.5687877472269
 31
0.0
  0
LINE
  5
150D2
  8
1CENTER
 10
-818.11306831494664
 20
-2797.5687859472268
 30
0.0
 11
-818.11306831494664
 21
-2791.5687859472282
 31
0.0
  0
LINE
  5
150D3
  8
1CENTER
 10
-821.11306831494664
 20
-2794.5687859472268
 30
0.0
 11
-815.11306831494664
 21
-2794.5687859472268
 31
0.0
  0
LINE
  5
150D6
  8
1PHANTOM
 10
-690.11303831494672
 20
-2780.7687895972272
 30
0.0
 11
-690.11303831494672
 21
-2788.3687895972271
 31
0.0
  0
LINE
  5
150D7
  8
1PHANTOM
 10
-691.11304715676715
 20
-2788.3687895972271
 30
0.0
 11
-690.11303831494672
 21
-2788.3687895972271
 31
0.0
  0
LINE
  5
150D8
  8
1PHANTOM
 10
-691.11302947312606
 20
-2780.7687895972272
 30
0.0
 11
-690.11303831494672
 21
-2780.7687895972272
 31
0.0
  0
LINE
  5
150D9
  8
1PHANTOM
 10
-691.11302947312606
 20
-2780.7687895972272
 30
0.0
 11
-691.11304715676715
 21
-2788.3687895972271
 31
0.0
  0
LINE
  5
150DA
  8
1PHANTOM
 10
-811.91303831494622
 20
-2706.5687556054058
 30
0.0
 11
-804.31303831494631
 21
-2706.5687732890469
 31
0.0
  0
LINE
  5
150DC
  8
1PHANTOM
 10
-690.11301831494677
 20
-2800.7687855972272
 30
0.0
 11
-690.11301831494677
 21
-2808.3687855972271
 31
0.0
  0
LINE
  5
150DD
  8
1PHANTOM
 10
-691.11302715676732
 20
-2808.3687855972271
 30
0.0
 11
-690.11301831494677
 21
-2808.3687855972271
 31
0.0
  0
LINE
  5
150DE
  8
1PHANTOM
 10
-691.11300947312623
 20
-2800.7687855972272
 30
0.0
 11
-690.11301831494677
 21
-2800.7687855972272
 31
0.0
  0
LINE
  5
150DF
  8
1PHANTOM
 10
-691.11300947312623
 20
-2800.7687855972272
 30
0.0
 11
-691.11302715676732
 21
-2808.3687855972271
 31
0.0
  0
LINE
  5
153D0
  8
01
 10
-697.1304733149467
 20
-2773.7261843672268
 30
0.0
 11
-688.11301531494667
 21
-2773.568784087227
 31
0.0
  0
LINE
  5
153D1
  8
01
 10
-697.13049031494677
 20
-2815.4113852272271
 30
0.0
 11
-688.11303831494672
 21
-2815.5687872272269
 31
0.0
  0
LINE
  5
153D2
  8
01
 10
-698.11303931494683
 20
-2774.7260353272268
 30
0.0
 11
-698.11303931494683
 21
-2814.4115412272272
 31
0.0
  0
ARC
  5
153D3
  8
01
 10
-734.11303931494683
 20
-2786.8687892272269
 30
0.0
 40
6.1999997999999987
 50
190.000000000005
 51
300.10918999999387
  0
LINE
  5
153D4
  8
01
 10
-743.11303931494683
 20
-2804.5687852272272
 30
0.0
 11
-698.11303931494683
 21
-2804.5687852272272
 31
0.0
  0
LINE
  5
153D5
  8
01
 10
-744.11303931494683
 20
-2785.5687862272271
 30
0.0
 11
-744.11303931494683
 21
-2803.5687852272272
 31
0.0
  0
ARC
  5
153D6
  8
01
 10
-743.11303931494683
 20
-2803.5687852272272
 30
0.0
 40
1.0
 50
180.0
 51
270.0
  0
LINE
  5
153D7
  8
01
 10
-743.11303931494683
 20
-2784.5687862272271
 30
0.0
 11
-741.65335331494668
 21
-2784.5687862272271
 31
0.0
  0
ARC
  5
153D8
  8
01
 10
-743.11303931494683
 20
-2785.5687862272271
 30
0.0
 40
1.0
 50
90.0
 51
180.0
  0
ARC
  5
153D9
  8
01
 10
-741.65335331494668
 20
-2785.5687862272271
 30
0.0
 40
1.0
 50
9.9999810999920822
 51
90.0
  0
LINE
  5
153DA
  8
01
 10
-740.21885931494671
 20
-2787.9454162272268
 30
0.0
 11
-740.66853831494677
 21
-2785.3951592272269
 31
0.0
  0
ARC
  5
153DB
  8
01
 10
-697.11303931494683
 20
-2814.4115412272272
 30
0.0
 40
1.0
 50
180.0
 51
269.00000999999799
  0
LINE
  5
153DC
  8
01
 10
-716.65754371494666
 20
-2784.5687862272271
 30
0.0
 11
-698.11303931494683
 21
-2784.5687862272271
 31
0.0
  0
LINE
  5
153DD
  8
01
 10
-731.01305331494666
 20
-2792.2381422272269
 30
0.0
 11
-718.65754341494676
 21
-2785.104685227227
 31
0.0
  0
ARC
  5
153DE
  8
01
 10
-716.65754371494666
 20
-2788.5687862272271
 30
0.0
 40
4.0
 50
90.00000299999769
 51
119.9999999999973
  0
ARC
  5
153DF
  8
01
 10
-697.11303931494683
 20
-2774.7260353272268
 30
0.0
 40
1.0
 50
90.999990000002043
 51
180.00001000000091
  0
LINE
  5
153E0
  8
01
 10
-688.11303831494672
 20
-2773.5687844472268
 30
0.0
 11
-688.11303831494672
 21
-2815.5687902272271
 31
0.0
  0
LINE
  5
153EE
  8
01
 10
-818.11303831494672
 20
-2756.7699924472272
 30
0.0
 11
-798.11303831494672
 21
-2756.7699924472272
 31
0.0
  0
LINE
  5
153EF
  8
01
 10
-817.11303831494672
 20
-2760.068782447227
 30
0.0
 11
-799.11303831494672
 21
-2760.068782447227
 31
0.0
  0
ARC
  5
153F0
  8
01
 10
-799.11303831494683
 20
-2759.068782447227
 30
0.0
 40
1.0
 50
270.0
 51
0.0
  0
ARC
  5
153F1
  8
01
 10
-817.11303831494695
 20
-2759.068782447227
 30
0.0
 40
1.0
 50
180.0
 51
270.0
  0
LINE
  5
153F2
  8
01
 10
-818.11303831494672
 20
-2733.6850837472271
 30
0.0
 11
-798.11303831494672
 21
-2733.6850837472271
 31
0.0
  0
TEXT
  5
15450
  8
1DIM
 10
-873.89426644963964
 20
-2762.1772394061491
 30
0.0
 40
3.5
  1
材質：亜鉛ダイキャスト
  0
TEXT
  5
15451
  8
1DIM
 10
-861.76093311630643
 20
-2768.010572739483
 30
0.0
 40
3.5
  1
仕上げ：クローム
  0
SOLID
  5
15452
  8
1DIM
 10
-810.61056206408227
 20
-2740.0623936319398
 30
0.0
 11
-809.32759978297315
 21
-2738.4923239212708
 31
0.0
 12
-810.03200095353498
 22
-2740.3936208738851
 32
0.0
 13
-810.03200095353498
 23
-2740.3936208738851
 33
0.0
  0
TEXT
  5
15454
  8
1DIM
 10
-892.17970498161333
 20
-2737.2536979321062
 30
0.0
 40
3.5
  1
材質：亜鉛ダイキャスト
  0
TEXT
  5
15455
  8
1DIM
 10
-880.04637164828
 20
-2743.0870312654388
 30
0.0
 40
3.5
  1
仕上げ：クローム
  0
SOLID
  5
15456
  8
1DIM
 10
-828.89600059605596
 20
-2715.1388521578961
 30
0.0
 11
-827.61303831494672
 21
-2713.568782447227
 31
0.0
 12
-828.31743948550854
 22
-2715.4700793998418
 32
0.0
 13
-828.31743948550854
 23
-2715.4700793998418
 33
0.0
  0
LINE
  5
15458
  8
1CENTER
 10
-660.70853821585843
 20
-2794.568786097228
 30
0.0
 11
-693.54167126323307
 21
-2794.568786097228
 31
0.0
  0
LINE
  5
1545A
  8
0
 10
-677.26302975312228
 20
-2792.568832633126
 30
0.0
 11
-676.46303906029971
 21
-2796.568832633126
 31
0.0
  0
LINE
  5
1545B
  8
0
 10
-665.86303080673247
 20
-2793.0216487751841
 30
0.0
 11
-665.06303747989136
 21
-2795.8896114765148
 31
0.0
  0
LINE
  5
1545C
  8
0
 10
-663.46303642628573
 20
-2795.4367973721078
 30
0.0
 11
-663.15126657003361
 21
-2794.8485207970662
 31
0.0
  0
LINE
  5
1545D
  8
0
 10
-664.41446765677711
 20
-2793.9316341238641
 30
0.0
 11
-664.2630318603367
 21
-2793.4744622832332
 31
0.0
  0
LINE
  5
1545E
  8
0
 10
-665.06303747989136
 20
-2795.8896114765148
 30
0.0
 11
-664.88027333726325
 21
-2795.3378620127119
 31
0.0
  0
LINE
  5
1545F
  8
0
 10
-664.2630318603367
 20
-2793.4744622832332
 30
0.0
 11
-663.46303642628573
 21
-2795.4367973721078
 31
0.0
  0
LINE
  5
15460
  8
0
 10
-669.36303091651905
 20
-2793.068832633126
 30
0.0
 11
-669.26302975312205
 21
-2792.568832633126
 31
0.0
  0
LINE
  5
15461
  8
0
 10
-669.26302975312205
 20
-2792.568832633126
 30
0.0
 11
-668.46303906029937
 21
-2796.568832633126
 31
0.0
  0
LINE
  5
15462
  8
0
 10
-668.46303906029937
 20
-2796.568832633126
 30
0.0
 11
-668.36303789690237
 21
-2796.068832633126
 31
0.0
  0
LINE
  5
15463
  8
0
 10
-670.96303091651919
 20
-2793.068832633126
 30
0.0
 11
-670.86302975312219
 21
-2792.568832633126
 31
0.0
  0
LINE
  5
15464
  8
0
 10
-670.06303906029962
 20
-2796.568832633126
 30
0.0
 11
-669.96303789690251
 21
-2796.068832633126
 31
0.0
  0
LINE
  5
15465
  8
0
 10
-670.86302975312219
 20
-2792.568832633126
 30
0.0
 11
-670.06303906029962
 21
-2796.568832633126
 31
0.0
  0
LINE
  5
15466
  8
0
 10
-672.5630309165191
 20
-2793.068832633126
 30
0.0
 11
-672.4630297531221
 21
-2792.568832633126
 31
0.0
  0
LINE
  5
15467
  8
0
 10
-672.4630297531221
 20
-2792.568832633126
 30
0.0
 11
-671.66303906029952
 21
-2796.568832633126
 31
0.0
  0
LINE
  5
15468
  8
0
 10
-671.66303906029952
 20
-2796.568832633126
 30
0.0
 11
-671.56303789690242
 21
-2796.068832633126
 31
0.0
  0
LINE
  5
15469
  8
0
 10
-667.56303091651944
 20
-2793.068832633126
 30
0.0
 11
-667.46302975312233
 21
-2792.568832633126
 31
0.0
  0
LINE
  5
1546A
  8
0
 10
-665.97580031908251
 20
-2793.4897472303342
 30
0.0
 11
-665.86303080673247
 21
-2793.0216487751841
 31
0.0
  0
LINE
  5
1546B
  8
0
 10
-666.66303853349689
 20
-2796.3424255809218
 30
0.0
 11
-666.53376783586714
 21
-2795.805831845651
 31
0.0
  0
LINE
  5
1546C
  8
0
 10
-667.46302975312233
 20
-2792.568832633126
 30
0.0
 11
-666.66303853349689
 21
-2796.3424255809218
 31
0.0
  0
LINE
  5
1546D
  8
0
 10
-675.76303091651937
 20
-2793.068832633126
 30
0.0
 11
-675.66302975312215
 21
-2792.568832633126
 31
0.0
  0
LINE
  5
1546E
  8
0
 10
-674.86303906029946
 20
-2796.568832633126
 30
0.0
 11
-674.76303789690257
 21
-2796.068832633126
 31
0.0
  0
LINE
  5
1546F
  8
0
 10
-673.26303906029955
 20
-2796.568832633126
 30
0.0
 11
-673.16303789690255
 21
-2796.068832633126
 31
0.0
  0
LINE
  5
15470
  8
0
 10
-674.16303091651935
 20
-2793.068832633126
 30
0.0
 11
-674.06302975312224
 21
-2792.568832633126
 31
0.0
  0
LINE
  5
15471
  8
0
 10
-674.06302975312224
 20
-2792.568832633126
 30
0.0
 11
-673.26303906029955
 21
-2796.568832633126
 31
0.0
  0
LINE
  5
15472
  8
0
 10
-675.66302975312215
 20
-2792.568832633126
 30
0.0
 11
-674.86303906029946
 21
-2796.568832633126
 31
0.0
  0
LINE
  5
15473
  8
0
 10
-676.46303906029971
 20
-2796.568832633126
 30
0.0
 11
-676.36303789690237
 21
-2796.068832633126
 31
0.0
  0
LINE
  5
15474
  8
0
 10
-691.86302509931579
 20
-2790.568786097228
 30
0.0
 11
-691.86304371367498
 21
-2798.568786097228
 31
0.0
  0
LINE
  5
15475
  8
0
 10
-688.46302975312653
 20
-2792.568832633126
 30
0.0
 11
-687.66303906030828
 21
-2796.568832633126
 31
0.0
  0
LINE
  5
15476
  8
0
 10
-686.96303091651998
 20
-2793.068832633126
 30
0.0
 11
-686.86302975312219
 21
-2792.568832633126
 31
0.0
  0
LINE
  5
15477
  8
0
 10
-687.66303906030828
 20
-2796.568832633126
 30
0.0
 11
-687.5630378969106
 21
-2796.068832633126
 31
0.0
  0
LINE
  5
15478
  8
0
 10
-683.76303091651994
 20
-2793.068832633126
 30
0.0
 11
-683.66302975312215
 21
-2792.568832633126
 31
0.0
  0
LINE
  5
15479
  8
0
 10
-685.26302975312228
 20
-2792.568832633126
 30
0.0
 11
-684.46303906030403
 21
-2796.568832633126
 31
0.0
  0
LINE
  5
1547A
  8
0
 10
-684.46303906030403
 20
-2796.568832633126
 30
0.0
 11
-684.36303789690646
 21
-2796.068832633126
 31
0.0
  0
LINE
  5
1547B
  8
0
 10
-685.36303091651996
 20
-2793.068832633126
 30
0.0
 11
-685.26302975312228
 21
-2792.568832633126
 31
0.0
  0
LINE
  5
1547C
  8
0
 10
-686.06303906030394
 20
-2796.568832633126
 30
0.0
 11
-685.96303789690637
 21
-2796.068832633126
 31
0.0
  0
LINE
  5
1547D
  8
0
 10
-681.26303906029955
 20
-2796.568832633126
 30
0.0
 11
-681.16303789690255
 21
-2796.068832633126
 31
0.0
  0
LINE
  5
1547E
  8
0
 10
-682.86303906030389
 20
-2796.568832633126
 30
0.0
 11
-682.76303789690633
 21
-2796.068832633126
 31
0.0
  0
LINE
  5
1547F
  8
0
 10
-682.16303091652003
 20
-2793.068832633126
 30
0.0
 11
-682.06302975312224
 21
-2792.568832633126
 31
0.0
  0
LINE
  5
15480
  8
0
 10
-680.56303091651944
 20
-2793.068832633126
 30
0.0
 11
-680.46302975312233
 21
-2792.568832633126
 31
0.0
  0
LINE
  5
15481
  8
0
 10
-682.06302975312224
 20
-2792.568832633126
 30
0.0
 11
-681.26303906029955
 21
-2796.568832633126
 31
0.0
  0
LINE
  5
15482
  8
0
 10
-683.66302975312215
 20
-2792.568832633126
 30
0.0
 11
-682.86303906030389
 21
-2796.568832633126
 31
0.0
  0
LINE
  5
15483
  8
0
 10
-686.86302975312219
 20
-2792.568832633126
 30
0.0
 11
-686.06303906030394
 21
-2796.568832633126
 31
0.0
  0
LINE
  5
15484
  8
0
 10
-679.66303906029975
 20
-2796.568832633126
 30
0.0
 11
-679.56303789690242
 21
-2796.068832633126
 31
0.0
  0
LINE
  5
15485
  8
0
 10
-678.06303906029962
 20
-2796.568832633126
 30
0.0
 11
-677.96303789690251
 21
-2796.068832633126
 31
0.0
  0
LINE
  5
15486
  8
0
 10
-678.96303091651919
 20
-2793.068832633126
 30
0.0
 11
-678.86302975312219
 21
-2792.568832633126
 31
0.0
  0
LINE
  5
15487
  8
0
 10
-677.36303091651928
 20
-2793.068832633126
 30
0.0
 11
-677.26302975312228
 21
-2792.568832633126
 31
0.0
  0
LINE
  5
15488
  8
0
 10
-678.86302975312219
 20
-2792.568832633126
 30
0.0
 11
-678.06303906029962
 21
-2796.568832633126
 31
0.0
  0
LINE
  5
15489
  8
0
 10
-680.46302975312233
 20
-2792.568832633126
 30
0.0
 11
-679.66303906029975
 21
-2796.568832633126
 31
0.0
  0
LINE
  5
1548A
  8
0
 10
-688.56303091652421
 20
-2793.068832633126
 30
0.0
 11
-688.46302975312653
 21
-2792.568832633126
 31
0.0
  0
LINE
  5
1548B
  8
0
 10
-689.26303906030853
 20
-2796.568832633126
 30
0.0
 11
-689.16303789691074
 21
-2796.068832633126
 31
0.0
  0
LINE
  5
1548C
  8
0
 10
-689.36303789691067
 20
-2796.068832633126
 30
0.0
 11
-689.26303906030853
 21
-2796.568832633126
 31
0.0
  0
LINE
  5
1548D
  8
1DIM
 10
-828.11303831494661
 20
-2815.0687877472269
 30
0.0
 11
-828.11303831494661
 21
-2846.5687877472269
 31
0.0
  0
LINE
  5
1548E
  8
1DIM
 10
-788.11303831494672
 20
-2815.0687807472268
 30
0.0
 11
-788.11303831494672
 21
-2846.5687877472269
 31
0.0
  0
LINE
  5
1548F
  8
1DIM
 10
-826.11303831494672
 20
-2845.5687877472269
 30
0.0
 11
-790.11303831494672
 21
-2845.5687877472269
 31
0.0
  0
LINE
  5
15493
  8
1DIM
 10
-708.61303831494672
 20
-2805.4065502337089
 30
0.0
 11
-708.61303831494672
 21
-2824.1187877472271
 31
0.0
  0
LINE
  5
15494
  8
1DIM
 10
-688.11303831494672
 20
-2815.5687877472269
 30
0.0
 11
-688.11303831494672
 21
-2824.1187877472271
 31
0.0
  0
LINE
  5
15495
  8
1DIM
 10
-706.61303831494672
 20
-2823.1187877472271
 30
0.0
 11
-690.11303831494672
 21
-2823.1187877472271
 31
0.0
  0
LINE
  5
15499
  8
1DIM
 10
-818.11306831494664
 20
-2804.014222747227
 30
0.0
 11
-818.11306831494664
 21
-2836.5687877472269
 31
0.0
  0
LINE
  5
1549A
  8
1DIM
 10
-798.11306221374934
 20
-2804.014222747227
 30
0.0
 11
-798.11306221374934
 21
-2836.5687877472269
 31
0.0
  0
LINE
  5
1549B
  8
1DIM
 10
-816.11306831494653
 20
-2835.5687877472269
 30
0.0
 11
-800.11306221374946
 21
-2835.5687877472269
 31
0.0
  0
LINE
  5
1549F
  8
1DIM
 10
-698.11303831494672
 20
-2815.5687917472269
 30
0.0
 11
-749.11303831494672
 21
-2815.5687917472269
 31
0.0
  0
LINE
  5
154A0
  8
1DIM
 10
-698.11303831494672
 20
-2773.568790147227
 30
0.0
 11
-749.11303831494672
 21
-2773.568790147227
 31
0.0
  0
LINE
  5
154A1
  8
1DIM
 10
-748.11303831494672
 20
-2813.5687917472269
 30
0.0
 11
-748.11303831494672
 21
-2775.568790147227
 31
0.0
  0
LINE
  5
154A5
  8
1DIM
 10
-744.11303931494683
 20
-2785.5687862272271
 30
0.0
 11
-744.11303931494683
 21
-2752.0687877472269
 31
0.0
  0
LINE
  5
154A6
  8
1DIM
 10
-688.11303831494672
 20
-2773.5687844472268
 30
0.0
 11
-688.11303831494672
 21
-2752.0687877472269
 31
0.0
  0
LINE
  5
154A7
  8
1DIM
 10
-742.11303931494683
 20
-2753.0687877472278
 30
0.0
 11
-690.11303831494672
 21
-2753.0687877472278
 31
0.0
  0
LINE
  5
154AB
  8
1DIM
 10
-658.15210372380113
 20
-2804.5687855972269
 30
0.0
 11
-647.11303831494683
 21
-2804.5687855972269
 31
0.0
  0
LINE
  5
154AC
  8
1DIM
 10
-658.15212372380097
 20
-2784.5687895972269
 30
0.0
 11
-647.11303831494683
 21
-2784.5687895972269
 31
0.0
  0
LINE
  5
154AD
  8
1DIM
 10
-648.11303831494683
 20
-2802.5687855972269
 30
0.0
 11
-648.11303831494683
 21
-2786.5687895972269
 31
0.0
  0
LINE
  5
154B1
  8
1DIM
 10
-688.11303831494672
 20
-2773.5687844472268
 30
0.0
 11
-647.11303831494683
 21
-2773.5687844472268
 31
0.0
  0
LINE
  5
154B2
  8
1DIM
 10
-658.15212372380097
 20
-2784.5687895972269
 30
0.0
 11
-647.11303831494683
 21
-2784.5687895972269
 31
0.0
  0
LINE
  5
154B3
  8
1DIM
 10
-648.11303831494683
 20
-2775.5687844472268
 30
0.0
 11
-648.11303831494683
 21
-2782.5687895972269
 31
0.0
  0
LINE
  5
154B8
  8
1CENTER
 10
-658.15210372380091
 20
-2804.5687855972269
 30
0.0
 11
-694.78329472425582
 21
-2804.5687855972269
 31
0.0
  0
LINE
  5
154B9
  8
0
 10
-663.21301576878705
 20
-2803.4744617832321
 30
0.0
 11
-662.41302033473619
 21
-2805.4367968721072
 31
0.0
  0
LINE
  5
154BA
  8
0
 10
-662.41302033473619
 20
-2805.4367968721072
 30
0.0
 11
-662.10125047848396
 21
-2804.848520297066
 31
0.0
  0
LINE
  5
154BB
  8
0
 10
-685.61301366157716
 20
-2802.5688321331249
 30
0.0
 11
-684.8130229687589
 21
-2806.5688321331249
 31
0.0
  0
LINE
  5
154BC
  8
0
 10
-674.41301366157268
 20
-2802.5688321331249
 30
0.0
 11
-673.61302296875022
 21
-2806.5688321331249
 31
0.0
  0
LINE
  5
154BD
  8
0
 10
-671.21301366157275
 20
-2802.5688321331249
 30
0.0
 11
-670.41302296875017
 21
-2806.5688321331249
 31
0.0
  0
LINE
  5
154BE
  8
0
 10
-670.41302296875017
 20
-2806.5688321331249
 30
0.0
 11
-670.31302180535295
 21
-2806.0688321331249
 31
0.0
  0
LINE
  5
154BF
  8
0
 10
-669.71301482496995
 20
-2803.0688321331249
 30
0.0
 11
-669.61301366157272
 21
-2802.5688321331249
 31
0.0
  0
LINE
  5
154C0
  8
0
 10
-673.61302296875022
 20
-2806.5688321331249
 30
0.0
 11
-673.51302180535288
 21
-2806.0688321331249
 31
0.0
  0
LINE
  5
154C1
  8
0
 10
-672.01302296875008
 20
-2806.5688321331249
 30
0.0
 11
-671.91302180535286
 21
-2806.0688321331249
 31
0.0
  0
LINE
  5
154C2
  8
0
 10
-671.31301482496985
 20
-2803.0688321331249
 30
0.0
 11
-671.21301366157275
 21
-2802.5688321331249
 31
0.0
  0
LINE
  5
154C3
  8
0
 10
-672.91301482496965
 20
-2803.0688321331249
 30
0.0
 11
-672.81301366157265
 21
-2802.5688321331249
 31
0.0
  0
LINE
  5
154C4
  8
0
 10
-672.81301366157265
 20
-2802.5688321331249
 30
0.0
 11
-672.01302296875008
 21
-2806.5688321331249
 31
0.0
  0
LINE
  5
154C5
  8
0
 10
-664.01302138834183
 20
-2805.8896109765142
 30
0.0
 11
-663.83025724571382
 21
-2805.3378615127108
 31
0.0
  0
LINE
  5
154C6
  8
0
 10
-667.21302296875012
 20
-2806.5688321331249
 30
0.0
 11
-667.11302180535301
 21
-2806.0688321331249
 31
0.0
  0
LINE
  5
154C7
  8
0
 10
-668.81302296875015
 20
-2806.5688321331249
 30
0.0
 11
-668.71302180535315
 21
-2806.0688321331249
 31
0.0
  0
LINE
  5
154C8
  8
0
 10
-665.61302244194746
 20
-2806.3424250809212
 30
0.0
 11
-665.48375174431749
 21
-2805.8058313456499
 31
0.0
  0
LINE
  5
154C9
  8
0
 10
-664.92578422753286
 20
-2803.4897467303331
 30
0.0
 11
-664.81301471518293
 21
-2803.0216482751839
 31
0.0
  0
LINE
  5
154CA
  8
0
 10
-668.11301482496981
 20
-2803.0688321331249
 30
0.0
 11
-668.01301366157259
 21
-2802.5688321331249
 31
0.0
  0
LINE
  5
154CB
  8
0
 10
-666.5130148249699
 20
-2803.0688321331249
 30
0.0
 11
-666.41301366157268
 21
-2802.5688321331249
 31
0.0
  0
LINE
  5
154CC
  8
0
 10
-663.36445156522745
 20
-2803.931633623863
 30
0.0
 11
-663.21301576878705
 21
-2803.4744617832321
 31
0.0
  0
LINE
  5
154CD
  8
0
 10
-664.81301471518293
 20
-2803.0216482751839
 30
0.0
 11
-664.01302138834183
 21
-2805.8896109765142
 31
0.0
  0
LINE
  5
154CE
  8
0
 10
-668.01301366157259
 20
-2802.5688321331249
 30
0.0
 11
-667.21302296875012
 21
-2806.5688321331249
 31
0.0
  0
LINE
  5
154CF
  8
0
 10
-666.41301366157268
 20
-2802.5688321331249
 30
0.0
 11
-665.61302244194746
 21
-2806.3424250809212
 31
0.0
  0
LINE
  5
154D0
  8
0
 10
-669.61301366157272
 20
-2802.5688321331249
 30
0.0
 11
-668.81302296875015
 21
-2806.5688321331249
 31
0.0
  0
LINE
  5
154D1
  8
0
 10
-682.41301366157711
 20
-2802.5688321331249
 30
0.0
 11
-681.61302296875886
 21
-2806.5688321331249
 31
0.0
  0
LINE
  5
154D2
  8
0
 10
-681.61302296875886
 20
-2806.5688321331249
 30
0.0
 11
-681.51302180536106
 21
-2806.0688321331249
 31
0.0
  0
LINE
  5
154D3
  8
0
 10
-680.91301482497045
 20
-2803.0688321331249
 30
0.0
 11
-680.81301366157265
 21
-2802.5688321331249
 31
0.0
  0
LINE
  5
154D4
  8
0
 10
-683.21302296875899
 20
-2806.5688321331249
 30
0.0
 11
-683.11302180536131
 21
-2806.0688321331249
 31
0.0
  0
LINE
  5
154D5
  8
0
 10
-684.8130229687589
 20
-2806.5688321331249
 30
0.0
 11
-684.71302180536122
 21
-2806.0688321331249
 31
0.0
  0
LINE
  5
154D6
  8
0
 10
-682.51301482497479
 20
-2803.0688321331249
 30
0.0
 11
-682.41301366157711
 21
-2802.5688321331249
 31
0.0
  0
LINE
  5
154D7
  8
0
 10
-684.11301482497493
 20
-2803.0688321331249
 30
0.0
 11
-684.01301366157725
 21
-2802.5688321331249
 31
0.0
  0
LINE
  5
154D8
  8
0
 10
-684.01301366157725
 20
-2802.5688321331249
 30
0.0
 11
-683.21302296875899
 21
-2806.5688321331249
 31
0.0
  0
LINE
  5
154D9
  8
0
 10
-676.81302296875435
 20
-2806.5688321331249
 30
0.0
 11
-676.71302180535668
 21
-2806.0688321331249
 31
0.0
  0
LINE
  5
154DA
  8
0
 10
-675.21302296875012
 20
-2806.5688321331249
 30
0.0
 11
-675.11302180535301
 21
-2806.0688321331249
 31
0.0
  0
LINE
  5
154DB
  8
0
 10
-680.01302296875451
 20
-2806.5688321331249
 30
0.0
 11
-679.91302180535683
 21
-2806.0688321331249
 31
0.0
  0
LINE
  5
154DC
  8
0
 10
-678.4130229687546
 20
-2806.5688321331249
 30
0.0
 11
-678.31302180535693
 21
-2806.0688321331249
 31
0.0
  0
LINE
  5
154DD
  8
0
 10
-674.5130148249699
 20
-2803.0688321331249
 30
0.0
 11
-674.41301366157268
 21
-2802.5688321331249
 31
0.0
  0
LINE
  5
154DE
  8
0
 10
-676.11301482497049
 20
-2803.0688321331249
 30
0.0
 11
-676.01301366157259
 21
-2802.5688321331249
 31
0.0
  0
LINE
  5
154DF
  8
0
 10
-679.31301482497054
 20
-2803.0688321331249
 30
0.0
 11
-679.21301366157275
 21
-2802.5688321331249
 31
0.0
  0
LINE
  5
154E0
  8
0
 10
-677.71301482497029
 20
-2803.0688321331249
 30
0.0
 11
-677.61301366157261
 21
-2802.5688321331249
 31
0.0
  0
LINE
  5
154E1
  8
0
 10
-677.61301366157261
 20
-2802.5688321331249
 30
0.0
 11
-676.81302296875435
 21
-2806.5688321331249
 31
0.0
  0
LINE
  5
154E2
  8
0
 10
-676.01301366157259
 20
-2802.5688321331249
 30
0.0
 11
-675.21302296875012
 21
-2806.5688321331249
 31
0.0
  0
LINE
  5
154E3
  8
0
 10
-679.21301366157275
 20
-2802.5688321331249
 30
0.0
 11
-678.4130229687546
 21
-2806.5688321331249
 31
0.0
  0
LINE
  5
154E4
  8
0
 10
-680.81301366157265
 20
-2802.5688321331249
 30
0.0
 11
-680.01302296875451
 21
-2806.5688321331249
 31
0.0
  0
LINE
  5
154E5
  8
0
 10
-691.11302180524763
 20
-2806.0688321331249
 30
0.0
 11
-691.11301482486294
 21
-2803.0688321331249
 31
0.0
  0
LINE
  5
154E6
  8
0
 10
-690.51301482497888
 20
-2803.0688321331249
 30
0.0
 11
-690.41301366158132
 21
-2802.5688321331249
 31
0.0
  0
LINE
  5
154E7
  8
0
 10
-690.41301366158132
 20
-2802.5688321331249
 30
0.0
 11
-689.61302296876306
 21
-2806.5688321331249
 31
0.0
  0
LINE
  5
154E8
  8
0
 10
-689.61302296876306
 20
-2806.5688321331249
 30
0.0
 11
-689.51302180536538
 21
-2806.0688321331249
 31
0.0
  0
LINE
  5
154E9
  8
0
 10
-688.91301482497897
 20
-2803.0688321331249
 30
0.0
 11
-688.81301366158141
 21
-2802.5688321331249
 31
0.0
  0
LINE
  5
154EA
  8
0
 10
-687.31301482497906
 20
-2803.0688321331249
 30
0.0
 11
-687.21301366158139
 21
-2802.5688321331249
 31
0.0
  0
LINE
  5
154EB
  8
0
 10
-687.21301366158139
 20
-2802.5688321331249
 30
0.0
 11
-686.41302296876324
 21
-2806.5688321331249
 31
0.0
  0
LINE
  5
154EC
  8
0
 10
-688.01302296876315
 20
-2806.5688321331249
 30
0.0
 11
-687.91302180536547
 21
-2806.0688321331249
 31
0.0
  0
LINE
  5
154ED
  8
0
 10
-686.41302296876324
 20
-2806.5688321331249
 30
0.0
 11
-686.31302180536545
 21
-2806.0688321331249
 31
0.0
  0
LINE
  5
154EE
  8
0
 10
-688.81301366158141
 20
-2802.5688321331249
 30
0.0
 11
-688.01302296876315
 21
-2806.5688321331249
 31
0.0
  0
LINE
  5
154EF
  8
0
 10
-685.71301482497483
 20
-2803.0688321331249
 30
0.0
 11
-685.61301366157716
 21
-2802.5688321331249
 31
0.0
  0
LINE
  5
154F1
  8
1CENTER
 10
-658.15212372380086
 20
-2784.5687895972269
 30
0.0
 11
-694.78331472425566
 21
-2784.5687895972269
 31
0.0
  0
LINE
  5
154F2
  8
0
 10
-663.21303576878711
 20
-2783.4744657832321
 30
0.0
 11
-662.41304033473614
 21
-2785.4368008721071
 31
0.0
  0
LINE
  5
154F3
  8
0
 10
-662.41304033473614
 20
-2785.4368008721071
 30
0.0
 11
-662.10127047848403
 21
-2784.8485242970651
 31
0.0
  0
LINE
  5
154F4
  8
0
 10
-685.61303366157711
 20
-2782.5688361331249
 30
0.0
 11
-684.81304296875885
 21
-2786.5688361331249
 31
0.0
  0
LINE
  5
154F5
  8
0
 10
-674.41303366157274
 20
-2782.5688361331249
 30
0.0
 11
-673.61304296875005
 21
-2786.5688361331249
 31
0.0
  0
LINE
  5
154F6
  8
0
 10
-671.21303366157269
 20
-2782.5688361331249
 30
0.0
 11
-670.41304296875012
 21
-2786.5688361331249
 31
0.0
  0
LINE
  5
154F7
  8
0
 10
-670.41304296875012
 20
-2786.5688361331249
 30
0.0
 11
-670.3130418053529
 21
-2786.0688361331249
 31
0.0
  0
LINE
  5
154F8
  8
0
 10
-669.71303482496978
 20
-2783.0688361331249
 30
0.0
 11
-669.61303366157256
 21
-2782.5688361331249
 31
0.0
  0
LINE
  5
154F9
  8
0
 10
-673.61304296875005
 20
-2786.5688361331249
 30
0.0
 11
-673.51304180535294
 21
-2786.0688361331249
 31
0.0
  0
LINE
  5
154FA
  8
0
 10
-672.01304296875003
 20
-2786.5688361331249
 30
0.0
 11
-671.91304180535292
 21
-2786.0688361331249
 31
0.0
  0
LINE
  5
154FB
  8
0
 10
-671.3130348249698
 20
-2783.0688361331249
 30
0.0
 11
-671.21303366157269
 21
-2782.5688361331249
 31
0.0
  0
LINE
  5
154FC
  8
0
 10
-672.91303482496971
 20
-2783.0688361331249
 30
0.0
 11
-672.8130336615726
 21
-2782.5688361331249
 31
0.0
  0
LINE
  5
154FD
  8
0
 10
-672.8130336615726
 20
-2782.5688361331249
 30
0.0
 11
-672.01304296875003
 21
-2786.5688361331249
 31
0.0
  0
LINE
  5
154FE
  8
0
 10
-664.01304138834178
 20
-2785.8896149765151
 30
0.0
 11
-663.83027724571366
 21
-2785.3378655127108
 31
0.0
  0
LINE
  5
154FF
  8
0
 10
-667.21304296874996
 20
-2786.5688361331249
 30
0.0
 11
-667.11304180535285
 21
-2786.0688361331249
 31
0.0
  0
LINE
  5
15500
  8
0
 10
-668.81304296874998
 20
-2786.5688361331249
 30
0.0
 11
-668.7130418053531
 21
-2786.0688361331249
 31
0.0
  0
LINE
  5
15501
  8
0
 10
-665.6130424419473
 20
-2786.3424290809212
 30
0.0
 11
-665.48377174431755
 21
-2785.8058353456499
 31
0.0
  0
LINE
  5
15502
  8
0
 10
-664.92580422753292
 20
-2783.489750730334
 30
0.0
 11
-664.81303471518288
 21
-2783.0216522751839
 31
0.0
  0
LINE
  5
15503
  8
0
 10
-668.11303482496965
 20
-2783.0688361331249
 30
0.0
 11
-668.01303366157265
 21
-2782.5688361331249
 31
0.0
  0
LINE
  5
15504
  8
0
 10
-666.51303482496985
 20
-2783.0688361331249
 30
0.0
 11
-666.41303366157274
 21
-2782.5688361331249
 31
0.0
  0
LINE
  5
15505
  8
0
 10
-663.36447156522752
 20
-2783.931637623863
 30
0.0
 11
-663.21303576878711
 21
-2783.4744657832321
 31
0.0
  0
LINE
  5
15506
  8
0
 10
-664.81303471518288
 20
-2783.0216522751839
 30
0.0
 11
-664.01304138834178
 21
-2785.8896149765151
 31
0.0
  0
LINE
  5
15507
  8
0
 10
-668.01303366157265
 20
-2782.5688361331249
 30
0.0
 11
-667.21304296874996
 21
-2786.5688361331249
 31
0.0
  0
LINE
  5
15508
  8
0
 10
-666.41303366157274
 20
-2782.5688361331249
 30
0.0
 11
-665.6130424419473
 21
-2786.3424290809212
 31
0.0
  0
LINE
  5
15509
  8
0
 10
-669.61303366157256
 20
-2782.5688361331249
 30
0.0
 11
-668.81304296874998
 21
-2786.5688361331249
 31
0.0
  0
LINE
  5
1550A
  8
0
 10
-682.41303366157706
 20
-2782.5688361331249
 30
0.0
 11
-681.61304296875869
 21
-2786.5688361331249
 31
0.0
  0
LINE
  5
1550B
  8
0
 10
-681.61304296875869
 20
-2786.5688361331249
 30
0.0
 11
-681.51304180536113
 21
-2786.0688361331249
 31
0.0
  0
LINE
  5
1550C
  8
0
 10
-680.9130348249704
 20
-2783.0688361331249
 30
0.0
 11
-680.81303366157272
 21
-2782.5688361331249
 31
0.0
  0
LINE
  5
1550D
  8
0
 10
-683.21304296875894
 20
-2786.5688361331249
 30
0.0
 11
-683.11304180536115
 21
-2786.0688361331249
 31
0.0
  0
LINE
  5
1550E
  8
0
 10
-684.81304296875885
 20
-2786.5688361331249
 30
0.0
 11
-684.71304180536117
 21
-2786.0688361331249
 31
0.0
  0
LINE
  5
1550F
  8
0
 10
-682.51303482497474
 20
-2783.0688361331249
 30
0.0
 11
-682.41303366157706
 21
-2782.5688361331249
 31
0.0
  0
LINE
  5
15510
  8
0
 10
-684.11303482497476
 20
-2783.0688361331249
 30
0.0
 11
-684.01303366157708
 21
-2782.5688361331249
 31
0.0
  0
LINE
  5
15511
  8
0
 10
-684.01303366157708
 20
-2782.5688361331249
 30
0.0
 11
-683.21304296875894
 21
-2786.5688361331249
 31
0.0
  0
LINE
  5
15512
  8
0
 10
-676.81304296875442
 20
-2786.5688361331249
 30
0.0
 11
-676.71304180535674
 21
-2786.0688361331249
 31
0.0
  0
LINE
  5
15513
  8
0
 10
-675.21304296874996
 20
-2786.5688361331249
 30
0.0
 11
-675.11304180535285
 21
-2786.0688361331249
 31
0.0
  0
LINE
  5
15514
  8
0
 10
-680.01304296875435
 20
-2786.5688361331249
 30
0.0
 11
-679.91304180535667
 21
-2786.0688361331249
 31
0.0
  0
LINE
  5
15515
  8
0
 10
-678.41304296875455
 20
-2786.5688361331249
 30
0.0
 11
-678.31304180535676
 21
-2786.0688361331249
 31
0.0
  0
LINE
  5
15516
  8
0
 10
-674.51303482496985
 20
-2783.0688361331249
 30
0.0
 11
-674.41303366157274
 21
-2782.5688361331249
 31
0.0
  0
LINE
  5
15517
  8
0
 10
-676.11303482497044
 20
-2783.0688361331249
 30
0.0
 11
-676.01303366157265
 21
-2782.5688361331249
 31
0.0
  0
LINE
  5
15518
  8
0
 10
-679.31303482497049
 20
-2783.0688361331249
 30
0.0
 11
-679.21303366157281
 21
-2782.5688361331249
 31
0.0
  0
LINE
  5
15519
  8
0
 10
-677.71303482497035
 20
-2783.0688361331249
 30
0.0
 11
-677.61303366157256
 21
-2782.5688361331249
 31
0.0
  0
LINE
  5
1551A
  8
0
 10
-677.61303366157256
 20
-2782.5688361331249
 30
0.0
 11
-676.81304296875442
 21
-2786.5688361331249
 31
0.0
  0
LINE
  5
1551B
  8
0
 10
-676.01303366157265
 20
-2782.5688361331249
 30
0.0
 11
-675.21304296874996
 21
-2786.5688361331249
 31
0.0
  0
LINE
  5
1551C
  8
0
 10
-679.21303366157281
 20
-2782.5688361331249
 30
0.0
 11
-678.41304296875455
 21
-2786.5688361331249
 31
0.0
  0
LINE
  5
1551D
  8
0
 10
-680.81303366157272
 20
-2782.5688361331249
 30
0.0
 11
-680.01304296875435
 21
-2786.5688361331249
 31
0.0
  0
LINE
  5
1551E
  8
0
 10
-691.11304180524758
 20
-2786.0688361331249
 30
0.0
 11
-691.11303482486289
 21
-2783.0688361331249
 31
0.0
  0
LINE
  5
1551F
  8
0
 10
-690.51303482497894
 20
-2783.0688361331249
 30
0.0
 11
-690.41303366158115
 21
-2782.5688361331249
 31
0.0
  0
LINE
  5
15520
  8
0
 10
-690.41303366158115
 20
-2782.5688361331249
 30
0.0
 11
-689.61304296876301
 21
-2786.5688361331249
 31
0.0
  0
LINE
  5
15521
  8
0
 10
-689.61304296876301
 20
-2786.5688361331249
 30
0.0
 11
-689.51304180536533
 21
-2786.0688361331249
 31
0.0
  0
LINE
  5
15522
  8
0
 10
-688.91303482497904
 20
-2783.0688361331249
 30
0.0
 11
-688.81303366158124
 21
-2782.5688361331249
 31
0.0
  0
LINE
  5
15523
  8
0
 10
-687.31303482497913
 20
-2783.0688361331249
 30
0.0
 11
-687.21303366158145
 21
-2782.5688361331249
 31
0.0
  0
LINE
  5
15524
  8
0
 10
-687.21303366158145
 20
-2782.5688361331249
 30
0.0
 11
-686.41304296876319
 21
-2786.5688361331249
 31
0.0
  0
LINE
  5
15525
  8
0
 10
-688.0130429687631
 20
-2786.5688361331249
 30
0.0
 11
-687.91304180536542
 21
-2786.0688361331249
 31
0.0
  0
LINE
  5
15526
  8
0
 10
-686.41304296876319
 20
-2786.5688361331249
 30
0.0
 11
-686.31304180536551
 21
-2786.0688361331249
 31
0.0
  0
LINE
  5
15527
  8
0
 10
-688.81303366158124
 20
-2782.5688361331249
 30
0.0
 11
-688.0130429687631
 21
-2786.5688361331249
 31
0.0
  0
LINE
  5
15528
  8
0
 10
-685.71303482497467
 20
-2783.0688361331249
 30
0.0
 11
-685.61303366157711
 21
-2782.5688361331249
 31
0.0
  0
LINE
  5
15529
  8
1CENTER
 10
-818.11304081494347
 20
-2676.1642843481382
 30
0.0
 11
-818.11304081494347
 21
-2708.9974173955129
 31
0.0
  0
LINE
  5
1552B
  8
0
 10
-820.11299427904555
 20
-2692.718775885402
 30
0.0
 11
-816.11299427904555
 21
-2691.9187851925799
 31
0.0
  0
LINE
  5
1552C
  8
0
 10
-819.6601781369867
 20
-2681.3187769390129
 30
0.0
 11
-816.79221543565632
 21
-2680.5187836121718
 31
0.0
  0
LINE
  5
1552D
  8
0
 10
-817.24502954006311
 20
-2678.9187825585659
 30
0.0
 11
-817.83330611510564
 21
-2678.607012702314
 31
0.0
  0
LINE
  5
1552E
  8
0
 10
-818.75019278830734
 20
-2679.8702137890568
 30
0.0
 11
-819.20736462893854
 21
-2679.7187779926171
 31
0.0
  0
LINE
  5
1552F
  8
0
 10
-816.79221543565632
 20
-2680.5187836121718
 30
0.0
 11
-817.34396489945959
 21
-2680.3360194695429
 31
0.0
  0
LINE
  5
15530
  8
0
 10
-819.20736462893854
 20
-2679.7187779926171
 30
0.0
 11
-817.24502954006311
 21
-2678.9187825585659
 31
0.0
  0
LINE
  5
15531
  8
0
 10
-819.61299427904555
 20
-2684.8187770487989
 30
0.0
 11
-820.11299427904555
 21
-2684.718775885402
 31
0.0
  0
LINE
  5
15532
  8
0
 10
-820.11299427904555
 20
-2684.718775885402
 30
0.0
 11
-816.11299427904555
 21
-2683.9187851925799
 31
0.0
  0
LINE
  5
15533
  8
0
 10
-816.11299427904555
 20
-2683.9187851925799
 30
0.0
 11
-816.61299427904555
 21
-2683.8187840291821
 31
0.0
  0
LINE
  5
15534
  8
0
 10
-819.61299427904555
 20
-2686.4187770488002
 30
0.0
 11
-820.11299427904555
 21
-2686.3187758854019
 31
0.0
  0
LINE
  5
15535
  8
0
 10
-816.11299427904555
 20
-2685.5187851925789
 30
0.0
 11
-816.61299427904555
 21
-2685.4187840291829
 31
0.0
  0
LINE
  5
15536
  8
0
 10
-820.11299427904555
 20
-2686.3187758854019
 30
0.0
 11
-816.11299427904555
 21
-2685.5187851925789
 31
0.0
  0
LINE
  5
15537
  8
0
 10
-819.61299427904555
 20
-2688.0187770487992
 30
0.0
 11
-820.11299427904555
 21
-2687.9187758854018
 31
0.0
  0
LINE
  5
15538
  8
0
 10
-820.11299427904555
 20
-2687.9187758854018
 30
0.0
 11
-816.11299427904555
 21
-2687.1187851925788
 31
0.0
  0
LINE
  5
15539
  8
0
 10
-816.11299427904555
 20
-2687.1187851925788
 30
0.0
 11
-816.61299427904555
 21
-2687.0187840291828
 31
0.0
  0
LINE
  5
1553A
  8
0
 10
-819.61299427904555
 20
-2683.0187770487992
 30
0.0
 11
-820.11299427904555
 21
-2682.9187758854018
 31
0.0
  0
LINE
  5
1553B
  8
0
 10
-819.19207968183684
 20
-2681.4315464513629
 30
0.0
 11
-819.6601781369867
 21
-2681.3187769390129
 31
0.0
  0
LINE
  5
1553C
  8
0
 10
-816.33940133124941
 20
-2682.1187846657772
 30
0.0
 11
-816.87599506652055
 21
-2681.9895139681471
 31
0.0
  0
LINE
  5
1553D
  8
0
 10
-820.11299427904555
 20
-2682.9187758854018
 30
0.0
 11
-816.33940133124941
 21
-2682.1187846657772
 31
0.0
  0
LINE
  5
1553E
  8
0
 10
-819.61299427904555
 20
-2691.2187770487999
 30
0.0
 11
-820.11299427904555
 21
-2691.1187758854021
 31
0.0
  0
LINE
  5
1553F
  8
0
 10
-816.11299427904555
 20
-2690.31878519258
 30
0.0
 11
-816.61299427904555
 21
-2690.2187840291831
 31
0.0
  0
LINE
  5
15540
  8
0
 10
-816.11299427904555
 20
-2688.7187851925801
 30
0.0
 11
-816.61299427904555
 21
-2688.6187840291832
 31
0.0
  0
LINE
  5
15541
  8
0
 10
-819.61299427904555
 20
-2689.6187770487991
 30
0.0
 11
-820.11299427904555
 21
-2689.5187758854022
 31
0.0
  0
LINE
  5
15542
  8
0
 10
-820.11299427904555
 20
-2689.5187758854022
 30
0.0
 11
-816.11299427904555
 21
-2688.7187851925801
 31
0.0
  0
LINE
  5
15543
  8
0
 10
-820.11299427904555
 20
-2691.1187758854021
 30
0.0
 11
-816.11299427904555
 21
-2690.31878519258
 31
0.0
  0
LINE
  5
15544
  8
0
 10
-816.11299427904555
 20
-2691.9187851925799
 30
0.0
 11
-816.61299427904555
 21
-2691.8187840291821
 31
0.0
  0
LINE
  5
15545
  8
0
 10
-822.11304081494336
 20
-2707.3187712315962
 30
0.0
 11
-814.11304081494336
 21
-2707.3187898459551
 31
0.0
  0
LINE
  5
15546
  8
0
 10
-820.11299427904555
 20
-2703.9187758854068
 30
0.0
 11
-816.11299427904555
 21
-2703.1187851925888
 31
0.0
  0
LINE
  5
15547
  8
0
 10
-819.61299427904555
 20
-2702.4187770488002
 30
0.0
 11
-820.11299427904555
 21
-2702.3187758854019
 31
0.0
  0
LINE
  5
15548
  8
0
 10
-816.11299427904555
 20
-2703.1187851925888
 30
0.0
 11
-816.61299427904555
 21
-2703.018784029191
 31
0.0
  0
LINE
  5
15549
  8
0
 10
-819.61299427904555
 20
-2699.2187770487999
 30
0.0
 11
-820.11299427904555
 21
-2699.1187758854021
 31
0.0
  0
LINE
  5
1554A
  8
0
 10
-820.11299427904555
 20
-2700.718775885402
 30
0.0
 11
-816.11299427904555
 21
-2699.918785192584
 31
0.0
  0
LINE
  5
1554B
  8
0
 10
-816.11299427904555
 20
-2699.918785192584
 30
0.0
 11
-816.61299427904555
 21
-2699.8187840291862
 31
0.0
  0
LINE
  5
1554C
  8
0
 10
-819.61299427904555
 20
-2700.8187770487998
 30
0.0
 11
-820.11299427904555
 21
-2700.718775885402
 31
0.0
  0
LINE
  5
1554D
  8
0
 10
-816.11299427904555
 20
-2701.5187851925839
 30
0.0
 11
-816.61299427904555
 21
-2701.4187840291861
 31
0.0
  0
LINE
  5
1554E
  8
0
 10
-816.11299427904555
 20
-2696.7187851925801
 30
0.0
 11
-816.61299427904555
 21
-2696.6187840291818
 31
0.0
  0
LINE
  5
1554F
  8
0
 10
-816.11299427904555
 20
-2698.3187851925841
 30
0.0
 11
-816.61299427904555
 21
-2698.2187840291872
 31
0.0
  0
LINE
  5
15550
  8
0
 10
-819.61299427904555
 20
-2697.6187770488
 30
0.0
 11
-820.11299427904555
 21
-2697.5187758854031
 31
0.0
  0
LINE
  5
15551
  8
0
 10
-819.61299427904555
 20
-2696.0187770487992
 30
0.0
 11
-820.11299427904555
 21
-2695.9187758854032
 31
0.0
  0
LINE
  5
15552
  8
0
 10
-820.11299427904555
 20
-2697.5187758854031
 30
0.0
 11
-816.11299427904555
 21
-2696.7187851925801
 31
0.0
  0
LINE
  5
15553
  8
0
 10
-820.11299427904555
 20
-2699.1187758854021
 30
0.0
 11
-816.11299427904555
 21
-2698.3187851925841
 31
0.0
  0
LINE
  5
15554
  8
0
 10
-820.11299427904555
 20
-2702.3187758854019
 30
0.0
 11
-816.11299427904555
 21
-2701.5187851925839
 31
0.0
  0
LINE
  5
15555
  8
0
 10
-816.11299427904555
 20
-2695.1187851925802
 30
0.0
 11
-816.61299427904555
 21
-2695.0187840291828
 31
0.0
  0
LINE
  5
15556
  8
0
 10
-816.11299427904555
 20
-2693.5187851925789
 30
0.0
 11
-816.61299427904555
 21
-2693.4187840291829
 31
0.0
  0
LINE
  5
15557
  8
0
 10
-819.61299427904555
 20
-2694.4187770487988
 30
0.0
 11
-820.11299427904555
 21
-2694.3187758854019
 31
0.0
  0
LINE
  5
15558
  8
0
 10
-819.61299427904555
 20
-2692.8187770487989
 30
0.0
 11
-820.11299427904555
 21
-2692.718775885402
 31
0.0
  0
LINE
  5
15559
  8
0
 10
-820.11299427904555
 20
-2694.3187758854019
 30
0.0
 11
-816.11299427904555
 21
-2693.5187851925789
 31
0.0
  0
LINE
  5
1555A
  8
0
 10
-820.11299427904555
 20
-2695.9187758854032
 30
0.0
 11
-816.11299427904555
 21
-2695.1187851925802
 31
0.0
  0
LINE
  5
1555B
  8
0
 10
-819.61299427904555
 20
-2704.0187770488042
 30
0.0
 11
-820.11299427904555
 21
-2703.9187758854068
 31
0.0
  0
LINE
  5
1555C
  8
0
 10
-816.11299427904555
 20
-2704.7187851925878
 30
0.0
 11
-816.61299427904555
 21
-2704.6187840291909
 31
0.0
  0
LINE
  5
1555D
  8
0
 10
-816.61299427904555
 20
-2704.8187840291912
 30
0.0
 11
-816.11299427904555
 21
-2704.7187851925878
 31
0.0
  0
LINE
  5
1555F
  8
1CENTER
 10
-808.11303831494672
 20
-2673.607849856081
 30
0.0
 11
-808.11303831494672
 21
-2710.2390408565352
 31
0.0
  0
LINE
  5
15560
  8
0
 10
-809.20736212894167
 20
-2678.6687619010681
 30
0.0
 11
-807.24502704006625
 21
-2677.868766467016
 31
0.0
  0
LINE
  5
15561
  8
0
 10
-807.24502704006625
 20
-2677.868766467016
 30
0.0
 11
-807.83330361510878
 21
-2677.5569966107651
 31
0.0
  0
LINE
  5
15562
  8
0
 10
-810.11299177904868
 20
-2701.0687597938572
 30
0.0
 11
-806.1129917790488
 21
-2700.2687691010392
 31
0.0
  0
LINE
  5
15563
  8
0
 10
-810.11299177904868
 20
-2689.8687597938529
 30
0.0
 11
-806.1129917790488
 21
-2689.0687691010312
 31
0.0
  0
LINE
  5
15564
  8
0
 10
-810.11299177904868
 20
-2686.668759793853
 30
0.0
 11
-806.1129917790488
 21
-2685.86876910103
 31
0.0
  0
LINE
  5
15565
  8
0
 10
-806.1129917790488
 20
-2685.86876910103
 30
0.0
 11
-806.61299177904868
 21
-2685.7687679376331
 31
0.0
  0
LINE
  5
15566
  8
0
 10
-809.6129917790488
 20
-2685.16876095725
 30
0.0
 11
-810.11299177904868
 21
-2685.0687597938531
 31
0.0
  0
LINE
  5
15567
  8
0
 10
-806.1129917790488
 20
-2689.0687691010312
 30
0.0
 11
-806.61299177904868
 21
-2688.9687679376329
 31
0.0
  0
LINE
  5
15568
  8
0
 10
-806.1129917790488
 20
-2687.4687691010299
 30
0.0
 11
-806.61299177904868
 21
-2687.368767937633
 31
0.0
  0
LINE
  5
15569
  8
0
 10
-809.6129917790488
 20
-2686.7687609572499
 30
0.0
 11
-810.11299177904868
 21
-2686.668759793853
 31
0.0
  0
LINE
  5
1556A
  8
0
 10
-809.6129917790488
 20
-2688.3687609572498
 30
0.0
 11
-810.11299177904868
 21
-2688.268759793853
 31
0.0
  0
LINE
  5
1556B
  8
0
 10
-810.11299177904868
 20
-2688.268759793853
 30
0.0
 11
-806.1129917790488
 21
-2687.4687691010299
 31
0.0
  0
LINE
  5
1556C
  8
0
 10
-806.79221293565945
 20
-2679.4687675206219
 30
0.0
 11
-807.34396239946284
 21
-2679.2860033779939
 31
0.0
  0
LINE
  5
1556D
  8
0
 10
-806.1129917790488
 20
-2682.6687691010302
 30
0.0
 11
-806.61299177904868
 21
-2682.5687679376329
 31
0.0
  0
LINE
  5
1556E
  8
0
 10
-806.1129917790488
 20
-2684.2687691010301
 30
0.0
 11
-806.61299177904868
 21
-2684.1687679376332
 31
0.0
  0
LINE
  5
1556F
  8
0
 10
-806.33939883125277
 20
-2681.0687685742282
 30
0.0
 11
-806.87599256652379
 21
-2680.9394978765981
 31
0.0
  0
LINE
  5
15570
  8
0
 10
-809.19207718184009
 20
-2680.381530359813
 30
0.0
 11
-809.66017563699006
 21
-2680.268760847463
 31
0.0
  0
LINE
  5
15571
  8
0
 10
-809.6129917790488
 20
-2683.5687609572501
 30
0.0
 11
-810.11299177904868
 21
-2683.4687597938532
 31
0.0
  0
LINE
  5
15572
  8
0
 10
-809.6129917790488
 20
-2681.9687609572502
 30
0.0
 11
-810.11299177904868
 21
-2681.8687597938529
 31
0.0
  0
LINE
  5
15573
  8
0
 10
-808.75019028831059
 20
-2678.8201976975079
 30
0.0
 11
-809.20736212894167
 21
-2678.6687619010681
 31
0.0
  0
LINE
  5
15574
  8
0
 10
-809.66017563699006
 20
-2680.268760847463
 30
0.0
 11
-806.79221293565945
 21
-2679.4687675206219
 31
0.0
  0
LINE
  5
15575
  8
0
 10
-810.11299177904868
 20
-2683.4687597938532
 30
0.0
 11
-806.1129917790488
 21
-2682.6687691010302
 31
0.0
  0
LINE
  5
15576
  8
0
 10
-810.11299177904868
 20
-2681.8687597938529
 30
0.0
 11
-806.33939883125277
 21
-2681.0687685742282
 31
0.0
  0
LINE
  5
15577
  8
0
 10
-810.11299177904868
 20
-2685.0687597938531
 30
0.0
 11
-806.1129917790488
 21
-2684.2687691010301
 31
0.0
  0
LINE
  5
15578
  8
0
 10
-810.11299177904868
 20
-2697.868759793857
 30
0.0
 11
-806.1129917790488
 21
-2697.0687691010389
 31
0.0
  0
LINE
  5
15579
  8
0
 10
-806.1129917790488
 20
-2697.0687691010389
 30
0.0
 11
-806.61299177904868
 21
-2696.9687679376411
 31
0.0
  0
LINE
  5
1557A
  8
0
 10
-809.6129917790488
 20
-2696.3687609572512
 30
0.0
 11
-810.11299177904868
 21
-2696.268759793853
 31
0.0
  0
LINE
  5
1557B
  8
0
 10
-806.1129917790488
 20
-2698.6687691010388
 30
0.0
 11
-806.61299177904868
 21
-2698.568767937641
 31
0.0
  0
LINE
  5
1557C
  8
0
 10
-806.1129917790488
 20
-2700.2687691010392
 30
0.0
 11
-806.61299177904868
 21
-2700.168767937641
 31
0.0
  0
LINE
  5
1557D
  8
0
 10
-809.6129917790488
 20
-2697.9687609572552
 30
0.0
 11
-810.11299177904868
 21
-2697.868759793857
 31
0.0
  0
LINE
  5
1557E
  8
0
 10
-809.6129917790488
 20
-2699.5687609572551
 30
0.0
 11
-810.11299177904868
 21
-2699.4687597938582
 31
0.0
  0
LINE
  5
1557F
  8
0
 10
-810.11299177904868
 20
-2699.4687597938582
 30
0.0
 11
-806.1129917790488
 21
-2698.6687691010388
 31
0.0
  0
LINE
  5
15580
  8
0
 10
-806.1129917790488
 20
-2692.2687691010342
 30
0.0
 11
-806.61299177904868
 21
-2692.1687679376369
 31
0.0
  0
LINE
  5
15581
  8
0
 10
-806.1129917790488
 20
-2690.6687691010302
 30
0.0
 11
-806.61299177904868
 21
-2690.5687679376329
 31
0.0
  0
LINE
  5
15582
  8
0
 10
-806.1129917790488
 20
-2695.4687691010349
 30
0.0
 11
-806.61299177904868
 21
-2695.3687679376371
 31
0.0
  0
LINE
  5
15583
  8
0
 10
-806.1129917790488
 20
-2693.868769101035
 30
0.0
 11
-806.61299177904868
 21
-2693.7687679376372
 31
0.0
  0
LINE
  5
15584
  8
0
 10
-809.6129917790488
 20
-2689.9687609572502
 30
0.0
 11
-810.11299177904868
 21
-2689.8687597938529
 31
0.0
  0
LINE
  5
15585
  8
0
 10
-809.6129917790488
 20
-2691.568760957251
 30
0.0
 11
-810.11299177904868
 21
-2691.4687597938532
 31
0.0
  0
LINE
  5
15586
  8
0
 10
-809.6129917790488
 20
-2694.7687609572508
 30
0.0
 11
-810.11299177904868
 21
-2694.668759793853
 31
0.0
  0
LINE
  5
15587
  8
0
 10
-809.6129917790488
 20
-2693.1687609572509
 30
0.0
 11
-810.11299177904868
 21
-2693.0687597938531
 31
0.0
  0
LINE
  5
15588
  8
0
 10
-810.11299177904868
 20
-2693.0687597938531
 30
0.0
 11
-806.1129917790488
 21
-2692.2687691010342
 31
0.0
  0
LINE
  5
15589
  8
0
 10
-810.11299177904868
 20
-2691.4687597938532
 30
0.0
 11
-806.1129917790488
 21
-2690.6687691010302
 31
0.0
  0
LINE
  5
1558A
  8
0
 10
-810.11299177904868
 20
-2694.668759793853
 30
0.0
 11
-806.1129917790488
 21
-2693.868769101035
 31
0.0
  0
LINE
  5
1558B
  8
0
 10
-810.11299177904868
 20
-2696.268759793853
 30
0.0
 11
-806.1129917790488
 21
-2695.4687691010349
 31
0.0
  0
LINE
  5
1558C
  8
0
 10
-806.61299177904868
 20
-2706.5687679375278
 30
0.0
 11
-809.61299177904857
 21
-2706.5687609571428
 31
0.0
  0
LINE
  5
1558D
  8
0
 10
-809.6129917790488
 20
-2705.9687609572588
 30
0.0
 11
-810.11299177904868
 21
-2705.868759793861
 31
0.0
  0
LINE
  5
1558E
  8
0
 10
-810.11299177904868
 20
-2705.868759793861
 30
0.0
 11
-806.1129917790488
 21
-2705.068769101043
 31
0.0
  0
LINE
  5
1558F
  8
0
 10
-806.1129917790488
 20
-2705.068769101043
 30
0.0
 11
-806.61299177904868
 21
-2704.9687679376452
 31
0.0
  0
LINE
  5
15590
  8
0
 10
-809.6129917790488
 20
-2704.3687609572589
 30
0.0
 11
-810.11299177904868
 21
-2704.2687597938611
 31
0.0
  0
LINE
  5
15591
  8
0
 10
-809.6129917790488
 20
-2702.768760957259
 30
0.0
 11
-810.11299177904868
 21
-2702.6687597938612
 31
0.0
  0
LINE
  5
15592
  8
0
 10
-810.11299177904868
 20
-2702.6687597938612
 30
0.0
 11
-806.1129917790488
 21
-2701.8687691010432
 31
0.0
  0
LINE
  5
15593
  8
0
 10
-806.1129917790488
 20
-2703.4687691010431
 30
0.0
 11
-806.61299177904868
 21
-2703.3687679376449
 31
0.0
  0
LINE
  5
15594
  8
0
 10
-806.1129917790488
 20
-2701.8687691010432
 30
0.0
 11
-806.61299177904868
 21
-2701.768767937645
 31
0.0
  0
LINE
  5
15595
  8
0
 10
-810.11299177904868
 20
-2704.2687597938611
 30
0.0
 11
-806.1129917790488
 21
-2703.4687691010431
 31
0.0
  0
LINE
  5
15596
  8
0
 10
-809.6129917790488
 20
-2701.168760957255
 30
0.0
 11
-810.11299177904868
 21
-2701.0687597938572
 31
0.0
  0
ARC
  5
15597
  8
1PHANTOM
 10
-710.11303831494672
 20
-2796.7518573468251
 30
0.0
 40
0.5000000000000002
 50
90.0
 51
180.0
  0
LINE
  5
15598
  8
1PHANTOM
 10
-710.61303831494672
 20
-2796.7518573468251
 30
0.0
 11
-710.61303831494672
 21
-2797.7518573468251
 31
0.0
  0
LINE
  5
15599
  8
1PHANTOM
 10
-707.11303831494661
 20
-2796.2518573468251
 30
0.0
 11
-710.11303831494672
 21
-2796.2518573468251
 31
0.0
  0
LINE
  5
1559A
  8
1PHANTOM
 10
-710.61303831494672
 20
-2797.7518573468251
 30
0.0
 11
-706.61303831494672
 21
-2797.7518573468251
 31
0.0
  0
ARC
  5
1559B
  8
1PHANTOM
 10
-707.11303831494661
 20
-2796.7518573468251
 30
0.0
 40
0.5
 50
0.0
 51
90.0
  0
LINE
  5
1559C
  8
1PHANTOM
 10
-706.61303831494672
 20
-2797.7518573468251
 30
0.0
 11
-706.61303831494672
 21
-2796.7518573468251
 31
0.0
  0
TEXT
  5
1559D
  8
1HATCH
 10
-684.45793707255564
 20
-2734.2769432905629
 30
0.0
 40
3.5
  1
PB
  0
SOLID
  5
1559E
  8
1HATCH
 10
-683.55340696091287
 20
-2753.429704294253
 30
0.0
 11
-683.53306969286871
 21
-2755.4571898075528
 31
0.0
 12
-684.2098705183048
 22
-2753.5458939764999
 32
0.0
 13
-684.2098705183048
 23
-2753.5458939764999
 33
0.0
  0
SOLID
  5
155A0
  8
1DIM
 10
-675.48988614838208
 20
-2753.434090824353
 30
0.0
 11
-675.03508747892738
 21
-2755.4100132118401
 31
0.0
 12
-676.10614212975884
 22
-2753.6883997110672
 32
0.0
 13
-676.10614212975884
 23
-2753.6883997110672
 33
0.0
  0
TEXT
  5
155A2
  8
1DIM
 10
-678.29059257801703
 20
-2740.2782893076878
 30
0.0
 40
3.5
  1
合板9mm以上
  0
LINE
  5
155A3
  8
1DIM
 10
-675.79801413907035
 20
-2753.5612452677101
 30
0.0
 11
-680.99059257801707
 21
-2740.9782893076872
 31
0.0
  0
LINE
  5
155A4
  8
1DIM
 10
-680.99059257801707
 20
-2740.9782893076872
 30
0.0
 11
-649.09059257801709
 21
-2740.9782893076872
 31
0.0
  0
LINE
  5
155A5
  8
1HATCH
 10
-683.88163873960877
 20
-2753.4877991353769
 30
0.0
 11
-687.15793707255557
 21
-2734.9769432905632
 31
0.0
  0
LINE
  5
155A6
  8
1HATCH
 10
-687.15793707255557
 20
-2734.9769432905632
 30
0.0
 11
-678.62460373922227
 21
-2734.9769432905632
 31
0.0
  0
LINE
  5
155A7
  8
0
 10
-808.11299177904868
 20
-2676.5687644473892
 30
0.0
 11
-809.6129917790488
 21
-2681.8687609572512
 31
0.0
  0
LINE
  5
155A8
  8
0
 10
-809.6129917790488
 20
-2681.8687609572512
 30
0.0
 11
-809.61299177904857
 21
-2706.5687609571428
 31
0.0
  0
LINE
  5
155A9
  8
0
 10
-808.11299177904868
 20
-2676.5687644473892
 30
0.0
 11
-806.61299177904868
 21
-2681.8687679376349
 31
0.0
  0
LINE
  5
155AA
  8
0
 10
-811.61303831494649
 20
-2706.5687563034448
 30
0.0
 11
-809.61299177904857
 21
-2706.5687609571428
 31
0.0
  0
LINE
  5
155AB
  8
0
 10
-806.61299177904868
 20
-2681.8687679376349
 30
0.0
 11
-806.61299177904868
 21
-2706.5687679375278
 31
0.0
  0
LINE
  5
155AC
  8
0
 10
-811.61303831494649
 20
-2706.5687563034448
 30
0.0
 11
-811.61303831494672
 21
-2707.6687597936402
 31
0.0
  0
LINE
  5
155AD
  8
0
 10
-806.61299177904868
 20
-2706.5687679375278
 30
0.0
 11
-804.61303831494672
 21
-2706.5687725910088
 31
0.0
  0
ARC
  5
155AE
  8
0
 10
-810.11303831494672
 20
-2707.6687597936402
 30
0.0
 40
1.5
 50
180.0
 51
269.99986668447059
  0
LINE
  5
155AF
  8
0
 10
-804.61303831494672
 20
-2706.5687725910088
 30
0.0
 11
-804.61303831494672
 21
-2707.6687691008201
 31
0.0
  0
LINE
  5
155B0
  8
0
 10
-810.11304180513923
 20
-2709.1687597936361
 30
0.0
 11
-806.11304180513912
 21
-2709.168769100816
 31
0.0
  0
ARC
  5
155B1
  8
0
 10
-806.11303831494683
 20
-2707.6687691008201
 30
0.0
 40
1.5
 50
269.99986668447059
 51
0.0
  0
LINE
  5
155B2
  8
0
 10
-819.61299427904555
 20
-2682.9187770488002
 30
0.0
 11
-819.61299427904555
 21
-2704.8187421469229
 31
0.0
  0
LINE
  5
155B3
  8
0
 10
-822.11304081494336
 20
-2707.3187712315962
 30
0.0
 11
-819.61299427904555
 21
-2704.8187421469229
 31
0.0
  0
LINE
  5
155B4
  8
0
 10
-818.11299427904555
 20
-2677.6187805389391
 30
0.0
 11
-819.61299427904555
 21
-2682.9187770488002
 31
0.0
  0
LINE
  5
155B5
  8
0
 10
-822.11304081494336
 20
-2707.3187712315962
 30
0.0
 11
-822.11304081494336
 21
-2707.6187712315968
 31
0.0
  0
LINE
  5
155B6
  8
0
 10
-818.11299427904555
 20
-2677.6187805389391
 30
0.0
 11
-816.61299427904555
 21
-2682.9187840291838
 31
0.0
  0
LINE
  5
155B7
  8
0
 10
-822.11304081494336
 20
-2707.6187712315968
 30
0.0
 11
-814.11304081494336
 21
-2707.6187898459561
 31
0.0
  0
LINE
  5
155B8
  8
0
 10
-816.61299427904555
 20
-2682.9187840291838
 30
0.0
 11
-816.61299427904555
 21
-2704.8188072972889
 31
0.0
  0
LINE
  5
155B9
  8
0
 10
-814.11304081494336
 20
-2707.3187898459551
 30
0.0
 11
-814.11304081494336
 21
-2707.6187898459561
 31
0.0
  0
LINE
  5
155BA
  8
0
 10
-814.11304081494336
 20
-2707.3187898459551
 30
0.0
 11
-816.61299427904555
 21
-2704.8188072972889
 31
0.0
  0
LINE
  5
155BB
  8
0
 10
-661.11303831510929
 20
-2784.5688361331249
 30
0.0
 11
-666.41303482497096
 21
-2783.0688361331249
 31
0.0
  0
LINE
  5
155BC
  8
0
 10
-666.41303482497096
 20
-2783.0688361331249
 30
0.0
 11
-691.11303482486289
 21
-2783.0688361331249
 31
0.0
  0
LINE
  5
155BD
  8
0
 10
-661.11303831510929
 20
-2784.5688361331249
 30
0.0
 11
-666.41304180535462
 21
-2786.0688361331249
 31
0.0
  0
LINE
  5
155BE
  8
0
 10
-691.11303017116484
 20
-2781.0687895972269
 30
0.0
 11
-691.11303482486289
 21
-2783.0688361331249
 31
0.0
  0
LINE
  5
155BF
  8
0
 10
-666.41304180535462
 20
-2786.0688361331249
 30
0.0
 11
-691.11304180524758
 21
-2786.0688361331249
 31
0.0
  0
LINE
  5
155C0
  8
0
 10
-691.11303017116484
 20
-2781.0687895972269
 30
0.0
 11
-692.2130336613601
 21
-2781.0687895972269
 31
0.0
  0
LINE
  5
155C1
  8
0
 10
-691.11304180524758
 20
-2786.0688361331249
 30
0.0
 11
-691.11304645872895
 21
-2788.0687895972269
 31
0.0
  0
ARC
  5
155C2
  8
0
 10
-692.2130336613601
 20
-2782.5687895972269
 30
0.0
 40
1.5
 50
90.0
 51
179.99986668447491
  0
LINE
  5
155C3
  8
0
 10
-691.11304645872895
 20
-2788.0687895972269
 30
0.0
 11
-692.21304296853975
 21
-2788.0687895972269
 31
0.0
  0
LINE
  5
155C4
  8
0
 10
-693.71303366135589
 20
-2782.5687861070351
 30
0.0
 11
-693.71304296853555
 21
-2786.5687861070342
 31
0.0
  0
ARC
  5
155C5
  8
0
 10
-692.21304296853975
 20
-2786.5687895972269
 30
0.0
 40
1.5
 50
179.99986668447491
 51
270.0
  0
LINE
  5
155C6
  8
0
 10
-661.11301831510934
 20
-2804.5688321331249
 30
0.0
 11
-666.41301482497101
 21
-2803.0688321331249
 31
0.0
  0
LINE
  5
155C7
  8
0
 10
-666.41301482497101
 20
-2803.0688321331249
 30
0.0
 11
-691.11301482486294
 21
-2803.0688321331249
 31
0.0
  0
LINE
  5
155C8
  8
0
 10
-661.11301831510934
 20
-2804.5688321331249
 30
0.0
 11
-666.41302180535456
 21
-2806.0688321331249
 31
0.0
  0
LINE
  5
155C9
  8
0
 10
-691.11301017116477
 20
-2801.0687855972269
 30
0.0
 11
-691.11301482486294
 21
-2803.0688321331249
 31
0.0
  0
LINE
  5
155CA
  8
0
 10
-666.41302180535456
 20
-2806.0688321331249
 30
0.0
 11
-691.11302180524763
 21
-2806.0688321331249
 31
0.0
  0
LINE
  5
155CB
  8
0
 10
-691.11301017116477
 20
-2801.0687855972269
 30
0.0
 11
-692.21301366136015
 21
-2801.0687855972269
 31
0.0
  0
LINE
  5
155CC
  8
0
 10
-691.11302180524763
 20
-2806.0688321331249
 30
0.0
 11
-691.11302645872911
 21
-2808.0687855972269
 31
0.0
  0
ARC
  5
155CD
  8
0
 10
-692.21301366136015
 20
-2802.5687855972269
 30
0.0
 40
1.5
 50
90.0
 51
179.99986668447491
  0
LINE
  5
155CE
  8
0
 10
-691.11302645872911
 20
-2808.0687855972269
 30
0.0
 11
-692.21302296853969
 21
-2808.0687855972269
 31
0.0
  0
LINE
  5
155CF
  8
0
 10
-693.71301366135606
 20
-2802.5687821070351
 30
0.0
 11
-693.71302296853571
 21
-2806.5687821070351
 31
0.0
  0
ARC
  5
155D0
  8
0
 10
-692.21302296853969
 20
-2806.5687855972269
 30
0.0
 40
1.5
 50
179.99986668447491
 51
270.0
  0
TEXT
  5
155D1
  8
1DIM
 10
-648.81303831494643
 20
-2780.8187870222268
 30
0.0
 40
3.5
  1
11 
 50
90.0
  0
LINE
  5
155D2
  8
0
  6
BYBLOCK
 10
-647.57713993494679
 20
-2782.5687895972269
 30
0.0
 11
-648.11303831494683
 21
-2784.5687895972269
 31
0.0
  0
LINE
  5
155D3
  8
0
  6
BYBLOCK
 10
-648.11303831494683
 20
-2784.5687895972269
 30
0.0
 11
-648.64893669494677
 21
-2782.5687895972269
 31
0.0
  0
LINE
  5
155D4
  8
0
  6
BYBLOCK
 10
-648.11303831494683
 20
-2784.5687895972269
 30
0.0
 11
-648.11303831494683
 21
-2782.5687895972269
 31
0.0
  0
LINE
  5
155D5
  8
0
  6
BYBLOCK
 10
-648.64893669494677
 20
-2775.5687844472268
 30
0.0
 11
-648.11303831494683
 21
-2773.5687844472268
 31
0.0
  0
LINE
  5
155D6
  8
0
  6
BYBLOCK
 10
-648.11303831494683
 20
-2773.5687844472268
 30
0.0
 11
-647.57713993494679
 21
-2775.5687844472268
 31
0.0
  0
LINE
  5
155D7
  8
0
  6
BYBLOCK
 10
-648.11303831494683
 20
-2773.5687844472268
 30
0.0
 11
-648.11303831494683
 21
-2775.5687844472268
 31
0.0
  0
TEXT
  5
155D8
  8
1DIM
 10
-648.81303831494654
 20
-2797.1937875972271
 30
0.0
 40
3.5
  1
20 
 50
90.0
  0
LINE
  5
155D9
  8
0
  6
BYBLOCK
 10
-648.64893669494677
 20
-2786.5687895972269
 30
0.0
 11
-648.11303831494683
 21
-2784.5687895972269
 31
0.0
  0
LINE
  5
155DA
  8
0
  6
BYBLOCK
 10
-648.11303831494683
 20
-2784.5687895972269
 30
0.0
 11
-647.57713993494679
 21
-2786.5687895972269
 31
0.0
  0
LINE
  5
155DB
  8
0
  6
BYBLOCK
 10
-648.11303831494683
 20
-2784.5687895972269
 30
0.0
 11
-648.11303831494683
 21
-2786.5687895972269
 31
0.0
  0
LINE
  5
155DC
  8
0
  6
BYBLOCK
 10
-647.57713993494679
 20
-2802.5687855972269
 30
0.0
 11
-648.11303831494683
 21
-2804.5687855972269
 31
0.0
  0
LINE
  5
155DD
  8
0
  6
BYBLOCK
 10
-648.11303831494683
 20
-2804.5687855972269
 30
0.0
 11
-648.64893669494677
 21
-2802.5687855972269
 31
0.0
  0
LINE
  5
155DE
  8
0
  6
BYBLOCK
 10
-648.11303831494683
 20
-2804.5687855972269
 30
0.0
 11
-648.11303831494683
 21
-2802.5687855972269
 31
0.0
  0
TEXT
  5
155DF
  8
1DIM
 10
-719.02970548161341
 20
-2752.368787747228
 30
0.0
 40
3.5
  1
56 
  0
LINE
  5
155E0
  8
0
  6
BYBLOCK
 10
-690.11303831494672
 20
-2752.5328893672272
 30
0.0
 11
-688.11303831494672
 21
-2753.0687877472278
 31
0.0
  0
LINE
  5
155E1
  8
0
  6
BYBLOCK
 10
-688.11303831494672
 20
-2753.0687877472278
 30
0.0
 11
-690.11303831494672
 21
-2753.604686127228
 31
0.0
  0
LINE
  5
155E2
  8
0
  6
BYBLOCK
 10
-688.11303831494672
 20
-2753.0687877472278
 30
0.0
 11
-690.11303831494672
 21
-2753.0687877472278
 31
0.0
  0
LINE
  5
155E3
  8
0
  6
BYBLOCK
 10
-742.11303931494683
 20
-2753.604686127228
 30
0.0
 11
-744.11303931494683
 21
-2753.0687877472278
 31
0.0
  0
LINE
  5
155E4
  8
0
  6
BYBLOCK
 10
-744.11303931494683
 20
-2753.0687877472278
 30
0.0
 11
-742.11303931494683
 21
-2752.5328893672272
 31
0.0
  0
LINE
  5
155E5
  8
0
  6
BYBLOCK
 10
-744.11303931494683
 20
-2753.0687877472278
 30
0.0
 11
-742.11303931494683
 21
-2753.0687877472278
 31
0.0
  0
TEXT
  5
155E6
  8
1DIM
 10
-748.81303831494643
 20
-2797.4854536138942
 30
0.0
 40
3.5
  1
42
 50
90.0
  0
LINE
  5
155E7
  8
0
  6
BYBLOCK
 10
-748.64893669494666
 20
-2775.568790147227
 30
0.0
 11
-748.11303831494672
 21
-2773.568790147227
 31
0.0
  0
LINE
  5
155E8
  8
0
  6
BYBLOCK
 10
-748.11303831494672
 20
-2773.568790147227
 30
0.0
 11
-747.57713993494667
 21
-2775.568790147227
 31
0.0
  0
LINE
  5
155E9
  8
0
  6
BYBLOCK
 10
-748.11303831494672
 20
-2773.568790147227
 30
0.0
 11
-748.11303831494672
 21
-2775.568790147227
 31
0.0
  0
LINE
  5
155EA
  8
0
  6
BYBLOCK
 10
-747.57713993494667
 20
-2813.5687917472269
 30
0.0
 11
-748.11303831494672
 21
-2815.5687917472269
 31
0.0
  0
LINE
  5
155EB
  8
0
  6
BYBLOCK
 10
-748.11303831494672
 20
-2815.5687917472269
 30
0.0
 11
-748.64893669494666
 21
-2813.5687917472269
 31
0.0
  0
LINE
  5
155EC
  8
0
  6
BYBLOCK
 10
-748.11303831494672
 20
-2815.5687917472269
 30
0.0
 11
-748.11303831494672
 21
-2813.5687917472269
 31
0.0
  0
TEXT
  5
155ED
  8
1DIM
 10
-810.73806526434794
 20
-2834.8687877472271
 30
0.0
 40
3.5
  1
20
  0
LINE
  5
155EE
  8
0
  6
BYBLOCK
 10
-800.11306221374946
 20
-2835.0328893672272
 30
0.0
 11
-798.11306221374934
 21
-2835.5687877472269
 31
0.0
  0
LINE
  5
155EF
  8
0
  6
BYBLOCK
 10
-798.11306221374934
 20
-2835.5687877472269
 30
0.0
 11
-800.11306221374946
 21
-2836.1046861272271
 31
0.0
  0
LINE
  5
155F0
  8
0
  6
BYBLOCK
 10
-798.11306221374934
 20
-2835.5687877472269
 30
0.0
 11
-800.11306221374946
 21
-2835.5687877472269
 31
0.0
  0
LINE
  5
155F1
  8
0
  6
BYBLOCK
 10
-816.11306831494653
 20
-2836.1046861272271
 30
0.0
 11
-818.11306831494664
 21
-2835.5687877472269
 31
0.0
  0
LINE
  5
155F2
  8
0
  6
BYBLOCK
 10
-818.11306831494664
 20
-2835.5687877472269
 30
0.0
 11
-816.11306831494653
 21
-2835.0328893672272
 31
0.0
  0
LINE
  5
155F3
  8
0
  6
BYBLOCK
 10
-818.11306831494664
 20
-2835.5687877472269
 30
0.0
 11
-816.11306831494653
 21
-2835.5687877472269
 31
0.0
  0
TEXT
  5
155F4
  8
1DIM
 10
-703.32137164828009
 20
-2822.4187877472282
 30
0.0
 40
3.5
  1
20.5 
  0
LINE
  5
155F5
  8
0
  6
BYBLOCK
 10
-690.11303831494672
 20
-2822.5828893672269
 30
0.0
 11
-688.11303831494672
 21
-2823.1187877472271
 31
0.0
  0
LINE
  5
155F6
  8
0
  6
BYBLOCK
 10
-688.11303831494672
 20
-2823.1187877472271
 30
0.0
 11
-690.11303831494672
 21
-2823.6546861272268
 31
0.0
  0
LINE
  5
155F7
  8
0
  6
BYBLOCK
 10
-688.11303831494672
 20
-2823.1187877472271
 30
0.0
 11
-690.11303831494672
 21
-2823.1187877472271
 31
0.0
  0
LINE
  5
155F8
  8
0
  6
BYBLOCK
 10
-706.61303831494672
 20
-2823.6546861272268
 30
0.0
 11
-708.61303831494672
 21
-2823.1187877472271
 31
0.0
  0
LINE
  5
155F9
  8
0
  6
BYBLOCK
 10
-708.61303831494672
 20
-2823.1187877472271
 30
0.0
 11
-706.61303831494672
 21
-2822.5828893672269
 31
0.0
  0
LINE
  5
155FA
  8
0
  6
BYBLOCK
 10
-708.61303831494672
 20
-2823.1187877472271
 30
0.0
 11
-706.61303831494672
 21
-2823.1187877472271
 31
0.0
  0
TEXT
  5
155FB
  8
1DIM
 10
-810.73803831494661
 20
-2844.8687877472271
 30
0.0
 40
3.5
  1
40 
  0
LINE
  5
155FC
  8
0
  6
BYBLOCK
 10
-790.11303831494672
 20
-2845.0328893672272
 30
0.0
 11
-788.11303831494672
 21
-2845.5687877472269
 31
0.0
  0
LINE
  5
155FD
  8
0
  6
BYBLOCK
 10
-788.11303831494672
 20
-2845.5687877472269
 30
0.0
 11
-790.11303831494672
 21
-2846.1046861272271
 31
0.0
  0
LINE
  5
155FE
  8
0
  6
BYBLOCK
 10
-788.11303831494672
 20
-2845.5687877472269
 30
0.0
 11
-790.11303831494672
 21
-2845.5687877472269
 31
0.0
  0
LINE
  5
155FF
  8
0
  6
BYBLOCK
 10
-826.11303831494672
 20
-2846.1046861272271
 30
0.0
 11
-828.11303831494661
 21
-2845.5687877472269
 31
0.0
  0
LINE
  5
15600
  8
0
  6
BYBLOCK
 10
-828.11303831494661
 20
-2845.5687877472269
 30
0.0
 11
-826.11303831494672
 21
-2845.0328893672272
 31
0.0
  0
LINE
  5
15601
  8
0
  6
BYBLOCK
 10
-828.11303831494661
 20
-2845.5687877472269
 30
0.0
 11
-826.11303831494672
 21
-2845.5687877472269
 31
0.0
  0
LINE
  5
15602
  8
0
 10
-667.46303091651976
 20
-2793.068832633126
 30
0.0
 11
-689.36299601464373
 21
-2793.068832633126
 31
0.0
  0
LINE
  5
15603
  8
0
 10
-691.86302509931579
 20
-2790.568786097228
 30
0.0
 11
-689.36299601464373
 21
-2793.068832633126
 31
0.0
  0
LINE
  5
15604
  8
0
 10
-662.16303440665888
 20
-2794.568832633126
 30
0.0
 11
-667.46303091651976
 21
-2793.068832633126
 31
0.0
  0
LINE
  5
15605
  8
0
 10
-691.86302509931579
 20
-2790.568786097228
 30
0.0
 11
-692.16302509931666
 21
-2790.568786097228
 31
0.0
  0
LINE
  5
15606
  8
0
 10
-662.16303440665888
 20
-2794.568832633126
 30
0.0
 11
-667.46303789690421
 21
-2796.068832633126
 31
0.0
  0
LINE
  5
15607
  8
0
 10
-692.16302509931666
 20
-2790.568786097228
 30
0.0
 11
-692.16304371367596
 21
-2798.568786097228
 31
0.0
  0
LINE
  5
15608
  8
0
 10
-667.46303789690421
 20
-2796.068832633126
 30
0.0
 11
-689.36306116500884
 21
-2796.068832633126
 31
0.0
  0
LINE
  5
15609
  8
0
 10
-691.86304371367498
 20
-2798.568786097228
 30
0.0
 11
-692.16304371367596
 21
-2798.568786097228
 31
0.0
  0
LINE
  5
1560A
  8
0
 10
-691.86304371367498
 20
-2798.568786097228
 30
0.0
 11
-689.36306116500884
 21
-2796.068832633126
 31
0.0
  0
LINE
  5
1560B
  8
1DIM
 10
-828.60672004078219
 20
-2715.3044657788691
 30
0.0
 11
-844.91303831494656
 21
-2743.7870312654391
 31
0.0
  0
LINE
  5
1560C
  8
1DIM
 10
-844.91303831494656
 20
-2743.7870312654391
 30
0.0
 11
-892.87970498161337
 21
-2743.7870312654391
 31
0.0
  0
LINE
  5
1560D
  8
1DIM
 10
-810.32128150880862
 20
-2740.2280072529129
 30
0.0
 11
-826.62759978297311
 21
-2768.7105727394819
 31
0.0
  0
LINE
  5
1560E
  8
1DIM
 10
-826.62759978297311
 20
-2768.7105727394819
 30
0.0
 11
-874.5942664496398
 21
-2768.7105727394819
 31
0.0
  0
VIEWPORT
  5
57
 67
     1
  8
0
 10
-12.71820606546882
 20
10.09248672500371
 30
0.0
 40
426.48431561502389
 41
282.79835762855021
 68
     1
 69
     1
1001
ACAD
1000
MVIEW
1002
{
1070
    16
1010
0.0
1020
0.0
1030
0.0
1010
0.0
1020
0.0
1030
1.0
1040
0.0
1040
282.79835762855021
1040
-12.71820606546882
1040
10.09248672500371
1040
50.0
1040
0.0
1040
0.0
1070
     0
1070
   100
1070
     1
1070
     1
1070
     0
1070
     0
1070
     0
1070
     0
1040
0.0
1040
0.0
1040
0.0
1040
10.0
1040
10.0
1040
10.0
1040
10.0
1070
     0
1002
{
1002
}
1002
}
  0
ENDSEC
  0
EOF
