  0
SECTION
  2
HEADER
  9
$ACADVER
  1
AC1009
  9
$INSBASE
 10
0.0
 20
0.0
 30
0.0
  9
$EXTMIN
 10
-986.73740698571112
 20
-2228.1621247153339
 30
0.0
  9
$EXTMAX
 10
-640.13049072138392
 20
-2008.4332593166589
 30
0.0
  9
$LIMMIN
 10
0.0
 20
0.0
  9
$LIMMAX
 10
420.0
 20
297.0
  9
$ORTHOMODE
 70
     0
  9
$REGENMODE
 70
     1
  9
$FILLMODE
 70
     1
  9
$QTEXTMODE
 70
     0
  9
$MIRRTEXT
 70
     0
  9
$DRAGMODE
 70
     2
  9
$LTSCALE
 40
0.5
  9
$OSMODE
 70
  2175
  9
$ATTMODE
 70
     1
  9
$TEXTSIZE
 40
4.0
  9
$TRACEWID
 40
1.0
  9
$TEXTSTYLE
  7
STANDARD
  9
$CLAYER
  8
1TEXT
  9
$CELTYPE
  6
BYLAYER
  9
$CECOLOR
 62
   256
  9
$DIMSCALE
 40
1.0
  9
$DIMASZ
 40
2.0
  9
$DIMEXO
 40
0.0
  9
$DIMDLI
 40
7.0
  9
$DIMRND
 40
0.0
  9
$DIMDLE
 40
0.0
  9
$DIMEXE
 40
1.0
  9
$DIMTP
 40
0.0
  9
$DIMTM
 40
0.0
  9
$DIMTXT
 40
3.5
  9
$DIMCEN
 40
0.0
  9
$DIMTSZ
 40
0.0
  9
$DIMTOL
 70
     0
  9
$DIMLIM
 70
     0
  9
$DIMTIH
 70
     0
  9
$DIMTOH
 70
     0
  9
$DIMSE1
 70
     0
  9
$DIMSE2
 70
     0
  9
$DIMTAD
 70
     1
  9
$DIMZIN
 70
     8
  9
$DIMBLK
  1

  9
$DIMASO
 70
     1
  9
$DIMSHO
 70
     1
  9
$DIMPOST
  1
 
  9
$DIMAPOST
  1

  9
$DIMALT
 70
     0
  9
$DIMALTD
 70
     2
  9
$DIMALTF
 40
25.399999999999999
  9
$DIMLFAC
 40
1.0
  9
$DIMTOFL
 70
     1
  9
$DIMTVP
 40
0.0
  9
$DIMTIX
 70
     0
  9
$DIMSOXD
 70
     0
  9
$DIMSAH
 70
     1
  9
$DIMBLK1
  1
OPEN30
  9
$DIMBLK2
  1
OPEN30
  9
$DIMSTYLE
  2
NEWX10
  9
$DIMCLRD
 70
   256
  9
$DIMCLRE
 70
   256
  9
$DIMCLRT
 70
   201
  9
$DIMTFAC
 40
0.7
  9
$DIMGAP
 40
0.7
  9
$LUNITS
 70
     2
  9
$LUPREC
 70
     4
  9
$SKETCHINC
 40
1.0
  9
$FILLETRAD
 40
0.0
  9
$AUNITS
 70
     0
  9
$AUPREC
 70
     2
  9
$MENU
  1
acad
  9
$ELEVATION
 40
0.0
  9
$PELEVATION
 40
0.0
  9
$THICKNESS
 40
0.0
  9
$LIMCHECK
 70
     0
  9
$BLIPMODE
 70
     0
  9
$CHAMFERA
 40
10.0
  9
$CHAMFERB
 40
10.0
  9
$SKPOLY
 70
     0
  9
$TDCREATE
 40
2453033.7326634838
  9
$TDUPDATE
 40
2453719.5806636931
  9
$TDINDWG
 40
1.6218240046000001
  9
$TDUSRTIMER
 40
1.6218240046000001
  9
$USRTIMER
 70
     1
  9
$ANGBASE
 50
0.0
  9
$ANGDIR
 70
     0
  9
$PDMODE
 70
     0
  9
$PDSIZE
 40
0.0
  9
$PLINEWID
 40
0.0
  9
$COORDS
 70
     2
  9
$SPLFRAME
 70
     0
  9
$SPLINETYPE
 70
     6
  9
$SPLINESEGS
 70
     8
  9
$ATTDIA
 70
     0
  9
$ATTREQ
 70
     1
  9
$HANDLING
 70
     1
  9
$HANDSEED
  5
15882
  9
$SURFTAB1
 70
     6
  9
$SURFTAB2
 70
     6
  9
$SURFTYPE
 70
     6
  9
$SURFU
 70
     6
  9
$SURFV
 70
     6
  9
$UCSNAME
  2

  9
$UCSORG
 10
0.0
 20
0.0
 30
0.0
  9
$UCSXDIR
 10
1.0
 20
0.0
 30
0.0
  9
$UCSYDIR
 10
0.0
 20
1.0
 30
0.0
  9
$PUCSNAME
  2

  9
$PUCSORG
 10
0.0
 20
0.0
 30
0.0
  9
$PUCSXDIR
 10
1.0
 20
0.0
 30
0.0
  9
$PUCSYDIR
 10
0.0
 20
1.0
 30
0.0
  9
$USERI1
 70
     0
  9
$USERI2
 70
     0
  9
$USERI3
 70
     0
  9
$USERI4
 70
     0
  9
$USERI5
 70
     0
  9
$USERR1
 40
0.0
  9
$USERR2
 40
0.0
  9
$USERR3
 40
0.0
  9
$USERR4
 40
0.0
  9
$USERR5
 40
0.0
  9
$WORLDVIEW
 70
     1
  9
$SHADEDGE
 70
     3
  9
$SHADEDIF
 70
    70
  9
$TILEMODE
 70
     1
  9
$MAXACTVP
 70
    48
  9
$PLIMCHECK
 70
     0
  9
$PEXTMIN
 10
1.0000000000000000E+020
 20
1.0000000000000000E+020
 30
1.0000000000000000E+020
  9
$PEXTMAX
 10
-1.0000000000000000E+020
 20
-1.0000000000000000E+020
 30
-1.0000000000000000E+020
  9
$PLIMMIN
 10
0.0
 20
0.0
  9
$PLIMMAX
 10
420.0
 20
297.0
  9
$UNITMODE
 70
     0
  9
$VISRETAIN
 70
     1
  9
$PLINEGEN
 70
     0
  9
$PSLTSCALE
 70
     1
  0
ENDSEC
  0
SECTION
  2
TABLES
  0
TABLE
  2
VPORT
 70
     4
  0
VPORT
  2
*ACTIVE
 70
     0
 10
0.0
 20
0.0
 11
1.0
 21
1.0
 12
-813.44957646805995
 22
-2118.329743522364
 13
0.0
 23
0.0
 14
10.0
 24
10.0
 15
10.0
 25
10.0
 16
0.0
 26
0.0
 36
1.0
 17
0.0
 27
0.0
 37
0.0
 40
243.26249824494479
 41
1.508086253369272
 42
50.0
 43
0.0
 44
0.0
 50
0.0
 51
0.0
 71
     0
 72
   100
 73
     1
 74
     1
 75
     0
 76
     0
 77
     0
 78
     0
  0
ENDTAB
  0
TABLE
  2
LTYPE
 70
    15
  0
LTYPE
  2
CONTINUOUS
 70
     0
  3
Solid line
 72
    65
 73
     0
 40
0.0
  0
LTYPE
  2
CENTER2
 70
     0
  3
Center (.5x) ___ _ ___ _ ___ _ ___ _ ___ _ ___
 72
    65
 73
     4
 40
28.574999999999999
 49
19.050000000000001
 49
-3.1749999999999989
 49
3.1749999999999989
 49
-3.1749999999999989
  0
LTYPE
  2
XREF1|CENTER2
 70
    48
  3
Center (.5x) ___ _ ___ _ ___ _ ___ _ ___ _ ___
 72
    65
 73
     4
 40
28.574999999999999
 49
19.050000000000001
 49
-3.1749999999999989
 49
3.1749999999999989
 49
-3.1749999999999989
  0
LTYPE
  2
PHANTOM2
 70
     0
  3
Phantom (.5x) ___ _ _ ___ _ _ ___ _ _ ___ _ _
 72
    65
 73
     6
 40
31.75
 49
15.875
 49
-3.1749999999999989
 49
3.1749999999999989
 49
-3.1749999999999989
 49
3.1749999999999989
 49
-3.1749999999999989
  0
LTYPE
  2
A3WAKUDAKE|CENTER2
 70
    48
  3
Center (.5x) ___ _ ___ _ ___ _ ___ _ ___ _ ___
 72
    65
 73
     4
 40
28.574999999999999
 49
19.050000000000001
 49
-3.1749999999999989
 49
3.1749999999999989
 49
-3.1749999999999989
  0
ENDTAB
  0
TABLE
  2
LAYER
 70
    44
  0
LAYER
  2
0
 70
     0
 62
     7
  6
CONTINUOUS
  0
LAYER
  2
1CENTER
 70
     0
 62
     7
  6
CENTER2
  0
LAYER
  2
1TEXT
 70
     0
 62
     7
  6
CONTINUOUS
  0
LAYER
  2
1DIM
 70
     0
 62
     7
  6
CONTINUOUS
  0
LAYER
  2
1PHANTOM
 70
     0
 62
     7
  6
PHANTOM2
  0
LAYER
  2
01
 70
     0
 62
     1
  6
CONTINUOUS
  0
LAYER
  2
1HATCH
 70
     0
 62
     7
  6
CONTINUOUS
  0
LAYER
  2
XREF1|1CENTER
 70
    48
 62
     7
  6
XREF1|CENTER2
  0
LAYER
  2
A3WAKUDAKE|THICK
 70
    48
 62
     7
  6
CONTINUOUS
  0
LAYER
  2
A3WAKUDAKE|POINT
 70
    48
 62
     7
  6
CONTINUOUS
  0
LAYER
  2
A3WAKUDAKE|1CENTER
 70
    48
 62
     7
  6
A3WAKUDAKE|CENTER2
  0
LAYER
  2
A3WAKUDAKE|0-6
 70
    48
 62
     7
  6
CONTINUOUS
  0
LAYER
  2
A3WAKUDAKE|1DIM
 70
    48
 62
     7
  6
CONTINUOUS
  0
ENDTAB
  0
TABLE
  2
STYLE
 70
    22
  0
STYLE
  2
STANDARD
 70
     0
 40
0.0
 41
1.0
 50
0.0
 71
     0
 42
4.0
  3
txt.shx
  4
extfont.shx
  0
ENDTAB
  0
TABLE
  2
VIEW
 70
     0
  0
ENDTAB
  0
TABLE
  2
UCS
 70
     0
  0
ENDTAB
  0
TABLE
  2
APPID
 70
     9
  0
APPID
  2
ACAD
 70
     0
  0
APPID
  2
DRAWINGVARIABLESXDATA
 70
     0
  0
APPID
  2
CONTENTTABDATA
 70
     0
  0
APPID
  2
CONTENTCURRENTTAB
 70
     0
  0
APPID
  2
CONTENTBLOCKDESCRIPTION
 70
     0
  0
APPID
  2
CONTENTBLOCKICON
 70
     0
  0
APPID
  2
CONTENTLONGBLOCKNAME
 70
     0
  0
APPID
  2
ACAD_PSEXT
 70
     0
  0
APPID
  2
ACAD_DSTYLE_DIMTEXT_FILL
 70
     0
  0
ENDTAB
  0
TABLE
  2
DIMSTYLE
 70
     9
  0
DIMSTYLE
  2
NEWX10
 70
     0
  3
 
  4

  5

  6
OPEN30
  7
OPEN30
 40
1.0
 41
2.0
 42
0.0
 43
7.0
 44
1.0
 45
0.0
 46
0.0
 47
0.0
 48
0.0
140
3.5
141
0.0
142
0.0
143
25.399999999999999
144
1.0
145
0.0
146
0.7
147
0.7
 71
     0
 72
     0
 73
     0
 74
     0
 75
     0
 76
     0
 77
     1
 78
     8
170
     0
171
     2
172
     1
173
     1
174
     0
175
     0
176
   256
177
   256
178
   201
  0
ENDTAB
  0
ENDSEC
  0
SECTION
  2
BLOCKS
  0
BLOCK
  8
0
  2
$MODEL_SPACE
 70
     0
 10
0.0
 20
0.0
 30
0.0
  3
$MODEL_SPACE
  1

  0
ENDBLK
  5
1A
  8
0
  0
BLOCK
 67
     1
  8
0
  2
$PAPER_SPACE
 70
     0
 10
0.0
 20
0.0
 30
0.0
  3
$PAPER_SPACE
  1

  0
ENDBLK
  5
17
 67
     1
  8
0
  0
BLOCK
  8
0
  2
_OPEN30
 70
     0
 10
0.0
 20
0.0
 30
0.0
  3
_OPEN30
  1

  0
LINE
  5
44
  8
0
  6
BYBLOCK
 62
     0
 10
-1.0
 20
0.26794919
 30
0.0
 11
0.0
 21
0.0
 31
0.0
  0
LINE
  5
45
  8
0
  6
BYBLOCK
 62
     0
 10
0.0
 20
0.0
 30
0.0
 11
-1.0
 21
-0.26794919
 31
0.0
  0
LINE
  5
46
  8
0
  6
BYBLOCK
 62
     0
 10
0.0
 20
0.0
 30
0.0
 11
-1.0
 21
0.0
 31
0.0
  0
ENDBLK
  5
47
  8
0
  0
BLOCK
  8
0
  2
XREF1
 70
    36
 10
0.0
 20
0.0
 30
0.0
  3
XREF1
  1
D:\ACLT\FORMAT\KAWAJUN(9)図面用.dwg
  0
ENDBLK
  5
5D
  8
0
  0
BLOCK
  8
0
  2
A3WAKUDAKE
 70
    36
 10
0.0
 20
0.0
 30
0.0
  3
A3WAKUDAKE
  1
D:\ACLT\FORMAT\A3WAKUdake.dwg
  0
ENDBLK
  5
6DC
  8
0
  0
BLOCK
  8
0
  2
*U19
 70
     1
 10
0.0
 20
0.0
 30
0.0
  3
*U19
  1

  0
LINE
  5
15747
  8
0
 10
-24.70000348997651
 20
-1.4999534641020771
 30
0.0
 11
-2.8000383918526941
 21
-1.4999534641020771
 31
0.0
  0
LINE
  5
15748
  8
0
 10
-0.3000093071805736
 20
-4.0
 30
0.0
 11
-2.8000383918526941
 21
-1.4999534641020771
 31
0.0
  0
LINE
  5
15749
  8
0
 10
-29.999999999837598
 20
0.0000465358979227
 30
0.0
 11
-24.70000348997651
 21
-1.4999534641020771
 31
0.0
  0
LINE
  5
1574A
  8
0
 10
-0.3000093071805736
 20
-4.0
 30
0.0
 11
-0.0000093071795959
 21
-4.0
 31
0.0
  0
LINE
  5
1574B
  8
0
 10
-29.999999999837598
 20
0.0000465358979227
 30
0.0
 11
-24.69999650959226
 21
1.500046535897922
 31
0.0
  0
LINE
  5
1574C
  8
0
 10
-0.0000093071795959
 20
-4.0
 30
0.0
 11
0.0000093071795959
 21
4.0
 31
0.0
  0
LINE
  5
1574D
  8
0
 10
-24.69999650959226
 20
1.500046535897922
 30
0.0
 11
-2.7999732414874918
 21
1.500046535897922
 31
0.0
  0
LINE
  5
1574E
  8
0
 10
-0.2999906928214955
 20
4.0
 30
0.0
 11
0.0000093071795959
 21
4.0
 31
0.0
  0
LINE
  5
1574F
  8
0
 10
-0.2999906928214955
 20
4.0
 30
0.0
 11
-2.7999732414874918
 21
1.500046535897922
 31
0.0
  0
ENDBLK
  5
15751
  8
0
  0
BLOCK
  8
0
  2
*U20
 70
     1
 10
0.0
 20
0.0
 30
0.0
  3
*U20
  1

  0
TEXT
  5
15753
  8
1DIM
 62
   201
 10
-891.90470498161324
 20
-2111.3377560445701
 30
0.0
 40
3.5
  1
190 
  0
ENDBLK
  5
15755
  8
0
  0
BLOCK
  8
0
  2
*U21
 70
     1
 10
0.0
 20
0.0
 30
0.0
  3
*U21
  1

  0
TEXT
  5
15757
  8
1DIM
 62
   201
 10
-773.81303831494631
 20
-2179.41275604457
 30
0.0
 40
3.5
  1
102.5 
 50
90.0
  0
ENDBLK
  5
15759
  8
0
  0
BLOCK
  8
0
  2
*U22
 70
     1
 10
0.0
 20
0.0
 30
0.0
  3
*U22
  1

  0
TEXT
  5
1575B
  8
1DIM
 62
   201
 10
-783.8130383149462
 20
-2085.996089377903
 30
0.0
 40
3.5
  1
φ10
 50
90.0
  0
ENDBLK
  5
1575D
  8
0
  0
BLOCK
  8
0
  2
*U23
 70
     1
 10
0.0
 20
0.0
 30
0.0
  3
*U23
  1

  0
TEXT
  5
1575F
  8
1DIM
 62
   201
 10
-783.8130383149462
 20
-2187.16275604457
 30
0.0
 40
3.5
  1
80 
 50
90.0
  0
ENDBLK
  5
15761
  8
0
  0
BLOCK
  8
0
  2
*U24
 70
     1
 10
0.0
 20
0.0
 30
0.0
  3
*U24
  1

  0
TEXT
  5
15763
  8
1DIM
 62
   201
 10
-753.81303831494631
 20
-2141.03775604457
 30
0.0
 40
3.5
  1
27.5 
 50
90.0
  0
ENDBLK
  5
15765
  8
0
  0
BLOCK
  8
0
  2
*U25
 70
     1
 10
0.0
 20
0.0
 30
0.0
  3
*U25
  1

  0
TEXT
  5
15767
  8
1DIM
 62
   201
 10
-893.47970498161305
 20
-2186.3377560445701
 30
0.0
 40
3.5
  1
φ55
  0
ENDBLK
  5
15769
  8
0
  0
BLOCK
  8
0
  2
*U26
 70
     1
 10
0.0
 20
0.0
 30
0.0
  3
*U26
  1

  0
TEXT
  5
1576B
  8
1DIM
 62
   201
 10
-692.44637214420322
 20
-2186.3377560445701
 30
0.0
 40
3.5
  1
18 
  0
ENDBLK
  5
1576D
  8
0
  0
BLOCK
  8
0
  2
*U27
 70
     1
 10
0.0
 20
0.0
 30
0.0
  3
*U27
  1

  0
TEXT
  5
1576F
  8
1DIM
 62
   201
 10
-712.52970498161312
 20
-2111.3377560445701
 30
0.0
 40
3.5
  1
57 
  0
ENDBLK
  5
15771
  8
0
  0
BLOCK
  8
0
  2
*U28
 70
     1
 10
0.0
 20
0.0
 30
0.0
  3
*U28
  1

  0
TEXT
  5
15773
  8
1DIM
 62
   201
 10
-716.52970498161312
 20
-2101.3377560445701
 30
0.0
 40
3.5
  1
65 
  0
ENDBLK
  5
15775
  8
0
  0
BLOCK
  8
0
  2
*U29
 70
     1
 10
0.0
 20
0.0
 30
0.0
  3
*U29
  1

  0
TEXT
  5
15777
  8
1DIM
 62
   201
 10
-641.83049072138363
 20
-2130.4875141618832
 30
0.0
 40
3.5
  1
12 
 50
90.0
  0
ENDBLK
  5
15779
  8
0
  0
BLOCK
  8
0
  2
*U30
 70
     1
 10
0.0
 20
0.0
 30
0.0
  3
*U30
  1

  0
TEXT
  5
1577B
  8
1DIM
 62
   201
 10
-641.83049072138363
 20
-2151.8956056125289
 30
0.0
 40
3.5
  1
30 
 50
90.0
  0
ENDBLK
  5
1577D
  8
0
  0
ENDSEC
  0
SECTION
  2
ENTITIES
  0
LINE
  5
F132
  8
01
 10
-672.13049072138392
 20
-2109.2706056125289
 30
0.0
 11
-672.13049072138392
 21
-2189.2706056125289
 31
0.0
  0
LINE
  5
F133
  8
01
 10
-663.13049072138392
 20
-2109.2706056125289
 30
0.0
 11
-663.13049072138392
 21
-2189.2706056125289
 31
0.0
  0
LINE
  5
F134
  8
01
 10
-681.13049072138381
 20
-2109.2706056125289
 30
0.0
 11
-681.13049072138381
 21
-2189.2706056125289
 31
0.0
  0
LINE
  5
15048
  8
01
 10
-793.11303831494661
 20
-2190.53775604457
 30
0.0
 11
-793.11303831494661
 21
-2207.03775604457
 31
0.0
  0
ARC
  5
15049
  8
01
 10
-810.61303831494661
 20
-2207.03775604457
 30
0.0
 40
17.5
 50
270.0
 51
0.0
  0
ARC
  5
1504A
  8
01
 10
-794.11303831494661
 20
-2190.53775604457
 30
0.0
 40
1.0
 50
0.0
 51
90.0
  0
LINE
  5
1504B
  8
01
 10
-803.11303831494661
 20
-2190.53775604457
 30
0.0
 11
-803.11303831494627
 21
-2207.03775604457
 31
0.0
  0
ARC
  5
1504C
  8
01
 10
-810.61303831494638
 20
-2207.03775604457
 30
0.0
 40
7.5
 50
270.0
 51
0.0
  0
ARC
  5
1504D
  8
01
 10
-802.11303831494649
 20
-2190.53775604457
 30
0.0
 40
1.0
 50
90.0
 51
180.0
  0
LINE
  5
1504F
  8
01
 10
-983.11303831494649
 20
-2162.03775604457
 30
0.0
 11
-983.11303831494649
 21
-2207.03775604457
 31
0.0
  0
ARC
  5
15050
  8
01
 10
-965.61303831494661
 20
-2162.03775604457
 30
0.0
 40
17.5
 50
90.0
 51
180.0
  0
LINE
  5
15051
  8
01
 10
-973.11303831494661
 20
-2162.03775604457
 30
0.0
 11
-973.11303831494661
 21
-2207.03775604457
 31
0.0
  0
ARC
  5
15052
  8
01
 10
-965.61303831494661
 20
-2162.03775604457
 30
0.0
 40
7.5
 50
90.0
 51
180.0
  0
LINE
  5
15057
  8
01
 10
-794.11303831494661
 20
-2189.53775604457
 30
0.0
 11
-802.11303831494649
 21
-2189.53775604457
 31
0.0
  0
LINE
  5
15058
  8
01
 10
-810.61303831494661
 20
-2224.53775604457
 30
0.0
 11
-965.61303831494661
 21
-2224.53775604457
 31
0.0
  0
ARC
  5
15059
  8
01
 10
-965.61303831494661
 20
-2207.03775604457
 30
0.0
 40
17.5
 50
180.0
 51
270.0
  0
LINE
  5
1505A
  8
01
 10
-810.61303831494638
 20
-2214.53775604457
 30
0.0
 11
-965.61303831494661
 21
-2214.53775604457
 31
0.0
  0
ARC
  5
1505B
  8
01
 10
-965.61303831494661
 20
-2207.03775604457
 30
0.0
 40
7.5
 50
180.0
 51
270.0
  0
LINE
  5
1505C
  8
01
 10
-908.11303831494638
 20
-2154.53775604457
 30
0.0
 11
-965.61303831494661
 21
-2154.53775604457
 31
0.0
  0
LINE
  5
1505D
  8
01
 10
-908.11303831494638
 20
-2144.53775604457
 30
0.0
 11
-965.61303831494661
 21
-2144.53775604457
 31
0.0
  0
LINE
  5
1505E
  8
01
 10
-868.11303831494627
 20
-2142.03775604457
 30
0.0
 11
-868.11303831494627
 21
-2157.03775604457
 31
0.0
  0
ARC
  5
1505F
  8
01
 10
-868.61303831494638
 20
-2157.03775604457
 30
0.0
 40
0.5
 50
270.0
 51
0.0
  0
LINE
  5
15060
  8
01
 10
-908.11303831494638
 20
-2142.03775604457
 30
0.0
 11
-908.11303831494638
 21
-2157.03775604457
 31
0.0
  0
ARC
  5
15061
  8
01
 10
-907.61303831494627
 20
-2142.03775604457
 30
0.0
 40
0.5
 50
90.0
 51
180.0
  0
LINE
  5
15062
  8
01
 10
-868.61303831494638
 20
-2157.53775604457
 30
0.0
 11
-907.61303831494627
 21
-2157.53775604457
 31
0.0
  0
ARC
  5
15063
  8
01
 10
-907.61303831494627
 20
-2157.03775604457
 30
0.0
 40
0.5
 50
180.0
 51
270.0
  0
LINE
  5
15064
  8
01
 10
-868.61303831494638
 20
-2141.53775604457
 30
0.0
 11
-907.61303831494627
 21
-2141.53775604457
 31
0.0
  0
ARC
  5
15065
  8
01
 10
-868.61303831494638
 20
-2142.03775604457
 30
0.0
 40
0.5
 50
0.0
 51
90.0
  0
ARC
  5
15066
  8
01
 10
-888.11303831494638
 20
-2149.53775604457
 30
0.0
 40
12.0
 50
221.8103148957702
 51
318.1896851042298
  0
ARC
  5
15067
  8
01
 10
-888.11303831494638
 20
-2149.53775604457
 30
0.0
 40
12.0
 50
41.810314895770183
 51
138.1896851042298
  0
ARC
  5
15068
  8
01
 10
-888.11303831494638
 20
-2149.53775604457
 30
0.0
 40
27.5
 50
190.4756816963889
 51
169.52431830361849
  0
LINE
  5
1506A
  8
01
 10
-860.61303831494638
 20
-2042.53775604457
 30
0.0
 11
-860.61303831494638
 21
-2037.03775604457
 31
0.0
  0
ARC
  5
1506B
  8
01
 10
-861.11303831494627
 20
-2042.53775604457
 30
0.0
 40
0.5
 50
270.0
 51
0.0
  0
LINE
  5
1506C
  8
01
 10
-915.61303831494627
 20
-2042.53775604457
 30
0.0
 11
-915.61303831494627
 21
-2037.03775604457
 31
0.0
  0
ARC
  5
1506D
  8
01
 10
-915.11303831494638
 20
-2042.53775604457
 30
0.0
 40
0.5
 50
180.0
 51
270.0
  0
LINE
  5
1506E
  8
01
 10
-876.11303831494627
 20
-2066.53775604457
 30
0.0
 11
-876.11303831494627
 21
-2043.03775604457
 31
0.0
  0
ARC
  5
1506F
  8
01
 10
-876.61303831494638
 20
-2066.53775604457
 30
0.0
 40
0.5
 50
270.0
 51
0.0
  0
LINE
  5
15070
  8
01
 10
-900.11303831494638
 20
-2066.53775604457
 30
0.0
 11
-900.11303831494638
 21
-2043.03775604457
 31
0.0
  0
ARC
  5
15071
  8
01
 10
-899.61303831494627
 20
-2066.53775604457
 30
0.0
 40
0.5
 50
180.0
 51
270.0
  0
LINE
  5
15072
  8
01
 10
-908.11303831494649
 20
-2101.53775604457
 30
0.0
 11
-908.11303831494638
 21
-2086.53775604457
 31
0.0
  0
ARC
  5
15073
  8
01
 10
-907.61303831494627
 20
-2086.53775604457
 30
0.0
 40
0.5
 50
90.0
 51
180.0
  0
LINE
  5
15074
  8
01
 10
-868.11303831494627
 20
-2101.53775604457
 30
0.0
 11
-868.11303831494627
 21
-2086.53775604457
 31
0.0
  0
ARC
  5
15075
  8
01
 10
-868.61303831494638
 20
-2101.53775604457
 30
0.0
 40
0.5
 50
270.0
 51
0.0
  0
LINE
  5
15076
  8
01
 10
-895.11303831494627
 20
-2085.53775604457
 30
0.0
 11
-895.11303831494627
 21
-2067.03775604457
 31
0.0
  0
ARC
  5
15077
  8
01
 10
-895.61303831494638
 20
-2085.53775604457
 30
0.0
 40
0.5
 50
270.0
 51
0.0
  0
LINE
  5
15078
  8
01
 10
-881.11303831494638
 20
-2085.53775604457
 30
0.0
 11
-881.11303831494638
 21
-2067.03775604457
 31
0.0
  0
LINE
  5
15079
  8
01
 10
-907.61303831494627
 20
-2086.03775604457
 30
0.0
 11
-895.61303831494638
 21
-2086.03775604457
 31
0.0
  0
LINE
  5
1507A
  8
01
 10
-880.61303831494627
 20
-2086.03775604457
 30
0.0
 11
-868.61303831494638
 21
-2086.03775604457
 31
0.0
  0
ARC
  5
1507B
  8
01
 10
-880.61303831494627
 20
-2085.53775604457
 30
0.0
 40
0.5
 50
180.0
 51
270.0
  0
ARC
  5
1507C
  8
01
 10
-868.61303831494638
 20
-2086.53775604457
 30
0.0
 40
0.5
 50
0.0
 51
90.0
  0
LINE
  5
1507E
  8
01
 10
-907.61303831494661
 20
-2102.03775604457
 30
0.0
 11
-868.61303831494638
 21
-2102.03775604457
 31
0.0
  0
ARC
  5
1507F
  8
01
 10
-907.61303831494661
 20
-2101.53775604457
 30
0.0
 40
0.5
 50
180.0
 51
270.0
  0
LINE
  5
15080
  8
01
 10
-876.61303831494638
 20
-2067.03775604457
 30
0.0
 11
-899.61303831494627
 21
-2067.03775604457
 31
0.0
  0
LINE
  5
15081
  8
01
 10
-861.11303831494627
 20
-2043.03775604457
 30
0.0
 11
-915.11303831494638
 21
-2043.03775604457
 31
0.0
  0
LINE
  5
15082
  8
01
 10
-860.61303831494638
 20
-2037.03775604457
 30
0.0
 11
-915.61303831494627
 21
-2037.03775604457
 31
0.0
  0
POLYLINE
  5
15083
  8
01
 10
-881.11303831494638
 20
-2085.53775604457
 30
0.0
 66
     1
 70
     8
  0
VERTEX
  8
01
  5
1577E
 10
-881.113
 20
-2085.54
 30
0.000000
  70
    32
  0
VERTEX
  8
01
  5
1577F
 10
-881.115
 20
-2085.65
 30
0.000000
  70
    32
  0
VERTEX
  8
01
  5
15780
 10
-881.121
 20
-2085.76
 30
0.000000
  70
    32
  0
VERTEX
  8
01
  5
15781
 10
-881.132
 20
-2085.88
 30
0.000000
  70
    32
  0
VERTEX
  8
01
  5
15782
 10
-881.147
 20
-2085.99
 30
0.000000
  70
    32
  0
VERTEX
  8
01
  5
15783
 10
-881.166
 20
-2086.10
 30
0.000000
  70
    32
  0
VERTEX
  8
01
  5
15784
 10
-881.189
 20
-2086.22
 30
0.000000
  70
    32
  0
VERTEX
  8
01
  5
15785
 10
-881.216
 20
-2086.33
 30
0.000000
  70
    32
  0
VERTEX
  8
01
  5
15786
 10
-881.248
 20
-2086.44
 30
0.000000
  70
    32
  0
VERTEX
  8
01
  5
15787
 10
-881.283
 20
-2086.55
 30
0.000000
  70
    32
  0
VERTEX
  8
01
  5
15788
 10
-881.323
 20
-2086.66
 30
0.000000
  70
    32
  0
VERTEX
  8
01
  5
15789
 10
-881.367
 20
-2086.77
 30
0.000000
  70
    32
  0
VERTEX
  8
01
  5
1578A
 10
-881.414
 20
-2086.88
 30
0.000000
  70
    32
  0
VERTEX
  8
01
  5
1578B
 10
-881.466
 20
-2086.99
 30
0.000000
  70
    32
  0
VERTEX
  8
01
  5
1578C
 10
-881.522
 20
-2087.10
 30
0.000000
  70
    32
  0
VERTEX
  8
01
  5
1578D
 10
-881.582
 20
-2087.20
 30
0.000000
  70
    32
  0
VERTEX
  8
01
  5
1578E
 10
-881.646
 20
-2087.31
 30
0.000000
  70
    32
  0
VERTEX
  8
01
  5
1578F
 10
-881.714
 20
-2087.41
 30
0.000000
  70
    32
  0
VERTEX
  8
01
  5
15790
 10
-881.785
 20
-2087.52
 30
0.000000
  70
    32
  0
VERTEX
  8
01
  5
15791
 10
-881.860
 20
-2087.62
 30
0.000000
  70
    32
  0
VERTEX
  8
01
  5
15792
 10
-881.940
 20
-2087.72
 30
0.000000
  70
    32
  0
VERTEX
  8
01
  5
15793
 10
-882.022
 20
-2087.82
 30
0.000000
  70
    32
  0
VERTEX
  8
01
  5
15794
 10
-882.109
 20
-2087.92
 30
0.000000
  70
    32
  0
VERTEX
  8
01
  5
15795
 10
-882.199
 20
-2088.01
 30
0.000000
  70
    32
  0
VERTEX
  8
01
  5
15796
 10
-882.293
 20
-2088.11
 30
0.000000
  70
    32
  0
VERTEX
  8
01
  5
15797
 10
-882.390
 20
-2088.20
 30
0.000000
  70
    32
  0
VERTEX
  8
01
  5
15798
 10
-882.491
 20
-2088.29
 30
0.000000
  70
    32
  0
VERTEX
  8
01
  5
15799
 10
-882.595
 20
-2088.38
 30
0.000000
  70
    32
  0
VERTEX
  8
01
  5
1579A
 10
-882.702
 20
-2088.47
 30
0.000000
  70
    32
  0
VERTEX
  8
01
  5
1579B
 10
-882.813
 20
-2088.56
 30
0.000000
  70
    32
  0
VERTEX
  8
01
  5
1579C
 10
-882.926
 20
-2088.65
 30
0.000000
  70
    32
  0
VERTEX
  8
01
  5
1579D
 10
-883.043
 20
-2088.73
 30
0.000000
  70
    32
  0
VERTEX
  8
01
  5
1579E
 10
-883.163
 20
-2088.81
 30
0.000000
  70
    32
  0
VERTEX
  8
01
  5
1579F
 10
-883.286
 20
-2088.89
 30
0.000000
  70
    32
  0
VERTEX
  8
01
  5
157A0
 10
-883.412
 20
-2088.97
 30
0.000000
  70
    32
  0
VERTEX
  8
01
  5
157A1
 10
-883.541
 20
-2089.04
 30
0.000000
  70
    32
  0
VERTEX
  8
01
  5
157A2
 10
-883.672
 20
-2089.11
 30
0.000000
  70
    32
  0
VERTEX
  8
01
  5
157A3
 10
-883.806
 20
-2089.19
 30
0.000000
  70
    32
  0
VERTEX
  8
01
  5
157A4
 10
-883.943
 20
-2089.25
 30
0.000000
  70
    32
  0
VERTEX
  8
01
  5
157A5
 10
-884.082
 20
-2089.32
 30
0.000000
  70
    32
  0
VERTEX
  8
01
  5
157A6
 10
-884.224
 20
-2089.38
 30
0.000000
  70
    32
  0
VERTEX
  8
01
  5
157A7
 10
-884.368
 20
-2089.45
 30
0.000000
  70
    32
  0
VERTEX
  8
01
  5
157A8
 10
-884.514
 20
-2089.51
 30
0.000000
  70
    32
  0
VERTEX
  8
01
  5
157A9
 10
-884.663
 20
-2089.56
 30
0.000000
  70
    32
  0
VERTEX
  8
01
  5
157AA
 10
-884.813
 20
-2089.62
 30
0.000000
  70
    32
  0
VERTEX
  8
01
  5
157AB
 10
-884.966
 20
-2089.67
 30
0.000000
  70
    32
  0
VERTEX
  8
01
  5
157AC
 10
-885.120
 20
-2089.72
 30
0.000000
  70
    32
  0
VERTEX
  8
01
  5
157AD
 10
-885.276
 20
-2089.77
 30
0.000000
  70
    32
  0
VERTEX
  8
01
  5
157AE
 10
-885.434
 20
-2089.81
 30
0.000000
  70
    32
  0
VERTEX
  8
01
  5
157AF
 10
-885.594
 20
-2089.85
 30
0.000000
  70
    32
  0
VERTEX
  8
01
  5
157B0
 10
-885.755
 20
-2089.89
 30
0.000000
  70
    32
  0
VERTEX
  8
01
  5
157B1
 10
-885.917
 20
-2089.93
 30
0.000000
  70
    32
  0
VERTEX
  8
01
  5
157B2
 10
-886.081
 20
-2089.97
 30
0.000000
  70
    32
  0
VERTEX
  8
01
  5
157B3
 10
-886.246
 20
-2090.00
 30
0.000000
  70
    32
  0
VERTEX
  8
01
  5
157B4
 10
-886.412
 20
-2090.03
 30
0.000000
  70
    32
  0
VERTEX
  8
01
  5
157B5
 10
-886.579
 20
-2090.05
 30
0.000000
  70
    32
  0
VERTEX
  8
01
  5
157B6
 10
-886.747
 20
-2090.08
 30
0.000000
  70
    32
  0
VERTEX
  8
01
  5
157B7
 10
-886.916
 20
-2090.10
 30
0.000000
  70
    32
  0
VERTEX
  8
01
  5
157B8
 10
-887.086
 20
-2090.11
 30
0.000000
  70
    32
  0
VERTEX
  8
01
  5
157B9
 10
-887.256
 20
-2090.13
 30
0.000000
  70
    32
  0
VERTEX
  8
01
  5
157BA
 10
-887.427
 20
-2090.14
 30
0.000000
  70
    32
  0
VERTEX
  8
01
  5
157BB
 10
-887.598
 20
-2090.15
 30
0.000000
  70
    32
  0
VERTEX
  8
01
  5
157BC
 10
-887.770
 20
-2090.16
 30
0.000000
  70
    32
  0
VERTEX
  8
01
  5
157BD
 10
-887.941
 20
-2090.16
 30
0.000000
  70
    32
  0
VERTEX
  8
01
  5
157BE
 10
-888.113
 20
-2090.16
 30
0.000000
  70
    32
  0
VERTEX
  8
01
  5
157BF
 10
-888.285
 20
-2090.16
 30
0.000000
  70
    32
  0
VERTEX
  8
01
  5
157C0
 10
-888.457
 20
-2090.16
 30
0.000000
  70
    32
  0
VERTEX
  8
01
  5
157C1
 10
-888.628
 20
-2090.15
 30
0.000000
  70
    32
  0
VERTEX
  8
01
  5
157C2
 10
-888.799
 20
-2090.14
 30
0.000000
  70
    32
  0
VERTEX
  8
01
  5
157C3
 10
-888.970
 20
-2090.13
 30
0.000000
  70
    32
  0
VERTEX
  8
01
  5
157C4
 10
-889.140
 20
-2090.11
 30
0.000000
  70
    32
  0
VERTEX
  8
01
  5
157C5
 10
-889.310
 20
-2090.10
 30
0.000000
  70
    32
  0
VERTEX
  8
01
  5
157C6
 10
-889.479
 20
-2090.08
 30
0.000000
  70
    32
  0
VERTEX
  8
01
  5
157C7
 10
-889.647
 20
-2090.05
 30
0.000000
  70
    32
  0
VERTEX
  8
01
  5
157C8
 10
-889.814
 20
-2090.03
 30
0.000000
  70
    32
  0
VERTEX
  8
01
  5
157C9
 10
-889.980
 20
-2090.00
 30
0.000000
  70
    32
  0
VERTEX
  8
01
  5
157CA
 10
-890.145
 20
-2089.97
 30
0.000000
  70
    32
  0
VERTEX
  8
01
  5
157CB
 10
-890.309
 20
-2089.93
 30
0.000000
  70
    32
  0
VERTEX
  8
01
  5
157CC
 10
-890.471
 20
-2089.89
 30
0.000000
  70
    32
  0
VERTEX
  8
01
  5
157CD
 10
-890.632
 20
-2089.85
 30
0.000000
  70
    32
  0
VERTEX
  8
01
  5
157CE
 10
-890.792
 20
-2089.81
 30
0.000000
  70
    32
  0
VERTEX
  8
01
  5
157CF
 10
-890.950
 20
-2089.77
 30
0.000000
  70
    32
  0
VERTEX
  8
01
  5
157D0
 10
-891.106
 20
-2089.72
 30
0.000000
  70
    32
  0
VERTEX
  8
01
  5
157D1
 10
-891.260
 20
-2089.67
 30
0.000000
  70
    32
  0
VERTEX
  8
01
  5
157D2
 10
-891.413
 20
-2089.62
 30
0.000000
  70
    32
  0
VERTEX
  8
01
  5
157D3
 10
-891.563
 20
-2089.56
 30
0.000000
  70
    32
  0
VERTEX
  8
01
  5
157D4
 10
-891.712
 20
-2089.51
 30
0.000000
  70
    32
  0
VERTEX
  8
01
  5
157D5
 10
-891.858
 20
-2089.45
 30
0.000000
  70
    32
  0
VERTEX
  8
01
  5
157D6
 10
-892.002
 20
-2089.38
 30
0.000000
  70
    32
  0
VERTEX
  8
01
  5
157D7
 10
-892.144
 20
-2089.32
 30
0.000000
  70
    32
  0
VERTEX
  8
01
  5
157D8
 10
-892.283
 20
-2089.25
 30
0.000000
  70
    32
  0
VERTEX
  8
01
  5
157D9
 10
-892.420
 20
-2089.19
 30
0.000000
  70
    32
  0
VERTEX
  8
01
  5
157DA
 10
-892.554
 20
-2089.11
 30
0.000000
  70
    32
  0
VERTEX
  8
01
  5
157DB
 10
-892.685
 20
-2089.04
 30
0.000000
  70
    32
  0
VERTEX
  8
01
  5
157DC
 10
-892.814
 20
-2088.97
 30
0.000000
  70
    32
  0
VERTEX
  8
01
  5
157DD
 10
-892.940
 20
-2088.89
 30
0.000000
  70
    32
  0
VERTEX
  8
01
  5
157DE
 10
-893.063
 20
-2088.81
 30
0.000000
  70
    32
  0
VERTEX
  8
01
  5
157DF
 10
-893.183
 20
-2088.73
 30
0.000000
  70
    32
  0
VERTEX
  8
01
  5
157E0
 10
-893.300
 20
-2088.65
 30
0.000000
  70
    32
  0
VERTEX
  8
01
  5
157E1
 10
-893.414
 20
-2088.56
 30
0.000000
  70
    32
  0
VERTEX
  8
01
  5
157E2
 10
-893.524
 20
-2088.47
 30
0.000000
  70
    32
  0
VERTEX
  8
01
  5
157E3
 10
-893.631
 20
-2088.38
 30
0.000000
  70
    32
  0
VERTEX
  8
01
  5
157E4
 10
-893.735
 20
-2088.29
 30
0.000000
  70
    32
  0
VERTEX
  8
01
  5
157E5
 10
-893.836
 20
-2088.20
 30
0.000000
  70
    32
  0
VERTEX
  8
01
  5
157E6
 10
-893.933
 20
-2088.11
 30
0.000000
  70
    32
  0
VERTEX
  8
01
  5
157E7
 10
-894.027
 20
-2088.01
 30
0.000000
  70
    32
  0
VERTEX
  8
01
  5
157E8
 10
-894.117
 20
-2087.92
 30
0.000000
  70
    32
  0
VERTEX
  8
01
  5
157E9
 10
-894.204
 20
-2087.82
 30
0.000000
  70
    32
  0
VERTEX
  8
01
  5
157EA
 10
-894.286
 20
-2087.72
 30
0.000000
  70
    32
  0
VERTEX
  8
01
  5
157EB
 10
-894.366
 20
-2087.62
 30
0.000000
  70
    32
  0
VERTEX
  8
01
  5
157EC
 10
-894.441
 20
-2087.52
 30
0.000000
  70
    32
  0
VERTEX
  8
01
  5
157ED
 10
-894.513
 20
-2087.41
 30
0.000000
  70
    32
  0
VERTEX
  8
01
  5
157EE
 10
-894.580
 20
-2087.31
 30
0.000000
  70
    32
  0
VERTEX
  8
01
  5
157EF
 10
-894.644
 20
-2087.20
 30
0.000000
  70
    32
  0
VERTEX
  8
01
  5
157F0
 10
-894.704
 20
-2087.10
 30
0.000000
  70
    32
  0
VERTEX
  8
01
  5
157F1
 10
-894.760
 20
-2086.99
 30
0.000000
  70
    32
  0
VERTEX
  8
01
  5
157F2
 10
-894.812
 20
-2086.88
 30
0.000000
  70
    32
  0
VERTEX
  8
01
  5
157F3
 10
-894.859
 20
-2086.77
 30
0.000000
  70
    32
  0
VERTEX
  8
01
  5
157F4
 10
-894.903
 20
-2086.66
 30
0.000000
  70
    32
  0
VERTEX
  8
01
  5
157F5
 10
-894.943
 20
-2086.55
 30
0.000000
  70
    32
  0
VERTEX
  8
01
  5
157F6
 10
-894.979
 20
-2086.44
 30
0.000000
  70
    32
  0
VERTEX
  8
01
  5
157F7
 10
-895.010
 20
-2086.33
 30
0.000000
  70
    32
  0
VERTEX
  8
01
  5
157F8
 10
-895.037
 20
-2086.22
 30
0.000000
  70
    32
  0
VERTEX
  8
01
  5
157F9
 10
-895.060
 20
-2086.10
 30
0.000000
  70
    32
  0
VERTEX
  8
01
  5
157FA
 10
-895.079
 20
-2085.99
 30
0.000000
  70
    32
  0
VERTEX
  8
01
  5
157FB
 10
-895.094
 20
-2085.88
 30
0.000000
  70
    32
  0
VERTEX
  8
01
  5
157FC
 10
-895.105
 20
-2085.76
 30
0.000000
  70
    32
  0
VERTEX
  8
01
  5
157FD
 10
-895.111
 20
-2085.65
 30
0.000000
  70
    32
  0
VERTEX
  8
01
  5
157FE
 10
-895.113
 20
-2085.54
 30
0.000000
  70
    32
  0
SEQEND
  8
01
  5
157FF
  0
POLYLINE
  5
15084
  8
01
 10
-880.61303831494638
 20
-2086.03775604457
 30
0.0
 66
     1
 70
     8
  0
VERTEX
  8
01
  5
15800
 10
-880.613
 20
-2086.04
 30
0.000000
  70
    32
  0
VERTEX
  8
01
  5
15801
 10
-880.615
 20
-2086.14
 30
0.000000
  70
    32
  0
VERTEX
  8
01
  5
15802
 10
-880.622
 20
-2086.24
 30
0.000000
  70
    32
  0
VERTEX
  8
01
  5
15803
 10
-880.633
 20
-2086.34
 30
0.000000
  70
    32
  0
VERTEX
  8
01
  5
15804
 10
-880.649
 20
-2086.44
 30
0.000000
  70
    32
  0
VERTEX
  8
01
  5
15805
 10
-880.669
 20
-2086.54
 30
0.000000
  70
    32
  0
VERTEX
  8
01
  5
15806
 10
-880.694
 20
-2086.64
 30
0.000000
  70
    32
  0
VERTEX
  8
01
  5
15807
 10
-880.723
 20
-2086.74
 30
0.000000
  70
    32
  0
VERTEX
  8
01
  5
15808
 10
-880.757
 20
-2086.84
 30
0.000000
  70
    32
  0
VERTEX
  8
01
  5
15809
 10
-880.795
 20
-2086.94
 30
0.000000
  70
    32
  0
VERTEX
  8
01
  5
1580A
 10
-880.838
 20
-2087.04
 30
0.000000
  70
    32
  0
VERTEX
  8
01
  5
1580B
 10
-880.885
 20
-2087.14
 30
0.000000
  70
    32
  0
VERTEX
  8
01
  5
1580C
 10
-880.936
 20
-2087.24
 30
0.000000
  70
    32
  0
VERTEX
  8
01
  5
1580D
 10
-880.992
 20
-2087.33
 30
0.000000
  70
    32
  0
VERTEX
  8
01
  5
1580E
 10
-881.051
 20
-2087.43
 30
0.000000
  70
    32
  0
VERTEX
  8
01
  5
1580F
 10
-881.116
 20
-2087.52
 30
0.000000
  70
    32
  0
VERTEX
  8
01
  5
15810
 10
-881.184
 20
-2087.62
 30
0.000000
  70
    32
  0
VERTEX
  8
01
  5
15811
 10
-881.256
 20
-2087.71
 30
0.000000
  70
    32
  0
VERTEX
  8
01
  5
15812
 10
-881.333
 20
-2087.80
 30
0.000000
  70
    32
  0
VERTEX
  8
01
  5
15813
 10
-881.414
 20
-2087.89
 30
0.000000
  70
    32
  0
VERTEX
  8
01
  5
15814
 10
-881.499
 20
-2087.98
 30
0.000000
  70
    32
  0
VERTEX
  8
01
  5
15815
 10
-881.587
 20
-2088.07
 30
0.000000
  70
    32
  0
VERTEX
  8
01
  5
15816
 10
-881.680
 20
-2088.16
 30
0.000000
  70
    32
  0
VERTEX
  8
01
  5
15817
 10
-881.777
 20
-2088.25
 30
0.000000
  70
    32
  0
VERTEX
  8
01
  5
15818
 10
-881.877
 20
-2088.33
 30
0.000000
  70
    32
  0
VERTEX
  8
01
  5
15819
 10
-881.981
 20
-2088.41
 30
0.000000
  70
    32
  0
VERTEX
  8
01
  5
1581A
 10
-882.089
 20
-2088.50
 30
0.000000
  70
    32
  0
VERTEX
  8
01
  5
1581B
 10
-882.200
 20
-2088.58
 30
0.000000
  70
    32
  0
VERTEX
  8
01
  5
1581C
 10
-882.315
 20
-2088.66
 30
0.000000
  70
    32
  0
VERTEX
  8
01
  5
1581D
 10
-882.434
 20
-2088.73
 30
0.000000
  70
    32
  0
VERTEX
  8
01
  5
1581E
 10
-882.556
 20
-2088.81
 30
0.000000
  70
    32
  0
VERTEX
  8
01
  5
1581F
 10
-882.681
 20
-2088.88
 30
0.000000
  70
    32
  0
VERTEX
  8
01
  5
15820
 10
-882.810
 20
-2088.96
 30
0.000000
  70
    32
  0
VERTEX
  8
01
  5
15821
 10
-882.941
 20
-2089.03
 30
0.000000
  70
    32
  0
VERTEX
  8
01
  5
15822
 10
-883.076
 20
-2089.10
 30
0.000000
  70
    32
  0
VERTEX
  8
01
  5
15823
 10
-883.214
 20
-2089.16
 30
0.000000
  70
    32
  0
VERTEX
  8
01
  5
15824
 10
-883.355
 20
-2089.23
 30
0.000000
  70
    32
  0
VERTEX
  8
01
  5
15825
 10
-883.499
 20
-2089.29
 30
0.000000
  70
    32
  0
VERTEX
  8
01
  5
15826
 10
-883.645
 20
-2089.35
 30
0.000000
  70
    32
  0
VERTEX
  8
01
  5
15827
 10
-883.794
 20
-2089.41
 30
0.000000
  70
    32
  0
VERTEX
  8
01
  5
15828
 10
-883.946
 20
-2089.47
 30
0.000000
  70
    32
  0
VERTEX
  8
01
  5
15829
 10
-884.101
 20
-2089.52
 30
0.000000
  70
    32
  0
VERTEX
  8
01
  5
1582A
 10
-884.257
 20
-2089.58
 30
0.000000
  70
    32
  0
VERTEX
  8
01
  5
1582B
 10
-884.416
 20
-2089.63
 30
0.000000
  70
    32
  0
VERTEX
  8
01
  5
1582C
 10
-884.578
 20
-2089.68
 30
0.000000
  70
    32
  0
VERTEX
  8
01
  5
1582D
 10
-884.741
 20
-2089.72
 30
0.000000
  70
    32
  0
VERTEX
  8
01
  5
1582E
 10
-884.906
 20
-2089.77
 30
0.000000
  70
    32
  0
VERTEX
  8
01
  5
1582F
 10
-885.074
 20
-2089.81
 30
0.000000
  70
    32
  0
VERTEX
  8
01
  5
15830
 10
-885.243
 20
-2089.85
 30
0.000000
  70
    32
  0
VERTEX
  8
01
  5
15831
 10
-885.414
 20
-2089.89
 30
0.000000
  70
    32
  0
VERTEX
  8
01
  5
15832
 10
-885.586
 20
-2089.92
 30
0.000000
  70
    32
  0
VERTEX
  8
01
  5
15833
 10
-885.760
 20
-2089.96
 30
0.000000
  70
    32
  0
VERTEX
  8
01
  5
15834
 10
-885.936
 20
-2089.99
 30
0.000000
  70
    32
  0
VERTEX
  8
01
  5
15835
 10
-886.113
 20
-2090.02
 30
0.000000
  70
    32
  0
VERTEX
  8
01
  5
15836
 10
-886.291
 20
-2090.04
 30
0.000000
  70
    32
  0
VERTEX
  8
01
  5
15837
 10
-886.470
 20
-2090.06
 30
0.000000
  70
    32
  0
VERTEX
  8
01
  5
15838
 10
-886.650
 20
-2090.09
 30
0.000000
  70
    32
  0
VERTEX
  8
01
  5
15839
 10
-886.831
 20
-2090.10
 30
0.000000
  70
    32
  0
VERTEX
  8
01
  5
1583A
 10
-887.013
 20
-2090.12
 30
0.000000
  70
    32
  0
VERTEX
  8
01
  5
1583B
 10
-887.195
 20
-2090.13
 30
0.000000
  70
    32
  0
VERTEX
  8
01
  5
1583C
 10
-887.378
 20
-2090.14
 30
0.000000
  70
    32
  0
VERTEX
  8
01
  5
1583D
 10
-887.561
 20
-2090.15
 30
0.000000
  70
    32
  0
VERTEX
  8
01
  5
1583E
 10
-887.745
 20
-2090.16
 30
0.000000
  70
    32
  0
VERTEX
  8
01
  5
1583F
 10
-887.929
 20
-2090.16
 30
0.000000
  70
    32
  0
VERTEX
  8
01
  5
15840
 10
-888.113
 20
-2090.16
 30
0.000000
  70
    32
  0
VERTEX
  8
01
  5
15841
 10
-888.297
 20
-2090.16
 30
0.000000
  70
    32
  0
VERTEX
  8
01
  5
15842
 10
-888.481
 20
-2090.16
 30
0.000000
  70
    32
  0
VERTEX
  8
01
  5
15843
 10
-888.665
 20
-2090.15
 30
0.000000
  70
    32
  0
VERTEX
  8
01
  5
15844
 10
-888.848
 20
-2090.14
 30
0.000000
  70
    32
  0
VERTEX
  8
01
  5
15845
 10
-889.031
 20
-2090.13
 30
0.000000
  70
    32
  0
VERTEX
  8
01
  5
15846
 10
-889.214
 20
-2090.12
 30
0.000000
  70
    32
  0
VERTEX
  8
01
  5
15847
 10
-889.395
 20
-2090.10
 30
0.000000
  70
    32
  0
VERTEX
  8
01
  5
15848
 10
-889.576
 20
-2090.09
 30
0.000000
  70
    32
  0
VERTEX
  8
01
  5
15849
 10
-889.756
 20
-2090.06
 30
0.000000
  70
    32
  0
VERTEX
  8
01
  5
1584A
 10
-889.935
 20
-2090.04
 30
0.000000
  70
    32
  0
VERTEX
  8
01
  5
1584B
 10
-890.113
 20
-2090.02
 30
0.000000
  70
    32
  0
VERTEX
  8
01
  5
1584C
 10
-890.290
 20
-2089.99
 30
0.000000
  70
    32
  0
VERTEX
  8
01
  5
1584D
 10
-890.466
 20
-2089.96
 30
0.000000
  70
    32
  0
VERTEX
  8
01
  5
1584E
 10
-890.640
 20
-2089.92
 30
0.000000
  70
    32
  0
VERTEX
  8
01
  5
1584F
 10
-890.812
 20
-2089.89
 30
0.000000
  70
    32
  0
VERTEX
  8
01
  5
15850
 10
-890.983
 20
-2089.85
 30
0.000000
  70
    32
  0
VERTEX
  8
01
  5
15851
 10
-891.152
 20
-2089.81
 30
0.000000
  70
    32
  0
VERTEX
  8
01
  5
15852
 10
-891.320
 20
-2089.77
 30
0.000000
  70
    32
  0
VERTEX
  8
01
  5
15853
 10
-891.485
 20
-2089.72
 30
0.000000
  70
    32
  0
VERTEX
  8
01
  5
15854
 10
-891.649
 20
-2089.68
 30
0.000000
  70
    32
  0
VERTEX
  8
01
  5
15855
 10
-891.810
 20
-2089.63
 30
0.000000
  70
    32
  0
VERTEX
  8
01
  5
15856
 10
-891.969
 20
-2089.58
 30
0.000000
  70
    32
  0
VERTEX
  8
01
  5
15857
 10
-892.126
 20
-2089.52
 30
0.000000
  70
    32
  0
VERTEX
  8
01
  5
15858
 10
-892.280
 20
-2089.47
 30
0.000000
  70
    32
  0
VERTEX
  8
01
  5
15859
 10
-892.432
 20
-2089.41
 30
0.000000
  70
    32
  0
VERTEX
  8
01
  5
1585A
 10
-892.581
 20
-2089.35
 30
0.000000
  70
    32
  0
VERTEX
  8
01
  5
1585B
 10
-892.727
 20
-2089.29
 30
0.000000
  70
    32
  0
VERTEX
  8
01
  5
1585C
 10
-892.871
 20
-2089.23
 30
0.000000
  70
    32
  0
VERTEX
  8
01
  5
1585D
 10
-893.012
 20
-2089.16
 30
0.000000
  70
    32
  0
VERTEX
  8
01
  5
1585E
 10
-893.150
 20
-2089.10
 30
0.000000
  70
    32
  0
VERTEX
  8
01
  5
1585F
 10
-893.285
 20
-2089.03
 30
0.000000
  70
    32
  0
VERTEX
  8
01
  5
15860
 10
-893.416
 20
-2088.96
 30
0.000000
  70
    32
  0
VERTEX
  8
01
  5
15861
 10
-893.545
 20
-2088.88
 30
0.000000
  70
    32
  0
VERTEX
  8
01
  5
15862
 10
-893.670
 20
-2088.81
 30
0.000000
  70
    32
  0
VERTEX
  8
01
  5
15863
 10
-893.792
 20
-2088.73
 30
0.000000
  70
    32
  0
VERTEX
  8
01
  5
15864
 10
-893.911
 20
-2088.66
 30
0.000000
  70
    32
  0
VERTEX
  8
01
  5
15865
 10
-894.026
 20
-2088.58
 30
0.000000
  70
    32
  0
VERTEX
  8
01
  5
15866
 10
-894.137
 20
-2088.50
 30
0.000000
  70
    32
  0
VERTEX
  8
01
  5
15867
 10
-894.245
 20
-2088.41
 30
0.000000
  70
    32
  0
VERTEX
  8
01
  5
15868
 10
-894.349
 20
-2088.33
 30
0.000000
  70
    32
  0
VERTEX
  8
01
  5
15869
 10
-894.449
 20
-2088.25
 30
0.000000
  70
    32
  0
VERTEX
  8
01
  5
1586A
 10
-894.546
 20
-2088.16
 30
0.000000
  70
    32
  0
VERTEX
  8
01
  5
1586B
 10
-894.639
 20
-2088.07
 30
0.000000
  70
    32
  0
VERTEX
  8
01
  5
1586C
 10
-894.727
 20
-2087.98
 30
0.000000
  70
    32
  0
VERTEX
  8
01
  5
1586D
 10
-894.812
 20
-2087.89
 30
0.000000
  70
    32
  0
VERTEX
  8
01
  5
1586E
 10
-894.893
 20
-2087.80
 30
0.000000
  70
    32
  0
VERTEX
  8
01
  5
1586F
 10
-894.970
 20
-2087.71
 30
0.000000
  70
    32
  0
VERTEX
  8
01
  5
15870
 10
-895.042
 20
-2087.62
 30
0.000000
  70
    32
  0
VERTEX
  8
01
  5
15871
 10
-895.110
 20
-2087.52
 30
0.000000
  70
    32
  0
VERTEX
  8
01
  5
15872
 10
-895.175
 20
-2087.43
 30
0.000000
  70
    32
  0
VERTEX
  8
01
  5
15873
 10
-895.234
 20
-2087.33
 30
0.000000
  70
    32
  0
VERTEX
  8
01
  5
15874
 10
-895.290
 20
-2087.24
 30
0.000000
  70
    32
  0
VERTEX
  8
01
  5
15875
 10
-895.341
 20
-2087.14
 30
0.000000
  70
    32
  0
VERTEX
  8
01
  5
15876
 10
-895.388
 20
-2087.04
 30
0.000000
  70
    32
  0
VERTEX
  8
01
  5
15877
 10
-895.431
 20
-2086.94
 30
0.000000
  70
    32
  0
VERTEX
  8
01
  5
15878
 10
-895.469
 20
-2086.84
 30
0.000000
  70
    32
  0
VERTEX
  8
01
  5
15879
 10
-895.503
 20
-2086.74
 30
0.000000
  70
    32
  0
VERTEX
  8
01
  5
1587A
 10
-895.532
 20
-2086.64
 30
0.000000
  70
    32
  0
VERTEX
  8
01
  5
1587B
 10
-895.557
 20
-2086.54
 30
0.000000
  70
    32
  0
VERTEX
  8
01
  5
1587C
 10
-895.577
 20
-2086.44
 30
0.000000
  70
    32
  0
VERTEX
  8
01
  5
1587D
 10
-895.593
 20
-2086.34
 30
0.000000
  70
    32
  0
VERTEX
  8
01
  5
1587E
 10
-895.604
 20
-2086.24
 30
0.000000
  70
    32
  0
VERTEX
  8
01
  5
1587F
 10
-895.611
 20
-2086.14
 30
0.000000
  70
    32
  0
VERTEX
  8
01
  5
15880
 10
-895.613
 20
-2086.04
 30
0.000000
  70
    32
  0
SEQEND
  8
01
  5
15881
  0
LINE
  5
15088
  8
01
 10
-733.11303831494649
 20
-2156.53775604457
 30
0.0
 11
-733.11303831494649
 21
-2219.53775604457
 31
0.0
  0
LINE
  5
15089
  8
01
 10
-743.11303831494661
 20
-2155.782754042968
 30
0.0
 11
-743.11303831494661
 21
-2219.53775604457
 31
0.0
  0
LINE
  5
15097
  8
01
 10
-734.24005496873895
 20
-2156.53775604457
 30
0.0
 11
-711.11303831494661
 21
-2156.53775604457
 31
0.0
  0
LINE
  5
15098
  8
01
 10
-734.24005496873895
 20
-2142.53775604457
 30
0.0
 11
-711.11303831494661
 21
-2142.53775604457
 31
0.0
  0
LINE
  5
1509F
  8
01
 10
-711.11303831494661
 20
-2152.03775604457
 30
0.0
 11
-711.11303831494661
 21
-2156.53775604457
 31
0.0
  0
LINE
  5
150AA
  8
01
 10
-710.61303831494661
 20
-2137.53775604457
 30
0.0
 11
-687.11303831494649
 21
-2137.53775604457
 31
0.0
  0
ARC
  5
150AB
  8
01
 10
-710.61303831494661
 20
-2138.03775604457
 30
0.0
 40
0.5
 50
90.0
 51
180.0
  0
LINE
  5
150AC
  8
01
 10
-710.61303831494661
 20
-2161.53775604457
 30
0.0
 11
-687.11303831494649
 21
-2161.53775604457
 31
0.0
  0
ARC
  5
150AE
  8
01
 10
-710.61303831494661
 20
-2161.03775604457
 30
0.0
 40
0.5
 50
180.0
 51
270.0
  0
LINE
  5
150AF
  8
01
 10
-687.11303831494649
 20
-2122.53775604457
 30
0.0
 11
-687.11303831494695
 21
-2176.53775604457
 31
0.0
  0
LINE
  5
150BD
  8
01
 10
-711.11303831494661
 20
-2138.03775604457
 30
0.0
 11
-711.11303831494661
 21
-2161.03775604457
 31
0.0
  0
LINE
  5
150D1
  8
1PHANTOM
 10
-681.13049072138381
 20
-2172.2706056125289
 30
0.0
 11
-681.13049072138381
 21
-2126.2706056125289
 31
0.0
  0
LINE
  5
150D2
  8
1PHANTOM
 10
-684.13049072138392
 20
-2171.7706056125289
 30
0.0
 11
-684.13049072138369
 21
-2155.7533028756452
 31
0.0
  0
ARC
  5
150D3
  8
1PHANTOM
 10
-683.63049072138392
 20
-2171.7706056125289
 30
0.0
 40
0.5
 50
180.0
 51
270.0
  0
LINE
  5
150D4
  8
1PHANTOM
 10
-684.13049072138392
 20
-2142.787908349414
 30
0.0
 11
-684.13049072138392
 21
-2126.7706056125289
 31
0.0
  0
ARC
  5
150D6
  8
1PHANTOM
 10
-683.63049072138392
 20
-2126.7706056125289
 30
0.0
 40
0.5
 50
90.0
 51
180.0
  0
LINE
  5
150D9
  8
1PHANTOM
 10
-705.13921692460247
 20
-2144.1373142924658
 30
0.0
 11
-685.11303831494661
 21
-2143.78775604457
 31
0.0
  0
ARC
  5
150DA
  8
1PHANTOM
 10
-705.13049072138369
 20
-2144.6372381400438
 30
0.0
 40
0.5
 50
91.000000000001776
 51
180.0
  0
ARC
  5
150DB
  8
1PHANTOM
 10
-685.13049072138392
 20
-2142.787908349414
 30
0.0
 40
1.0
 50
271.00000000000182
 51
0.0
  0
LINE
  5
150DC
  8
1PHANTOM
 10
-695.63049072138392
 20
-2151.7158247285579
 30
0.0
 11
-695.63049072138392
 21
-2154.5698723658552
 31
0.0
  0
LINE
  5
150DD
  8
1PHANTOM
 10
-703.13049072138392
 20
-2152.1542691065192
 30
0.0
 11
-703.13049072138392
 21
-2154.4389593788928
 31
0.0
  0
LINE
  5
150DE
  8
1PHANTOM
 10
-705.63049072138392
 20
-2144.6372381400438
 30
0.0
 11
-705.63049072138392
 21
-2153.9039730850141
 31
0.0
  0
ARC
  5
150DF
  8
1PHANTOM
 10
-705.13049072138392
 20
-2153.9039730850141
 30
0.0
 40
0.5
 50
180.0
 51
268.99999999999829
  0
ARC
  5
150E0
  8
1PHANTOM
 10
-702.63049072138369
 20
-2152.1542691065192
 30
0.0
 40
0.5
 50
104.9999999999944
 51
180.0
  0
LINE
  5
150F2
  8
1PHANTOM
 10
-683.63049072138392
 20
-2172.2706056125289
 30
0.0
 11
-681.13049072138381
 21
-2172.2706056125289
 31
0.0
  0
LINE
  5
150F3
  8
1PHANTOM
 10
-681.13049072138381
 20
-2126.2706056125289
 30
0.0
 11
-683.63049072138392
 21
-2126.2706056125289
 31
0.0
  0
LINE
  5
150F7
  8
1PHANTOM
 10
-705.13921692460247
 20
-2154.4038969325929
 30
0.0
 11
-703.13049072138392
 21
-2154.4389593788928
 31
0.0
  0
LINE
  5
150F8
  8
1PHANTOM
 10
-695.63049072138392
 20
-2154.5698723658552
 30
0.0
 11
-685.11303831494661
 21
-2154.7534551804879
 31
0.0
  0
ARC
  5
150F9
  8
1PHANTOM
 10
-685.13049072138369
 20
-2155.7533028756452
 30
0.0
 40
1.0
 50
0.0
 51
88.999999999998238
  0
LINE
  5
150FA
  8
1PHANTOM
 10
-697.51871928903745
 20
-2150.2669359891238
 30
0.0
 11
-702.75990024393514
 21
-2151.6713061933742
 31
0.0
  0
ARC
  5
150FB
  8
1PHANTOM
 10
-697.13049072138392
 20
-2151.7158247285579
 30
0.0
 40
1.5
 50
6.2448453045703758
 51
104.9999999999944
  0
LINE
  5
150FD
  8
01
 10
-681.11303831494627
 20
-2122.03775604457
 30
0.0
 11
-681.11303831494627
 21
-2177.03775604457
 31
0.0
  0
ARC
  5
15106
  8
01
 10
-686.61303831494649
 20
-2176.53775604457
 30
0.0
 40
0.5
 50
180.0
 51
270.0
  0
LINE
  5
15107
  8
01
 10
-681.11303831494627
 20
-2177.03775604457
 30
0.0
 11
-686.61303831494649
 21
-2177.03775604457
 31
0.0
  0
LINE
  5
15108
  8
01
 10
-681.11303831494627
 20
-2122.03775604457
 30
0.0
 11
-686.61303831494638
 21
-2122.03775604457
 31
0.0
  0
ARC
  5
15109
  8
01
 10
-686.61303831494638
 20
-2122.53775604457
 30
0.0
 40
0.5
 50
90.0
 51
180.0
  0
ARC
  5
15112
  8
01
 10
-738.11303831494661
 20
-2219.53775604457
 30
0.0
 40
5.0000000000000071
 50
180.0
 51
0.0
  0
ARC
  5
15114
  8
01
 10
-978.11303831494661
 20
-2094.0377560445709
 30
0.0
 40
5.0
 50
90.0
 51
270.0
  0
CIRCLE
  5
15117
  8
01
 10
-798.11303831494627
 20
-2094.03775604457
 30
0.0
 40
4.9999999999999707
  0
LINE
  5
15118
  8
01
 10
-978.11303831494661
 20
-2089.03775604457
 30
0.0
 11
-908.11303831494638
 21
-2089.03775604457
 31
0.0
  0
LINE
  5
15119
  8
01
 10
-978.11303831494661
 20
-2099.03775604457
 30
0.0
 11
-908.11303831494649
 21
-2099.03775604457
 31
0.0
  0
LINE
  5
1511A
  8
01
 10
-798.11303831494627
 20
-2089.03775604457
 30
0.0
 11
-868.11303831494627
 21
-2089.03775604457
 31
0.0
  0
LINE
  5
1511B
  8
01
 10
-798.11303831494627
 20
-2099.03775604457
 30
0.0
 11
-868.11303831494627
 21
-2099.03775604457
 31
0.0
  0
LINE
  5
151D0
  8
01
 10
-742.11303831494627
 20
-2189.5377560445709
 30
0.0
 11
-734.11303831494661
 21
-2189.5377560445709
 31
0.0
  0
ARC
  5
151D1
  8
01
 10
-742.11303831494627
 20
-2190.53775604457
 30
0.0
 40
1.0
 50
90.0
 51
180.0
  0
ARC
  5
151D2
  8
01
 10
-734.11303831494661
 20
-2190.53775604457
 30
0.0
 40
1.0
 50
0.0
 51
90.0
  0
CIRCLE
  5
151D3
  8
01
 10
-738.11303831494661
 20
-2149.53775604457
 30
0.0
 40
8.0
  0
LINE
  5
151D6
  8
1CENTER
 10
-699.11303930679333
 20
-2163.1814463545902
 30
0.0
 11
-699.11301741878242
 21
-2150.3333245378449
 31
0.0
  0
LINE
  5
151DD
  8
1PHANTOM
 10
-696.61303831494661
 20
-2161.935322041465
 30
0.0
 11
-696.61303133456181
 21
-2154.1853212414808
 31
0.0
  0
POINT
  5
151EA
  8
01
 10
-699.11301737379245
 20
-2150.5377560446518
 30
0.0
  0
LINE
  5
151EB
  8
1PHANTOM
 10
-701.61303605283717
 20
-2161.9353135234892
 30
0.0
 11
-701.6130166274811
 21
-2154.1853127235258
 31
0.0
  0
ARC
  5
151ED
  8
1PHANTOM
 10
-697.61301737380018
 20
-2151.435322041546
 30
0.0
 40
0.5
 50
359.9996800427503
 51
90.0
  0
LINE
  5
151EE
  8
1PHANTOM
 10
-700.6130173737846
 20
-2150.935322041546
 30
0.0
 11
-697.61301737380018
 21
-2150.935322041546
 31
0.0
  0
LINE
  5
151EF
  8
1PHANTOM
 10
-697.11301737380791
 20
-2151.4353248337002
 30
0.0
 11
-697.11303133456181
 21
-2153.935322041481
 31
0.0
  0
ARC
  5
151F0
  8
1PHANTOM
 10
-700.6130173737846
 20
-2151.435322041546
 30
0.0
 40
0.5000000000000001
 50
90.0
 51
179.99968004275021
  0
LINE
  5
151F1
  8
1PHANTOM
 10
-697.11303133456181
 20
-2153.935322041481
 30
0.0
 11
-696.11303133455988
 21
-2154.4353202414818
 31
0.0
  0
LINE
  5
151F2
  8
1PHANTOM
 10
-701.11303133456181
 20
-2153.935322041481
 30
0.0
 11
-701.11301737377687
 21
-2151.4353192493918
 31
0.0
  0
LINE
  5
151F3
  8
1PHANTOM
 10
-696.11303133455988
 20
-2154.4353202414818
 30
0.0
 11
-696.11303831494843
 21
-2161.4353239414659
 31
0.0
  0
LINE
  5
151F4
  8
1PHANTOM
 10
-702.11303133455999
 20
-2154.43532024148
 30
0.0
 11
-701.11303133456181
 21
-2153.935322041481
 31
0.0
  0
LINE
  5
151F5
  8
1PHANTOM
 10
-696.11303831494843
 20
-2161.4353239414659
 30
0.0
 11
-696.61303831494843
 21
-2161.9353241414678
 31
0.0
  0
LINE
  5
151F6
  8
1PHANTOM
 10
-702.11303831494433
 20
-2161.4353199414668
 30
0.0
 11
-702.11303133455999
 21
-2154.43532024148
 31
0.0
  0
LINE
  5
151F7
  8
1PHANTOM
 10
-696.61303831494843
 20
-2161.9353241414678
 30
0.0
 11
-696.61303831494661
 21
-2161.935322041465
 31
0.0
  0
LINE
  5
151F8
  8
1PHANTOM
 10
-701.61303831494445
 20
-2161.9353198414669
 30
0.0
 11
-702.11303831494433
 21
-2161.4353199414668
 31
0.0
  0
LINE
  5
151F9
  8
1PHANTOM
 10
-696.61303831494661
 20
-2161.935322041465
 30
0.0
 11
-701.61303831494661
 21
-2161.935322041465
 31
0.0
  0
LINE
  5
151FA
  8
1PHANTOM
 10
-701.61303831494661
 20
-2161.935322041465
 30
0.0
 11
-701.61303831494445
 21
-2161.9353198414669
 31
0.0
  0
LINE
  5
15217
  8
1PHANTOM
 10
-875.61303831494638
 20
-2037.03775604457
 30
0.0
 11
-900.61303831494638
 21
-2037.03775604457
 31
0.0
  0
LINE
  5
15218
  8
1PHANTOM
 10
-876.11303831494627
 20
-2040.03775604457
 30
0.0
 11
-881.63034105183101
 21
-2040.03775604457
 31
0.0
  0
LINE
  5
15219
  8
1PHANTOM
 10
-875.61303831494638
 20
-2039.5377560445711
 30
0.0
 11
-875.61303831494638
 21
-2037.03775604457
 31
0.0
  0
ARC
  5
1521A
  8
1PHANTOM
 10
-876.11303831494615
 20
-2039.53775604457
 30
0.0
 40
0.5
 50
270.0
 51
0.0
  0
LINE
  5
1521B
  8
1PHANTOM
 10
-900.61303831494638
 20
-2039.53775604457
 30
0.0
 11
-900.61303831494638
 21
-2037.03775604457
 31
0.0
  0
ARC
  5
1521C
  8
1PHANTOM
 10
-900.11303831494615
 20
-2039.53775604457
 30
0.0
 40
0.5
 50
180.0
 51
270.0
  0
LINE
  5
15224
  8
1PHANTOM
 10
-882.97974699488225
 20
-2061.0464822477888
 30
0.0
 11
-882.63018874698685
 21
-2041.0203036381331
 31
0.0
  0
ARC
  5
15225
  8
1PHANTOM
 10
-881.63034105183033
 20
-2041.03775604457
 30
0.0
 40
1.0
 50
90.0
 51
178.99999999999821
  0
LINE
  5
15226
  8
1PHANTOM
 10
-893.24632963501006
 20
-2061.0464822477879
 30
0.0
 11
-893.5958878829058
 21
-2041.020303638132
 31
0.0
  0
ARC
  5
15227
  8
1PHANTOM
 10
-892.74640578743174
 20
-2061.03775604457
 30
0.0
 40
0.5
 50
181.00000000000171
 51
270.0
  0
ARC
  5
15228
  8
1PHANTOM
 10
-894.59573557806186
 20
-2041.03775604457
 30
0.0
 40
1.0
 50
1.000000000001755
 51
90.0
  0
LINE
  5
15229
  8
1PHANTOM
 10
-883.47967084246079
 20
-2061.53775604457
 30
0.0
 11
-892.74640578743185
 21
-2061.53775604457
 31
0.0
  0
ARC
  5
1522A
  8
1PHANTOM
 10
-883.47967084246147
 20
-2061.03775604457
 30
0.0
 40
0.5
 50
270.0
 51
358.99999999999818
  0
LINE
  5
1522C
  8
1PHANTOM
 10
-894.59573557806175
 20
-2040.03775604457
 30
0.0
 11
-900.11303831494638
 21
-2040.03775604457
 31
0.0
  0
LINE
  5
15267
  8
1PHANTOM
 10
-882.61303831494627
 20
-2144.2706056125289
 30
0.0
 11
-882.61303831494627
 21
-2154.2706056125289
 31
0.0
  0
ARC
  5
15269
  8
1PHANTOM
 10
-883.11303831494649
 20
-2154.2706056125289
 30
0.0
 40
0.5
 50
270.0
 51
0.0
  0
LINE
  5
1526A
  8
1PHANTOM
 10
-893.61303831494638
 20
-2144.2706056125289
 30
0.0
 11
-893.61303831494638
 21
-2154.2706056125289
 31
0.0
  0
ARC
  5
1526C
  8
1PHANTOM
 10
-893.11303831494649
 20
-2144.2706056125289
 30
0.0
 40
0.5
 50
90.0
 51
180.0
  0
LINE
  5
1526D
  8
1PHANTOM
 10
-900.61303831494638
 20
-2129.2706056125289
 30
0.0
 11
-900.61303831494638
 21
-2148.7706056125289
 31
0.0
  0
LINE
  5
1526E
  8
1PHANTOM
 10
-900.61303831494638
 20
-2149.7706056125289
 30
0.0
 11
-900.61303831494638
 21
-2169.2706056125289
 31
0.0
  0
ARC
  5
1526F
  8
1PHANTOM
 10
-897.61303831494649
 20
-2129.2706056125289
 30
0.0
 40
3.0
 50
90.0
 51
180.0
  0
LINE
  5
15270
  8
1PHANTOM
 10
-875.61303831494638
 20
-2129.2706056125289
 30
0.0
 11
-875.61303831494638
 21
-2148.7706056125289
 31
0.0
  0
LINE
  5
15271
  8
1PHANTOM
 10
-875.61303831494638
 20
-2149.7706056125289
 30
0.0
 11
-875.61303831494638
 21
-2169.2706056125289
 31
0.0
  0
ARC
  5
15272
  8
1PHANTOM
 10
-878.61303831494649
 20
-2169.2706056125289
 30
0.0
 40
3.0
 50
270.0
 51
0.0
  0
LINE
  5
15274
  8
1PHANTOM
 10
-883.11303831494638
 20
-2143.7706056125289
 30
0.0
 11
-893.11303831494627
 21
-2143.7706056125289
 31
0.0
  0
ARC
  5
15278
  8
1PHANTOM
 10
-883.11303831494649
 20
-2144.2706056125289
 30
0.0
 40
0.5
 50
0.0
 51
90.0
  0
LINE
  5
15279
  8
1PHANTOM
 10
-883.11303831494638
 20
-2154.7706056125289
 30
0.0
 11
-893.11303831494627
 21
-2154.7706056125289
 31
0.0
  0
ARC
  5
1527D
  8
1PHANTOM
 10
-893.11303831494649
 20
-2154.2706056125289
 30
0.0
 40
0.5
 50
180.0
 51
270.0
  0
LINE
  5
1527E
  8
1PHANTOM
 10
-878.61303831494638
 20
-2172.2706056125289
 30
0.0
 11
-887.61303831494638
 21
-2172.2706056125289
 31
0.0
  0
LINE
  5
1527F
  8
1PHANTOM
 10
-888.61303831494627
 20
-2172.2706056125289
 30
0.0
 11
-897.61303831494627
 21
-2172.2706056125289
 31
0.0
  0
ARC
  5
15280
  8
1PHANTOM
 10
-897.61303831494649
 20
-2169.2706056125289
 30
0.0
 40
3.0
 50
180.0
 51
270.0
  0
LINE
  5
15281
  8
1PHANTOM
 10
-878.61303831494638
 20
-2126.2706056125289
 30
0.0
 11
-887.61303831494638
 21
-2126.2706056125289
 31
0.0
  0
LINE
  5
15282
  8
1PHANTOM
 10
-888.61303831494627
 20
-2126.2706056125289
 30
0.0
 11
-897.61303831494627
 21
-2126.2706056125289
 31
0.0
  0
ARC
  5
15283
  8
1PHANTOM
 10
-878.61303831494649
 20
-2129.2706056125289
 30
0.0
 40
3.0
 50
0.0
 51
90.0
  0
CIRCLE
  5
15287
  8
1PHANTOM
 10
-888.11303831494661
 20
-2164.2706056125289
 30
0.0
 40
2.25
  0
CIRCLE
  5
15288
  8
1PHANTOM
 10
-888.11303831494661
 20
-2134.2706056125289
 30
0.0
 40
2.25
  0
LINE
  5
1528A
  8
1PHANTOM
 10
-888.11303831494638
 20
-2171.7706056125289
 30
0.0
 11
-888.61303831494627
 21
-2172.2706056125289
 31
0.0
  0
LINE
  5
1528B
  8
1PHANTOM
 10
-888.11303831494638
 20
-2171.7706056125289
 30
0.0
 11
-887.61303831494638
 21
-2172.2706056125289
 31
0.0
  0
LINE
  5
1528C
  8
1PHANTOM
 10
-888.11303831494638
 20
-2126.7706056125289
 30
0.0
 11
-888.61303831494627
 21
-2126.2706056125289
 31
0.0
  0
LINE
  5
1528D
  8
1PHANTOM
 10
-888.11303831494638
 20
-2126.7706056125289
 30
0.0
 11
-887.61303831494638
 21
-2126.2706056125289
 31
0.0
  0
LINE
  5
15292
  8
1PHANTOM
 10
-900.11303831494638
 20
-2149.2706056125289
 30
0.0
 11
-900.61303831494638
 21
-2148.7706056125289
 31
0.0
  0
LINE
  5
15293
  8
1PHANTOM
 10
-900.11303831494638
 20
-2149.2706056125289
 30
0.0
 11
-900.61303831494638
 21
-2149.7706056125289
 31
0.0
  0
LINE
  5
15294
  8
1PHANTOM
 10
-876.11303831494627
 20
-2149.2706056125289
 30
0.0
 11
-875.61303831494638
 21
-2148.7706056125289
 31
0.0
  0
LINE
  5
15295
  8
1PHANTOM
 10
-876.11303831494627
 20
-2149.2706056125289
 30
0.0
 11
-875.61303831494638
 21
-2149.7706056125289
 31
0.0
  0
LINE
  5
15296
  8
1CENTER
 10
-888.11303831494661
 20
-2140.2706056125289
 30
0.0
 11
-888.11303831494661
 21
-2128.2706056125289
 31
0.0
  0
LINE
  5
15297
  8
1CENTER
 10
-894.11303831494672
 20
-2134.2706056125289
 30
0.0
 11
-882.11303831494661
 21
-2134.2706056125289
 31
0.0
  0
LINE
  5
15298
  8
1CENTER
 10
-888.11303831494661
 20
-2170.2706056125289
 30
0.0
 11
-888.11303831494661
 21
-2158.2706056125289
 31
0.0
  0
LINE
  5
15299
  8
1CENTER
 10
-894.11303831494672
 20
-2164.2706056125289
 30
0.0
 11
-882.11303831494661
 21
-2164.2706056125289
 31
0.0
  0
TEXT
  5
1530A
  8
1HATCH
 10
-678.14205614565935
 20
-2088.9787628058648
 30
0.0
 40
3.5
  1
PB
  0
SOLID
  5
1530B
  8
1HATCH
 10
-676.57085936734995
 20
-2108.1315238095549
 30
0.0
 11
-676.55052209930591
 21
-2110.1590093228542
 31
0.0
 12
-677.22732292474211
 22
-2108.2477134918008
 32
0.0
 13
-677.22732292474211
 23
-2108.2477134918008
 33
0.0
  0
SOLID
  5
1530D
  8
1DIM
 10
-668.50733855481928
 20
-2108.1359103396539
 30
0.0
 11
-668.05253988536469
 21
-2110.1118327271411
 31
0.0
 12
-669.12359453619604
 22
-2108.3902192263681
 32
0.0
 13
-669.12359453619604
 23
-2108.3902192263681
 33
0.0
  0
TEXT
  5
1530F
  8
1DIM
 10
-671.30804498445423
 20
-2094.9801088229892
 30
0.0
 40
3.5
  1
合板9mm以上
  0
LINE
  5
1532A
  8
1CENTER
 10
-738.11303831494661
 20
-2152.53775604457
 30
0.0
 11
-738.11303831494661
 21
-2146.53775604457
 31
0.0
  0
LINE
  5
1532B
  8
1CENTER
 10
-741.11303831494649
 20
-2149.53775604457
 30
0.0
 11
-735.11303831494661
 21
-2149.53775604457
 31
0.0
  0
TEXT
  5
15449
  8
1TEXT
 10
-983.11303831494649
 20
-2047.03775604457
 30
0.0
 40
8.0
  1
SA480-
  0
TEXT
  5
1544B
  8
1TEXT
 10
-704.37810976900289
 20
-2209.03775604457
 30
0.0
 40
4.0
  1
表面処理：
 72
     1
 11
-693.73049072138383
 21
-2209.03775604457
 31
0.0
  0
TEXT
  5
1544C
  8
1TEXT
 10
-703.0638240547172
 20
-2215.8730447040939
 30
0.0
 40
4.0
  1
クローム
 72
     1
 11
-693.73049072138383
 21
-2215.8730447040939
 31
0.0
  0
LINE
  5
1544E
  8
1DIM
 10
-711.13049072138392
 20
-2203.53775604457
 30
0.0
 11
-641.13049072138392
 21
-2203.53775604457
 31
0.0
  0
LINE
  5
1544F
  8
1DIM
 10
-711.13049072138392
 20
-2217.53775604457
 30
0.0
 11
-641.13049072138392
 21
-2217.53775604457
 31
0.0
  0
LINE
  5
15450
  8
1DIM
 10
-711.13049072138392
 20
-2210.53775604457
 30
0.0
 11
-641.13049072138392
 21
-2210.53775604457
 31
0.0
  0
LINE
  5
15451
  8
1DIM
 10
-711.13049072138392
 20
-2224.53775604457
 30
0.0
 11
-641.13049072138392
 21
-2224.53775604457
 31
0.0
  0
LINE
  5
15452
  8
1DIM
 10
-711.13049072138392
 20
-2224.53775604457
 30
0.0
 11
-641.13049072138392
 21
-2224.53775604457
 31
0.0
  0
LINE
  5
15453
  8
1DIM
 10
-676.13049072138392
 20
-2203.53775604457
 30
0.0
 11
-676.13049072138392
 21
-2224.53775604457
 31
0.0
  0
TEXT
  5
15454
  8
1TEXT
 10
-671.73049072138338
 20
-2216.2521130282198
 30
0.0
 40
4.0
  1
SA480XC
 72
     1
 11
-658.73049072138338
 21
-2216.2521130282198
 31
0.0
  0
TEXT
  5
15456
  8
1TEXT
 10
-665.53049072138379
 20
-2209.03775604457
 30
0.0
 40
4.0
  1
コード
 72
     1
 11
-658.73049072138383
 21
-2209.03775604457
 31
0.0
  0
LINE
  5
15458
  8
1DIM
 10
-711.13049072138392
 20
-2224.53775604457
 30
0.0
 11
-711.13049072138392
 21
-2203.53775604457
 31
0.0
  0
LINE
  5
15459
  8
1DIM
 10
-641.13049072138392
 20
-2224.53775604457
 30
0.0
 11
-641.13049072138392
 21
-2203.53775604457
 31
0.0
  0
TEXT
  5
1545A
  8
1TEXT
 10
-708.99715738805048
 20
-2222.8730447040939
 30
0.0
 40
4.0
  1
クローム+ブラストクローム
 41
0.5
 72
     1
 11
-693.73049072138383
 21
-2222.8730447040939
 31
0.0
  0
TEXT
  5
1545B
  8
1TEXT
 10
-671.73049072138338
 20
-2223.2521130282198
 30
0.0
 40
4.0
  1
SA480CE
 72
     1
 11
-658.73049072138338
 21
-2223.2521130282198
 31
0.0
  0
TEXT
  5
155D1
  8
1DIM
 10
-960.79187661464812
 20
-2076.2280327752178
 30
0.0
 40
3.5
  1
材質：亜鉛ダイキャスト
  0
TEXT
  5
155D2
  8
1DIM
 10
-952.62520994798149
 20
-2082.0613661085522
 30
0.0
 40
3.5
  1
仕上げ：各種メッキ
  0
SOLID
  5
155D3
  8
1DIM
 10
-897.50817222909075
 20
-2054.113187001009
 30
0.0
 11
-896.22520994798151
 21
-2052.54311729034
 31
0.0
 12
-896.92961111854345
 22
-2054.4444142429538
 32
0.0
 13
-896.92961111854345
 23
-2054.4444142429538
 33
0.0
  0
TEXT
  5
155D5
  8
1DIM
 10
-853.87869105114441
 20
-2063.2775972334139
 30
0.0
 40
3.5
  1
材質：亜鉛ダイキャスト
  0
TEXT
  5
155D6
  8
1DIM
 10
-853.87869105114441
 20
-2069.1109305667469
 30
0.0
 40
3.5
  1
仕上げ：各種メッキ
  0
SOLID
  5
155D7
  8
1DIM
 10
-872.30155494995029
 20
-2088.0215804476711
 30
0.0
 11
-873.8786910511443
 21
-2089.2958460516261
 31
0.0
 12
-872.80008088102727
 22
-2087.5789560691192
 32
0.0
 13
-872.80008088102727
 23
-2087.5789560691192
 33
0.0
  0
LINE
  5
155D9
  8
1DIM
 10
-652.52600063765749
 20
-2134.2706056125289
 30
0.0
 11
-640.13049072138392
 21
-2134.2706056125289
 31
0.0
  0
LINE
  5
155DA
  8
1DIM
 10
-652.52600063765749
 20
-2164.2706056125289
 30
0.0
 11
-640.13049072138392
 21
-2164.2706056125289
 31
0.0
  0
LINE
  5
155DB
  8
1DIM
 10
-641.13049072138392
 20
-2136.2706056125289
 30
0.0
 11
-641.13049072138392
 21
-2162.2706056125289
 31
0.0
  0
LINE
  5
155DF
  8
1DIM
 10
-652.52600063765749
 20
-2134.2706056125289
 30
0.0
 11
-640.13049072138392
 21
-2134.2706056125289
 31
0.0
  0
LINE
  5
155E0
  8
1DIM
 10
-681.11303831494627
 20
-2122.03775604457
 30
0.0
 11
-640.13049072138392
 21
-2122.03775604457
 31
0.0
  0
LINE
  5
155E1
  8
1DIM
 10
-641.13049072138392
 20
-2132.2706056125289
 30
0.0
 11
-641.13049072138392
 21
-2124.03775604457
 31
0.0
  0
LINE
  5
155E5
  8
1DIM
 10
-681.11303831494627
 20
-2122.03775604457
 30
0.0
 11
-681.11303831494627
 21
-2101.03775604457
 31
0.0
  0
LINE
  5
155E6
  8
1DIM
 10
-746.11303831494661
 20
-2149.53775604457
 30
0.0
 11
-746.11303831494661
 21
-2101.03775604457
 31
0.0
  0
LINE
  5
155E7
  8
1DIM
 10
-683.11303831494638
 20
-2102.03775604457
 30
0.0
 11
-744.11303831494661
 21
-2102.03775604457
 31
0.0
  0
LINE
  5
155EB
  8
1DIM
 10
-681.11303831494627
 20
-2122.03775604457
 30
0.0
 11
-681.11303831494627
 21
-2111.03775604457
 31
0.0
  0
LINE
  5
155EC
  8
1DIM
 10
-738.11303831494661
 20
-2146.53775604457
 30
0.0
 11
-738.11303831494661
 21
-2111.03775604457
 31
0.0
  0
LINE
  5
155ED
  8
1DIM
 10
-683.11303831494638
 20
-2112.03775604457
 30
0.0
 11
-736.11303831494661
 21
-2112.03775604457
 31
0.0
  0
LINE
  5
155F1
  8
1DIM
 10
-681.11303831494627
 20
-2177.03775604457
 30
0.0
 11
-681.11303831494627
 21
-2188.03775604457
 31
0.0
  0
LINE
  5
155F2
  8
1DIM
 10
-699.11303930679333
 20
-2163.1814463545902
 30
0.0
 11
-699.11303930679333
 21
-2188.03775604457
 31
0.0
  0
LINE
  5
155F3
  8
1DIM
 10
-683.11303831494638
 20
-2187.03775604457
 30
0.0
 11
-697.11303930679333
 21
-2187.03775604457
 31
0.0
  0
LINE
  5
155F7
  8
1DIM
 10
-915.61303831494627
 20
-2149.53775604457
 30
0.0
 11
-915.61303831494627
 21
-2188.03775604457
 31
0.0
  0
LINE
  5
155F8
  8
1DIM
 10
-860.61303831494638
 20
-2149.53775604457
 30
0.0
 11
-860.61303831494638
 21
-2188.03775604457
 31
0.0
  0
LINE
  5
155F9
  8
1DIM
 10
-913.61303831494627
 20
-2187.03775604457
 30
0.0
 11
-862.61303831494638
 21
-2187.03775604457
 31
0.0
  0
LINE
  5
155FD
  8
1DIM
 10
-686.61303831494638
 20
-2122.03775604457
 30
0.0
 11
-754.11303831494649
 21
-2122.03775604457
 31
0.0
  0
LINE
  5
155FE
  8
1DIM
 10
-741.11303831494649
 20
-2149.53775604457
 30
0.0
 11
-754.11303831494649
 21
-2149.53775604457
 31
0.0
  0
LINE
  5
155FF
  8
1DIM
 10
-753.11303831494661
 20
-2124.03775604457
 30
0.0
 11
-753.11303831494661
 21
-2147.53775604457
 31
0.0
  0
LINE
  5
15603
  8
1DIM
 10
-868.11303831494627
 20
-2144.53775604457
 30
0.0
 11
-782.11303831494661
 21
-2144.53775604457
 31
0.0
  0
LINE
  5
15604
  8
1DIM
 10
-810.61303831494661
 20
-2224.53775604457
 30
0.0
 11
-782.11303831494661
 21
-2224.53775604457
 31
0.0
  0
LINE
  5
15605
  8
1DIM
 10
-783.11303831494649
 20
-2146.53775604457
 30
0.0
 11
-783.11303831494649
 21
-2222.53775604457
 31
0.0
  0
LINE
  5
15609
  8
1DIM
 10
-798.11303831494627
 20
-2099.03775604457
 30
0.0
 11
-782.11303831494661
 21
-2099.03775604457
 31
0.0
  0
LINE
  5
1560A
  8
1DIM
 10
-798.11303831494627
 20
-2089.03775604457
 30
0.0
 11
-782.11303831494661
 21
-2089.03775604457
 31
0.0
  0
LINE
  5
1560B
  8
1DIM
 10
-783.11303831494649
 20
-2097.03775604457
 30
0.0
 11
-783.11303831494649
 21
-2091.03775604457
 31
0.0
  0
LINE
  5
1560C
  8
1DIM
 10
-783.11303831494649
 20
-2089.03775604457
 30
0.0
 11
-783.11303831494649
 21
-2075.9710893779029
 31
0.0
  0
LINE
  5
15610
  8
1DIM
 10
-888.11303831494638
 20
-2122.03775604457
 30
0.0
 11
-772.11303831494661
 21
-2122.03775604457
 31
0.0
  0
LINE
  5
15611
  8
1DIM
 10
-810.61303831494661
 20
-2224.53775604457
 30
0.0
 11
-772.11303831494661
 21
-2224.53775604457
 31
0.0
  0
LINE
  5
15612
  8
1DIM
 10
-773.11303831494661
 20
-2124.03775604457
 30
0.0
 11
-773.11303831494661
 21
-2222.53775604457
 31
0.0
  0
LINE
  5
15616
  8
1DIM
 10
-983.11303831494649
 20
-2162.03775604457
 30
0.0
 11
-983.11303831494649
 21
-2111.03775604457
 31
0.0
  0
LINE
  5
15617
  8
1DIM
 10
-793.11303831494661
 20
-2190.53775604457
 30
0.0
 11
-793.11303831494661
 21
-2111.03775604457
 31
0.0
  0
LINE
  5
15618
  8
1DIM
 10
-981.11303831494661
 20
-2112.03775604457
 30
0.0
 11
-795.11303831494649
 21
-2112.03775604457
 31
0.0
  0
LINE
  5
1561C
  8
1DIM
 10
-668.81546654550755
 20
-2108.263064783011
 30
0.0
 11
-674.00804498445416
 21
-2095.680108822989
 31
0.0
  0
LINE
  5
1561D
  8
1DIM
 10
-674.00804498445416
 20
-2095.680108822989
 30
0.0
 11
-642.10804498445418
 21
-2095.680108822989
 31
0.0
  0
LINE
  5
1561E
  8
1HATCH
 10
-676.89909114604609
 20
-2108.1896186506779
 30
0.0
 11
-680.17538947899277
 21
-2089.6787628058651
 31
0.0
  0
LINE
  5
1561F
  8
1HATCH
 10
-680.17538947899277
 20
-2089.6787628058651
 30
0.0
 11
-671.64205614565958
 21
-2089.6787628058651
 31
0.0
  0
LINE
  5
15620
  8
1CENTER
 10
-888.11303831494661
 20
-2008.4332593166589
 30
0.0
 11
-888.11303831494661
 21
-2041.2663923640339
 31
0.0
  0
LINE
  5
15622
  8
0
 10
-890.11299177904857
 20
-2024.987750853923
 30
0.0
 11
-886.11299177904868
 21
-2024.1877601611011
 31
0.0
  0
LINE
  5
15623
  8
0
 10
-889.66017563698995
 20
-2013.5877519075329
 30
0.0
 11
-886.79221293565945
 21
-2012.7877585806921
 31
0.0
  0
LINE
  5
15624
  8
0
 10
-887.24502704006625
 20
-2011.187757527086
 30
0.0
 11
-887.83330361510866
 21
-2010.8759876708341
 31
0.0
  0
LINE
  5
15625
  8
0
 10
-888.75019028831048
 20
-2012.139188757578
 30
0.0
 11
-889.20736212894155
 21
-2011.9877529611381
 31
0.0
  0
LINE
  5
15626
  8
0
 10
-886.79221293565945
 20
-2012.7877585806921
 30
0.0
 11
-887.34396239946273
 21
-2012.6049944380641
 31
0.0
  0
LINE
  5
15627
  8
0
 10
-889.20736212894155
 20
-2011.9877529611381
 30
0.0
 11
-887.24502704006625
 21
-2011.187757527086
 31
0.0
  0
LINE
  5
15628
  8
0
 10
-889.61299177904868
 20
-2017.0877520173201
 30
0.0
 11
-890.11299177904857
 21
-2016.987750853923
 31
0.0
  0
LINE
  5
15629
  8
0
 10
-890.11299177904857
 20
-2016.987750853923
 30
0.0
 11
-886.11299177904868
 21
-2016.1877601611
 31
0.0
  0
LINE
  5
1562A
  8
0
 10
-886.11299177904868
 20
-2016.1877601611
 30
0.0
 11
-886.61299177904857
 21
-2016.0877589977031
 31
0.0
  0
LINE
  5
1562B
  8
0
 10
-889.61299177904868
 20
-2018.68775201732
 30
0.0
 11
-890.11299177904857
 21
-2018.5877508539229
 31
0.0
  0
LINE
  5
1562C
  8
0
 10
-886.11299177904868
 20
-2017.7877601611001
 30
0.0
 11
-886.61299177904857
 21
-2017.687758997703
 31
0.0
  0
LINE
  5
1562D
  8
0
 10
-890.11299177904857
 20
-2018.5877508539229
 30
0.0
 11
-886.11299177904868
 21
-2017.7877601611001
 31
0.0
  0
LINE
  5
1562E
  8
0
 10
-889.61299177904868
 20
-2020.2877520173211
 30
0.0
 11
-890.11299177904857
 21
-2020.187750853923
 31
0.0
  0
LINE
  5
1562F
  8
0
 10
-890.11299177904857
 20
-2020.187750853923
 30
0.0
 11
-886.11299177904868
 21
-2019.3877601611
 31
0.0
  0
LINE
  5
15630
  8
0
 10
-886.11299177904868
 20
-2019.3877601611
 30
0.0
 11
-886.61299177904857
 21
-2019.287758997704
 31
0.0
  0
LINE
  5
15631
  8
0
 10
-889.61299177904868
 20
-2015.2877520173199
 30
0.0
 11
-890.11299177904857
 21
-2015.187750853923
 31
0.0
  0
LINE
  5
15632
  8
0
 10
-889.19207718183998
 20
-2013.700521419883
 30
0.0
 11
-889.66017563698995
 21
-2013.5877519075329
 31
0.0
  0
LINE
  5
15633
  8
0
 10
-886.33939883125265
 20
-2014.3877596342979
 30
0.0
 11
-886.87599256652368
 21
-2014.2584889366681
 31
0.0
  0
LINE
  5
15634
  8
0
 10
-890.11299177904857
 20
-2015.187750853923
 30
0.0
 11
-886.33939883125265
 21
-2014.3877596342979
 31
0.0
  0
LINE
  5
15635
  8
0
 10
-889.61299177904868
 20
-2023.48775201732
 30
0.0
 11
-890.11299177904857
 21
-2023.3877508539231
 31
0.0
  0
LINE
  5
15636
  8
0
 10
-886.11299177904868
 20
-2022.587760161101
 30
0.0
 11
-886.61299177904857
 21
-2022.4877589977029
 31
0.0
  0
LINE
  5
15637
  8
0
 10
-886.11299177904868
 20
-2020.9877601611011
 30
0.0
 11
-886.61299177904857
 21
-2020.887758997703
 31
0.0
  0
LINE
  5
15638
  8
0
 10
-889.61299177904868
 20
-2021.8877520173201
 30
0.0
 11
-890.11299177904857
 21
-2021.7877508539229
 31
0.0
  0
LINE
  5
15639
  8
0
 10
-890.11299177904857
 20
-2021.7877508539229
 30
0.0
 11
-886.11299177904868
 21
-2020.9877601611011
 31
0.0
  0
LINE
  5
1563A
  8
0
 10
-890.11299177904857
 20
-2023.3877508539231
 30
0.0
 11
-886.11299177904868
 21
-2022.587760161101
 31
0.0
  0
LINE
  5
1563B
  8
0
 10
-886.11299177904868
 20
-2024.1877601611011
 30
0.0
 11
-886.61299177904857
 21
-2024.0877589977031
 31
0.0
  0
LINE
  5
1563C
  8
0
 10
-892.11303831494649
 20
-2039.587746200117
 30
0.0
 11
-884.11303831494649
 21
-2039.587764814476
 31
0.0
  0
LINE
  5
1563D
  8
0
 10
-890.11299177904857
 20
-2036.1877508539269
 30
0.0
 11
-886.11299177904868
 21
-2035.3877601611091
 31
0.0
  0
LINE
  5
1563E
  8
0
 10
-889.61299177904868
 20
-2034.6877520173209
 30
0.0
 11
-890.11299177904857
 21
-2034.5877508539229
 31
0.0
  0
LINE
  5
1563F
  8
0
 10
-886.11299177904868
 20
-2035.3877601611091
 30
0.0
 11
-886.61299177904857
 21
-2035.287758997712
 31
0.0
  0
LINE
  5
15640
  8
0
 10
-889.61299177904868
 20
-2031.4877520173211
 30
0.0
 11
-890.11299177904857
 21
-2031.3877508539231
 31
0.0
  0
LINE
  5
15641
  8
0
 10
-890.11299177904857
 20
-2032.987750853923
 30
0.0
 11
-886.11299177904868
 21
-2032.187760161105
 31
0.0
  0
LINE
  5
15642
  8
0
 10
-886.11299177904868
 20
-2032.187760161105
 30
0.0
 11
-886.61299177904857
 21
-2032.0877589977069
 31
0.0
  0
LINE
  5
15643
  8
0
 10
-889.61299177904868
 20
-2033.087752017321
 30
0.0
 11
-890.11299177904857
 21
-2032.987750853923
 31
0.0
  0
LINE
  5
15644
  8
0
 10
-886.11299177904868
 20
-2033.7877601611051
 30
0.0
 11
-886.61299177904857
 21
-2033.6877589977071
 31
0.0
  0
LINE
  5
15645
  8
0
 10
-886.11299177904868
 20
-2028.9877601611011
 30
0.0
 11
-886.61299177904857
 21
-2028.887758997703
 31
0.0
  0
LINE
  5
15646
  8
0
 10
-886.11299177904868
 20
-2030.5877601611051
 30
0.0
 11
-886.61299177904857
 21
-2030.487758997707
 31
0.0
  0
LINE
  5
15647
  8
0
 10
-889.61299177904868
 20
-2029.887752017321
 30
0.0
 11
-890.11299177904857
 21
-2029.7877508539229
 31
0.0
  0
LINE
  5
15648
  8
0
 10
-889.61299177904868
 20
-2028.2877520173199
 30
0.0
 11
-890.11299177904857
 21
-2028.187750853923
 31
0.0
  0
LINE
  5
15649
  8
0
 10
-890.11299177904857
 20
-2029.7877508539229
 30
0.0
 11
-886.11299177904868
 21
-2028.9877601611011
 31
0.0
  0
LINE
  5
1564A
  8
0
 10
-890.11299177904857
 20
-2031.3877508539231
 30
0.0
 11
-886.11299177904868
 21
-2030.5877601611051
 31
0.0
  0
LINE
  5
1564B
  8
0
 10
-890.11299177904857
 20
-2034.5877508539229
 30
0.0
 11
-886.11299177904868
 21
-2033.7877601611051
 31
0.0
  0
LINE
  5
1564C
  8
0
 10
-886.11299177904868
 20
-2027.3877601611009
 30
0.0
 11
-886.61299177904857
 21
-2027.287758997704
 31
0.0
  0
LINE
  5
1564D
  8
0
 10
-886.11299177904868
 20
-2025.7877601611001
 30
0.0
 11
-886.61299177904857
 21
-2025.687758997703
 31
0.0
  0
LINE
  5
1564E
  8
0
 10
-889.61299177904868
 20
-2026.68775201732
 30
0.0
 11
-890.11299177904857
 21
-2026.5877508539229
 31
0.0
  0
LINE
  5
1564F
  8
0
 10
-889.61299177904868
 20
-2025.0877520173201
 30
0.0
 11
-890.11299177904857
 21
-2024.987750853923
 31
0.0
  0
LINE
  5
15650
  8
0
 10
-890.11299177904857
 20
-2026.5877508539229
 30
0.0
 11
-886.11299177904868
 21
-2025.7877601611001
 31
0.0
  0
LINE
  5
15651
  8
0
 10
-890.11299177904857
 20
-2028.187750853923
 30
0.0
 11
-886.11299177904868
 21
-2027.3877601611009
 31
0.0
  0
LINE
  5
15652
  8
0
 10
-889.61299177904868
 20
-2036.2877520173249
 30
0.0
 11
-890.11299177904857
 21
-2036.1877508539269
 31
0.0
  0
LINE
  5
15653
  8
0
 10
-886.11299177904868
 20
-2036.987760161109
 30
0.0
 11
-886.61299177904857
 21
-2036.8877589977119
 31
0.0
  0
LINE
  5
15654
  8
0
 10
-886.61299177904857
 20
-2037.0877589977119
 30
0.0
 11
-886.11299177904868
 21
-2036.987760161109
 31
0.0
  0
LINE
  5
15655
  8
1CENTER
 10
-652.52600063765749
 20
-2164.2706056125289
 30
0.0
 11
-685.35913368503225
 21
-2164.2706056125289
 31
0.0
  0
LINE
  5
15657
  8
0
 10
-669.08049217492135
 20
-2162.270652148427
 30
0.0
 11
-668.28050148209877
 21
-2166.270652148427
 31
0.0
  0
LINE
  5
15658
  8
0
 10
-657.68049322853153
 20
-2162.7234682904859
 30
0.0
 11
-656.88049990169043
 21
-2165.5914309918162
 31
0.0
  0
LINE
  5
15659
  8
0
 10
-655.28049884808479
 20
-2165.1386168874092
 30
0.0
 11
-654.96872899183268
 21
-2164.5503403123671
 31
0.0
  0
LINE
  5
1565A
  8
0
 10
-656.23193007857617
 20
-2163.6334536391651
 30
0.0
 11
-656.08049428213565
 21
-2163.1762817985341
 31
0.0
  0
LINE
  5
1565B
  8
0
 10
-656.88049990169043
 20
-2165.5914309918162
 30
0.0
 11
-656.69773575906243
 21
-2165.0396815280128
 31
0.0
  0
LINE
  5
1565C
  8
0
 10
-656.08049428213565
 20
-2163.1762817985341
 30
0.0
 11
-655.28049884808479
 21
-2165.1386168874092
 31
0.0
  0
LINE
  5
1565D
  8
0
 10
-661.18049333831846
 20
-2162.770652148427
 30
0.0
 11
-661.08049217492135
 21
-2162.270652148427
 31
0.0
  0
LINE
  5
1565E
  8
0
 10
-661.08049217492135
 20
-2162.270652148427
 30
0.0
 11
-660.28050148209877
 21
-2166.270652148427
 31
0.0
  0
LINE
  5
1565F
  8
0
 10
-660.28050148209877
 20
-2166.270652148427
 30
0.0
 11
-660.18050031870155
 21
-2165.770652148427
 31
0.0
  0
LINE
  5
15660
  8
0
 10
-662.78049333831825
 20
-2162.770652148427
 30
0.0
 11
-662.68049217492126
 21
-2162.270652148427
 31
0.0
  0
LINE
  5
15661
  8
0
 10
-661.88050148209868
 20
-2166.270652148427
 30
0.0
 11
-661.78050031870146
 21
-2165.770652148427
 31
0.0
  0
LINE
  5
15662
  8
0
 10
-662.68049217492126
 20
-2162.270652148427
 30
0.0
 11
-661.88050148209868
 21
-2166.270652148427
 31
0.0
  0
LINE
  5
15663
  8
0
 10
-664.3804933383185
 20
-2162.770652148427
 30
0.0
 11
-664.28049217492128
 21
-2162.270652148427
 31
0.0
  0
LINE
  5
15664
  8
0
 10
-664.28049217492128
 20
-2162.270652148427
 30
0.0
 11
-663.48050148209882
 21
-2166.270652148427
 31
0.0
  0
LINE
  5
15665
  8
0
 10
-663.48050148209882
 20
-2166.270652148427
 30
0.0
 11
-663.38050031870171
 21
-2165.770652148427
 31
0.0
  0
LINE
  5
15666
  8
0
 10
-659.3804933383185
 20
-2162.770652148427
 30
0.0
 11
-659.28049217492128
 21
-2162.270652148427
 31
0.0
  0
LINE
  5
15667
  8
0
 10
-657.79326274088157
 20
-2163.191566745636
 30
0.0
 11
-657.68049322853153
 21
-2162.7234682904859
 31
0.0
  0
LINE
  5
15668
  8
0
 10
-658.48050095529595
 20
-2166.0442450962232
 30
0.0
 11
-658.3512302576662
 21
-2165.507651360952
 31
0.0
  0
LINE
  5
15669
  8
0
 10
-659.28049217492128
 20
-2162.270652148427
 30
0.0
 11
-658.48050095529595
 21
-2166.0442450962232
 31
0.0
  0
LINE
  5
1566A
  8
0
 10
-667.58049333831855
 20
-2162.770652148427
 30
0.0
 11
-667.48049217492144
 21
-2162.270652148427
 31
0.0
  0
LINE
  5
1566B
  8
0
 10
-666.68050148209875
 20
-2166.270652148427
 30
0.0
 11
-666.58050031870175
 21
-2165.770652148427
 31
0.0
  0
LINE
  5
1566C
  8
0
 10
-665.08050148209873
 20
-2166.270652148427
 30
0.0
 11
-664.98050031870162
 21
-2165.770652148427
 31
0.0
  0
LINE
  5
1566D
  8
0
 10
-665.98049333831841
 20
-2162.770652148427
 30
0.0
 11
-665.88049217492119
 21
-2162.270652148427
 31
0.0
  0
LINE
  5
1566E
  8
0
 10
-665.88049217492119
 20
-2162.270652148427
 30
0.0
 11
-665.08050148209873
 21
-2166.270652148427
 31
0.0
  0
LINE
  5
1566F
  8
0
 10
-667.48049217492144
 20
-2162.270652148427
 30
0.0
 11
-666.68050148209875
 21
-2166.270652148427
 31
0.0
  0
LINE
  5
15670
  8
0
 10
-668.28050148209877
 20
-2166.270652148427
 30
0.0
 11
-668.18050031870155
 21
-2165.770652148427
 31
0.0
  0
LINE
  5
15671
  8
0
 10
-683.68048752111486
 20
-2160.2706056125289
 30
0.0
 11
-683.68050613547405
 21
-2168.2706056125289
 31
0.0
  0
LINE
  5
15672
  8
0
 10
-680.28049217492571
 20
-2162.270652148427
 30
0.0
 11
-679.48050148210746
 21
-2166.270652148427
 31
0.0
  0
LINE
  5
15673
  8
0
 10
-678.78049333831905
 20
-2162.770652148427
 30
0.0
 11
-678.68049217492137
 21
-2162.270652148427
 31
0.0
  0
LINE
  5
15674
  8
0
 10
-679.48050148210746
 20
-2166.270652148427
 30
0.0
 11
-679.38050031870989
 21
-2165.770652148427
 31
0.0
  0
LINE
  5
15675
  8
0
 10
-675.58049333831889
 20
-2162.770652148427
 30
0.0
 11
-675.48049217492144
 21
-2162.270652148427
 31
0.0
  0
LINE
  5
15676
  8
0
 10
-677.08049217492146
 20
-2162.270652148427
 30
0.0
 11
-676.28050148210332
 21
-2166.270652148427
 31
0.0
  0
LINE
  5
15677
  8
0
 10
-676.28050148210332
 20
-2166.270652148427
 30
0.0
 11
-676.18050031870553
 21
-2165.770652148427
 31
0.0
  0
LINE
  5
15678
  8
0
 10
-677.18049333831914
 20
-2162.770652148427
 30
0.0
 11
-677.08049217492146
 21
-2162.270652148427
 31
0.0
  0
LINE
  5
15679
  8
0
 10
-677.88050148210323
 20
-2166.270652148427
 30
0.0
 11
-677.78050031870544
 21
-2165.770652148427
 31
0.0
  0
LINE
  5
1567A
  8
0
 10
-673.08050148209873
 20
-2166.270652148427
 30
0.0
 11
-672.98050031870162
 21
-2165.770652148427
 31
0.0
  0
LINE
  5
1567B
  8
0
 10
-674.68050148210307
 20
-2166.270652148427
 30
0.0
 11
-674.58050031870539
 21
-2165.770652148427
 31
0.0
  0
LINE
  5
1567C
  8
0
 10
-673.98049333831898
 20
-2162.770652148427
 30
0.0
 11
-673.88049217492119
 21
-2162.270652148427
 31
0.0
  0
LINE
  5
1567D
  8
0
 10
-672.3804933383185
 20
-2162.770652148427
 30
0.0
 11
-672.28049217492128
 21
-2162.270652148427
 31
0.0
  0
LINE
  5
1567E
  8
0
 10
-673.88049217492119
 20
-2162.270652148427
 30
0.0
 11
-673.08050148209873
 21
-2166.270652148427
 31
0.0
  0
LINE
  5
1567F
  8
0
 10
-675.48049217492144
 20
-2162.270652148427
 30
0.0
 11
-674.68050148210307
 21
-2166.270652148427
 31
0.0
  0
LINE
  5
15680
  8
0
 10
-678.68049217492137
 20
-2162.270652148427
 30
0.0
 11
-677.88050148210323
 21
-2166.270652148427
 31
0.0
  0
LINE
  5
15681
  8
0
 10
-671.48050148209882
 20
-2166.270652148427
 30
0.0
 11
-671.38050031870171
 21
-2165.770652148427
 31
0.0
  0
LINE
  5
15682
  8
0
 10
-669.88050148209868
 20
-2166.270652148427
 30
0.0
 11
-669.78050031870146
 21
-2165.770652148427
 31
0.0
  0
LINE
  5
15683
  8
0
 10
-670.78049333831825
 20
-2162.770652148427
 30
0.0
 11
-670.68049217492126
 21
-2162.270652148427
 31
0.0
  0
LINE
  5
15684
  8
0
 10
-669.18049333831846
 20
-2162.770652148427
 30
0.0
 11
-669.08049217492135
 21
-2162.270652148427
 31
0.0
  0
LINE
  5
15685
  8
0
 10
-670.68049217492126
 20
-2162.270652148427
 30
0.0
 11
-669.88050148209868
 21
-2166.270652148427
 31
0.0
  0
LINE
  5
15686
  8
0
 10
-672.28049217492128
 20
-2162.270652148427
 30
0.0
 11
-671.48050148209882
 21
-2166.270652148427
 31
0.0
  0
LINE
  5
15687
  8
0
 10
-680.3804933383235
 20
-2162.770652148427
 30
0.0
 11
-680.28049217492571
 21
-2162.270652148427
 31
0.0
  0
LINE
  5
15688
  8
0
 10
-681.08050148210771
 20
-2166.270652148427
 30
0.0
 11
-680.98050031871003
 21
-2165.770652148427
 31
0.0
  0
LINE
  5
15689
  8
0
 10
-681.18050031870985
 20
-2165.770652148427
 30
0.0
 11
-681.08050148210771
 21
-2166.270652148427
 31
0.0
  0
LINE
  5
1568A
  8
1CENTER
 10
-652.52600063765749
 20
-2134.2706056125289
 30
0.0
 11
-685.35913368503225
 21
-2134.2706056125289
 31
0.0
  0
LINE
  5
1568C
  8
0
 10
-669.08049217492135
 20
-2132.270652148427
 30
0.0
 11
-668.28050148209877
 21
-2136.270652148427
 31
0.0
  0
LINE
  5
1568D
  8
0
 10
-657.68049322853153
 20
-2132.723468290485
 30
0.0
 11
-656.88049990169043
 21
-2135.5914309918162
 31
0.0
  0
LINE
  5
1568E
  8
0
 10
-655.28049884808479
 20
-2135.1386168874101
 30
0.0
 11
-654.96872899183268
 21
-2134.5503403123671
 31
0.0
  0
LINE
  5
1568F
  8
0
 10
-656.23193007857617
 20
-2133.6334536391651
 30
0.0
 11
-656.08049428213565
 21
-2133.1762817985341
 31
0.0
  0
LINE
  5
15690
  8
0
 10
-656.88049990169043
 20
-2135.5914309918162
 30
0.0
 11
-656.69773575906243
 21
-2135.0396815280128
 31
0.0
  0
LINE
  5
15691
  8
0
 10
-656.08049428213565
 20
-2133.1762817985341
 30
0.0
 11
-655.28049884808479
 21
-2135.1386168874101
 31
0.0
  0
LINE
  5
15692
  8
0
 10
-661.18049333831846
 20
-2132.770652148427
 30
0.0
 11
-661.08049217492135
 21
-2132.270652148427
 31
0.0
  0
LINE
  5
15693
  8
0
 10
-661.08049217492135
 20
-2132.270652148427
 30
0.0
 11
-660.28050148209877
 21
-2136.270652148427
 31
0.0
  0
LINE
  5
15694
  8
0
 10
-660.28050148209877
 20
-2136.270652148427
 30
0.0
 11
-660.18050031870155
 21
-2135.770652148427
 31
0.0
  0
LINE
  5
15695
  8
0
 10
-662.78049333831825
 20
-2132.770652148427
 30
0.0
 11
-662.68049217492126
 21
-2132.270652148427
 31
0.0
  0
LINE
  5
15696
  8
0
 10
-661.88050148209868
 20
-2136.270652148427
 30
0.0
 11
-661.78050031870146
 21
-2135.770652148427
 31
0.0
  0
LINE
  5
15697
  8
0
 10
-662.68049217492126
 20
-2132.270652148427
 30
0.0
 11
-661.88050148209868
 21
-2136.270652148427
 31
0.0
  0
LINE
  5
15698
  8
0
 10
-664.3804933383185
 20
-2132.770652148427
 30
0.0
 11
-664.28049217492128
 21
-2132.270652148427
 31
0.0
  0
LINE
  5
15699
  8
0
 10
-664.28049217492128
 20
-2132.270652148427
 30
0.0
 11
-663.48050148209882
 21
-2136.270652148427
 31
0.0
  0
LINE
  5
1569A
  8
0
 10
-663.48050148209882
 20
-2136.270652148427
 30
0.0
 11
-663.38050031870171
 21
-2135.770652148427
 31
0.0
  0
LINE
  5
1569B
  8
0
 10
-659.3804933383185
 20
-2132.770652148427
 30
0.0
 11
-659.28049217492128
 21
-2132.270652148427
 31
0.0
  0
LINE
  5
1569C
  8
0
 10
-657.79326274088157
 20
-2133.191566745636
 30
0.0
 11
-657.68049322853153
 21
-2132.723468290485
 31
0.0
  0
LINE
  5
1569D
  8
0
 10
-658.48050095529595
 20
-2136.0442450962232
 30
0.0
 11
-658.3512302576662
 21
-2135.507651360952
 31
0.0
  0
LINE
  5
1569E
  8
0
 10
-659.28049217492128
 20
-2132.270652148427
 30
0.0
 11
-658.48050095529595
 21
-2136.0442450962232
 31
0.0
  0
LINE
  5
1569F
  8
0
 10
-667.58049333831855
 20
-2132.770652148427
 30
0.0
 11
-667.48049217492144
 21
-2132.270652148427
 31
0.0
  0
LINE
  5
156A0
  8
0
 10
-666.68050148209875
 20
-2136.270652148427
 30
0.0
 11
-666.58050031870175
 21
-2135.770652148427
 31
0.0
  0
LINE
  5
156A1
  8
0
 10
-665.08050148209873
 20
-2136.270652148427
 30
0.0
 11
-664.98050031870162
 21
-2135.770652148427
 31
0.0
  0
LINE
  5
156A2
  8
0
 10
-665.98049333831841
 20
-2132.770652148427
 30
0.0
 11
-665.88049217492119
 21
-2132.270652148427
 31
0.0
  0
LINE
  5
156A3
  8
0
 10
-665.88049217492119
 20
-2132.270652148427
 30
0.0
 11
-665.08050148209873
 21
-2136.270652148427
 31
0.0
  0
LINE
  5
156A4
  8
0
 10
-667.48049217492144
 20
-2132.270652148427
 30
0.0
 11
-666.68050148209875
 21
-2136.270652148427
 31
0.0
  0
LINE
  5
156A5
  8
0
 10
-668.28050148209877
 20
-2136.270652148427
 30
0.0
 11
-668.18050031870155
 21
-2135.770652148427
 31
0.0
  0
LINE
  5
156A6
  8
0
 10
-683.68048752111486
 20
-2130.2706056125289
 30
0.0
 11
-683.68050613547405
 21
-2138.2706056125289
 31
0.0
  0
LINE
  5
156A7
  8
0
 10
-680.28049217492571
 20
-2132.270652148427
 30
0.0
 11
-679.48050148210746
 21
-2136.270652148427
 31
0.0
  0
LINE
  5
156A8
  8
0
 10
-678.78049333831905
 20
-2132.770652148427
 30
0.0
 11
-678.68049217492137
 21
-2132.270652148427
 31
0.0
  0
LINE
  5
156A9
  8
0
 10
-679.48050148210746
 20
-2136.270652148427
 30
0.0
 11
-679.38050031870989
 21
-2135.770652148427
 31
0.0
  0
LINE
  5
156AA
  8
0
 10
-675.58049333831889
 20
-2132.770652148427
 30
0.0
 11
-675.48049217492144
 21
-2132.270652148427
 31
0.0
  0
LINE
  5
156AB
  8
0
 10
-677.08049217492146
 20
-2132.270652148427
 30
0.0
 11
-676.28050148210332
 21
-2136.270652148427
 31
0.0
  0
LINE
  5
156AC
  8
0
 10
-676.28050148210332
 20
-2136.270652148427
 30
0.0
 11
-676.18050031870553
 21
-2135.770652148427
 31
0.0
  0
LINE
  5
156AD
  8
0
 10
-677.18049333831914
 20
-2132.770652148427
 30
0.0
 11
-677.08049217492146
 21
-2132.270652148427
 31
0.0
  0
LINE
  5
156AE
  8
0
 10
-677.88050148210323
 20
-2136.270652148427
 30
0.0
 11
-677.78050031870544
 21
-2135.770652148427
 31
0.0
  0
LINE
  5
156AF
  8
0
 10
-673.08050148209873
 20
-2136.270652148427
 30
0.0
 11
-672.98050031870162
 21
-2135.770652148427
 31
0.0
  0
LINE
  5
156B0
  8
0
 10
-674.68050148210307
 20
-2136.270652148427
 30
0.0
 11
-674.58050031870539
 21
-2135.770652148427
 31
0.0
  0
LINE
  5
156B1
  8
0
 10
-673.98049333831898
 20
-2132.770652148427
 30
0.0
 11
-673.88049217492119
 21
-2132.270652148427
 31
0.0
  0
LINE
  5
156B2
  8
0
 10
-672.3804933383185
 20
-2132.770652148427
 30
0.0
 11
-672.28049217492128
 21
-2132.270652148427
 31
0.0
  0
LINE
  5
156B3
  8
0
 10
-673.88049217492119
 20
-2132.270652148427
 30
0.0
 11
-673.08050148209873
 21
-2136.270652148427
 31
0.0
  0
LINE
  5
156B4
  8
0
 10
-675.48049217492144
 20
-2132.270652148427
 30
0.0
 11
-674.68050148210307
 21
-2136.270652148427
 31
0.0
  0
LINE
  5
156B5
  8
0
 10
-678.68049217492137
 20
-2132.270652148427
 30
0.0
 11
-677.88050148210323
 21
-2136.270652148427
 31
0.0
  0
LINE
  5
156B6
  8
0
 10
-671.48050148209882
 20
-2136.270652148427
 30
0.0
 11
-671.38050031870171
 21
-2135.770652148427
 31
0.0
  0
LINE
  5
156B7
  8
0
 10
-669.88050148209868
 20
-2136.270652148427
 30
0.0
 11
-669.78050031870146
 21
-2135.770652148427
 31
0.0
  0
LINE
  5
156B8
  8
0
 10
-670.78049333831825
 20
-2132.770652148427
 30
0.0
 11
-670.68049217492126
 21
-2132.270652148427
 31
0.0
  0
LINE
  5
156B9
  8
0
 10
-669.18049333831846
 20
-2132.770652148427
 30
0.0
 11
-669.08049217492135
 21
-2132.270652148427
 31
0.0
  0
LINE
  5
156BA
  8
0
 10
-670.68049217492126
 20
-2132.270652148427
 30
0.0
 11
-669.88050148209868
 21
-2136.270652148427
 31
0.0
  0
LINE
  5
156BB
  8
0
 10
-672.28049217492128
 20
-2132.270652148427
 30
0.0
 11
-671.48050148209882
 21
-2136.270652148427
 31
0.0
  0
LINE
  5
156BC
  8
0
 10
-680.3804933383235
 20
-2132.770652148427
 30
0.0
 11
-680.28049217492571
 21
-2132.270652148427
 31
0.0
  0
LINE
  5
156BD
  8
0
 10
-681.08050148210771
 20
-2136.270652148427
 30
0.0
 11
-680.98050031871003
 21
-2135.770652148427
 31
0.0
  0
LINE
  5
156BE
  8
0
 10
-681.18050031870985
 20
-2135.770652148427
 30
0.0
 11
-681.08050148210771
 21
-2136.270652148427
 31
0.0
  0
TEXT
  5
156BF
  8
1DIM
 10
-846.32177895875554
 20
-2192.819238607613
 30
0.0
 40
3.5
  1
材質：真鍮
  0
TEXT
  5
156C0
  8
1DIM
 10
-846.32177895875554
 20
-2198.6525719409469
 30
0.0
 40
3.5
  1
仕上げ：クローム
  0
SOLID
  5
156C1
  8
1DIM
 10
-864.74464285756176
 20
-2217.5632218218711
 30
0.0
 11
-866.32177895875566
 21
-2218.8374874258261
 31
0.0
 12
-865.24316878863863
 22
-2217.1205974433192
 32
0.0
 13
-865.24316878863863
 23
-2217.1205974433192
 33
0.0
  0
TEXT
  5
156C3
  8
1DIM
 10
-840.61303831494627
 20
-2013.769507226358
 30
0.0
 40
3.5
  1
材質：亜鉛ダイキャスト
  0
TEXT
  5
156C4
  8
1DIM
 10
-840.61303831494627
 20
-2019.602840559691
 30
0.0
 40
3.5
  1
仕上げ：各種メッキ
  0
SOLID
  5
156C5
  8
1DIM
 10
-859.03590221375248
 20
-2038.5134904406159
 30
0.0
 11
-860.61303831494638
 21
-2039.78775604457
 31
0.0
 12
-859.53442814482923
 22
-2038.0708660620639
 32
0.0
 13
-859.53442814482923
 23
-2038.0708660620639
 33
0.0
  0
LINE
  5
156C7
  8
1DIM
 10
-859.28516517929074
 20
-2038.2921782513399
 30
0.0
 11
-843.31303831494643
 21
-2020.302840559692
 31
0.0
  0
LINE
  5
156C8
  8
1DIM
 10
-843.31303831494643
 20
-2020.302840559692
 30
0.0
 11
-795.34637164827973
 21
-2020.302840559692
 31
0.0
  0
LINE
  5
156C9
  8
1DIM
 10
-864.99390582310025
 20
-2217.3419096325952
 30
0.0
 11
-849.0217789587557
 21
-2199.3525719409472
 31
0.0
  0
LINE
  5
156CA
  8
1DIM
 10
-849.0217789587557
 20
-2199.3525719409472
 30
0.0
 11
-813.65511229208903
 21
-2199.3525719409472
 31
0.0
  0
LINE
  5
156CB
  8
0
 10
-659.28049333831905
 20
-2132.770652148427
 30
0.0
 11
-681.1804584364429
 21
-2132.770652148427
 31
0.0
  0
LINE
  5
156CC
  8
0
 10
-683.68048752111486
 20
-2130.2706056125289
 30
0.0
 11
-681.1804584364429
 21
-2132.770652148427
 31
0.0
  0
LINE
  5
156CD
  8
0
 10
-653.98049682845794
 20
-2134.270652148427
 30
0.0
 11
-659.28049333831905
 21
-2132.770652148427
 31
0.0
  0
LINE
  5
156CE
  8
0
 10
-683.68048752111486
 20
-2130.2706056125289
 30
0.0
 11
-683.98048752111595
 21
-2130.2706056125289
 31
0.0
  0
LINE
  5
156CF
  8
0
 10
-653.98049682845794
 20
-2134.270652148427
 30
0.0
 11
-659.28050031870328
 21
-2135.770652148427
 31
0.0
  0
LINE
  5
156D0
  8
0
 10
-683.98048752111595
 20
-2130.2706056125289
 30
0.0
 11
-683.98050613547525
 21
-2138.2706056125289
 31
0.0
  0
LINE
  5
156D1
  8
0
 10
-659.28050031870328
 20
-2135.770652148427
 30
0.0
 11
-681.18052358680814
 21
-2135.770652148427
 31
0.0
  0
LINE
  5
156D2
  8
0
 10
-683.68050613547405
 20
-2138.2706056125289
 30
0.0
 11
-683.98050613547525
 21
-2138.2706056125289
 31
0.0
  0
LINE
  5
156D3
  8
0
 10
-683.68050613547405
 20
-2138.2706056125289
 30
0.0
 11
-681.18052358680814
 21
-2135.770652148427
 31
0.0
  0
LINE
  5
156D4
  8
0
 10
-659.28049333831905
 20
-2162.770652148427
 30
0.0
 11
-681.1804584364429
 21
-2162.770652148427
 31
0.0
  0
LINE
  5
156D5
  8
0
 10
-683.68048752111486
 20
-2160.2706056125289
 30
0.0
 11
-681.1804584364429
 21
-2162.770652148427
 31
0.0
  0
LINE
  5
156D6
  8
0
 10
-653.98049682845794
 20
-2164.270652148427
 30
0.0
 11
-659.28049333831905
 21
-2162.770652148427
 31
0.0
  0
LINE
  5
156D7
  8
0
 10
-683.68048752111486
 20
-2160.2706056125289
 30
0.0
 11
-683.98048752111595
 21
-2160.2706056125289
 31
0.0
  0
LINE
  5
156D8
  8
0
 10
-653.98049682845794
 20
-2164.270652148427
 30
0.0
 11
-659.28050031870328
 21
-2165.770652148427
 31
0.0
  0
LINE
  5
156D9
  8
0
 10
-683.98048752111595
 20
-2160.2706056125289
 30
0.0
 11
-683.98050613547525
 21
-2168.2706056125289
 31
0.0
  0
LINE
  5
156DA
  8
0
 10
-659.28050031870328
 20
-2165.770652148427
 30
0.0
 11
-681.18052358680814
 21
-2165.770652148427
 31
0.0
  0
LINE
  5
156DB
  8
0
 10
-683.68050613547405
 20
-2168.2706056125289
 30
0.0
 11
-683.98050613547525
 21
-2168.2706056125289
 31
0.0
  0
LINE
  5
156DC
  8
0
 10
-683.68050613547405
 20
-2168.2706056125289
 30
0.0
 11
-681.18052358680814
 21
-2165.770652148427
 31
0.0
  0
LINE
  5
156DD
  8
0
 10
-889.61299177904868
 20
-2015.1877520173209
 30
0.0
 11
-889.61299177904868
 21
-2037.087717115445
 31
0.0
  0
LINE
  5
156DE
  8
0
 10
-892.11303831494649
 20
-2039.587746200117
 30
0.0
 11
-889.61299177904868
 21
-2037.087717115445
 31
0.0
  0
LINE
  5
156DF
  8
0
 10
-888.11299177904857
 20
-2009.88775550746
 30
0.0
 11
-889.61299177904868
 21
-2015.1877520173209
 31
0.0
  0
LINE
  5
156E0
  8
0
 10
-892.11303831494649
 20
-2039.587746200117
 30
0.0
 11
-892.11303831494649
 21
-2039.887746200118
 31
0.0
  0
LINE
  5
156E1
  8
0
 10
-888.11299177904857
 20
-2009.88775550746
 30
0.0
 11
-886.61299177904857
 21
-2015.187758997705
 31
0.0
  0
LINE
  5
156E2
  8
0
 10
-892.11303831494649
 20
-2039.887746200118
 30
0.0
 11
-884.11303831494649
 21
-2039.8877648144769
 31
0.0
  0
LINE
  5
156E3
  8
0
 10
-886.61299177904857
 20
-2015.187758997705
 30
0.0
 11
-886.61299177904857
 21
-2037.0877822658099
 31
0.0
  0
LINE
  5
156E4
  8
0
 10
-884.11303831494649
 20
-2039.587764814476
 30
0.0
 11
-884.11303831494649
 21
-2039.8877648144769
 31
0.0
  0
LINE
  5
156E5
  8
0
 10
-884.11303831494649
 20
-2039.587764814476
 30
0.0
 11
-886.61299177904857
 21
-2037.0877822658099
 31
0.0
  0
TEXT
  5
156E6
  8
1DIM
 10
-891.90470498161324
 20
-2111.3377560445701
 30
0.0
 40
3.5
  1
190 
  0
LINE
  5
156E7
  8
0
  6
BYBLOCK
 10
-795.11303831494649
 20
-2111.5018576645698
 30
0.0
 11
-793.11303831494661
 21
-2112.03775604457
 31
0.0
  0
LINE
  5
156E8
  8
0
  6
BYBLOCK
 10
-793.11303831494661
 20
-2112.03775604457
 30
0.0
 11
-795.11303831494649
 21
-2112.5736544245701
 31
0.0
  0
LINE
  5
156E9
  8
0
  6
BYBLOCK
 10
-793.11303831494661
 20
-2112.03775604457
 30
0.0
 11
-795.11303831494649
 21
-2112.03775604457
 31
0.0
  0
LINE
  5
156EA
  8
0
  6
BYBLOCK
 10
-981.11303831494661
 20
-2112.5736544245701
 30
0.0
 11
-983.11303831494649
 21
-2112.03775604457
 31
0.0
  0
LINE
  5
156EB
  8
0
  6
BYBLOCK
 10
-983.11303831494649
 20
-2112.03775604457
 30
0.0
 11
-981.11303831494661
 21
-2111.5018576645698
 31
0.0
  0
LINE
  5
156EC
  8
0
  6
BYBLOCK
 10
-983.11303831494649
 20
-2112.03775604457
 30
0.0
 11
-981.11303831494661
 21
-2112.03775604457
 31
0.0
  0
TEXT
  5
156ED
  8
1DIM
 10
-773.81303831494631
 20
-2179.41275604457
 30
0.0
 40
3.5
  1
102.5 
 50
90.0
  0
LINE
  5
156EE
  8
0
  6
BYBLOCK
 10
-772.57713993494644
 20
-2222.53775604457
 30
0.0
 11
-773.11303831494661
 21
-2224.53775604457
 31
0.0
  0
LINE
  5
156EF
  8
0
  6
BYBLOCK
 10
-773.11303831494661
 20
-2224.53775604457
 30
0.0
 11
-773.64893669494666
 21
-2222.53775604457
 31
0.0
  0
LINE
  5
156F0
  8
0
  6
BYBLOCK
 10
-773.11303831494661
 20
-2224.53775604457
 30
0.0
 11
-773.11303831494661
 21
-2222.53775604457
 31
0.0
  0
LINE
  5
156F1
  8
0
  6
BYBLOCK
 10
-773.64893669494666
 20
-2124.03775604457
 30
0.0
 11
-773.11303831494661
 21
-2122.03775604457
 31
0.0
  0
LINE
  5
156F2
  8
0
  6
BYBLOCK
 10
-773.11303831494661
 20
-2122.03775604457
 30
0.0
 11
-772.57713993494644
 21
-2124.03775604457
 31
0.0
  0
LINE
  5
156F3
  8
0
  6
BYBLOCK
 10
-773.11303831494661
 20
-2122.03775604457
 30
0.0
 11
-773.11303831494661
 21
-2124.03775604457
 31
0.0
  0
TEXT
  5
156F4
  8
1DIM
 10
-783.8130383149462
 20
-2085.996089377903
 30
0.0
 40
3.5
  1
φ10
 50
90.0
  0
LINE
  5
156F5
  8
0
  6
BYBLOCK
 10
-783.64893669494666
 20
-2091.03775604457
 30
0.0
 11
-783.11303831494649
 21
-2089.03775604457
 31
0.0
  0
LINE
  5
156F6
  8
0
  6
BYBLOCK
 10
-783.11303831494649
 20
-2089.03775604457
 30
0.0
 11
-782.57713993494644
 21
-2091.03775604457
 31
0.0
  0
LINE
  5
156F7
  8
0
  6
BYBLOCK
 10
-783.11303831494649
 20
-2089.03775604457
 30
0.0
 11
-783.11303831494649
 21
-2091.03775604457
 31
0.0
  0
LINE
  5
156F8
  8
0
  6
BYBLOCK
 10
-782.57713993494644
 20
-2097.03775604457
 30
0.0
 11
-783.11303831494649
 21
-2099.03775604457
 31
0.0
  0
LINE
  5
156F9
  8
0
  6
BYBLOCK
 10
-783.11303831494649
 20
-2099.03775604457
 30
0.0
 11
-783.64893669494666
 21
-2097.03775604457
 31
0.0
  0
LINE
  5
156FA
  8
0
  6
BYBLOCK
 10
-783.11303831494649
 20
-2099.03775604457
 30
0.0
 11
-783.11303831494649
 21
-2097.03775604457
 31
0.0
  0
TEXT
  5
156FB
  8
1DIM
 10
-783.8130383149462
 20
-2187.16275604457
 30
0.0
 40
3.5
  1
80 
 50
90.0
  0
LINE
  5
156FC
  8
0
  6
BYBLOCK
 10
-782.57713993494644
 20
-2222.53775604457
 30
0.0
 11
-783.11303831494649
 21
-2224.53775604457
 31
0.0
  0
LINE
  5
156FD
  8
0
  6
BYBLOCK
 10
-783.11303831494649
 20
-2224.53775604457
 30
0.0
 11
-783.64893669494666
 21
-2222.53775604457
 31
0.0
  0
LINE
  5
156FE
  8
0
  6
BYBLOCK
 10
-783.11303831494649
 20
-2224.53775604457
 30
0.0
 11
-783.11303831494649
 21
-2222.53775604457
 31
0.0
  0
LINE
  5
156FF
  8
0
  6
BYBLOCK
 10
-783.64893669494666
 20
-2146.53775604457
 30
0.0
 11
-783.11303831494649
 21
-2144.53775604457
 31
0.0
  0
LINE
  5
15700
  8
0
  6
BYBLOCK
 10
-783.11303831494649
 20
-2144.53775604457
 30
0.0
 11
-782.57713993494644
 21
-2146.53775604457
 31
0.0
  0
LINE
  5
15701
  8
0
  6
BYBLOCK
 10
-783.11303831494649
 20
-2144.53775604457
 30
0.0
 11
-783.11303831494649
 21
-2146.53775604457
 31
0.0
  0
TEXT
  5
15702
  8
1DIM
 10
-753.81303831494631
 20
-2141.03775604457
 30
0.0
 40
3.5
  1
27.5 
 50
90.0
  0
LINE
  5
15703
  8
0
  6
BYBLOCK
 10
-752.57713993494656
 20
-2147.53775604457
 30
0.0
 11
-753.11303831494661
 21
-2149.53775604457
 31
0.0
  0
LINE
  5
15704
  8
0
  6
BYBLOCK
 10
-753.11303831494661
 20
-2149.53775604457
 30
0.0
 11
-753.64893669494666
 21
-2147.53775604457
 31
0.0
  0
LINE
  5
15705
  8
0
  6
BYBLOCK
 10
-753.11303831494661
 20
-2149.53775604457
 30
0.0
 11
-753.11303831494661
 21
-2147.53775604457
 31
0.0
  0
LINE
  5
15706
  8
0
  6
BYBLOCK
 10
-753.64893669494666
 20
-2124.03775604457
 30
0.0
 11
-753.11303831494661
 21
-2122.03775604457
 31
0.0
  0
LINE
  5
15707
  8
0
  6
BYBLOCK
 10
-753.11303831494661
 20
-2122.03775604457
 30
0.0
 11
-752.57713993494656
 21
-2124.03775604457
 31
0.0
  0
LINE
  5
15708
  8
0
  6
BYBLOCK
 10
-753.11303831494661
 20
-2122.03775604457
 30
0.0
 11
-753.11303831494661
 21
-2124.03775604457
 31
0.0
  0
TEXT
  5
15709
  8
1DIM
 10
-893.47970498161305
 20
-2186.3377560445701
 30
0.0
 40
3.5
  1
φ55
  0
LINE
  5
1570A
  8
0
  6
BYBLOCK
 10
-862.61303831494638
 20
-2186.5018576645698
 30
0.0
 11
-860.61303831494638
 21
-2187.03775604457
 31
0.0
  0
LINE
  5
1570B
  8
0
  6
BYBLOCK
 10
-860.61303831494638
 20
-2187.03775604457
 30
0.0
 11
-862.61303831494638
 21
-2187.5736544245701
 31
0.0
  0
LINE
  5
1570C
  8
0
  6
BYBLOCK
 10
-860.61303831494638
 20
-2187.03775604457
 30
0.0
 11
-862.61303831494638
 21
-2187.03775604457
 31
0.0
  0
LINE
  5
1570D
  8
0
  6
BYBLOCK
 10
-913.61303831494627
 20
-2187.5736544245701
 30
0.0
 11
-915.61303831494627
 21
-2187.03775604457
 31
0.0
  0
LINE
  5
1570E
  8
0
  6
BYBLOCK
 10
-915.61303831494627
 20
-2187.03775604457
 30
0.0
 11
-913.61303831494627
 21
-2186.5018576645698
 31
0.0
  0
LINE
  5
1570F
  8
0
  6
BYBLOCK
 10
-915.61303831494627
 20
-2187.03775604457
 30
0.0
 11
-913.61303831494627
 21
-2187.03775604457
 31
0.0
  0
TEXT
  5
15710
  8
1DIM
 10
-692.44637214420322
 20
-2186.3377560445701
 30
0.0
 40
3.5
  1
18 
  0
LINE
  5
15711
  8
0
  6
BYBLOCK
 10
-697.11303930679333
 20
-2187.5736544245701
 30
0.0
 11
-699.11303930679333
 21
-2187.03775604457
 31
0.0
  0
LINE
  5
15712
  8
0
  6
BYBLOCK
 10
-699.11303930679333
 20
-2187.03775604457
 30
0.0
 11
-697.11303930679333
 21
-2186.5018576645698
 31
0.0
  0
LINE
  5
15713
  8
0
  6
BYBLOCK
 10
-699.11303930679333
 20
-2187.03775604457
 30
0.0
 11
-697.11303930679333
 21
-2187.03775604457
 31
0.0
  0
LINE
  5
15714
  8
0
  6
BYBLOCK
 10
-683.11303831494638
 20
-2186.5018576645698
 30
0.0
 11
-681.11303831494627
 21
-2187.03775604457
 31
0.0
  0
LINE
  5
15715
  8
0
  6
BYBLOCK
 10
-681.11303831494627
 20
-2187.03775604457
 30
0.0
 11
-683.11303831494638
 21
-2187.5736544245701
 31
0.0
  0
LINE
  5
15716
  8
0
  6
BYBLOCK
 10
-681.11303831494627
 20
-2187.03775604457
 30
0.0
 11
-683.11303831494638
 21
-2187.03775604457
 31
0.0
  0
TEXT
  5
15717
  8
1DIM
 10
-712.52970498161312
 20
-2111.3377560445701
 30
0.0
 40
3.5
  1
57 
  0
LINE
  5
15718
  8
0
  6
BYBLOCK
 10
-736.11303831494661
 20
-2112.5736544245701
 30
0.0
 11
-738.11303831494661
 21
-2112.03775604457
 31
0.0
  0
LINE
  5
15719
  8
0
  6
BYBLOCK
 10
-738.11303831494661
 20
-2112.03775604457
 30
0.0
 11
-736.11303831494661
 21
-2111.5018576645698
 31
0.0
  0
LINE
  5
1571A
  8
0
  6
BYBLOCK
 10
-738.11303831494661
 20
-2112.03775604457
 30
0.0
 11
-736.11303831494661
 21
-2112.03775604457
 31
0.0
  0
LINE
  5
1571B
  8
0
  6
BYBLOCK
 10
-683.11303831494638
 20
-2111.5018576645698
 30
0.0
 11
-681.11303831494627
 21
-2112.03775604457
 31
0.0
  0
LINE
  5
1571C
  8
0
  6
BYBLOCK
 10
-681.11303831494627
 20
-2112.03775604457
 30
0.0
 11
-683.11303831494638
 21
-2112.5736544245701
 31
0.0
  0
LINE
  5
1571D
  8
0
  6
BYBLOCK
 10
-681.11303831494627
 20
-2112.03775604457
 30
0.0
 11
-683.11303831494638
 21
-2112.03775604457
 31
0.0
  0
TEXT
  5
1571E
  8
1DIM
 10
-716.52970498161312
 20
-2101.3377560445701
 30
0.0
 40
3.5
  1
65 
  0
LINE
  5
1571F
  8
0
  6
BYBLOCK
 10
-744.11303831494661
 20
-2102.5736544245701
 30
0.0
 11
-746.11303831494661
 21
-2102.03775604457
 31
0.0
  0
LINE
  5
15720
  8
0
  6
BYBLOCK
 10
-746.11303831494661
 20
-2102.03775604457
 30
0.0
 11
-744.11303831494661
 21
-2101.5018576645689
 31
0.0
  0
LINE
  5
15721
  8
0
  6
BYBLOCK
 10
-746.11303831494661
 20
-2102.03775604457
 30
0.0
 11
-744.11303831494661
 21
-2102.03775604457
 31
0.0
  0
LINE
  5
15722
  8
0
  6
BYBLOCK
 10
-683.11303831494638
 20
-2101.5018576645689
 30
0.0
 11
-681.11303831494627
 21
-2102.03775604457
 31
0.0
  0
LINE
  5
15723
  8
0
  6
BYBLOCK
 10
-681.11303831494627
 20
-2102.03775604457
 30
0.0
 11
-683.11303831494638
 21
-2102.5736544245701
 31
0.0
  0
LINE
  5
15724
  8
0
  6
BYBLOCK
 10
-681.11303831494627
 20
-2102.03775604457
 30
0.0
 11
-683.11303831494638
 21
-2102.03775604457
 31
0.0
  0
TEXT
  5
15725
  8
1DIM
 10
-641.83049072138363
 20
-2130.4875141618832
 30
0.0
 40
3.5
  1
12 
 50
90.0
  0
LINE
  5
15726
  8
0
  6
BYBLOCK
 10
-641.66638910138397
 20
-2124.03775604457
 30
0.0
 11
-641.13049072138392
 21
-2122.03775604457
 31
0.0
  0
LINE
  5
15727
  8
0
  6
BYBLOCK
 10
-641.13049072138392
 20
-2122.03775604457
 30
0.0
 11
-640.59459234138376
 21
-2124.03775604457
 31
0.0
  0
LINE
  5
15728
  8
0
  6
BYBLOCK
 10
-641.13049072138392
 20
-2122.03775604457
 30
0.0
 11
-641.13049072138392
 21
-2124.03775604457
 31
0.0
  0
LINE
  5
15729
  8
0
  6
BYBLOCK
 10
-640.59459234138376
 20
-2132.2706056125289
 30
0.0
 11
-641.13049072138392
 21
-2134.2706056125289
 31
0.0
  0
LINE
  5
1572A
  8
0
  6
BYBLOCK
 10
-641.13049072138392
 20
-2134.2706056125289
 30
0.0
 11
-641.66638910138397
 21
-2132.2706056125289
 31
0.0
  0
LINE
  5
1572B
  8
0
  6
BYBLOCK
 10
-641.13049072138392
 20
-2134.2706056125289
 30
0.0
 11
-641.13049072138392
 21
-2132.2706056125289
 31
0.0
  0
TEXT
  5
1572C
  8
1DIM
 10
-641.83049072138363
 20
-2151.8956056125289
 30
0.0
 40
3.5
  1
30 
 50
90.0
  0
LINE
  5
1572D
  8
0
  6
BYBLOCK
 10
-640.59459234138376
 20
-2162.2706056125289
 30
0.0
 11
-641.13049072138392
 21
-2164.2706056125289
 31
0.0
  0
LINE
  5
1572E
  8
0
  6
BYBLOCK
 10
-641.13049072138392
 20
-2164.2706056125289
 30
0.0
 11
-641.66638910138397
 21
-2162.2706056125289
 31
0.0
  0
LINE
  5
1572F
  8
0
  6
BYBLOCK
 10
-641.13049072138392
 20
-2164.2706056125289
 30
0.0
 11
-641.13049072138392
 21
-2162.2706056125289
 31
0.0
  0
LINE
  5
15730
  8
0
  6
BYBLOCK
 10
-641.66638910138397
 20
-2136.2706056125289
 30
0.0
 11
-641.13049072138392
 21
-2134.2706056125289
 31
0.0
  0
LINE
  5
15731
  8
0
  6
BYBLOCK
 10
-641.13049072138392
 20
-2134.2706056125289
 30
0.0
 11
-640.59459234138376
 21
-2136.2706056125289
 31
0.0
  0
LINE
  5
15732
  8
0
  6
BYBLOCK
 10
-641.13049072138392
 20
-2134.2706056125289
 30
0.0
 11
-641.13049072138392
 21
-2136.2706056125289
 31
0.0
  0
LINE
  5
15733
  8
1DIM
 10
-872.55081791548866
 20
-2087.8002682583951
 30
0.0
 11
-856.57869105114435
 21
-2069.8109305667472
 31
0.0
  0
LINE
  5
15734
  8
1DIM
 10
-856.57869105114435
 20
-2069.8109305667472
 30
0.0
 11
-808.61202438447765
 21
-2069.8109305667472
 31
0.0
  0
LINE
  5
15735
  8
1DIM
 10
-897.21889167381698
 20
-2054.2788006219821
 30
0.0
 11
-913.52520994798135
 21
-2082.761366108552
 31
0.0
  0
LINE
  5
15736
  8
1DIM
 10
-913.52520994798135
 20
-2082.761366108552
 30
0.0
 11
-961.49187661464816
 21
-2082.761366108552
 31
0.0
  0
VIEWPORT
  5
57
 67
     1
  8
0
 10
3.898193817937794
 20
15.96381373995135
 30
0.0
 40
444.98877282562228
 41
295.06851602914372
 68
     1
 69
     1
1001
ACAD
1000
MVIEW
1002
{
1070
    16
1010
0.0
1020
0.0
1030
0.0
1010
0.0
1020
0.0
1030
1.0
1040
0.0
1040
295.06851602914372
1040
3.898193817937794
1040
15.96381373995135
1040
50.0
1040
0.0
1040
0.0
1070
     0
1070
   100
1070
     1
1070
     1
1070
     0
1070
     0
1070
     0
1070
     0
1040
0.0
1040
0.0
1040
0.0
1040
10.0
1040
10.0
1040
10.0
1040
10.0
1070
     0
1002
{
1002
}
1002
}
  0
ENDSEC
  0
EOF
