  0
SECTION
  2
HEADER
  9
$ACADVER
  1
AC1009
  9
$INSBASE
 10
0.0
 20
0.0
 30
0.0
  9
$EXTMIN
 10
-178.67933931114641
 20
-979.138465739048
 30
0.0
  9
$EXTMAX
 10
482.40676167300973
 20
-737.53396901113706
 30
0.0
  9
$LIMMIN
 10
0.0
 20
0.0
  9
$LIMMAX
 10
420.0
 20
297.0
  9
$ORTHOMODE
 70
     0
  9
$REGENMODE
 70
     1
  9
$FILLMODE
 70
     1
  9
$QTEXTMODE
 70
     0
  9
$MIRRTEXT
 70
     0
  9
$DRAGMODE
 70
     2
  9
$LTSCALE
 40
0.5
  9
$OSMODE
 70
   127
  9
$ATTMODE
 70
     1
  9
$TEXTSIZE
 40
4.0
  9
$TRACEWID
 40
1.0
  9
$TEXTSTYLE
  7
STANDARD
  9
$CLAYER
  8
1TEXT
  9
$CELTYPE
  6
BYLAYER
  9
$CECOLOR
 62
   256
  9
$DIMSCALE
 40
1.0
  9
$DIMASZ
 40
2.0
  9
$DIMEXO
 40
0.0
  9
$DIMDLI
 40
7.0
  9
$DIMRND
 40
0.0
  9
$DIMDLE
 40
0.0
  9
$DIMEXE
 40
1.0
  9
$DIMTP
 40
0.0
  9
$DIMTM
 40
0.0
  9
$DIMTXT
 40
3.5
  9
$DIMCEN
 40
0.0
  9
$DIMTSZ
 40
0.0
  9
$DIMTOL
 70
     0
  9
$DIMLIM
 70
     0
  9
$DIMTIH
 70
     0
  9
$DIMTOH
 70
     0
  9
$DIMSE1
 70
     0
  9
$DIMSE2
 70
     0
  9
$DIMTAD
 70
     1
  9
$DIMZIN
 70
     8
  9
$DIMBLK
  1

  9
$DIMASO
 70
     1
  9
$DIMSHO
 70
     1
  9
$DIMPOST
  1
 
  9
$DIMAPOST
  1

  9
$DIMALT
 70
     0
  9
$DIMALTD
 70
     2
  9
$DIMALTF
 40
25.399999999999999
  9
$DIMLFAC
 40
1.0
  9
$DIMTOFL
 70
     1
  9
$DIMTVP
 40
0.0
  9
$DIMTIX
 70
     0
  9
$DIMSOXD
 70
     0
  9
$DIMSAH
 70
     1
  9
$DIMBLK1
  1
OPEN30
  9
$DIMBLK2
  1
OPEN30
  9
$DIMSTYLE
  2
NEWX10
  9
$DIMCLRD
 70
   256
  9
$DIMCLRE
 70
   256
  9
$DIMCLRT
 70
   201
  9
$DIMTFAC
 40
0.7
  9
$DIMGAP
 40
0.7
  9
$LUNITS
 70
     2
  9
$LUPREC
 70
     4
  9
$SKETCHINC
 40
1.0
  9
$FILLETRAD
 40
0.0
  9
$AUNITS
 70
     0
  9
$AUPREC
 70
     2
  9
$MENU
  1
acad
  9
$ELEVATION
 40
0.0
  9
$PELEVATION
 40
0.0
  9
$THICKNESS
 40
0.0
  9
$LIMCHECK
 70
     0
  9
$BLIPMODE
 70
     0
  9
$CHAMFERA
 40
10.0
  9
$CHAMFERB
 40
10.0
  9
$SKPOLY
 70
     0
  9
$TDCREATE
 40
2453033.7326634838
  9
$TDUPDATE
 40
2453769.7793160421
  9
$TDINDWG
 40
1.641897419
  9
$TDUSRTIMER
 40
1.641897419
  9
$USRTIMER
 70
     1
  9
$ANGBASE
 50
0.0
  9
$ANGDIR
 70
     0
  9
$PDMODE
 70
     0
  9
$PDSIZE
 40
0.0
  9
$PLINEWID
 40
0.0
  9
$COORDS
 70
     2
  9
$SPLFRAME
 70
     0
  9
$SPLINETYPE
 70
     6
  9
$SPLINESEGS
 70
     8
  9
$ATTDIA
 70
     0
  9
$ATTREQ
 70
     1
  9
$HANDLING
 70
     1
  9
$HANDSEED
  5
1609D
  9
$SURFTAB1
 70
     6
  9
$SURFTAB2
 70
     6
  9
$SURFTYPE
 70
     6
  9
$SURFU
 70
     6
  9
$SURFV
 70
     6
  9
$UCSNAME
  2

  9
$UCSORG
 10
0.0
 20
0.0
 30
0.0
  9
$UCSXDIR
 10
1.0
 20
0.0
 30
0.0
  9
$UCSYDIR
 10
0.0
 20
1.0
 30
0.0
  9
$PUCSNAME
  2

  9
$PUCSORG
 10
0.0
 20
0.0
 30
0.0
  9
$PUCSXDIR
 10
1.0
 20
0.0
 30
0.0
  9
$PUCSYDIR
 10
0.0
 20
1.0
 30
0.0
  9
$USERI1
 70
     0
  9
$USERI2
 70
     0
  9
$USERI3
 70
     0
  9
$USERI4
 70
     0
  9
$USERI5
 70
     0
  9
$USERR1
 40
0.0
  9
$USERR2
 40
0.0
  9
$USERR3
 40
0.0
  9
$USERR4
 40
0.0
  9
$USERR5
 40
0.0
  9
$WORLDVIEW
 70
     1
  9
$SHADEDGE
 70
     3
  9
$SHADEDIF
 70
    70
  9
$TILEMODE
 70
     1
  9
$MAXACTVP
 70
    48
  9
$PLIMCHECK
 70
     0
  9
$PEXTMIN
 10
1.0000000000000000E+020
 20
1.0000000000000000E+020
 30
1.0000000000000000E+020
  9
$PEXTMAX
 10
-1.0000000000000000E+020
 20
-1.0000000000000000E+020
 30
-1.0000000000000000E+020
  9
$PLIMMIN
 10
0.0
 20
0.0
  9
$PLIMMAX
 10
420.0
 20
297.0
  9
$UNITMODE
 70
     0
  9
$VISRETAIN
 70
     1
  9
$PLINEGEN
 70
     0
  9
$PSLTSCALE
 70
     1
  0
ENDSEC
  0
SECTION
  2
TABLES
  0
TABLE
  2
VPORT
 70
     5
  0
VPORT
  2
*ACTIVE
 70
     0
 10
0.0
 20
0.0
 11
1.0
 21
1.0
 12
151.8637127201427
 22
-858.35161487483504
 13
0.0
 23
0.0
 14
10.0
 24
10.0
 15
10.0
 25
10.0
 16
0.0
 26
0.0
 36
1.0
 17
0.0
 27
0.0
 37
0.0
 40
463.93171747115088
 41
1.508086253369272
 42
50.0
 43
0.0
 44
0.0
 50
0.0
 51
0.0
 71
     0
 72
   100
 73
     1
 74
     1
 75
     0
 76
     0
 77
     0
 78
     0
  0
ENDTAB
  0
TABLE
  2
LTYPE
 70
    15
  0
LTYPE
  2
CONTINUOUS
 70
     0
  3
Solid line
 72
    65
 73
     0
 40
0.0
  0
LTYPE
  2
CENTER2
 70
     0
  3
Center (.5x) ___ _ ___ _ ___ _ ___ _ ___ _ ___
 72
    65
 73
     4
 40
28.574999999999999
 49
19.050000000000001
 49
-3.1749999999999989
 49
3.1749999999999989
 49
-3.1749999999999989
  0
LTYPE
  2
XREF1|CENTER2
 70
    48
  3
Center (.5x) ___ _ ___ _ ___ _ ___ _ ___ _ ___
 72
    65
 73
     4
 40
28.574999999999999
 49
19.050000000000001
 49
-3.1749999999999989
 49
3.1749999999999989
 49
-3.1749999999999989
  0
LTYPE
  2
PHANTOM2
 70
     0
  3
Phantom (.5x) ___ _ _ ___ _ _ ___ _ _ ___ _ _
 72
    65
 73
     6
 40
31.75
 49
15.875
 49
-3.1749999999999989
 49
3.1749999999999989
 49
-3.1749999999999989
 49
3.1749999999999989
 49
-3.1749999999999989
  0
LTYPE
  2
A3WAKUDAKE|CENTER2
 70
    48
  3
Center (.5x) ___ _ ___ _ ___ _ ___ _ ___ _ ___
 72
    65
 73
     4
 40
28.574999999999999
 49
19.050000000000001
 49
-3.1749999999999989
 49
3.1749999999999989
 49
-3.1749999999999989
  0
ENDTAB
  0
TABLE
  2
LAYER
 70
    44
  0
LAYER
  2
0
 70
     0
 62
     7
  6
CONTINUOUS
  0
LAYER
  2
1CENTER
 70
     0
 62
     7
  6
CENTER2
  0
LAYER
  2
1TEXT
 70
     0
 62
     7
  6
CONTINUOUS
  0
LAYER
  2
1DIM
 70
     0
 62
     7
  6
CONTINUOUS
  0
LAYER
  2
1PHANTOM
 70
     0
 62
     7
  6
PHANTOM2
  0
LAYER
  2
01
 70
     0
 62
     1
  6
CONTINUOUS
  0
LAYER
  2
1DIM1
 70
     0
 62
     7
  6
CONTINUOUS
  0
LAYER
  2
1HATCH
 70
     0
 62
     7
  6
CONTINUOUS
  0
LAYER
  2
XREF1|1CENTER
 70
    48
 62
     7
  6
XREF1|CENTER2
  0
LAYER
  2
A3WAKUDAKE|THICK
 70
    48
 62
     7
  6
CONTINUOUS
  0
LAYER
  2
A3WAKUDAKE|POINT
 70
    48
 62
     7
  6
CONTINUOUS
  0
LAYER
  2
A3WAKUDAKE|1CENTER
 70
    48
 62
     7
  6
A3WAKUDAKE|CENTER2
  0
LAYER
  2
A3WAKUDAKE|0-6
 70
    48
 62
     7
  6
CONTINUOUS
  0
LAYER
  2
A3WAKUDAKE|1DIM
 70
    48
 62
     7
  6
CONTINUOUS
  0
ENDTAB
  0
TABLE
  2
STYLE
 70
    22
  0
STYLE
  2
STANDARD
 70
     0
 40
0.0
 41
1.0
 50
0.0
 71
     0
 42
4.0
  3
txt.shx
  4
extfont.shx
  0
ENDTAB
  0
TABLE
  2
VIEW
 70
     0
  0
ENDTAB
  0
TABLE
  2
UCS
 70
     0
  0
ENDTAB
  0
TABLE
  2
APPID
 70
     9
  0
APPID
  2
ACAD
 70
     0
  0
APPID
  2
DRAWINGVARIABLESXDATA
 70
     0
  0
APPID
  2
CONTENTTABDATA
 70
     0
  0
APPID
  2
CONTENTCURRENTTAB
 70
     0
  0
APPID
  2
CONTENTBLOCKDESCRIPTION
 70
     0
  0
APPID
  2
CONTENTBLOCKICON
 70
     0
  0
APPID
  2
CONTENTLONGBLOCKNAME
 70
     0
  0
APPID
  2
ACAD_PSEXT
 70
     0
  0
APPID
  2
ACAD_DSTYLE_DIMTEXT_FILL
 70
     0
  0
ENDTAB
  0
TABLE
  2
DIMSTYLE
 70
     9
  0
DIMSTYLE
  2
NEWX10
 70
     0
  3
 
  4

  5

  6
OPEN30
  7
OPEN30
 40
1.0
 41
2.0
 42
0.0
 43
7.0
 44
1.0
 45
0.0
 46
0.0
 47
0.0
 48
0.0
140
3.5
141
0.0
142
0.0
143
25.399999999999999
144
1.0
145
0.0
146
0.7
147
0.7
 71
     0
 72
     0
 73
     0
 74
     0
 75
     0
 76
     0
 77
     1
 78
     8
170
     0
171
     2
172
     1
173
     1
174
     0
175
     0
176
   256
177
   256
178
   201
  0
ENDTAB
  0
ENDSEC
  0
SECTION
  2
BLOCKS
  0
BLOCK
  8
0
  2
$MODEL_SPACE
 70
     0
 10
0.0
 20
0.0
 30
0.0
  3
$MODEL_SPACE
  1

  0
ENDBLK
  5
1A
  8
0
  0
BLOCK
 67
     1
  8
0
  2
$PAPER_SPACE
 70
     0
 10
0.0
 20
0.0
 30
0.0
  3
$PAPER_SPACE
  1

  0
ENDBLK
  5
17
 67
     1
  8
0
  0
BLOCK
  8
0
  2
_OPEN30
 70
     0
 10
0.0
 20
0.0
 30
0.0
  3
_OPEN30
  1

  0
LINE
  5
44
  8
0
  6
BYBLOCK
 62
     0
 10
-1.0
 20
0.26794919
 30
0.0
 11
0.0
 21
0.0
 31
0.0
  0
LINE
  5
45
  8
0
  6
BYBLOCK
 62
     0
 10
0.0
 20
0.0
 30
0.0
 11
-1.0
 21
-0.26794919
 31
0.0
  0
LINE
  5
46
  8
0
  6
BYBLOCK
 62
     0
 10
0.0
 20
0.0
 30
0.0
 11
-1.0
 21
0.0
 31
0.0
  0
ENDBLK
  5
47
  8
0
  0
BLOCK
  8
0
  2
XREF1
 70
    36
 10
0.0
 20
0.0
 30
0.0
  3
XREF1
  1
D:\ACLT\FORMAT\KAWAJUN(9)図面用.dwg
  0
ENDBLK
  5
5D
  8
0
  0
BLOCK
  8
0
  2
A3WAKUDAKE
 70
    36
 10
0.0
 20
0.0
 30
0.0
  3
A3WAKUDAKE
  1
D:\ACLT\FORMAT\A3WAKUdake.dwg
  0
ENDBLK
  5
6DC
  8
0
  0
BLOCK
  8
0
  2
*U110
 70
     1
 10
0.0
 20
0.0
 30
0.0
  3
*U110
  1

  0
TEXT
  5
15AD3
  8
0
 62
   201
 10
-63.717024855154058
 20
-3.810911908990481
 30
0.0
 40
3.5
  1
φ5
 50
48.83031736650419
  0
ENDBLK
  5
15AD5
  8
0
  0
BLOCK
  8
0
  2
*U111
 70
     1
 10
0.0
 20
0.0
 30
0.0
  3
*U111
  1

  0
TEXT
  5
15AD7
  8
1TEXT
 62
   201
 10
21.614708555164611
 20
22.401236958861659
 30
0.0
 40
2.0
  1
二文字
  0
TEXT
  5
15AD8
  8
1TEXT
 62
   201
 10
21.614708555164611
 20
19.067903625528331
 30
0.0
 40
2.0
  1
(別途指定)
  0
TEXT
  5
15AD9
  8
1TEXT
 62
   201
 10
21.614708555164611
 20
15.73457029219499
 30
0.0
 40
2.0
  1
天地 約1.8
  0
TEXT
  5
15ADA
  8
1TEXT
 62
   201
 10
21.614708555164611
 20
12.401236958861659
 30
0.0
 40
2.0
  1
凸0.2
  0
ENDBLK
  5
15ADC
  8
0
  0
BLOCK
  8
0
  2
*U112
 70
     1
 10
0.0
 20
0.0
 30
0.0
  3
*U112
  1

  0
SOLID
  5
15ADE
  8
1DIM
 10
17.769912945885331
 20
22.805130681268722
 30
0.0
 11
17.678379796037799
 21
23.814783819854821
 31
0.0
 12
18.0924202800296
 22
22.889392953575271
 32
0.0
 13
18.0924202800296
 23
22.889392953575271
 33
0.0
  0
POLYLINE
  5
15ADF
  8
1DIM
 66
     1
 10
0.0
 20
0.0
 30
0.0
  0
VERTEX
  5
15AE0
  8
1DIM
 10
17.931166612957469
 20
22.847261817422002
 30
0.0
  0
VERTEX
  5
15AE1
  8
1DIM
 10
20.91703607932029
 20
11.41907722970881
 30
0.0
  0
VERTEX
  5
15AE2
  8
1DIM
 10
35.143226555510758
 20
11.41907722970881
 30
0.0
  0
SEQEND
  5
15AE3
  8
1DIM
  0
ENDBLK
  5
15AE5
  8
0
  0
BLOCK
  8
0
  2
*U113
 70
     1
 10
0.0
 20
0.0
 30
0.0
  3
*U113
  1

  0
TEXT
  5
15AE7
  8
1DIM
 62
   201
 10
8.9421530727463576
 20
19.285028579396069
 30
0.0
 40
2.0
  1
枠
  0
TEXT
  5
15AE8
  8
1DIM
 62
   201
 10
7.0754864060796914
 20
15.951695246062741
 30
0.0
 40
2.0
  1
φ5
  0
TEXT
  5
15AE9
  8
1DIM
 62
   201
 10
4.7421530727463583
 20
12.61836191272941
 30
0.0
 40
2.0
  1
凹0.3
  0
ENDBLK
  5
15AEB
  8
0
  0
BLOCK
  8
0
  2
*U114
 70
     1
 10
0.0
 20
0.0
 30
0.0
  3
*U114
  1

  0
SOLID
  5
15AED
  8
1DIM
 10
14.77538895849114
 20
20.894651819020488
 30
0.0
 11
15.75963814806016
 21
22.667323431007279
 31
0.0
 12
15.403512140193291
 22
20.67125595278117
 32
0.0
 13
15.403512140193291
 23
20.67125595278117
 33
0.0
  0
POLYLINE
  5
15AEE
  8
1DIM
 66
     1
 10
0.0
 20
0.0
 30
0.0
  0
VERTEX
  5
15AEF
  8
1DIM
 10
15.089450549342221
 20
20.782953885900831
 30
0.0
  0
VERTEX
  5
15AF0
  8
1DIM
 10
11.821762131327951
 20
11.59517937383526
 30
0.0
  0
VERTEX
  5
15AF1
  8
1DIM
 10
2.3789049884708091
 20
11.59517937383526
 30
0.0
  0
SEQEND
  5
15AF2
  8
1DIM
  0
ENDBLK
  5
15AF4
  8
0
  0
BLOCK
  8
0
  2
*U115
 70
     1
 10
0.0
 20
0.0
 30
0.0
  3
*U115
  1

  0
TEXT
  5
15AF7
  8
1TEXT
 10
14.9745471932972
 20
24.09947430071913
 30
0.0
 40
1.8
  1
XY
  0
ENDBLK
  5
15AF9
  8
0
  0
BLOCK
  8
0
  2
*U116
 70
     1
 10
0.0
 20
0.0
 30
0.0
  3
*U116
  1

  0
LINE
  5
15AFB
  8
0
 10
-4.1999999999999877
 20
-1.9999999999999849
 30
0.0
 11
-0.3500000000000227
 21
-2.0
 31
0.0
  0
LINE
  5
15AFC
  8
0
 10
0.0
 20
-1.6499999999998629
 30
0.0
 11
-0.3500000000000227
 21
-2.0
 31
0.0
  0
LINE
  5
15AFD
  8
0
 10
-6.0
 20
-0.200000000000017
 30
0.0
 11
-4.1999999999999877
 21
-1.9999999999999849
 31
0.0
  0
LINE
  5
15AFE
  8
0
 10
0.0
 20
1.649999999999977
 30
0.0
 11
0.0
 21
-1.6499999999998629
 31
0.0
  0
LINE
  5
15AFF
  8
0
 10
-6.0
 20
0.2000000000000028
 30
0.0
 11
-6.0
 21
-0.200000000000017
 31
0.0
  0
LINE
  5
15B00
  8
0
 10
-0.3500000000000227
 20
2.0
 30
0.0
 11
0.0
 21
1.649999999999977
 31
0.0
  0
LINE
  5
15B01
  8
0
 10
-6.0
 20
0.2000000000000028
 30
0.0
 11
-4.2000000000000446
 21
2.0
 31
0.0
  0
LINE
  5
15B02
  8
0
 10
-4.2000000000000446
 20
2.0
 30
0.0
 11
-0.3500000000000227
 21
2.0
 31
0.0
  0
ENDBLK
  5
15B04
  8
0
  0
BLOCK
  8
0
  2
*U117
 70
     1
 10
0.0
 20
0.0
 30
0.0
  3
*U117
  1

  0
LINE
  5
15B06
  8
0
 10
-5.6499999999999773
 20
2.0000000000000142
 30
0.0
 11
-0.3500000000000227
 21
2.0
 31
0.0
  0
LINE
  5
15B07
  8
0
 10
-5.6499999999999773
 20
2.0000000000000142
 30
0.0
 11
-6.0
 21
1.6499999999999631
 31
0.0
  0
LINE
  5
15B08
  8
0
 10
-0.3500000000000227
 20
2.0
 30
0.0
 11
0.0
 21
1.649999999999977
 31
0.0
  0
LINE
  5
15B09
  8
0
 10
-6.0
 20
1.6499999999999631
 30
0.0
 11
-6.0
 21
-1.6499999999998629
 31
0.0
  0
LINE
  5
15B0A
  8
0
 10
0.0
 20
1.649999999999977
 30
0.0
 11
0.0
 21
-1.6499999999998629
 31
0.0
  0
LINE
  5
15B0B
  8
0
 10
-6.0
 20
-1.6499999999998629
 30
0.0
 11
-5.6499999999999773
 21
-1.9999999999999849
 31
0.0
  0
LINE
  5
15B0C
  8
0
 10
0.0
 20
-1.6499999999998629
 30
0.0
 11
-0.3500000000000227
 21
-2.0
 31
0.0
  0
LINE
  5
15B0D
  8
0
 10
-5.6499999999999773
 20
-1.9999999999999849
 30
0.0
 11
-0.3500000000000227
 21
-2.0
 31
0.0
  0
ENDBLK
  5
15B0F
  8
0
  0
BLOCK
  8
0
  2
*X118
 70
     1
 10
0.0
 20
0.0
 30
0.0
  3
*X118
  1

  0
LINE
  5
15B11
  8
0
 62
     0
 10
10.35561001165331
 20
1.7353216665921991
 30
0.0
 11
1.735321666592085
 21
10.35561001165342
 31
0.0
  0
LINE
  5
15B12
  8
0
 62
     0
 10
0.0000000000001137
 20
8.4988292298177157
 30
0.0
 11
-1.838891835213303
 21
10.337721065031021
 31
0.0
  0
LINE
  5
15B13
  8
0
 62
     0
 10
8.4988292298179431
 20
-0.0000000000001137
 30
0.0
 11
0.0000000000001137
 21
8.4988292298177157
 31
0.0
  0
LINE
  5
15B14
  8
0
 62
     0
 10
10.337721065031131
 20
-1.838891835213303
 30
0.0
 11
8.4988292298179431
 21
-0.0000000000001137
 31
0.0
  0
LINE
  5
15B15
  8
0
 62
     0
 10
-0.2377810848388435
 20
5.1445078662289907
 30
0.0
 11
-4.5542045235814612
 21
9.4609313049716093
 31
0.0
  0
LINE
  5
15B16
  8
0
 62
     0
 10
9.4609313049714956
 20
-4.5542045235813466
 30
0.0
 11
5.1445078662289907
 21
-0.2377810848388435
 31
0.0
  0
LINE
  5
15B17
  8
0
 62
     0
 10
-2.9244738727450108
 20
4.2390982057073643
 30
0.0
 11
-6.7381554127728123
 21
8.0527797457351653
 31
0.0
  0
LINE
  5
15B18
  8
0
 62
     0
 10
8.0527797457350516
 20
-6.7381554127726977
 30
0.0
 11
4.2390982057073643
 21
-2.9244738727450108
 31
0.0
  0
LINE
  5
15B19
  8
0
 62
     0
 10
-4.5977163449367699
 20
2.3202382294715558
 30
0.0
 11
-8.4755144637537114
 21
6.1980363482883831
 31
0.0
  0
LINE
  5
15B1A
  8
0
 62
     0
 10
6.1980363482882694
 20
-8.4755144637535977
 30
0.0
 11
2.3202382294715558
 21
-4.5977163449367699
 31
0.0
  0
LINE
  5
15B1B
  8
0
 62
     0
 10
-5.0907718486563454
 20
-0.7788087152364369
 30
0.0
 11
-5.8695805638927823
 21
0.0
 31
0.0
  0
LINE
  5
15B1C
  8
0
 62
     0
 10
-5.8695805638928951
 20
0.0
 30
0.0
 11
-9.9540062277598054
 21
4.0844256638669094
 31
0.0
  0
LINE
  5
15B1D
  8
0
 62
     0
 10
3.8851808324346839
 20
-9.7547613963275808
 30
0.0
 11
2.0
 21
-7.8695805638928951
 31
0.0
  0
LINE
  5
15B1E
  8
0
 62
     0
 10
-9.4616830123206892
 20
0.0
 30
0.0
 11
-18.103896804350711
 21
8.6422137920301338
 31
0.0
  0
LINE
  5
15B1F
  8
0
 62
     0
 10
-2.0000000000001128
 20
-7.4616830123204627
 30
0.0
 11
-9.4616830123204636
 21
-0.0000000000001137
 31
0.0
  0
LINE
  5
15B20
  8
0
 62
     0
 10
-13.05378546074826
 20
0.0000000000001137
 30
0.0
 11
-15.175214195387071
 21
2.1214287346389251
 31
0.0
  0
LINE
  5
15B21
  8
0
 62
     0
 10
-16.603785460748661
 20
3.5500000000005221
 30
0.0
 11
-23.851266556543241
 21
10.79748109579509
 31
0.0
  0
LINE
  5
15B22
  8
0
 62
     0
 10
-2.9878714975766338
 20
-10.065913963171511
 30
0.0
 11
-13.053785460748029
 21
-0.0000000000001137
 31
0.0
  0
LINE
  5
15B23
  8
0
 62
     0
 10
-20.195887909176118
 20
3.5500000000002951
 30
0.0
 11
-28.659515684223379
 21
12.013627775047439
 31
0.0
  0
LINE
  5
15B24
  8
0
 62
     0
 10
-29.100013291500659
 20
12.454125382324831
 30
0.0
 11
-29.745874817675372
 21
13.09998690849943
 31
0.0
  0
LINE
  5
15B25
  8
0
 62
     0
 10
-12.628969351714661
 20
-4.0169185574611674
 30
0.0
 11
-14.93702132611565
 21
-1.7088665830602841
 31
0.0
  0
LINE
  5
15B26
  8
0
 62
     0
 10
-23.78799035760369
 20
3.550000000000181
 30
0.0
 11
-27.799999599999751
 21
7.5620092423962433
 31
0.0
  0
LINE
  5
15B27
  8
0
 62
     0
 10
-31.237990357603621
 20
11.00000000000011
 30
0.0
 11
-33.000000200000052
 21
12.762009842396539
 31
0.0
  0
LINE
  5
15B28
  8
0
 62
     0
 10
-13.78316865624026
 20
-6.454821701363243
 30
0.0
 11
-16.687990357603208
 21
-3.5500000000002951
 31
0.0
  0
LINE
  5
15B29
  8
0
 62
     0
 10
-16.124704244214509
 20
-7.7053885618167888
 30
0.0
 11
-20.280092806031231
 21
-3.5500000000000682
 31
0.0
  0
LINE
  5
15B2A
  8
0
 62
     0
 10
-18.57318348346837
 20
-8.849011770990387
 30
0.0
 11
-20.133604742031139
 21
-7.2885905124276169
 31
0.0
  0
LINE
  5
15B2B
  8
0
 62
     0
 10
-24.295840827822978
 20
-6.7184568750635663
 30
0.0
 11
-27.132148651443231
 21
-3.8821490514432071
 31
0.0
  0
LINE
  5
15B2C
  8
0
 62
     0
 10
-23.818861225215301
 20
-10.787538926098931
 30
0.0
 11
-27.799999599999872
 21
-6.8064005513143684
 31
0.0
  0
LINE
  5
15B2D
  8
0
 62
     0
 10
-26.63513577162314
 20
-11.56336682811866
 30
0.0
 11
-28.117386294735979
 21
-10.081116305005819
 31
0.0
  0
LINE
  5
15B2E
  8
0
 62
     0
 10
-29.133782390785999
 20
-12.656822657383479
 30
0.0
 11
-30.790605048169478
 21
-11.00000000000011
 31
0.0
  0
LINE
  5
15B2F
  8
0
 62
     0
 10
-31.632707496597501
 20
-13.749999999999661
 30
0.0
 11
-33.000000200000159
 21
-12.38270729659712
 31
0.0
  0
ENDBLK
  5
15B31
  8
0
  0
BLOCK
  8
0
  2
*X119
 70
     1
 10
0.0
 20
0.0
 30
0.0
  3
*X119
  1

  0
LINE
  5
15B33
  8
0
 62
     0
 10
-0.0000000000000284
 20
-9.5063084520140251
 30
0.0
 11
1.2436915465089271
 21
-10.749999998522981
 31
0.0
  0
LINE
  5
15B34
  8
0
 62
     0
 10
1.3407299661463119
 20
-9.5
 30
0.0
 11
1.8000087437750381
 21
-9.9592787776287253
 31
0.0
  0
LINE
  5
15B35
  8
0
 62
     0
 10
-0.0000000000000568
 20
-4.118154779372559
 30
0.0
 11
0.8818452206275254
 21
-5.0000000000001128
 31
0.0
  0
LINE
  5
15B36
  8
0
 62
     0
 10
0.0
 20
-2.7711163612121932
 30
0.0
 11
1.8000087437751511
 21
-4.5711251049873454
 31
0.0
  0
LINE
  5
15B37
  8
0
 62
     0
 10
0.0
 20
-1.4240779430518271
 30
0.0
 11
2.125922055471249
 21
-3.5499999985230768
 31
0.0
  0
LINE
  5
15B38
  8
0
 62
     0
 10
-0.0000000000000284
 20
-0.0770395248914611
 30
0.0
 11
3.222960475108493
 21
-3.2999999999999821
 31
0.0
  0
LINE
  5
15B39
  8
0
 62
     0
 10
1.269998893268933
 20
0.0
 30
0.0
 11
4.5699988932688882
 21
-3.2999999999999541
 31
0.0
  0
LINE
  5
15B3A
  8
0
 62
     0
 10
-0.0000000000000284
 20
1.2699988932689621
 30
0.0
 11
1.269998893268905
 21
0.0000000000000284
 31
0.0
  0
LINE
  5
15B3B
  8
0
 62
     0
 10
2.6170373114292711
 20
0.0
 30
0.0
 11
5.9170373114292261
 21
-3.2999999999999541
 31
0.0
  0
LINE
  5
15B3C
  8
0
 62
     0
 10
-0.0000000000000568
 20
2.6170373114293279
 30
0.0
 11
2.6170373114292711
 21
0.0
 31
0.0
  0
LINE
  5
15B3D
  8
0
 62
     0
 10
3.9640757295896658
 20
0.0
 30
0.0
 11
7.2640757295896199
 21
-3.2999999999999541
 31
0.0
  0
LINE
  5
15B3E
  8
0
 62
     0
 10
-0.0000000000000284
 20
3.9640757295896938
 30
0.0
 11
3.9640757295896369
 21
0.0
 31
0.0
  0
LINE
  5
15B3F
  8
0
 62
     0
 10
5.3111141477500894
 20
-0.0000000000000568
 30
0.0
 11
8.6111141477499871
 21
-3.2999999999999821
 31
0.0
  0
LINE
  5
15B40
  8
0
 62
     0
 10
0.3111141477501178
 20
4.9999999999998863
 30
0.0
 11
5.3111141477500317
 21
0.0
 31
0.0
  0
LINE
  5
15B41
  8
0
 62
     0
 10
3.3581525659104439
 20
3.2999999999999541
 30
0.0
 11
6.6581525659103704
 21
0.0
 31
0.0
  0
LINE
  5
15B42
  8
0
 62
     0
 10
6.6581525659104548
 20
-0.0000000000000568
 30
0.0
 11
9.5072519243349518
 21
-2.8490993584245521
 31
0.0
  0
LINE
  5
15B43
  8
0
 62
     0
 10
1.65815256591037
 20
5.0
 30
0.0
 11
1.8000087437750381
 21
4.8581438221353599
 31
0.0
  0
LINE
  5
15B44
  8
0
 62
     0
 10
8.0051909840708202
 20
-0.0000000000000853
 30
0.0
 11
11.167075174998409
 21
-3.1618841909276512
 31
0.0
  0
LINE
  5
15B45
  8
0
 62
     0
 10
4.7051909840708097
 20
3.2999999999999541
 30
0.0
 11
8.0051909840707651
 21
0.0
 31
0.0
  0
LINE
  5
15B46
  8
0
 62
     0
 10
9.3522294022312167
 20
-0.0000000000000853
 30
0.0
 11
12.652229402231111
 21
-3.2999999999999541
 31
0.0
  0
LINE
  5
15B47
  8
0
 62
     0
 10
6.0522294022312053
 20
3.2999999999999261
 30
0.0
 11
9.3522294022311598
 21
0.0
 31
0.0
  0
LINE
  5
15B48
  8
0
 62
     0
 10
7.3992678203915707
 20
3.2999999999999261
 30
0.0
 11
10.699267820391499
 21
0.0
 31
0.0
  0
LINE
  5
15B49
  8
0
 62
     0
 10
10.699267820391579
 20
-0.0000000000000853
 30
0.0
 11
12.90000019999991
 21
-2.2007323796084099
 31
0.0
  0
LINE
  5
15B4A
  8
0
 62
     0
 10
-0.0000000000000284
 20
10.699267820391521
 30
0.0
 11
1.1992678203915259
 21
9.5
 31
0.0
  0
LINE
  5
15B4B
  8
0
 62
     0
 10
9.2443367211198222
 20
2.8019695174320409
 30
0.0
 11
12.046306238551891
 21
0.0
 31
0.0
  0
LINE
  5
15B4C
  8
0
 62
     0
 10
12.046306238551979
 20
-0.0000000000000853
 30
0.0
 11
14.046306238551949
 21
-2.000000000000056
 31
0.0
  0
LINE
  5
15B4D
  8
0
 62
     0
 10
1.2963062400290251
 20
10.74999999852287
 30
0.0
 11
1.8000087437750381
 21
10.246297494776851
 31
0.0
  0
LINE
  5
15B4E
  8
0
 62
     0
 10
13.393344656712371
 20
-0.0000000000001137
 30
0.0
 11
15.393344656712291
 21
-2.000000000000056
 31
0.0
  0
LINE
  5
15B4F
  8
0
 62
     0
 10
15.90000020000002
 20
-2.5066555432877911
 30
0.0
 11
16.143344656712259
 21
-2.750000000000028
 31
0.0
  0
LINE
  5
15B50
  8
0
 62
     0
 10
10.379815373485821
 20
3.0135292832264038
 30
0.0
 11
13.39334465671226
 21
0.0
 31
0.0
  0
LINE
  5
15B51
  8
0
 62
     0
 10
14.74038307487274
 20
-0.0000000000000853
 30
0.0
 11
16.995191537436309
 21
-2.2548084625636871
 31
0.0
  0
LINE
  5
15B52
  8
0
 62
     0
 10
11.513261852327391
 20
3.227121222545235
 30
0.0
 11
14.74038307487262
 21
0.0
 31
0.0
  0
LINE
  5
15B53
  8
0
 62
     0
 10
14.0874214930331
 20
1.9999999999998861
 30
0.0
 11
16.087421493032991
 21
0.0
 31
0.0
  0
LINE
  5
15B54
  8
0
 62
     0
 10
16.087421493033101
 20
-0.0000000000001137
 30
0.0
 11
17.00000000000005
 21
-0.9125785069670656
 31
0.0
  0
LINE
  5
15B55
  8
0
 62
     0
 10
12.78742149303284
 20
3.300000000000181
 30
0.0
 11
12.90000019999988
 21
3.1874212930331391
 31
0.0
  0
LINE
  5
15B56
  8
0
 62
     0
 10
15.43445991119358
 20
1.999999999999801
 30
0.0
 11
17.000000000000082
 21
0.4344599111932724
 31
0.0
  0
LINE
  5
15B57
  8
0
 62
     0
 10
16.031498329353749
 20
2.75
 30
0.0
 11
17.000000000000082
 21
1.7814983293536379
 31
0.0
  0
ENDBLK
  5
15B59
  8
0
  0
BLOCK
  8
0
  2
*X120
 70
     1
 10
0.0
 20
0.0
 30
0.0
  3
*X120
  1

  0
LINE
  5
15B5B
  8
0
 62
     0
 10
13.41339771754258
 20
-3.163142703204584
 30
0.0
 11
14.23685749679546
 21
-3.986602482457442
 31
0.0
  0
LINE
  5
15B5C
  8
0
 62
     0
 10
13.43543246913447
 20
-2.7361646487429989
 30
0.0
 11
14.66383555125705
 21
-3.9645677308655531
 31
0.0
  0
LINE
  5
15B5D
  8
0
 62
     0
 10
13.57832483846698
 20
-2.4300442120220671
 30
0.0
 11
14.969955987978009
 21
-3.821675361533067
 31
0.0
  0
LINE
  5
15B5E
  8
0
 62
     0
 10
13.79845481036614
 20
-2.2011613778677481
 30
0.0
 11
15.198838822132331
 21
-3.601545389633912
 31
0.0
  0
LINE
  5
15B5F
  8
0
 62
     0
 10
14.09420797036085
 20
-2.04790173180902
 30
0.0
 11
15.352098468191031
 21
-3.3057922296391662
 31
0.0
  0
LINE
  5
15B60
  8
0
 62
     0
 10
14.50036871342669
 20
-2.005049668821413
 30
0.0
 11
15.39495053117866
 21
-2.8996314865733832
 31
0.0
  0
LINE
  5
15B61
  8
0
 62
     0
 10
13.48049176570316
 20
2.6069297273297991
 30
0.0
 11
14.00692992732988
 21
2.0804915657031131
 31
0.0
  0
LINE
  5
15B62
  8
0
 62
     0
 10
13.408249854336271
 20
3.1281844447501612
 30
0.0
 11
14.52818464475018
 21
2.0082496543362529
 31
0.0
  0
LINE
  5
15B63
  8
0
 62
     0
 10
13.51667895516789
 20
3.468768149971992
 30
0.0
 11
14.86876834997204
 21
2.1166787551678108
 31
0.0
  0
LINE
  5
15B64
  8
0
 62
     0
 10
13.71033322290037
 20
3.7241266882929831
 30
0.0
 11
15.124126888293031
 21
2.3103330229002941
 31
0.0
  0
LINE
  5
15B65
  8
0
 62
     0
 10
13.977233952031639
 20
3.9062387652151642
 30
0.0
 11
15.306238965215179
 21
2.5772337520315882
 31
0.0
  0
LINE
  5
15B66
  8
0
 62
     0
 10
14.334624784025429
 20
3.9978607392748131
 30
0.0
 11
15.39786093927486
 21
2.9346245840254142
 31
0.0
  0
LINE
  5
15B67
  8
0
 62
     0
 10
14.93953507999831
 20
3.8419632493554161
 30
0.0
 11
15.24196344935546
 21
3.5395348799982278
 31
0.0
  0
ENDBLK
  5
15B69
  8
0
  0
BLOCK
  8
0
  2
*X121
 70
     1
 10
0.0
 20
0.0
 30
0.0
  3
*X121
  1

  0
LINE
  5
15B6B
  8
0
 62
     0
 10
6.8579485945102761
 20
5.150000099999942
 30
0.0
 11
1.636218397399261
 21
10.37173029711095
 31
0.0
  0
LINE
  5
15B6C
  8
0
 62
     0
 10
0.0000000000001137
 20
8.4158462460825376
 30
0.0
 11
-1.909133603078998
 21
10.32497984916165
 31
0.0
  0
LINE
  5
15B6D
  8
0
 62
     0
 10
3.2658461460825938
 20
5.150000099999942
 30
0.0
 11
0.0000000000001137
 21
8.4158462460825376
 31
0.0
  0
LINE
  5
15B6E
  8
0
 62
     0
 10
-0.3262563023448592
 20
5.150000099999942
 30
0.0
 11
-4.6100846621066012
 21
9.4338284597616848
 31
0.0
  0
LINE
  5
15B6F
  8
0
 62
     0
 10
-3.9183587507726538
 20
5.150000099999942
 30
0.0
 11
-6.7832174315673219
 21
8.0148587807946114
 31
0.0
  0
LINE
  5
15B70
  8
0
 62
     0
 10
8.0148587807946114
 20
-6.7832174315674356
 30
0.0
 11
6.3816414492273452
 21
-5.1500001000001703
 31
0.0
  0
LINE
  5
15B71
  8
0
 62
     0
 10
-7.5104611992003347
 20
5.150000099999942
 30
0.0
 11
-8.5000000000001137
 21
6.1395389007996073
 31
0.0
  0
LINE
  5
15B72
  8
0
 62
     0
 10
6.1499847166651298
 20
-8.5104458158656371
 30
0.0
 11
2.789539000799663
 21
-5.1500001000000557
 31
0.0
  0
LINE
  5
15B73
  8
0
 62
     0
 10
0.0
 20
-5.9525635476279604
 30
0.0
 11
-0.8025634476280174
 21
-5.1500001000000557
 31
0.0
  0
LINE
  5
15B74
  8
0
 62
     0
 10
4.0606450332290933
 20
-10.01320858085716
 30
0.0
 11
0.0000000000002274
 21
-5.9525635476283014
 31
0.0
  0
LINE
  5
15B75
  8
0
 62
     0
 10
0.0
 20
-9.5446659960557554
 30
0.0
 11
-4.3946658960555851
 21
-5.1500001000000557
 31
0.0
  0
LINE
  5
15B76
  8
0
 62
     0
 10
8.7087069959245582
 20
-18.2533729919802
 30
0.0
 11
0.0000000000003411
 21
-9.5446659960559828
 31
0.0
  0
LINE
  5
15B77
  8
0
 62
     0
 10
1.925088887040374
 20
-15.061857331523809
 30
0.0
 11
0.0
 21
-13.13676844448343
 31
0.0
  0
LINE
  5
15B78
  8
0
 62
     0
 10
0.0
 20
-13.13676844448343
 30
0.0
 11
-7.9867683444833801
 21
-5.1500001000000557
 31
0.0
  0
LINE
  5
15B79
  8
0
 62
     0
 10
10.833910220719069
 20
-23.97067866520263
 30
0.0
 11
3.54999999999984
 21
-16.686768444483391
 31
0.0
  0
LINE
  5
15B7A
  8
0
 62
     0
 10
12.03432820925218
 20
-28.763199102163071
 30
0.0
 11
3.5499999999999541
 21
-20.278870892910842
 31
0.0
  0
LINE
  5
15B7B
  8
0
 62
     0
 10
-1.761475686666472
 20
-14.96739520624442
 30
0.0
 11
-4.0379039399838339
 21
-12.69096695292717
 31
0.0
  0
LINE
  5
15B7C
  8
0
 62
     0
 10
13.099999999999911
 20
-29.8288708929108
 30
0.0
 11
12.37112930708906
 21
-29.100000199999961
 31
0.0
  0
LINE
  5
15B7D
  8
0
 62
     0
 10
7.4790262586612917
 20
-27.799999599999872
 30
0.0
 11
3.54999999999984
 21
-23.870973341338409
 31
0.0
  0
LINE
  5
15B7E
  8
0
 62
     0
 10
-3.5500000000000682
 20
-16.7709733413385
 30
0.0
 11
-6.4848783247022084
 21
-13.83609501663636
 31
0.0
  0
LINE
  5
15B7F
  8
0
 62
     0
 10
12.67902685866159
 20
-33.000000200000159
 30
0.0
 11
11.00000000000011
 21
-31.320973341338689
 31
0.0
  0
LINE
  5
15B80
  8
0
 62
     0
 10
-3.5499999999999541
 20
-20.363075789766409
 30
0.0
 11
-7.7330368020898268
 21
-16.180038987676539
 31
0.0
  0
LINE
  5
15B81
  8
0
 62
     0
 10
-3.5499999999999541
 20
-23.95517823819409
 30
0.0
 11
-8.8741186659308369
 21
-18.631059572263212
 31
0.0
  0
LINE
  5
15B82
  8
0
 62
     0
 10
-3.9236405433106252
 20
-27.173640143311101
 30
0.0
 11
-9.901571718252967
 21
-21.195708968368759
 31
0.0
  0
LINE
  5
15B83
  8
0
 62
     0
 10
-6.8893835350494319
 20
-27.799999599999872
 30
0.0
 11
-10.8070040231338
 21
-23.882379111915501
 31
0.0
  0
LINE
  5
15B84
  8
0
 62
     0
 10
-10.130989661818029
 20
-28.150495921658951
 30
0.0
 11
-11.57961971301688
 21
-26.7018658704601
 31
0.0
  0
LINE
  5
15B85
  8
0
 62
     0
 10
-10.999999999999771
 20
-30.873588031904781
 30
0.0
 11
-12.716460966271249
 21
-29.15712706563329
 31
0.0
  0
LINE
  5
15B86
  8
0
 62
     0
 10
-12.465690280332071
 20
-33.000000200000159
 30
0.0
 11
-13.76550531945383
 21
-31.700185160878501
 31
0.0
  0
ENDBLK
  5
15B88
  8
0
  0
BLOCK
  8
0
  2
*X122
 70
     1
 10
0.0
 20
0.0
 30
0.0
  3
*X122
  1

  0
LINE
  5
15B8A
  8
0
 62
     0
 10
17.749270850893371
 20
-61.46873075173783
 30
0.0
 11
18.00000000000006
 21
-61.218001602631091
 31
0.0
  0
LINE
  5
15B8B
  8
0
 62
     0
 10
15.504206820626109
 20
-61.46873075173783
 30
0.0
 11
18.00000000000011
 21
-58.972937572363769
 31
0.0
  0
LINE
  5
15B8C
  8
0
 62
     0
 10
13.259142790358849
 20
-61.46873075173783
 30
0.0
 11
18.00000000000011
 21
-56.727873542096518
 31
0.0
  0
LINE
  5
15B8D
  8
0
 62
     0
 10
11.014078760091589
 20
-61.46873075173778
 30
0.0
 11
18.00000000000011
 21
-54.482809511829259
 31
0.0
  0
LINE
  5
15B8E
  8
0
 62
     0
 10
9.0000000000000568
 20
-61.237745481561952
 30
0.0
 11
18.00000000000006
 21
-52.237745481561937
 31
0.0
  0
LINE
  5
15B8F
  8
0
 62
     0
 10
9.0000000000000568
 20
-58.992681451294679
 30
0.0
 11
18.00000000000011
 21
-49.992681451294622
 31
0.0
  0
LINE
  5
15B90
  8
0
 62
     0
 10
9.0000000000001137
 20
-56.747617421027421
 30
0.0
 11
18.00000000000011
 21
-47.747617421027371
 31
0.0
  0
LINE
  5
15B91
  8
0
 62
     0
 10
9.0000000000001137
 20
-54.50255339076012
 30
0.0
 11
18.000000000000171
 21
-45.502553390759999
 31
0.0
  0
LINE
  5
15B92
  8
0
 62
     0
 10
9.0
 20
-52.257489360492848
 30
0.0
 11
18.00000000000011
 21
-43.257489360492741
 31
0.0
  0
LINE
  5
15B93
  8
0
 62
     0
 10
9.0000000000000568
 20
-50.01242533022554
 30
0.0
 11
18.00000000000011
 21
-41.012425330225483
 31
0.0
  0
LINE
  5
15B94
  8
0
 62
     0
 10
9.0000000000000568
 20
-47.767361299958267
 30
0.0
 11
18.00000000000011
 21
-38.767361299958232
 31
0.0
  0
LINE
  5
15B95
  8
0
 62
     0
 10
9.0000000000000568
 20
-45.522297269690966
 30
0.0
 11
18.00000000000011
 21
-36.52229726969091
 31
0.0
  0
LINE
  5
15B96
  8
0
 62
     0
 10
9.0000000000000568
 20
-43.277233239423651
 30
0.0
 11
18.000000000000171
 21
-34.277233239423538
 31
0.0
  0
LINE
  5
15B97
  8
0
 62
     0
 10
9.0000000000000568
 20
-41.032169209156393
 30
0.0
 11
18.000000000000171
 21
-32.03216920915628
 31
0.0
  0
LINE
  5
15B98
  8
0
 62
     0
 10
9.0000000000000568
 20
-38.787105178889142
 30
0.0
 11
18.000000000000231
 21
-29.787105178889021
 31
0.0
  0
LINE
  5
15B99
  8
0
 62
     0
 10
9.0000000000000568
 20
-36.54204114862182
 30
0.0
 11
18.000000000000171
 21
-27.54204114862171
 31
0.0
  0
LINE
  5
15B9A
  8
0
 62
     0
 10
8.9999999999999432
 20
-34.296977118354619
 30
0.0
 11
18.000000000000171
 21
-25.296977118354391
 31
0.0
  0
LINE
  5
15B9B
  8
0
 62
     0
 10
9.0
 20
-32.051913088087311
 30
0.0
 11
18.000000000000171
 21
-23.051913088087129
 31
0.0
  0
LINE
  5
15B9C
  8
0
 62
     0
 10
9.0
 20
-29.806849057820049
 30
0.0
 11
18.000000000000231
 21
-20.806849057819822
 31
0.0
  0
LINE
  5
15B9D
  8
0
 62
     0
 10
9.0
 20
-27.56178502755273
 30
0.0
 11
18.000000000000231
 21
-18.561785027552499
 31
0.0
  0
LINE
  5
15B9E
  8
0
 62
     0
 10
8.9999999999999432
 20
-25.316720997285479
 30
0.0
 11
18.000000000000231
 21
-16.316720997285241
 31
0.0
  0
LINE
  5
15B9F
  8
0
 62
     0
 10
8.9999999999999432
 20
-23.07165696701821
 30
0.0
 11
18.000000000000231
 21
-14.071656967017979
 31
0.0
  0
LINE
  5
15BA0
  8
0
 62
     0
 10
8.9999999999999432
 20
-20.826592936750899
 30
0.0
 11
18.000000000000231
 21
-11.826592936750609
 31
0.0
  0
LINE
  5
15BA1
  8
0
 62
     0
 10
8.9999999999999432
 20
-18.58152890648358
 30
0.0
 11
18.000000000000171
 21
-9.5815289064833564
 31
0.0
  0
LINE
  5
15BA2
  8
0
 62
     0
 10
16.353366242229299
 20
-8.9830986339870265
 30
0.0
 11
16.58651145322483
 21
-8.7499534229914389
 31
0.0
  0
LINE
  5
15BA3
  8
0
 62
     0
 10
8.9999999999999432
 20
-16.336464876216318
 30
0.0
 11
16.264414818379521
 21
-9.0720500578367478
 31
0.0
  0
LINE
  5
15BA4
  8
0
 62
     0
 10
17.341447422598829
 20
-5.7499534233501768
 30
0.0
 11
18.00000000000011
 21
-5.091400845948896
 31
0.0
  0
LINE
  5
15BA5
  8
0
 62
     0
 10
8.9999999999999432
 20
-14.091400845949069
 30
0.0
 11
14.34144742402435
 21
-8.7499534219246584
 31
0.0
  0
LINE
  5
15BA6
  8
0
 62
     0
 10
15.09638339339835
 20
-5.7499534222833404
 30
0.0
 11
15.475887752038769
 21
-5.3704490636429218
 31
0.0
  0
LINE
  5
15BA7
  8
0
 62
     0
 10
15.516052887897841
 20
-5.3302839277838521
 30
0.0
 11
18.00000000000011
 21
-2.8463368156815809
 31
0.0
  0
LINE
  5
15BA8
  8
0
 62
     0
 10
9.0
 20
-11.84633681568169
 30
0.0
 11
12.096383394823871
 21
-8.7499534208578211
 31
0.0
  0
LINE
  5
15BA9
  8
0
 62
     0
 10
12.85131936419776
 20
-5.7499534212166159
 30
0.0
 11
18.00000000000006
 21
-0.6012727854143236
 31
0.0
  0
LINE
  5
15BAA
  8
0
 62
     0
 10
8.9999999999999432
 20
-9.6012727854144373
 30
0.0
 11
9.8085489289221073
 21
-8.7927238564922732
 31
0.0
  0
LINE
  5
15BAB
  8
0
 62
     0
 10
10.76769871211496
 20
-5.5885100430321577
 30
0.0
 11
18.00000000000006
 21
1.6437912448529339
 31
0.0
  0
LINE
  5
15BAC
  8
0
 62
     0
 10
8.9999999999999432
 20
-5.11114472487992
 30
0.0
 11
18.00000000000006
 21
3.8888552751201919
 31
0.0
  0
LINE
  5
15BAD
  8
0
 62
     0
 10
8.9999999999999432
 20
-2.866080694612605
 30
0.0
 11
17.61612726817793
 21
5.7500465735653838
 31
0.0
  0
LINE
  5
15BAE
  8
0
 62
     0
 10
8.9999999999999432
 20
-0.6210166643452908
 30
0.0
 11
15.37106323897728
 21
5.7500465746320506
 31
0.0
  0
LINE
  5
15BAF
  8
0
 62
     0
 10
16.125999208351288
 20
8.7500465742733127
 30
0.0
 11
18.00000000000011
 21
10.62404736592214
 31
0.0
  0
LINE
  5
15BB0
  8
0
 62
     0
 10
8.9999999999999432
 20
1.624047365921967
 30
0.0
 11
13.02099569600597
 21
5.645043061927935
 31
0.0
  0
LINE
  5
15BB1
  8
0
 62
     0
 10
13.98014547919882
 20
8.8492568753880505
 30
0.0
 11
18.00000000000011
 21
12.869111396189391
 31
0.0
  0
LINE
  5
15BB2
  8
0
 62
     0
 10
9.0
 20
3.869111396189282
 30
0.0
 11
10.88093518057638
 21
5.7500465767656124
 31
0.0
  0
LINE
  5
15BB3
  8
0
 62
     0
 10
11.635871149950271
 20
8.7500465764068736
 30
0.0
 11
18.00000000000011
 21
15.114175426456709
 31
0.0
  0
LINE
  5
15BB4
  8
0
 62
     0
 10
9.3908071207497414
 20
8.7500465774735972
 30
0.0
 11
18.00000000000006
 21
17.359239456723969
 31
0.0
  0
LINE
  5
15BB5
  8
0
 62
     0
 10
9.0000000000001137
 20
10.604303486991229
 30
0.0
 11
18.00000000000006
 21
19.604303486991231
 31
0.0
  0
LINE
  5
15BB6
  8
0
 62
     0
 10
9.0000000000001137
 20
12.849367517258541
 30
0.0
 11
18.00000000000011
 21
21.849367517258599
 31
0.0
  0
LINE
  5
15BB7
  8
0
 62
     0
 10
9.0000000000001137
 20
15.094431547525859
 30
0.0
 11
18.00000000000011
 21
24.094431547525861
 31
0.0
  0
LINE
  5
15BB8
  8
0
 62
     0
 10
9.0000000000000568
 20
17.339495577793109
 30
0.0
 11
18.00000000000011
 21
26.339495577793169
 31
0.0
  0
LINE
  5
15BB9
  8
0
 62
     0
 10
9.0000000000000568
 20
19.584559608060371
 30
0.0
 11
18.00000000000011
 21
28.584559608060431
 31
0.0
  0
LINE
  5
15BBA
  8
0
 62
     0
 10
9.0000000000001137
 20
21.82962363832775
 30
0.0
 11
18.00000000000011
 21
30.82962363832775
 31
0.0
  0
LINE
  5
15BBB
  8
0
 62
     0
 10
9.0000000000000568
 20
24.074687668595001
 30
0.0
 11
18.00000000000006
 21
33.074687668594997
 31
0.0
  0
LINE
  5
15BBC
  8
0
 62
     0
 10
9.0000000000000568
 20
26.31975169886227
 30
0.0
 11
18.00000000000006
 21
35.319751698862262
 31
0.0
  0
LINE
  5
15BBD
  8
0
 62
     0
 10
9.0000000000001137
 20
28.564815729129521
 30
0.0
 11
18.00000000000011
 21
37.564815729129577
 31
0.0
  0
LINE
  5
15BBE
  8
0
 62
     0
 10
9.0000000000001137
 20
30.809879759396839
 30
0.0
 11
18.00000000000011
 21
39.809879759396892
 31
0.0
  0
LINE
  5
15BBF
  8
0
 62
     0
 10
9.0000000000000568
 20
33.054943789664151
 30
0.0
 11
18.00000000000011
 21
42.0549437896642
 31
0.0
  0
LINE
  5
15BC0
  8
0
 62
     0
 10
9.0000000000000568
 20
35.300007819931409
 30
0.0
 11
18.00000000000011
 21
44.300007819931459
 31
0.0
  0
LINE
  5
15BC1
  8
0
 62
     0
 10
9.0000000000000568
 20
37.545071850198667
 30
0.0
 11
16.07742504976892
 21
44.622496899967523
 31
0.0
  0
LINE
  5
15BC2
  8
0
 62
     0
 10
9.0000000000001137
 20
39.790135880466039
 30
0.0
 11
13.83236101950166
 21
44.622496899967587
 31
0.0
  0
LINE
  5
15BC3
  8
0
 62
     0
 10
9.0000000000000568
 20
42.035199910733297
 30
0.0
 11
11.587296989234339
 21
44.622496899967587
 31
0.0
  0
LINE
  5
15BC4
  8
0
 62
     0
 10
9.0000000000001137
 20
44.280263941000548
 30
0.0
 11
9.3422329589670881
 21
44.622496899967587
 31
0.0
  0
ENDBLK
  5
15BC6
  8
0
  0
BLOCK
  8
0
  2
*X123
 70
     1
 10
0.0
 20
0.0
 30
0.0
  3
*X123
  1

  0
LINE
  5
15BC8
  8
0
 62
     0
 10
4.01579819129564
 20
-61.431188349899848
 30
0.0
 11
4.01579819129564
 21
-61.431188349899848
 31
0.0
  0
LINE
  5
15BC9
  8
0
 62
     0
 10
3.5476270824212111
 20
-61.002188568063907
 30
0.0
 11
3.5476270824212111
 21
-61.002188568063907
 31
0.0
  0
LINE
  5
15BCA
  8
0
 62
     0
 10
1.0195030944992971
 20
-58.685589746149809
 30
0.0
 11
1.0195030944992971
 21
-58.685589746149809
 31
0.0
  0
LINE
  5
15BCB
  8
0
 62
     0
 10
8.6550676192222316
 20
-56.456296513577612
 30
0.0
 11
8.6550676192222316
 21
-56.456296513577612
 31
0.0
  0
LINE
  5
15BCC
  8
0
 62
     0
 10
6.4452999853349269
 20
-54.431417543311952
 30
0.0
 11
6.4452999853349269
 21
-54.431417543311952
 31
0.0
  0
LINE
  5
15BCD
  8
0
 62
     0
 10
5.9771288764604993
 20
-54.002417761476011
 30
0.0
 11
5.9771288764604993
 21
-54.002417761476011
 31
0.0
  0
LINE
  5
15BCE
  8
0
 62
     0
 10
3.449004888538584
 20
-51.685818939561912
 30
0.0
 11
3.449004888538584
 21
-51.685818939561912
 31
0.0
  0
LINE
  5
15BCF
  8
0
 62
     0
 10
1.23923725465128
 20
-49.660939969296251
 30
0.0
 11
1.23923725465128
 21
-49.660939969296251
 31
0.0
  0
LINE
  5
15BD0
  8
0
 62
     0
 10
0.7710661457768521
 20
-49.23194018746031
 30
0.0
 11
0.7710661457768521
 21
-49.23194018746031
 31
0.0
  0
LINE
  5
15BD1
  8
0
 62
     0
 10
8.8748017793742875
 20
-47.431646736724133
 30
0.0
 11
8.8748017793742875
 21
-47.431646736724133
 31
0.0
  0
LINE
  5
15BD2
  8
0
 62
     0
 10
8.4066306704998581
 20
-47.002646954888192
 30
0.0
 11
8.4066306704998581
 21
-47.002646954888192
 31
0.0
  0
LINE
  5
15BD3
  8
0
 62
     0
 10
5.8785066825779433
 20
-44.686048132974094
 30
0.0
 11
5.8785066825779433
 21
-44.686048132974094
 31
0.0
  0
LINE
  5
15BD4
  8
0
 62
     0
 10
3.668739048690639
 20
-42.661169162708433
 30
0.0
 11
3.668739048690639
 21
-42.661169162708433
 31
0.0
  0
LINE
  5
15BD5
  8
0
 62
     0
 10
3.200567939816211
 20
-42.232169380872492
 30
0.0
 11
3.200567939816211
 21
-42.232169380872492
 31
0.0
  0
LINE
  5
15BD6
  8
0
 62
     0
 10
0.6724439518942967
 20
-39.915570558958393
 30
0.0
 11
0.6724439518942967
 21
-39.915570558958393
 31
0.0
  0
LINE
  5
15BD7
  8
0
 62
     0
 10
8.3080084766172941
 20
-37.68627732638619
 30
0.0
 11
8.3080084766172941
 21
-37.68627732638619
 31
0.0
  0
LINE
  5
15BD8
  8
0
 62
     0
 10
6.0982408427299903
 20
-35.661398356120543
 30
0.0
 11
6.0982408427299903
 21
-35.661398356120543
 31
0.0
  0
LINE
  5
15BD9
  8
0
 62
     0
 10
5.630069733855561
 20
-35.232398574284602
 30
0.0
 11
5.630069733855561
 21
-35.232398574284602
 31
0.0
  0
LINE
  5
15BDA
  8
0
 62
     0
 10
3.1019457459336461
 20
-32.915799752370503
 30
0.0
 11
3.1019457459336461
 21
-32.915799752370503
 31
0.0
  0
LINE
  5
15BDB
  8
0
 62
     0
 10
0.8921781120463432
 20
-30.890920782104839
 30
0.0
 11
0.8921781120463432
 21
-30.890920782104839
 31
0.0
  0
LINE
  5
15BDC
  8
0
 62
     0
 10
0.4240070031719147
 20
-30.461921000268891
 30
0.0
 11
0.4240070031719147
 21
-30.461921000268891
 31
0.0
  0
LINE
  5
15BDD
  8
0
 62
     0
 10
8.5277426367693003
 20
-28.661627549532721
 30
0.0
 11
8.5277426367693003
 21
-28.661627549532721
 31
0.0
  0
LINE
  5
15BDE
  8
0
 62
     0
 10
8.0595715278948692
 20
-28.232627767696769
 30
0.0
 11
8.0595715278948692
 21
-28.232627767696769
 31
0.0
  0
LINE
  5
15BDF
  8
0
 62
     0
 10
5.5314475399729552
 20
-25.916028945782671
 30
0.0
 11
5.5314475399729552
 21
-25.916028945782671
 31
0.0
  0
LINE
  5
15BE0
  8
0
 62
     0
 10
3.321679906085651
 20
-23.89114997551701
 30
0.0
 11
3.321679906085651
 21
-23.89114997551701
 31
0.0
  0
LINE
  5
15BE1
  8
0
 62
     0
 10
2.853508797211223
 20
-23.462150193681069
 30
0.0
 11
2.853508797211223
 21
-23.462150193681069
 31
0.0
  0
LINE
  5
15BE2
  8
0
 62
     0
 10
0.3253848092893086
 20
-21.14555137176697
 30
0.0
 11
0.3253848092893086
 21
-21.14555137176697
 31
0.0
  0
LINE
  5
15BE3
  8
0
 62
     0
 10
7.960949334012235
 20
-18.916258139194781
 30
0.0
 11
7.960949334012235
 21
-18.916258139194781
 31
0.0
  0
LINE
  5
15BE4
  8
0
 62
     0
 10
5.751181700124933
 20
-16.89137916892912
 30
0.0
 11
5.751181700124933
 21
-16.89137916892912
 31
0.0
  0
LINE
  5
15BE5
  8
0
 62
     0
 10
5.2830105912505037
 20
-16.462379387093169
 30
0.0
 11
5.2830105912505037
 21
-16.462379387093169
 31
0.0
  0
LINE
  5
15BE6
  8
0
 62
     0
 10
2.7548866033285888
 20
-14.14578056517907
 30
0.0
 11
2.7548866033285888
 21
-14.14578056517907
 31
0.0
  0
LINE
  5
15BE7
  8
0
 62
     0
 10
0.5451189694412864
 20
-12.12090159491342
 30
0.0
 11
0.5451189694412864
 21
-12.12090159491342
 31
0.0
  0
LINE
  5
15BE8
  8
0
 62
     0
 10
0.0769478605668576
 20
-11.69190181307747
 30
0.0
 11
0.0769478605668576
 21
-11.69190181307747
 31
0.0
  0
LINE
  5
15BE9
  8
0
 62
     0
 10
8.1806834941643185
 20
-9.8916083623412607
 30
0.0
 11
8.1806834941643185
 21
-9.8916083623412607
 31
0.0
  0
LINE
  5
15BEA
  8
0
 62
     0
 10
7.71251238528989
 20
-9.4626085805053162
 30
0.0
 11
7.71251238528989
 21
-9.4626085805053162
 31
0.0
  0
LINE
  5
15BEB
  8
0
 62
     0
 10
2.9746207634806661
 20
-5.1211307883256101
 30
0.0
 11
2.9746207634806661
 21
-5.1211307883256101
 31
0.0
  0
LINE
  5
15BEC
  8
0
 62
     0
 10
2.506449654606238
 20
-4.6921310064896664
 30
0.0
 11
2.506449654606238
 21
-4.6921310064896664
 31
0.0
  0
LINE
  5
15BED
  8
0
 62
     0
 10
7.6138901914073207
 20
-0.1462389520033798
 30
0.0
 11
7.6138901914073207
 21
-0.1462389520033798
 31
0.0
  0
LINE
  5
15BEE
  8
0
 62
     0
 10
5.4041225575200169
 20
1.8786400182622769
 30
0.0
 11
5.4041225575200169
 21
1.8786400182622769
 31
0.0
  0
LINE
  5
15BEF
  8
0
 62
     0
 10
4.9359514486455893
 20
2.307639800098221
 30
0.0
 11
4.9359514486455893
 21
2.307639800098221
 31
0.0
  0
LINE
  5
15BF0
  8
0
 62
     0
 10
2.407827460723674
 20
4.6242386220123208
 30
0.0
 11
2.407827460723674
 21
4.6242386220123208
 31
0.0
  0
LINE
  5
15BF1
  8
0
 62
     0
 10
7.8336243515593544
 20
8.8784108248501266
 30
0.0
 11
7.8336243515593544
 21
8.8784108248501266
 31
0.0
  0
LINE
  5
15BF2
  8
0
 62
     0
 10
7.3654532426849251
 20
9.3074106066860711
 30
0.0
 11
7.3654532426849251
 21
9.3074106066860711
 31
0.0
  0
LINE
  5
15BF3
  8
0
 62
     0
 10
4.8373292547630111
 20
11.62400942860017
 30
0.0
 11
4.8373292547630111
 21
11.62400942860017
 31
0.0
  0
LINE
  5
15BF4
  8
0
 62
     0
 10
2.6275616208757082
 20
13.64888839886583
 30
0.0
 11
2.6275616208757082
 21
13.64888839886583
 31
0.0
  0
LINE
  5
15BF5
  8
0
 62
     0
 10
2.1593905120012789
 20
14.07788818070177
 30
0.0
 11
2.1593905120012789
 21
14.07788818070177
 31
0.0
  0
LINE
  5
15BF6
  8
0
 62
     0
 10
7.2668310488023229
 20
18.623780235188089
 30
0.0
 11
7.2668310488023229
 21
18.623780235188089
 31
0.0
  0
LINE
  5
15BF7
  8
0
 62
     0
 10
5.0570634149150191
 20
20.648659205453761
 30
0.0
 11
5.0570634149150191
 21
20.648659205453761
 31
0.0
  0
LINE
  5
15BF8
  8
0
 62
     0
 10
4.5888923060405906
 20
21.077658987289698
 30
0.0
 11
4.5888923060405906
 21
21.077658987289698
 31
0.0
  0
LINE
  5
15BF9
  8
0
 62
     0
 10
2.0607683181186771
 20
23.3942578092038
 30
0.0
 11
2.0607683181186771
 21
23.3942578092038
 31
0.0
  0
LINE
  5
15BFA
  8
0
 62
     0
 10
7.4865652089542847
 20
27.648430012041619
 30
0.0
 11
7.4865652089542847
 21
27.648430012041619
 31
0.0
  0
LINE
  5
15BFB
  8
0
 62
     0
 10
7.0183941000798571
 20
28.07742979387756
 30
0.0
 11
7.0183941000798571
 21
28.07742979387756
 31
0.0
  0
LINE
  5
15BFC
  8
0
 62
     0
 10
4.4902701121579423
 20
30.394028615791662
 30
0.0
 11
4.4902701121579423
 21
30.394028615791662
 31
0.0
  0
LINE
  5
15BFD
  8
0
 62
     0
 10
2.2805024782706389
 20
32.418907586057323
 30
0.0
 11
2.2805024782706389
 21
32.418907586057323
 31
0.0
  0
LINE
  5
15BFE
  8
0
 62
     0
 10
1.81233136939621
 20
32.847907367893256
 30
0.0
 11
1.81233136939621
 21
32.847907367893256
 31
0.0
  0
LINE
  5
15BFF
  8
0
 62
     0
 10
6.9197719061972807
 20
37.393799422379502
 30
0.0
 11
6.9197719061972807
 21
37.393799422379502
 31
0.0
  0
LINE
  5
15C00
  8
0
 62
     0
 10
4.7100042723099769
 20
39.418678392645162
 30
0.0
 11
4.7100042723099769
 21
39.418678392645162
 31
0.0
  0
LINE
  5
15C01
  8
0
 62
     0
 10
4.2418331634355493
 20
39.847678174481111
 30
0.0
 11
4.2418331634355493
 21
39.847678174481111
 31
0.0
  0
LINE
  5
15C02
  8
0
 62
     0
 10
1.713709175513634
 20
42.164276996395202
 30
0.0
 11
1.713709175513634
 21
42.164276996395202
 31
0.0
  0
LINE
  5
15C03
  8
0
 62
     0
 10
7.6039294291079393
 20
-61.37093519581228
 30
0.0
 11
7.6039294291079393
 21
-61.37093519581228
 31
0.0
  0
LINE
  5
15C04
  8
0
 62
     0
 10
2.569725889050825
 20
-58.163793833590091
 30
0.0
 11
2.569725889050825
 21
-58.163793833590091
 31
0.0
  0
LINE
  5
15C05
  8
0
 62
     0
 10
6.62366390120894
 20
-55.692888177442953
 30
0.0
 11
6.62366390120894
 21
-55.692888177442953
 31
0.0
  0
LINE
  5
15C06
  8
0
 62
     0
 10
5.5525567650265764
 20
-55.010517674842482
 30
0.0
 11
5.5525567650265764
 21
-55.010517674842482
 31
0.0
  0
LINE
  5
15C07
  8
0
 62
     0
 10
0.5183532249694629
 20
-51.803376312620287
 30
0.0
 11
0.5183532249694629
 21
-51.803376312620287
 31
0.0
  0
LINE
  5
15C08
  8
0
 62
     0
 10
8.4282769273839921
 20
-51.789004465834807
 30
0.0
 11
8.4282769273839921
 21
-51.789004465834807
 31
0.0
  0
LINE
  5
15C09
  8
0
 62
     0
 10
4.5722912371274811
 20
-49.332470656473127
 30
0.0
 11
4.5722912371274811
 21
-49.332470656473127
 31
0.0
  0
LINE
  5
15C0A
  8
0
 62
     0
 10
3.501184100945117
 20
-48.650100153872657
 30
0.0
 11
3.501184100945117
 21
-48.650100153872657
 31
0.0
  0
LINE
  5
15C0B
  8
0
 62
     0
 10
6.3769042633026087
 20
-45.428586944865053
 30
0.0
 11
6.3769042633026087
 21
-45.428586944865053
 31
0.0
  0
LINE
  5
15C0C
  8
0
 62
     0
 10
2.5209185730460968
 20
-42.972053135503373
 30
0.0
 11
2.5209185730460968
 21
-42.972053135503373
 31
0.0
  0
LINE
  5
15C0D
  8
0
 62
     0
 10
1.4498114368637329
 20
-42.289682632902903
 30
0.0
 11
1.4498114368637329
 21
-42.289682632902903
 31
0.0
  0
LINE
  5
15C0E
  8
0
 62
     0
 10
4.3255315992211782
 20
-39.068169423895192
 30
0.0
 11
4.3255315992211782
 21
-39.068169423895192
 31
0.0
  0
LINE
  5
15C0F
  8
0
 62
     0
 10
0.4695459089646658
 20
-36.611635614533512
 30
0.0
 11
0.4695459089646658
 21
-36.611635614533512
 31
0.0
  0
LINE
  5
15C10
  8
0
 62
     0
 10
8.3794696113792817
 20
-36.597263767748082
 30
0.0
 11
8.3794696113792817
 21
-36.597263767748082
 31
0.0
  0
LINE
  5
15C11
  8
0
 62
     0
 10
7.3083624751969172
 20
-35.914893265147612
 30
0.0
 11
7.3083624751969172
 21
-35.914893265147612
 31
0.0
  0
LINE
  5
15C12
  8
0
 62
     0
 10
2.2741589351398028
 20
-32.707751902925423
 30
0.0
 11
2.2741589351398028
 21
-32.707751902925423
 31
0.0
  0
LINE
  5
15C13
  8
0
 62
     0
 10
6.328096947297821
 20
-30.236846246778288
 30
0.0
 11
6.328096947297821
 21
-30.236846246778288
 31
0.0
  0
LINE
  5
15C14
  8
0
 62
     0
 10
5.2569898111154574
 20
-29.554475744177829
 30
0.0
 11
5.2569898111154574
 21
-29.554475744177829
 31
0.0
  0
LINE
  5
15C15
  8
0
 62
     0
 10
0.2227862710583442
 20
-26.34733438195563
 30
0.0
 11
0.2227862710583442
 21
-26.34733438195563
 31
0.0
  0
LINE
  5
15C16
  8
0
 62
     0
 10
8.1327099734729629
 20
-26.332962535170171
 30
0.0
 11
8.1327099734729629
 21
-26.332962535170171
 31
0.0
  0
LINE
  5
15C17
  8
0
 62
     0
 10
4.27672428321645
 20
-23.876428725808481
 30
0.0
 11
4.27672428321645
 21
-23.876428725808481
 31
0.0
  0
LINE
  5
15C18
  8
0
 62
     0
 10
3.2056171470340851
 20
-23.194058223208021
 30
0.0
 11
3.2056171470340851
 21
-23.194058223208021
 31
0.0
  0
LINE
  5
15C19
  8
0
 62
     0
 10
6.08133730939148
 20
-19.97254501420036
 30
0.0
 11
6.08133730939148
 21
-19.97254501420036
 31
0.0
  0
LINE
  5
15C1A
  8
0
 62
     0
 10
2.225351619134968
 20
-17.51601120483868
 30
0.0
 11
2.225351619134968
 21
-17.51601120483868
 31
0.0
  0
LINE
  5
15C1B
  8
0
 62
     0
 10
1.1542444829526031
 20
-16.83364070223821
 30
0.0
 11
1.1542444829526031
 21
-16.83364070223821
 31
0.0
  0
LINE
  5
15C1C
  8
0
 62
     0
 10
4.0299646453101081
 20
-13.61212749323059
 30
0.0
 11
4.0299646453101081
 21
-13.61212749323059
 31
0.0
  0
LINE
  5
15C1D
  8
0
 62
     0
 10
0.1739789550535956
 20
-11.15559368386891
 30
0.0
 11
0.1739789550535956
 21
-11.15559368386891
 31
0.0
  0
LINE
  5
15C1E
  8
0
 62
     0
 10
8.0839026574682151
 20
-11.14122183708349
 30
0.0
 11
8.0839026574682151
 21
-11.14122183708349
 31
0.0
  0
LINE
  5
15C1F
  8
0
 62
     0
 10
7.0127955212858497
 20
-10.45885133448302
 30
0.0
 11
7.0127955212858497
 21
-10.45885133448302
 31
0.0
  0
LINE
  5
15C20
  8
0
 62
     0
 10
6.0325299933867882
 20
-4.7808043161136462
 30
0.0
 11
6.0325299933867882
 21
-4.7808043161136462
 31
0.0
  0
LINE
  5
15C21
  8
0
 62
     0
 10
4.9614228572044228
 20
-4.0984338135131786
 30
0.0
 11
4.9614228572044228
 21
-4.0984338135131786
 31
0.0
  0
LINE
  5
15C22
  8
0
 62
     0
 10
7.8371430195619052
 20
-0.8769206045055604
 30
0.0
 11
7.8371430195619052
 21
-0.8769206045055604
 31
0.0
  0
LINE
  5
15C23
  8
0
 62
     0
 10
3.9811573293053919
 20
1.5796132048561189
 30
0.0
 11
3.9811573293053919
 21
1.5796132048561189
 31
0.0
  0
LINE
  5
15C24
  8
0
 62
     0
 10
2.9100501931230269
 20
2.2619837074565861
 30
0.0
 11
2.9100501931230269
 21
2.2619837074565861
 31
0.0
  0
LINE
  5
15C25
  8
0
 62
     0
 10
5.7857703554804303
 20
5.4834969164642349
 30
0.0
 11
5.7857703554804303
 21
5.4834969164642349
 31
0.0
  0
LINE
  5
15C26
  8
0
 62
     0
 10
3.734397691399074
 20
11.84391443743405
 30
0.0
 11
3.734397691399074
 21
11.84391443743405
 31
0.0
  0
LINE
  5
15C27
  8
0
 62
     0
 10
7.7883357035571521
 20
14.31482009358125
 30
0.0
 11
7.7883357035571521
 21
14.31482009358125
 31
0.0
  0
LINE
  5
15C28
  8
0
 62
     0
 10
6.7172285673747876
 20
14.997190596181721
 30
0.0
 11
6.7172285673747876
 21
14.997190596181721
 31
0.0
  0
LINE
  5
15C29
  8
0
 62
     0
 10
1.6830250273176739
 20
18.204331958403909
 30
0.0
 11
1.6830250273176739
 21
18.204331958403909
 31
0.0
  0
LINE
  5
15C2A
  8
0
 62
     0
 10
5.7369630394757527
 20
20.675237614551001
 30
0.0
 11
5.7369630394757527
 21
20.675237614551001
 31
0.0
  0
LINE
  5
15C2B
  8
0
 62
     0
 10
4.6658559032933891
 20
21.357608117151461
 30
0.0
 11
4.6658559032933891
 21
21.357608117151461
 31
0.0
  0
LINE
  5
15C2C
  8
0
 62
     0
 10
7.5415760656507649
 20
24.57912132615909
 30
0.0
 11
7.5415760656507649
 21
24.57912132615909
 31
0.0
  0
LINE
  5
15C2D
  8
0
 62
     0
 10
3.685590375394252
 20
27.03565513552077
 30
0.0
 11
3.685590375394252
 21
27.03565513552077
 31
0.0
  0
LINE
  5
15C2E
  8
0
 62
     0
 10
2.614483239211888
 20
27.71802563812124
 30
0.0
 11
2.614483239211888
 21
27.71802563812124
 31
0.0
  0
LINE
  5
15C2F
  8
0
 62
     0
 10
5.4902034015693664
 20
30.939538847128901
 30
0.0
 11
5.4902034015693664
 21
30.939538847128901
 31
0.0
  0
LINE
  5
15C30
  8
0
 62
     0
 10
1.6342177113128531
 20
33.396072656490567
 30
0.0
 11
1.6342177113128531
 21
33.396072656490567
 31
0.0
  0
LINE
  5
15C31
  8
0
 62
     0
 10
0.5631105751304892
 20
34.078443159091037
 30
0.0
 11
0.5631105751304892
 21
34.078443159091037
 31
0.0
  0
LINE
  5
15C32
  8
0
 62
     0
 10
8.4730342775450875
 20
34.092815005876503
 30
0.0
 11
8.4730342775450875
 21
34.092815005876503
 31
0.0
  0
LINE
  5
15C33
  8
0
 62
     0
 10
3.4388307374879732
 20
37.299956368098691
 30
0.0
 11
3.4388307374879732
 21
37.299956368098691
 31
0.0
  0
LINE
  5
15C34
  8
0
 62
     0
 10
7.492768749646034
 20
39.77086202424583
 30
0.0
 11
7.492768749646034
 21
39.77086202424583
 31
0.0
  0
LINE
  5
15C35
  8
0
 62
     0
 10
6.4216616134636686
 20
40.4532325268463
 30
0.0
 11
6.4216616134636686
 21
40.4532325268463
 31
0.0
  0
LINE
  5
15C36
  8
0
 62
     0
 10
1.387458073406556
 20
43.660373889068488
 30
0.0
 11
1.387458073406556
 21
43.660373889068488
 31
0.0
  0
LINE
  5
15C37
  8
0
 62
     0
 10
8.2994528038308442
 20
-55.941633358613942
 30
0.0
 11
8.2994528038308442
 21
-55.941633358613942
 31
0.0
  0
LINE
  5
15C38
  8
0
 62
     0
 10
6.2344714465614741
 20
-56.213493311769859
 30
0.0
 11
6.2344714465614741
 21
-56.213493311769859
 31
0.0
  0
LINE
  5
15C39
  8
0
 62
     0
 10
4.9123797239194982
 20
-56.387549989095298
 30
0.0
 11
4.9123797239194982
 21
-56.387549989095298
 31
0.0
  0
LINE
  5
15C3A
  8
0
 62
     0
 10
1.462349895310912
 20
-56.84175503278265
 30
0.0
 11
1.462349895310912
 21
-56.84175503278265
 31
0.0
  0
LINE
  5
15C3B
  8
0
 62
     0
 10
5.957582726691057
 20
-49.673504027099071
 30
0.0
 11
5.957582726691057
 21
-49.673504027099071
 31
0.0
  0
LINE
  5
15C3C
  8
0
 62
     0
 10
3.8926013694216861
 20
-49.945363980255003
 30
0.0
 11
3.8926013694216861
 21
-49.945363980255003
 31
0.0
  0
LINE
  5
15C3D
  8
0
 62
     0
 10
2.5705096467797102
 20
-50.119420657580442
 30
0.0
 11
2.5705096467797102
 21
-50.119420657580442
 31
0.0
  0
LINE
  5
15C3E
  8
0
 62
     0
 10
8.3878342008016062
 20
-42.777112974571473
 30
0.0
 11
8.3878342008016062
 21
-42.777112974571473
 31
0.0
  0
LINE
  5
15C3F
  8
0
 62
     0
 10
7.0657424781596294
 20
-42.951169651896898
 30
0.0
 11
7.0657424781596294
 21
-42.951169651896898
 31
0.0
  0
LINE
  5
15C40
  8
0
 62
     0
 10
3.615712649551043
 20
-43.40537469558425
 30
0.0
 11
3.615712649551043
 21
-43.40537469558425
 31
0.0
  0
LINE
  5
15C41
  8
0
 62
     0
 10
1.5507312922816709
 20
-43.677234648740168
 30
0.0
 11
1.5507312922816709
 21
-43.677234648740168
 31
0.0
  0
LINE
  5
15C42
  8
0
 62
     0
 10
0.2286395696396954
 20
-43.851291326065613
 30
0.0
 11
0.2286395696396954
 21
-43.851291326065613
 31
0.0
  0
LINE
  5
15C43
  8
0
 62
     0
 10
8.1109454809310098
 20
-36.23712368990072
 30
0.0
 11
8.1109454809310098
 21
-36.23712368990072
 31
0.0
  0
LINE
  5
15C44
  8
0
 62
     0
 10
6.045964123661637
 20
-36.508983643056638
 30
0.0
 11
6.045964123661637
 21
-36.508983643056638
 31
0.0
  0
LINE
  5
15C45
  8
0
 62
     0
 10
4.7238724010196611
 20
-36.683040320382077
 30
0.0
 11
4.7238724010196611
 21
-36.683040320382077
 31
0.0
  0
LINE
  5
15C46
  8
0
 62
     0
 10
1.2738425724110749
 20
-37.137245364069422
 30
0.0
 11
1.2738425724110749
 21
-37.137245364069422
 31
0.0
  0
LINE
  5
15C47
  8
0
 62
     0
 10
5.7690754037913328
 20
-29.96899435838586
 30
0.0
 11
5.7690754037913328
 21
-29.96899435838586
 31
0.0
  0
LINE
  5
15C48
  8
0
 62
     0
 10
3.7040940465219601
 20
-30.240854311541781
 30
0.0
 11
3.7040940465219601
 21
-30.240854311541781
 31
0.0
  0
LINE
  5
15C49
  8
0
 62
     0
 10
2.382002323879985
 20
-30.41491098886722
 30
0.0
 11
2.382002323879985
 21
-30.41491098886722
 31
0.0
  0
LINE
  5
15C4A
  8
0
 62
     0
 10
8.1993268779017701
 20
-23.07260330585823
 30
0.0
 11
8.1993268779017701
 21
-23.07260330585823
 31
0.0
  0
LINE
  5
15C4B
  8
0
 62
     0
 10
6.8772351552597932
 20
-23.246659983183669
 30
0.0
 11
6.8772351552597932
 21
-23.246659983183669
 31
0.0
  0
LINE
  5
15C4C
  8
0
 62
     0
 10
3.4272053266512059
 20
-23.700865026871011
 30
0.0
 11
3.4272053266512059
 21
-23.700865026871011
 31
0.0
  0
LINE
  5
15C4D
  8
0
 62
     0
 10
1.3622239693818341
 20
-23.972724980026928
 30
0.0
 11
1.3622239693818341
 21
-23.972724980026928
 31
0.0
  0
LINE
  5
15C4E
  8
0
 62
     0
 10
0.0401322467398583
 20
-24.146781657352371
 30
0.0
 11
0.0401322467398583
 21
-24.146781657352371
 31
0.0
  0
LINE
  5
15C4F
  8
0
 62
     0
 10
7.9224381580313974
 20
-16.532614021187449
 30
0.0
 11
7.9224381580313974
 21
-16.532614021187449
 31
0.0
  0
LINE
  5
15C50
  8
0
 62
     0
 10
5.8574568007620247
 20
-16.804473974343381
 30
0.0
 11
5.8574568007620247
 21
-16.804473974343381
 31
0.0
  0
LINE
  5
15C51
  8
0
 62
     0
 10
4.5353650781200487
 20
-16.978530651668819
 30
0.0
 11
4.5353650781200487
 21
-16.978530651668819
 31
0.0
  0
LINE
  5
15C52
  8
0
 62
     0
 10
1.0853352495114641
 20
-17.432735695356151
 30
0.0
 11
1.0853352495114641
 21
-17.432735695356151
 31
0.0
  0
LINE
  5
15C53
  8
0
 62
     0
 10
5.5805680808913829
 20
-10.26448468967264
 30
0.0
 11
5.5805680808913829
 21
-10.26448468967264
 31
0.0
  0
LINE
  5
15C54
  8
0
 62
     0
 10
3.5155867236220111
 20
-10.53634464282856
 30
0.0
 11
3.5155867236220111
 21
-10.53634464282856
 31
0.0
  0
LINE
  5
15C55
  8
0
 62
     0
 10
2.193495000980036
 20
-10.710401320154
 30
0.0
 11
2.193495000980036
 21
-10.710401320154
 31
0.0
  0
LINE
  5
15C56
  8
0
 62
     0
 10
8.0108195550021595
 20
-3.3680936371449901
 30
0.0
 11
8.0108195550021595
 21
-3.3680936371449901
 31
0.0
  0
LINE
  5
15C57
  8
0
 62
     0
 10
6.6887278323601818
 20
-3.5421503144704292
 30
0.0
 11
6.6887278323601818
 21
-3.5421503144704292
 31
0.0
  0
LINE
  5
15C58
  8
0
 62
     0
 10
3.2386980037515962
 20
-3.9963553581577642
 30
0.0
 11
3.2386980037515962
 21
-3.9963553581577642
 31
0.0
  0
LINE
  5
15C59
  8
0
 62
     0
 10
1.1737166464822231
 20
-4.2682153113136883
 30
0.0
 11
1.1737166464822231
 21
-4.2682153113136883
 31
0.0
  0
LINE
  5
15C5A
  8
0
 62
     0
 10
7.7339308351315621
 20
3.1718956475257549
 30
0.0
 11
7.7339308351315621
 21
3.1718956475257549
 31
0.0
  0
LINE
  5
15C5B
  8
0
 62
     0
 10
5.6689494778621903
 20
2.9000356943698322
 30
0.0
 11
5.6689494778621903
 21
2.9000356943698322
 31
0.0
  0
LINE
  5
15C5C
  8
0
 62
     0
 10
4.3468577552202143
 20
2.7259790170443932
 30
0.0
 11
4.3468577552202143
 21
2.7259790170443932
 31
0.0
  0
LINE
  5
15C5D
  8
0
 62
     0
 10
0.896827926611628
 20
2.2717739733570581
 30
0.0
 11
0.896827926611628
 21
2.2717739733570581
 31
0.0
  0
LINE
  5
15C5E
  8
0
 62
     0
 10
2.0049876780801821
 20
8.9941083485592426
 30
0.0
 11
2.0049876780801821
 21
8.9941083485592426
 31
0.0
  0
LINE
  5
15C5F
  8
0
 62
     0
 10
8.8420905866000723
 20
9.8942300227279318
 30
0.0
 11
8.8420905866000723
 21
9.8942300227279318
 31
0.0
  0
LINE
  5
15C60
  8
0
 62
     0
 10
5.3920607579914854
 20
9.4400249790405972
 30
0.0
 11
5.3920607579914854
 21
9.4400249790405972
 31
0.0
  0
LINE
  5
15C61
  8
0
 62
     0
 10
3.3270794007221132
 20
9.1681650258846741
 30
0.0
 11
3.3270794007221132
 21
9.1681650258846741
 31
0.0
  0
LINE
  5
15C62
  8
0
 62
     0
 10
7.8223122321023224
 20
16.336416031568241
 30
0.0
 11
7.8223122321023224
 21
16.336416031568241
 31
0.0
  0
LINE
  5
15C63
  8
0
 62
     0
 10
6.5002205094603456
 20
16.162359354242799
 30
0.0
 11
6.5002205094603456
 21
16.162359354242799
 31
0.0
  0
LINE
  5
15C64
  8
0
 62
     0
 10
3.05019068085176
 20
15.708154310555461
 30
0.0
 11
3.05019068085176
 21
15.708154310555461
 31
0.0
  0
LINE
  5
15C65
  8
0
 62
     0
 10
0.9852093235823877
 20
15.436294357399539
 30
0.0
 11
0.9852093235823877
 21
15.436294357399539
 31
0.0
  0
LINE
  5
15C66
  8
0
 62
     0
 10
7.5454235122316131
 20
22.87640531623898
 30
0.0
 11
7.5454235122316131
 21
22.87640531623898
 31
0.0
  0
LINE
  5
15C67
  8
0
 62
     0
 10
5.4804421549622413
 20
22.604545363083059
 30
0.0
 11
5.4804421549622413
 21
22.604545363083059
 31
0.0
  0
LINE
  5
15C68
  8
0
 62
     0
 10
4.1583504323202654
 20
22.43048868575762
 30
0.0
 11
4.1583504323202654
 21
22.43048868575762
 31
0.0
  0
LINE
  5
15C69
  8
0
 62
     0
 10
0.7083206037116793
 20
21.976283642070278
 30
0.0
 11
0.7083206037116793
 21
21.976283642070278
 31
0.0
  0
LINE
  5
15C6A
  8
0
 62
     0
 10
8.6535832637005257
 20
29.598739691441182
 30
0.0
 11
8.6535832637005257
 21
29.598739691441182
 31
0.0
  0
LINE
  5
15C6B
  8
0
 62
     0
 10
5.2035534350919379
 20
29.14453464775384
 30
0.0
 11
5.2035534350919379
 21
29.14453464775384
 31
0.0
  0
LINE
  5
15C6C
  8
0
 62
     0
 10
3.1385720778225661
 20
28.872674694597919
 30
0.0
 11
3.1385720778225661
 21
28.872674694597919
 31
0.0
  0
LINE
  5
15C6D
  8
0
 62
     0
 10
1.8164803551805899
 20
28.69861801727248
 30
0.0
 11
1.8164803551805899
 21
28.69861801727248
 31
0.0
  0
LINE
  5
15C6E
  8
0
 62
     0
 10
7.6338049092024871
 20
36.040925700281463
 30
0.0
 11
7.6338049092024871
 21
36.040925700281463
 31
0.0
  0
LINE
  5
15C6F
  8
0
 62
     0
 10
6.3117131865605112
 20
35.866869022956017
 30
0.0
 11
6.3117131865605112
 21
35.866869022956017
 31
0.0
  0
LINE
  5
15C70
  8
0
 62
     0
 10
2.8616833579519252
 20
35.412663979268679
 30
0.0
 11
2.8616833579519252
 21
35.412663979268679
 31
0.0
  0
LINE
  5
15C71
  8
0
 62
     0
 10
0.7967020006825532
 20
35.140804026112761
 30
0.0
 11
0.7967020006825532
 21
35.140804026112761
 31
0.0
  0
LINE
  5
15C72
  8
0
 62
     0
 10
7.3569161893318897
 20
42.580914984952237
 30
0.0
 11
7.3569161893318897
 21
42.580914984952237
 31
0.0
  0
LINE
  5
15C73
  8
0
 62
     0
 10
5.2919348320625179
 20
42.309055031796319
 30
0.0
 11
5.2919348320625179
 21
42.309055031796319
 31
0.0
  0
LINE
  5
15C74
  8
0
 62
     0
 10
3.969843109420542
 20
42.134998354470881
 30
0.0
 11
3.969843109420542
 21
42.134998354470881
 31
0.0
  0
LINE
  5
15C75
  8
0
 62
     0
 10
0.5198132808119568
 20
41.680793310783542
 30
0.0
 11
0.5198132808119568
 21
41.680793310783542
 31
0.0
  0
LINE
  5
15C76
  8
0
 62
     0
 10
6.4354054388360371
 20
-59.471602609558943
 30
0.0
 11
6.4354054388360371
 21
-59.471602609558943
 31
0.0
  0
LINE
  5
15C77
  8
0
 62
     0
 10
6.275402309237827
 20
-54.577470236265448
 30
0.0
 11
6.275402309237827
 21
-54.577470236265448
 31
0.0
  0
LINE
  5
15C78
  8
0
 62
     0
 10
3.0008363971857528
 20
-57.09013303449894
 30
0.0
 11
3.0008363971857528
 21
-57.09013303449894
 31
0.0
  0
LINE
  5
15C79
  8
0
 62
     0
 10
6.1153991796394154
 20
-49.683337862972039
 30
0.0
 11
6.1153991796394154
 21
-49.683337862972039
 31
0.0
  0
LINE
  5
15C7A
  8
0
 62
     0
 10
2.840833267587342
 20
-52.196000661205531
 30
0.0
 11
2.840833267587342
 21
-52.196000661205531
 31
0.0
  0
LINE
  5
15C7B
  8
0
 62
     0
 10
5.9553960500409788
 20
-44.789205489678679
 30
0.0
 11
5.9553960500409788
 21
-44.789205489678679
 31
0.0
  0
LINE
  5
15C7C
  8
0
 62
     0
 10
2.6808301379889059
 20
-47.301868287912171
 30
0.0
 11
2.6808301379889059
 21
-47.301868287912171
 31
0.0
  0
LINE
  5
15C7D
  8
0
 62
     0
 10
8.8583714966390943
 20
-37.544766991268268
 30
0.0
 11
8.8583714966390943
 21
-37.544766991268268
 31
0.0
  0
LINE
  5
15C7E
  8
0
 62
     0
 10
5.7953929204426924
 20
-39.895073116385142
 30
0.0
 11
5.7953929204426924
 21
-39.895073116385142
 31
0.0
  0
LINE
  5
15C7F
  8
0
 62
     0
 10
2.520827008390619
 20
-42.40773591461862
 30
0.0
 11
2.520827008390619
 21
-42.40773591461862
 31
0.0
  0
LINE
  5
15C80
  8
0
 62
     0
 10
8.6983683670406258
 20
-32.650634617974859
 30
0.0
 11
8.6983683670406258
 21
-32.650634617974859
 31
0.0
  0
LINE
  5
15C81
  8
0
 62
     0
 10
5.635389790844223
 20
-35.000940743091732
 30
0.0
 11
5.635389790844223
 21
-35.000940743091732
 31
0.0
  0
LINE
  5
15C82
  8
0
 62
     0
 10
2.3608238787921501
 20
-37.513603541325217
 30
0.0
 11
2.3608238787921501
 21
-37.513603541325217
 31
0.0
  0
LINE
  5
15C83
  8
0
 62
     0
 10
8.5383652374421573
 20
-27.756502244681499
 30
0.0
 11
8.5383652374421573
 21
-27.756502244681499
 31
0.0
  0
LINE
  5
15C84
  8
0
 62
     0
 10
5.4753866612457553
 20
-30.106808369798369
 30
0.0
 11
5.4753866612457553
 21
-30.106808369798369
 31
0.0
  0
LINE
  5
15C85
  8
0
 62
     0
 10
2.2008207491936811
 20
-32.619471168031872
 30
0.0
 11
2.2008207491936811
 21
-32.619471168031872
 31
0.0
  0
LINE
  5
15C86
  8
0
 62
     0
 10
8.3783621078436887
 20
-22.862369871388101
 30
0.0
 11
8.3783621078436887
 21
-22.862369871388101
 31
0.0
  0
LINE
  5
15C87
  8
0
 62
     0
 10
5.3153835316472859
 20
-25.21267599650497
 30
0.0
 11
5.3153835316472859
 21
-25.21267599650497
 31
0.0
  0
LINE
  5
15C88
  8
0
 62
     0
 10
2.040817619595213
 20
-27.725338794738459
 30
0.0
 11
2.040817619595213
 21
-27.725338794738459
 31
0.0
  0
LINE
  5
15C89
  8
0
 62
     0
 10
8.2183589782453996
 20
-17.968237498094609
 30
0.0
 11
8.2183589782453996
 21
-17.968237498094609
 31
0.0
  0
LINE
  5
15C8A
  8
0
 62
     0
 10
5.1553804020489977
 20
-20.318543623211479
 30
0.0
 11
5.1553804020489977
 21
-20.318543623211479
 31
0.0
  0
LINE
  5
15C8B
  8
0
 62
     0
 10
1.880814489996925
 20
-22.831206421444971
 30
0.0
 11
1.880814489996925
 21
-22.831206421444971
 31
0.0
  0
LINE
  5
15C8C
  8
0
 62
     0
 10
8.0583558486470217
 20
-13.074105124801131
 30
0.0
 11
8.0583558486470217
 21
-13.074105124801131
 31
0.0
  0
LINE
  5
15C8D
  8
0
 62
     0
 10
4.9953772724506189
 20
-15.424411249918
 30
0.0
 11
4.9953772724506189
 21
-15.424411249918
 31
0.0
  0
LINE
  5
15C8E
  8
0
 62
     0
 10
1.720811360398546
 20
-17.937074048151491
 30
0.0
 11
1.720811360398546
 21
-17.937074048151491
 31
0.0
  0
LINE
  5
15C8F
  8
0
 62
     0
 10
4.835374142852241
 20
-10.53027887662458
 30
0.0
 11
4.835374142852241
 21
-10.53027887662458
 31
0.0
  0
LINE
  5
15C90
  8
0
 62
     0
 10
1.5608082308001681
 20
-13.04294167485808
 30
0.0
 11
1.5608082308001681
 21
-13.04294167485808
 31
0.0
  0
LINE
  5
15C91
  8
0
 62
     0
 10
4.6753710132538711
 20
-5.6361465033311111
 30
0.0
 11
4.6753710132538711
 21
-5.6361465033311111
 31
0.0
  0
LINE
  5
15C92
  8
0
 62
     0
 10
7.7383495894502312
 20
-3.2858403782142722
 30
0.0
 11
7.7383495894502312
 21
-3.2858403782142722
 31
0.0
  0
LINE
  5
15C93
  8
0
 62
     0
 10
7.5783464598517973
 20
1.608291995079111
 30
0.0
 11
7.5783464598517973
 21
1.608291995079111
 31
0.0
  0
LINE
  5
15C94
  8
0
 62
     0
 10
4.5153678836553954
 20
-0.7420141300377581
 30
0.0
 11
4.5153678836553954
 21
-0.7420141300377581
 31
0.0
  0
LINE
  5
15C95
  8
0
 62
     0
 10
1.240801971603321
 20
-3.2546769282712522
 30
0.0
 11
1.240801971603321
 21
-3.2546769282712522
 31
0.0
  0
LINE
  5
15C96
  8
0
 62
     0
 10
4.3553647540568701
 20
4.1521182432556483
 30
0.0
 11
4.3553647540568701
 21
4.1521182432556483
 31
0.0
  0
LINE
  5
15C97
  8
0
 62
     0
 10
1.080798842004796
 20
1.6394554450221539
 30
0.0
 11
1.080798842004796
 21
1.6394554450221539
 31
0.0
  0
LINE
  5
15C98
  8
0
 62
     0
 10
7.2583402006548212
 20
11.39655674166589
 30
0.0
 11
7.2583402006548212
 21
11.39655674166589
 31
0.0
  0
LINE
  5
15C99
  8
0
 62
     0
 10
4.1953616244584193
 20
9.0462506165490275
 30
0.0
 11
4.1953616244584193
 21
9.0462506165490275
 31
0.0
  0
LINE
  5
15C9A
  8
0
 62
     0
 10
7.0983370710565712
 20
16.290689114959349
 30
0.0
 11
7.0983370710565712
 21
16.290689114959349
 31
0.0
  0
LINE
  5
15C9B
  8
0
 62
     0
 10
4.0353584948601702
 20
13.94038298984249
 30
0.0
 11
4.0353584948601702
 21
13.94038298984249
 31
0.0
  0
LINE
  5
15C9C
  8
0
 62
     0
 10
0.7607925828080968
 20
11.427720191608991
 30
0.0
 11
0.7607925828080968
 21
11.427720191608991
 31
0.0
  0
LINE
  5
15C9D
  8
0
 62
     0
 10
6.9383339414581933
 20
21.18482148825278
 30
0.0
 11
6.9383339414581933
 21
21.18482148825278
 31
0.0
  0
LINE
  5
15C9E
  8
0
 62
     0
 10
3.8753553652617909
 20
18.83451536313591
 30
0.0
 11
3.8753553652617909
 21
18.83451536313591
 31
0.0
  0
LINE
  5
15C9F
  8
0
 62
     0
 10
0.6007894532097184
 20
16.321852564902411
 30
0.0
 11
0.6007894532097184
 21
16.321852564902411
 31
0.0
  0
LINE
  5
15CA0
  8
0
 62
     0
 10
6.7783308118597239
 20
26.078953861546189
 30
0.0
 11
6.7783308118597239
 21
26.078953861546189
 31
0.0
  0
LINE
  5
15CA1
  8
0
 62
     0
 10
3.7153522356633228
 20
23.728647736429309
 30
0.0
 11
3.7153522356633228
 21
23.728647736429309
 31
0.0
  0
LINE
  5
15CA2
  8
0
 62
     0
 10
0.4407863236112499
 20
21.21598493819582
 30
0.0
 11
0.4407863236112499
 21
21.21598493819582
 31
0.0
  0
LINE
  5
15CA3
  8
0
 62
     0
 10
6.6183276822614934
 20
30.97308623483967
 30
0.0
 11
6.6183276822614934
 21
30.97308623483967
 31
0.0
  0
LINE
  5
15CA4
  8
0
 62
     0
 10
3.555349106065091
 20
28.6227801097228
 30
0.0
 11
3.555349106065091
 21
28.6227801097228
 31
0.0
  0
LINE
  5
15CA5
  8
0
 62
     0
 10
0.2807831940130185
 20
26.110117311489311
 30
0.0
 11
0.2807831940130185
 21
26.110117311489311
 31
0.0
  0
LINE
  5
15CA6
  8
0
 62
     0
 10
6.458324552662968
 20
35.867218608133022
 30
0.0
 11
6.458324552662968
 21
35.867218608133022
 31
0.0
  0
LINE
  5
15CA7
  8
0
 62
     0
 10
3.3953459764665661
 20
33.516912483016149
 30
0.0
 11
3.3953459764665661
 21
33.516912483016149
 31
0.0
  0
LINE
  5
15CA8
  8
0
 62
     0
 10
0.1207800644144936
 20
31.004249684782661
 30
0.0
 11
0.1207800644144936
 21
31.004249684782661
 31
0.0
  0
LINE
  5
15CA9
  8
0
 62
     0
 10
6.2983214230645901
 20
40.761350981426489
 30
0.0
 11
6.2983214230645901
 21
40.761350981426489
 31
0.0
  0
LINE
  5
15CAA
  8
0
 62
     0
 10
3.2353428468681882
 20
38.41104485630963
 30
0.0
 11
3.2353428468681882
 21
38.41104485630963
 31
0.0
  0
LINE
  5
15CAB
  8
0
 62
     0
 10
3.0753397172696291
 20
43.305177229602961
 30
0.0
 11
3.0753397172696291
 21
43.305177229602961
 31
0.0
  0
ENDBLK
  5
15CAD
  8
0
  0
BLOCK
  8
0
  2
*U124
 70
     1
 10
0.0
 20
0.0
 30
0.0
  3
*U124
  1

  0
SOLID
  5
15CAF
  8
1DIM
 10
12.044443127533439
 20
38.649918419518762
 30
0.0
 11
13.168864624287609
 21
36.962675873603018
 31
0.0
 12
11.55800886922316
 22
38.194038877548998
 32
0.0
 13
11.55800886922316
 23
38.194038877548998
 33
0.0
  0
POLYLINE
  5
15CB0
  8
1DIM
 66
     1
 10
0.0
 20
0.0
 30
0.0
  0
VERTEX
  5
15CB1
  8
1DIM
 10
11.8012259983783
 20
38.42197864853388
 30
0.0
  0
VERTEX
  5
15CB2
  8
1DIM
 10
-2.0871988093631928
 20
53.241256546509689
 30
0.0
  0
VERTEX
  5
15CB3
  8
1DIM
 10
-33.987198809363193
 20
53.241256546509689
 30
0.0
  0
SEQEND
  5
15CB4
  8
1DIM
  0
ENDBLK
  5
15CB6
  8
0
  0
BLOCK
  8
0
  2
*U125
 70
     1
 10
0.0
 20
0.0
 30
0.0
  3
*U125
  1

  0
TEXT
  5
15CB8
  8
1DIM
 62
   201
 10
-31.153865476029861
 20
53.941256546509692
 30
0.0
 40
3.5
  1
裏板9mm以上
  0
ENDBLK
  5
15CBA
  8
0
  0
BLOCK
  8
0
  2
*U126
 70
     1
 10
0.0
 20
0.0
 30
0.0
  3
*U126
  1

  0
LINE
  5
15CBC
  8
0
 10
-29.999999999837598
 20
0.0000465358979227
 30
0.0
 11
-24.700003489975941
 21
-1.4999534641020771
 31
0.0
  0
LINE
  5
15CBD
  8
0
 10
-24.700003489975941
 20
-1.4999534641020771
 30
0.0
 11
-0.0000034900840618
 21
-1.499953464101849
 31
0.0
  0
LINE
  5
15CBE
  8
0
 10
-29.999999999837598
 20
0.0000465358979227
 30
0.0
 11
-24.6999965095923
 21
1.5000465358980359
 31
0.0
  0
LINE
  5
15CBF
  8
0
 10
-0.0000081437821464
 20
-3.4999999999998859
 30
0.0
 11
-0.0000034900840618
 21
-1.499953464101849
 31
0.0
  0
LINE
  5
15CC0
  8
0
 10
-24.6999965095923
 20
1.5000465358980359
 30
0.0
 11
0.0000034903006139
 21
1.500046535897922
 31
0.0
  0
LINE
  5
15CC1
  8
0
 10
-0.0000081437821464
 20
-3.4999999999998859
 30
0.0
 11
1.0999953464131731
 21
-3.5
 31
0.0
  0
LINE
  5
15CC2
  8
0
 10
0.0000034903006139
 20
1.500046535897922
 30
0.0
 11
0.0000081437821322
 21
3.5
 31
0.0
  0
ARC
  5
15CC3
  8
0
 10
1.0999953464131731
 20
-2.0
 30
0.0
 40
1.5
 50
270.0
 51
359.99986668447059
  0
LINE
  5
15CC4
  8
0
 10
0.0000081437821322
 20
3.5
 30
0.0
 11
1.100004653592769
 21
3.5
 31
0.0
  0
LINE
  5
15CC5
  8
0
 10
2.5999953464091159
 20
-2.0000034901923982
 30
0.0
 11
2.6000046535887051
 21
1.9999965098076009
 31
0.0
  0
ARC
  5
15CC6
  8
0
 10
1.100004653592769
 20
2.0
 30
0.0
 40
1.5
 50
359.99986668447059
 51
90.0
  0
ENDBLK
  5
15CC8
  8
0
  0
BLOCK
  8
0
  2
*U127
 70
     1
 10
0.0
 20
0.0
 30
0.0
  3
*U127
  1

  0
LINE
  5
15CCA
  8
0
 10
-9.6499999999999773
 20
2.0
 30
0.0
 11
-0.0000000000000284
 21
2.0
 31
0.0
  0
LINE
  5
15CCB
  8
0
 10
-9.6499999999999773
 20
2.0
 30
0.0
 11
-10.0
 21
1.649999999999977
 31
0.0
  0
LINE
  5
15CCC
  8
0
 10
0.0
 20
3.4999999999999432
 30
0.0
 11
-0.0000000000000284
 21
2.0
 31
0.0
  0
LINE
  5
15CCD
  8
0
 10
-10.0
 20
1.649999999999977
 30
0.0
 11
-10.0
 21
-1.6499999999998629
 31
0.0
  0
LINE
  5
15CCE
  8
0
 10
0.0
 20
3.4999999999999432
 30
0.0
 11
0.5999999999999375
 21
3.4999999999999432
 31
0.0
  0
LINE
  5
15CCF
  8
0
 10
-10.0
 20
-1.6499999999998629
 30
0.0
 11
-9.6499999999999773
 21
-2.0
 31
0.0
  0
ARC
  5
15CD0
  8
0
 10
0.5999999999999944
 20
1.4999999999999429
 30
0.0
 40
2.0
 50
0.0
 51
90.000000000001606
  0
LINE
  5
15CD1
  8
0
 10
-9.6499999999999773
 20
-2.0
 30
0.0
 11
0.0000000000000568
 21
-2.0
 31
0.0
  0
LINE
  5
15CD2
  8
0
 10
2.5999999999999939
 20
1.4999999999999429
 30
0.0
 11
2.5999999999999939
 21
-1.5
 31
0.0
  0
LINE
  5
15CD3
  8
0
 10
0.0000000000000568
 20
-2.0
 30
0.0
 11
0.0
 21
-3.5
 31
0.0
  0
ARC
  5
15CD4
  8
0
 10
0.5999999999999944
 20
-1.5
 30
0.0
 40
2.0
 50
270.0
 51
0.0
  0
LINE
  5
15CD5
  8
0
 10
0.0
 20
-3.5
 30
0.0
 11
0.5999999999999944
 21
-3.5
 31
0.0
  0
ENDBLK
  5
15CD7
  8
0
  0
BLOCK
  8
0
  2
*U128
 70
     1
 10
0.0
 20
0.0
 30
0.0
  3
*U128
  1

  0
LINE
  5
15CFD
  8
0
 10
-24.650013959859319
 20
-1.9997699899806769
 30
0.0
 11
-2.3000325751651469
 21
-1.999978593270384
 31
0.0
  0
LINE
  5
15CFE
  8
0
 10
-0.3000279215265778
 20
-3.9999972077595198
 30
0.0
 11
-2.3000325751651469
 21
-1.999978593270384
 31
0.0
  0
LINE
  5
15CFF
  8
0
 10
-25.000011516714508
 20
-1.649767320475461
 30
0.0
 11
-24.650013959859319
 21
-1.9997699899806769
 31
0.0
  0
LINE
  5
15D00
  8
0
 10
-0.3000279215265778
 20
-3.9999972077595198
 30
0.0
 11
-0.0000279215387877
 21
-3.9999999999133702
 31
0.0
  0
LINE
  5
15D01
  8
0
 10
-24.999988481445051
 20
1.650232679454916
 30
0.0
 11
-25.000011516714508
 21
-1.649767320475461
 31
0.0
  0
LINE
  5
15D02
  8
0
 10
0.0000279215387877
 20
3.9999999999134839
 30
0.0
 11
-0.0000279215387877
 21
-3.9999999999133702
 31
0.0
  0
LINE
  5
15D03
  8
0
 10
-24.999988481445051
 20
1.650232679454916
 30
0.0
 11
-24.649986038320591
 21
2.0002300099321242
 31
0.0
  0
LINE
  5
15D04
  8
0
 10
-0.299972078449116
 20
4.0000027920673338
 30
0.0
 11
0.0000279215387877
 21
3.9999999999134839
 31
0.0
  0
LINE
  5
15D05
  8
0
 10
-24.649986038320591
 20
2.0002300099321242
 30
0.0
 11
-2.299976732000899
 21
2.0000214063830981
 31
0.0
  0
LINE
  5
15D06
  8
0
 10
-0.299972078449116
 20
4.0000027920673338
 30
0.0
 11
-2.299976732000899
 21
2.0000214063830981
 31
0.0
  0
ENDBLK
  5
15D08
  8
0
  0
BLOCK
  8
0
  2
*X129
 70
     1
 10
0.0
 20
0.0
 30
0.0
  3
*X129
  1

  0
LINE
  5
15D0A
  8
0
 62
     0
 10
16.671990294007681
 20
-61.391691274362131
 30
0.0
 11
18.0
 21
-60.063681568369759
 31
0.0
  0
LINE
  5
15D0B
  8
0
 62
     0
 10
14.42692626374037
 20
-61.391691274362131
 30
0.0
 11
17.99999999999994
 21
-57.818617538102501
 31
0.0
  0
LINE
  5
15D0C
  8
0
 62
     0
 10
12.18186223347311
 20
-61.391691274362131
 30
0.0
 11
18.0
 21
-55.573553507835179
 31
0.0
  0
LINE
  5
15D0D
  8
0
 62
     0
 10
9.9367982032057398
 20
-61.391691274362181
 30
0.0
 11
18.0
 21
-53.328489477567928
 31
0.0
  0
LINE
  5
15D0E
  8
0
 62
     0
 10
9.0000000000001137
 20
-60.083425447300549
 30
0.0
 11
18.0
 21
-51.083425447300669
 31
0.0
  0
LINE
  5
15D0F
  8
0
 62
     0
 10
9.0000000000000568
 20
-57.83836141703329
 30
0.0
 11
17.99999999999994
 21
-48.838361417033411
 31
0.0
  0
LINE
  5
15D10
  8
0
 62
     0
 10
9.0000000000000568
 20
-55.593297386765919
 30
0.0
 11
17.99999999999994
 21
-46.593297386766032
 31
0.0
  0
LINE
  5
15D11
  8
0
 62
     0
 10
9.0000000000000568
 20
-53.348233356498667
 30
0.0
 11
17.99999999999994
 21
-44.348233356498781
 31
0.0
  0
LINE
  5
15D12
  8
0
 62
     0
 10
9.0000000000000568
 20
-51.103169326231409
 30
0.0
 11
18.00000000000006
 21
-42.103169326231459
 31
0.0
  0
LINE
  5
15D13
  8
0
 62
     0
 10
9.0000000000000568
 20
-48.858105295964087
 30
0.0
 11
18.0
 21
-39.858105295964208
 31
0.0
  0
LINE
  5
15D14
  8
0
 62
     0
 10
9.0000000000000568
 20
-46.613041265696722
 30
0.0
 11
18.0
 21
-37.613041265696843
 31
0.0
  0
LINE
  5
15D15
  8
0
 62
     0
 10
9.0000000000000568
 20
-44.367977235429457
 30
0.0
 11
18.0
 21
-35.367977235429578
 31
0.0
  0
LINE
  5
15D16
  8
0
 62
     0
 10
9.0000000000000568
 20
-42.122913205162213
 30
0.0
 11
18.0
 21
-33.12291320516232
 31
0.0
  0
LINE
  5
15D17
  8
0
 62
     0
 10
9.0
 20
-39.877849174894948
 30
0.0
 11
17.99999999999994
 21
-30.877849174895061
 31
0.0
  0
LINE
  5
15D18
  8
0
 62
     0
 10
9.0
 20
-37.63278514462769
 30
0.0
 11
18.0
 21
-28.63278514462769
 31
0.0
  0
LINE
  5
15D19
  8
0
 62
     0
 10
9.0
 20
-35.387721114360431
 30
0.0
 11
18.0
 21
-26.387721114360431
 31
0.0
  0
LINE
  5
15D1A
  8
0
 62
     0
 10
8.9999999999999432
 20
-33.14265708409318
 30
0.0
 11
17.99999999999994
 21
-24.14265708409317
 31
0.0
  0
LINE
  5
15D1B
  8
0
 62
     0
 10
8.9999999999999432
 20
-30.897593053825918
 30
0.0
 11
17.99999999999994
 21
-21.897593053825918
 31
0.0
  0
LINE
  5
15D1C
  8
0
 62
     0
 10
8.9999999999999432
 20
-28.65252902355866
 30
0.0
 11
17.99999999999994
 21
-19.65252902355866
 31
0.0
  0
LINE
  5
15D1D
  8
0
 62
     0
 10
8.9999999999999432
 20
-26.407464993291399
 30
0.0
 11
18.0
 21
-17.407464993291342
 31
0.0
  0
LINE
  5
15D1E
  8
0
 62
     0
 10
9.0
 20
-24.16240096302403
 30
0.0
 11
17.99999999999994
 21
-15.16240096302403
 31
0.0
  0
LINE
  5
15D1F
  8
0
 62
     0
 10
8.9999999999999432
 20
-21.917336932756712
 30
0.0
 11
17.99999999999994
 21
-12.91733693275671
 31
0.0
  0
LINE
  5
15D20
  8
0
 62
     0
 10
8.9999999999999432
 20
-19.67227290248945
 30
0.0
 11
17.99999999999994
 21
-10.67227290248945
 31
0.0
  0
LINE
  5
15D21
  8
0
 62
     0
 10
8.9999999999999432
 20
-17.427208872222192
 30
0.0
 11
15.821190608570189
 21
-10.606018263652
 31
0.0
  0
LINE
  5
15D22
  8
0
 62
     0
 10
16.78433035397688
 20
-7.3978144879779393
 30
0.0
 11
18.0
 21
-6.1821448419548801
 31
0.0
  0
LINE
  5
15D23
  8
0
 62
     0
 10
8.9999999999998863
 20
-15.182144841954941
 30
0.0
 11
13.682098306056441
 21
-10.500046535898431
 31
0.0
  0
LINE
  5
15D24
  8
0
 62
     0
 10
11.14073620626419
 20
-10.796344605423309
 30
0.0
 11
11.437034275789189
 21
-10.50004653589837
 31
0.0
  0
LINE
  5
15D25
  8
0
 62
     0
 10
14.437034275789189
 20
-7.5000465358983197
 30
0.0
 11
18.00000000000006
 21
-3.9370808116874509
 31
0.0
  0
LINE
  5
15D26
  8
0
 62
     0
 10
8.9999999999998863
 20
-12.93708081168762
 30
0.0
 11
11.072835431113271
 21
-10.86424538057423
 31
0.0
  0
LINE
  5
15D27
  8
0
 62
     0
 10
12.191970245521761
 20
-7.5000465358984911
 30
0.0
 11
18.00000000000006
 21
-1.692016781420193
 31
0.0
  0
LINE
  5
15D28
  8
0
 62
     0
 10
9.0
 20
-10.69201678142031
 30
0.0
 11
9.1919702455219294
 21
-10.50004653589837
 31
0.0
  0
LINE
  5
15D29
  8
0
 62
     0
 10
10.32448800965261
 20
-7.1224647415003801
 30
0.0
 11
18.00000000000006
 21
0.5530472488470651
 31
0.0
  0
LINE
  5
15D2A
  8
0
 62
     0
 10
9.9469062152545007
 20
-7.5000465358984911
 30
0.0
 11
10.26327872882478
 21
-7.1836740223282041
 31
0.0
  0
LINE
  5
15D2B
  8
0
 62
     0
 10
8.9999999999999432
 20
-6.2018887208857896
 30
0.0
 11
18.0
 21
2.7981112791143228
 31
0.0
  0
LINE
  5
15D2C
  8
0
 62
     0
 10
8.9999999999999432
 20
-3.956824690618475
 30
0.0
 11
18.00000000000006
 21
5.0431753093816951
 31
0.0
  0
LINE
  5
15D2D
  8
0
 62
     0
 10
8.9999999999999432
 20
-1.711760660351217
 30
0.0
 11
18.00000000000006
 21
7.2882393396489533
 31
0.0
  0
LINE
  5
15D2E
  8
0
 62
     0
 10
8.9999999999999432
 20
0.533303369916041
 30
0.0
 11
15.827771837741579
 21
7.3610752076577342
 31
0.0
  0
LINE
  5
15D2F
  8
0
 62
     0
 10
16.79123737884305
 20
10.56960477902652
 30
0.0
 11
18.0
 21
11.778367400183519
 31
0.0
  0
LINE
  5
15D30
  8
0
 62
     0
 10
8.9999999999999432
 20
2.7783674001834688
 30
0.0
 11
13.721586063918149
 21
7.4999534641016794
 31
0.0
  0
LINE
  5
15D31
  8
0
 62
     0
 10
11.13086412323616
 20
7.154295553686949
 30
0.0
 11
11.47652203365084
 21
7.4999534641015648
 31
0.0
  0
LINE
  5
15D32
  8
0
 62
     0
 10
14.47652203365084
 20
10.499953464101621
 30
0.0
 11
18.00000000000011
 21
14.02343143045084
 31
0.0
  0
LINE
  5
15D33
  8
0
 62
     0
 10
8.9999999999999432
 20
5.023431430450727
 30
0.0
 11
11.079416660284719
 21
7.102848090735506
 31
0.0
  0
LINE
  5
15D34
  8
0
 62
     0
 10
12.231458003383411
 20
10.49995346410145
 30
0.0
 11
18.00000000000006
 21
16.26849546071816
 31
0.0
  0
LINE
  5
15D35
  8
0
 62
     0
 10
8.9999999999999432
 20
7.2684954607179861
 30
0.0
 11
9.2314580033835796
 21
7.4999534641015648
 31
0.0
  0
LINE
  5
15D36
  8
0
 62
     0
 10
10.33106923882394
 20
10.844628729809241
 30
0.0
 11
18.00000000000006
 21
18.513559490985411
 31
0.0
  0
LINE
  5
15D37
  8
0
 62
     0
 10
9.9863939731161508
 20
10.49995346410145
 30
0.0
 11
10.25340664579676
 21
10.766966136782059
 31
0.0
  0
LINE
  5
15D38
  8
0
 62
     0
 10
9.0000000000000568
 20
11.75862352125273
 30
0.0
 11
18.0
 21
20.75862352125273
 31
0.0
  0
LINE
  5
15D39
  8
0
 62
     0
 10
9.0000000000001137
 20
14.00368755152004
 30
0.0
 11
18.0
 21
23.003687551519992
 31
0.0
  0
LINE
  5
15D3A
  8
0
 62
     0
 10
9.0000000000001137
 20
16.2487515817873
 30
0.0
 11
18.00000000000011
 21
25.24875158178725
 31
0.0
  0
LINE
  5
15D3B
  8
0
 62
     0
 10
9.0000000000000568
 20
18.493815612054561
 30
0.0
 11
18.00000000000006
 21
27.493815612054512
 31
0.0
  0
LINE
  5
15D3C
  8
0
 62
     0
 10
9.0000000000000568
 20
20.73887964232188
 30
0.0
 11
18.00000000000006
 21
29.73887964232182
 31
0.0
  0
LINE
  5
15D3D
  8
0
 62
     0
 10
9.0000000000000568
 20
22.983943672589131
 30
0.0
 11
18.00000000000006
 21
31.983943672589081
 31
0.0
  0
LINE
  5
15D3E
  8
0
 62
     0
 10
9.0000000000001705
 20
25.22900770285645
 30
0.0
 11
18.00000000000006
 21
34.229007702856343
 31
0.0
  0
LINE
  5
15D3F
  8
0
 62
     0
 10
9.0000000000001137
 20
27.474071733123711
 30
0.0
 11
18.00000000000011
 21
36.474071733123708
 31
0.0
  0
LINE
  5
15D40
  8
0
 62
     0
 10
9.0000000000001137
 20
29.71913576339103
 30
0.0
 11
18.00000000000011
 21
38.719135763391023
 31
0.0
  0
LINE
  5
15D41
  8
0
 62
     0
 10
9.0000000000001137
 20
31.964199793658281
 30
0.0
 11
18.00000000000011
 21
40.964199793658281
 31
0.0
  0
LINE
  5
15D42
  8
0
 62
     0
 10
9.0000000000001137
 20
34.209263823925539
 30
0.0
 11
18.00000000000011
 21
43.209263823925539
 31
0.0
  0
LINE
  5
15D43
  8
0
 62
     0
 10
9.0000000000000568
 20
36.454327854192968
 30
0.0
 11
17.245208523150438
 21
44.699536377343229
 31
0.0
  0
LINE
  5
15D44
  8
0
 62
     0
 10
9.0000000000000568
 20
38.699391884460113
 30
0.0
 11
15.00014449288318
 21
44.699536377343229
 31
0.0
  0
LINE
  5
15D45
  8
0
 62
     0
 10
9.0000000000000568
 20
40.944455914727477
 30
0.0
 11
12.75508046261592
 21
44.699536377343229
 31
0.0
  0
LINE
  5
15D46
  8
0
 62
     0
 10
9.0000000000001137
 20
43.189519944994743
 30
0.0
 11
10.510016432348721
 21
44.699536377343229
 31
0.0
  0
ENDBLK
  5
15D48
  8
0
  0
BLOCK
  8
0
  2
*X130
 70
     1
 10
0.0
 20
0.0
 30
0.0
  3
*X130
  1

  0
LINE
  5
15D4A
  8
0
 62
     0
 10
4.719668856187476
 20
-60.905108537765202
 30
0.0
 11
4.719668856187476
 21
-60.905108537765202
 31
0.0
  0
LINE
  5
15D4B
  8
0
 62
     0
 10
2.5099012223001722
 20
-58.880229567499541
 30
0.0
 11
2.5099012223001722
 21
-58.880229567499541
 31
0.0
  0
LINE
  5
15D4C
  8
0
 62
     0
 10
2.0417301134257442
 20
-58.4512297856636
 30
0.0
 11
2.0417301134257442
 21
-58.4512297856636
 31
0.0
  0
LINE
  5
15D4D
  8
0
 62
     0
 10
7.1491706502268144
 20
-53.905337731177347
 30
0.0
 11
7.1491706502268144
 21
-53.905337731177347
 31
0.0
  0
LINE
  5
15D4E
  8
0
 62
     0
 10
4.9394030163395106
 20
-51.880458760911701
 30
0.0
 11
4.9394030163395106
 21
-51.880458760911701
 31
0.0
  0
LINE
  5
15D4F
  8
0
 62
     0
 10
4.471231907465083
 20
-51.451458979075753
 30
0.0
 11
4.471231907465083
 21
-51.451458979075753
 31
0.0
  0
LINE
  5
15D50
  8
0
 62
     0
 10
1.943107919543168
 20
-49.134860157161647
 30
0.0
 11
1.943107919543168
 21
-49.134860157161647
 31
0.0
  0
LINE
  5
15D51
  8
0
 62
     0
 10
7.3689048103787469
 20
-44.880687954323847
 30
0.0
 11
7.3689048103787469
 21
-44.880687954323847
 31
0.0
  0
LINE
  5
15D52
  8
0
 62
     0
 10
6.9007337015043193
 20
-44.451688172487913
 30
0.0
 11
6.9007337015043193
 21
-44.451688172487913
 31
0.0
  0
LINE
  5
15D53
  8
0
 62
     0
 10
4.3726097135824036
 20
-42.135089350573821
 30
0.0
 11
4.3726097135824036
 21
-42.135089350573821
 31
0.0
  0
LINE
  5
15D54
  8
0
 62
     0
 10
2.1628420796950998
 20
-40.11021038030816
 30
0.0
 11
2.1628420796950998
 21
-40.11021038030816
 31
0.0
  0
LINE
  5
15D55
  8
0
 62
     0
 10
1.694670970820672
 20
-39.681210598472219
 30
0.0
 11
1.694670970820672
 21
-39.681210598472219
 31
0.0
  0
LINE
  5
15D56
  8
0
 62
     0
 10
6.8021115076217677
 20
-35.135318543985953
 30
0.0
 11
6.8021115076217677
 21
-35.135318543985953
 31
0.0
  0
LINE
  5
15D57
  8
0
 62
     0
 10
4.592343873734464
 20
-33.110439573720278
 30
0.0
 11
4.592343873734464
 21
-33.110439573720278
 31
0.0
  0
LINE
  5
15D58
  8
0
 62
     0
 10
4.1241727648600364
 20
-32.681439791884351
 30
0.0
 11
4.1241727648600364
 21
-32.681439791884351
 31
0.0
  0
LINE
  5
15D59
  8
0
 62
     0
 10
1.5960487769381211
 20
-30.364840969970238
 30
0.0
 11
1.5960487769381211
 21
-30.364840969970238
 31
0.0
  0
LINE
  5
15D5A
  8
0
 62
     0
 10
7.0218456677738237
 20
-26.110668767132399
 30
0.0
 11
7.0218456677738237
 21
-26.110668767132399
 31
0.0
  0
LINE
  5
15D5B
  8
0
 62
     0
 10
6.5536745588993961
 20
-25.681668985296461
 30
0.0
 11
6.5536745588993961
 21
-25.681668985296461
 31
0.0
  0
LINE
  5
15D5C
  8
0
 62
     0
 10
4.0255505709774813
 20
-23.365070163382359
 30
0.0
 11
4.0255505709774813
 21
-23.365070163382359
 31
0.0
  0
LINE
  5
15D5D
  8
0
 62
     0
 10
1.8157829370901779
 20
-21.340191193116699
 30
0.0
 11
1.8157829370901779
 21
-21.340191193116699
 31
0.0
  0
LINE
  5
15D5E
  8
0
 62
     0
 10
1.347611828215749
 20
-20.911191411280761
 30
0.0
 11
1.347611828215749
 21
-20.911191411280761
 31
0.0
  0
LINE
  5
15D5F
  8
0
 62
     0
 10
8.9831763529386919
 20
-18.681898178708529
 30
0.0
 11
8.9831763529386919
 21
-18.681898178708529
 31
0.0
  0
LINE
  5
15D60
  8
0
 62
     0
 10
6.4550523650167762
 20
-16.365299356794441
 30
0.0
 11
6.4550523650167762
 21
-16.365299356794441
 31
0.0
  0
LINE
  5
15D61
  8
0
 62
     0
 10
4.2452847311294732
 20
-14.34042038652878
 30
0.0
 11
4.2452847311294732
 21
-14.34042038652878
 31
0.0
  0
LINE
  5
15D62
  8
0
 62
     0
 10
3.7771136222550439
 20
-13.911420604692839
 30
0.0
 11
3.7771136222550439
 21
-13.911420604692839
 31
0.0
  0
LINE
  5
15D63
  8
0
 62
     0
 10
1.248989634333129
 20
-11.59482178277873
 30
0.0
 11
1.248989634333129
 21
-11.59482178277873
 31
0.0
  0
LINE
  5
15D64
  8
0
 62
     0
 10
6.6747865251688028
 20
-7.340649579940961
 30
0.0
 11
6.6747865251688028
 21
-7.340649579940961
 31
0.0
  0
LINE
  5
15D65
  8
0
 62
     0
 10
6.2066154162943752
 20
-6.9116497981050173
 30
0.0
 11
6.2066154162943752
 21
-6.9116497981050173
 31
0.0
  0
LINE
  5
15D66
  8
0
 62
     0
 10
3.6784914283724599
 20
-4.5950509761909171
 30
0.0
 11
3.6784914283724599
 21
-4.5950509761909171
 31
0.0
  0
LINE
  5
15D67
  8
0
 62
     0
 10
1.468723794485157
 20
-2.5701720059252589
 30
0.0
 11
1.468723794485157
 21
-2.5701720059252589
 31
0.0
  0
LINE
  5
15D68
  8
0
 62
     0
 10
1.0005526856107281
 20
-2.1411722240893152
 30
0.0
 11
1.0005526856107281
 21
-2.1411722240893152
 31
0.0
  0
LINE
  5
15D69
  8
0
 62
     0
 10
8.6361172103337154
 20
0.0881210084828284
 30
0.0
 11
8.6361172103337154
 21
0.0881210084828284
 31
0.0
  0
LINE
  5
15D6A
  8
0
 62
     0
 10
6.1079932224118014
 20
2.4047198303969282
 30
0.0
 11
6.1079932224118014
 21
2.4047198303969282
 31
0.0
  0
LINE
  5
15D6B
  8
0
 62
     0
 10
3.8982255885244972
 20
4.4295988006625846
 30
0.0
 11
3.8982255885244972
 21
4.4295988006625846
 31
0.0
  0
LINE
  5
15D6C
  8
0
 62
     0
 10
3.4300544796500692
 20
4.85859858249853
 30
0.0
 11
3.4300544796500692
 21
4.85859858249853
 31
0.0
  0
LINE
  5
15D6D
  8
0
 62
     0
 10
0.9019304917281541
 20
7.1751974044126294
 30
0.0
 11
0.9019304917281541
 21
7.1751974044126294
 31
0.0
  0
LINE
  5
15D6E
  8
0
 62
     0
 10
6.3277273825637756
 20
11.42936960725048
 30
0.0
 11
6.3277273825637756
 21
11.42936960725048
 31
0.0
  0
LINE
  5
15D6F
  8
0
 62
     0
 10
5.8595562736893481
 20
11.85836938908642
 30
0.0
 11
5.8595562736893481
 21
11.85836938908642
 31
0.0
  0
LINE
  5
15D70
  8
0
 62
     0
 10
3.3314322857674332
 20
14.17496821100052
 30
0.0
 11
3.3314322857674332
 21
14.17496821100052
 31
0.0
  0
LINE
  5
15D71
  8
0
 62
     0
 10
1.121664651880129
 20
16.199847181266179
 30
0.0
 11
1.121664651880129
 21
16.199847181266179
 31
0.0
  0
LINE
  5
15D72
  8
0
 62
     0
 10
0.6534935430057013
 20
16.628846963102131
 30
0.0
 11
0.6534935430057013
 21
16.628846963102131
 31
0.0
  0
LINE
  5
15D73
  8
0
 62
     0
 10
8.757229176603154
 20
18.429140413838351
 30
0.0
 11
8.757229176603154
 21
18.429140413838351
 31
0.0
  0
LINE
  5
15D74
  8
0
 62
     0
 10
8.2890580677287247
 20
18.858140195674299
 30
0.0
 11
8.2890580677287247
 21
18.858140195674299
 31
0.0
  0
LINE
  5
15D75
  8
0
 62
     0
 10
5.7609340798068081
 20
21.174739017588401
 30
0.0
 11
5.7609340798068081
 21
21.174739017588401
 31
0.0
  0
LINE
  5
15D76
  8
0
 62
     0
 10
3.5511664459195051
 20
23.199617987854051
 30
0.0
 11
3.5511664459195051
 21
23.199617987854051
 31
0.0
  0
LINE
  5
15D77
  8
0
 62
     0
 10
3.0829953370450758
 20
23.628617769689999
 30
0.0
 11
3.0829953370450758
 21
23.628617769689999
 31
0.0
  0
LINE
  5
15D78
  8
0
 62
     0
 10
0.5548713491231618
 20
25.945216591604101
 30
0.0
 11
0.5548713491231618
 21
25.945216591604101
 31
0.0
  0
LINE
  5
15D79
  8
0
 62
     0
 10
8.1904358738460896
 20
28.17450982417618
 30
0.0
 11
8.1904358738460896
 21
28.17450982417618
 31
0.0
  0
LINE
  5
15D7A
  8
0
 62
     0
 10
5.9806682399587858
 20
30.199388794441841
 30
0.0
 11
5.9806682399587858
 21
30.199388794441841
 31
0.0
  0
LINE
  5
15D7B
  8
0
 62
     0
 10
5.5124971310843582
 20
30.628388576277789
 30
0.0
 11
5.5124971310843582
 21
30.628388576277789
 31
0.0
  0
LINE
  5
15D7C
  8
0
 62
     0
 10
2.984373143162443
 20
32.944987398191877
 30
0.0
 11
2.984373143162443
 21
32.944987398191877
 31
0.0
  0
LINE
  5
15D7D
  8
0
 62
     0
 10
0.7746055092751402
 20
34.969866368457538
 30
0.0
 11
0.7746055092751402
 21
34.969866368457538
 31
0.0
  0
LINE
  5
15D7E
  8
0
 62
     0
 10
0.3064344004007115
 20
35.398866150293493
 30
0.0
 11
0.3064344004007115
 21
35.398866150293493
 31
0.0
  0
LINE
  5
15D7F
  8
0
 62
     0
 10
8.41017003399811
 20
37.199159601029763
 30
0.0
 11
8.41017003399811
 21
37.199159601029763
 31
0.0
  0
LINE
  5
15D80
  8
0
 62
     0
 10
7.9419989251236807
 20
37.628159382865697
 30
0.0
 11
7.9419989251236807
 21
37.628159382865697
 31
0.0
  0
LINE
  5
15D81
  8
0
 62
     0
 10
5.4138749372017658
 20
39.944758204779802
 30
0.0
 11
5.4138749372017658
 21
39.944758204779802
 31
0.0
  0
LINE
  5
15D82
  8
0
 62
     0
 10
3.204107303314462
 20
41.969637175045463
 30
0.0
 11
3.204107303314462
 21
41.969637175045463
 31
0.0
  0
LINE
  5
15D83
  8
0
 62
     0
 10
2.735936194440034
 20
42.398636956881397
 30
0.0
 11
2.735936194440034
 21
42.398636956881397
 31
0.0
  0
LINE
  5
15D84
  8
0
 62
     0
 10
3.8802392881250851
 20
-61.296643484138428
 30
0.0
 11
3.8802392881250851
 21
-61.296643484138428
 31
0.0
  0
LINE
  5
15D85
  8
0
 62
     0
 10
6.7559594504826217
 20
-58.075130275130718
 30
0.0
 11
6.7559594504826217
 21
-58.075130275130718
 31
0.0
  0
LINE
  5
15D86
  8
0
 62
     0
 10
2.8999737602261102
 20
-55.618596465769052
 30
0.0
 11
2.8999737602261102
 21
-55.618596465769052
 31
0.0
  0
LINE
  5
15D87
  8
0
 62
     0
 10
1.8288666240437459
 20
-54.936225963168582
 30
0.0
 11
1.8288666240437459
 21
-54.936225963168582
 31
0.0
  0
LINE
  5
15D88
  8
0
 62
     0
 10
4.7045867864011877
 20
-51.714712754160921
 30
0.0
 11
4.7045867864011877
 21
-51.714712754160921
 31
0.0
  0
LINE
  5
15D89
  8
0
 62
     0
 10
0.8486010961446758
 20
-49.258178944799241
 30
0.0
 11
0.8486010961446758
 21
-49.258178944799241
 31
0.0
  0
LINE
  5
15D8A
  8
0
 62
     0
 10
8.7585247985592201
 20
-49.243807098013797
 30
0.0
 11
8.7585247985592201
 21
-49.243807098013797
 31
0.0
  0
LINE
  5
15D8B
  8
0
 62
     0
 10
7.6874176623768546
 20
-48.561436595413333
 30
0.0
 11
7.6874176623768546
 21
-48.561436595413333
 31
0.0
  0
LINE
  5
15D8C
  8
0
 62
     0
 10
2.6532141223197412
 20
-45.354295233191131
 30
0.0
 11
2.6532141223197412
 21
-45.354295233191131
 31
0.0
  0
LINE
  5
15D8D
  8
0
 62
     0
 10
6.7071521344778677
 20
-42.883389577044078
 30
0.0
 11
6.7071521344778677
 21
-42.883389577044078
 31
0.0
  0
LINE
  5
15D8E
  8
0
 62
     0
 10
5.6360449982955041
 20
-42.201019074443607
 30
0.0
 11
5.6360449982955041
 21
-42.201019074443607
 31
0.0
  0
LINE
  5
15D8F
  8
0
 62
     0
 10
0.6018414582383905
 20
-38.993877712221433
 30
0.0
 11
0.6018414582383905
 21
-38.993877712221433
 31
0.0
  0
LINE
  5
15D90
  8
0
 62
     0
 10
8.5117651606529581
 20
-38.97950586543589
 30
0.0
 11
8.5117651606529581
 21
-38.97950586543589
 31
0.0
  0
LINE
  5
15D91
  8
0
 62
     0
 10
4.6557794703964452
 20
-36.522972056074209
 30
0.0
 11
4.6557794703964452
 21
-36.522972056074209
 31
0.0
  0
LINE
  5
15D92
  8
0
 62
     0
 10
3.5846723342140798
 20
-35.840601553473739
 30
0.0
 11
3.5846723342140798
 21
-35.840601553473739
 31
0.0
  0
LINE
  5
15D93
  8
0
 62
     0
 10
6.4603924965714628
 20
-32.619088344466078
 30
0.0
 11
6.4603924965714628
 21
-32.619088344466078
 31
0.0
  0
LINE
  5
15D94
  8
0
 62
     0
 10
2.6044068063149499
 20
-30.162554535104402
 30
0.0
 11
2.6044068063149499
 21
-30.162554535104402
 31
0.0
  0
LINE
  5
15D95
  8
0
 62
     0
 10
1.5332996701325861
 20
-29.480184032503931
 30
0.0
 11
1.5332996701325861
 21
-29.480184032503931
 31
0.0
  0
LINE
  5
15D96
  8
0
 62
     0
 10
4.4090198324901886
 20
-26.258670823496349
 30
0.0
 11
4.4090198324901886
 21
-26.258670823496349
 31
0.0
  0
LINE
  5
15D97
  8
0
 62
     0
 10
0.5530341422336775
 20
-23.802137014134669
 30
0.0
 11
0.5530341422336775
 21
-23.802137014134669
 31
0.0
  0
LINE
  5
15D98
  8
0
 62
     0
 10
8.4629578446482672
 20
-23.78776516734921
 30
0.0
 11
8.4629578446482672
 21
-23.78776516734921
 31
0.0
  0
LINE
  5
15D99
  8
0
 62
     0
 10
7.3918507084659044
 20
-23.105394664748751
 30
0.0
 11
7.3918507084659044
 21
-23.105394664748751
 31
0.0
  0
LINE
  5
15D9A
  8
0
 62
     0
 10
2.3576471684087901
 20
-19.898253302526548
 30
0.0
 11
2.3576471684087901
 21
-19.898253302526548
 31
0.0
  0
LINE
  5
15D9B
  8
0
 62
     0
 10
6.4115851805667248
 20
-17.427347646379371
 30
0.0
 11
6.4115851805667248
 21
-17.427347646379371
 31
0.0
  0
LINE
  5
15D9C
  8
0
 62
     0
 10
5.3404780443843611
 20
-16.7449771437789
 30
0.0
 11
5.3404780443843611
 21
-16.7449771437789
 31
0.0
  0
LINE
  5
15D9D
  8
0
 62
     0
 10
0.3062745043272478
 20
-13.53783578155671
 30
0.0
 11
0.3062745043272478
 21
-13.53783578155671
 31
0.0
  0
LINE
  5
15D9E
  8
0
 62
     0
 10
8.2161982067418311
 20
-13.52346393477128
 30
0.0
 11
8.2161982067418311
 21
-13.52346393477128
 31
0.0
  0
LINE
  5
15D9F
  8
0
 62
     0
 10
4.3602125164853183
 20
-11.0669301254096
 30
0.0
 11
4.3602125164853183
 21
-11.0669301254096
 31
0.0
  0
LINE
  5
15DA0
  8
0
 62
     0
 10
6.1648255426604877
 20
-7.1630464138015846
 30
0.0
 11
6.1648255426604877
 21
-7.1630464138015846
 31
0.0
  0
LINE
  5
15DA1
  8
0
 62
     0
 10
2.3088398524039762
 20
-4.7065126044399053
 30
0.0
 11
2.3088398524039762
 21
-4.7065126044399053
 31
0.0
  0
LINE
  5
15DA2
  8
0
 62
     0
 10
1.237732716221611
 20
-4.0241421018394377
 30
0.0
 11
1.237732716221611
 21
-4.0241421018394377
 31
0.0
  0
LINE
  5
15DA3
  8
0
 62
     0
 10
4.1134528785791007
 20
-0.802628892831747
 30
0.0
 11
4.1134528785791007
 21
-0.802628892831747
 31
0.0
  0
LINE
  5
15DA4
  8
0
 62
     0
 10
0.2574671883225893
 20
1.6539049165299331
 30
0.0
 11
0.2574671883225893
 21
1.6539049165299331
 31
0.0
  0
LINE
  5
15DA5
  8
0
 62
     0
 10
8.1673908907370851
 20
1.6682767633154569
 30
0.0
 11
8.1673908907370851
 21
1.6682767633154569
 31
0.0
  0
LINE
  5
15DA6
  8
0
 62
     0
 10
7.0962837545547197
 20
2.350647265915923
 30
0.0
 11
7.0962837545547197
 21
2.350647265915923
 31
0.0
  0
LINE
  5
15DA7
  8
0
 62
     0
 10
2.0620802144976071
 20
5.557788628138117
 30
0.0
 11
2.0620802144976071
 21
5.557788628138117
 31
0.0
  0
LINE
  5
15DA8
  8
0
 62
     0
 10
0.0107075504163213
 20
11.91820614910781
 30
0.0
 11
0.0107075504163213
 21
11.91820614910781
 31
0.0
  0
LINE
  5
15DA9
  8
0
 62
     0
 10
7.9206312528308631
 20
11.932577995893361
 30
0.0
 11
7.9206312528308631
 21
11.932577995893361
 31
0.0
  0
LINE
  5
15DAA
  8
0
 62
     0
 10
4.0646455625743521
 20
14.389111805255039
 30
0.0
 11
4.0646455625743521
 21
14.389111805255039
 31
0.0
  0
LINE
  5
15DAB
  8
0
 62
     0
 10
2.9935384263919871
 20
15.07148230785551
 30
0.0
 11
2.9935384263919871
 21
15.07148230785551
 31
0.0
  0
LINE
  5
15DAC
  8
0
 62
     0
 10
5.8692585887494468
 20
18.292995516863161
 30
0.0
 11
5.8692585887494468
 21
18.292995516863161
 31
0.0
  0
LINE
  5
15DAD
  8
0
 62
     0
 10
2.0132728984929349
 20
20.749529326224842
 30
0.0
 11
2.0132728984929349
 21
20.749529326224842
 31
0.0
  0
LINE
  5
15DAE
  8
0
 62
     0
 10
0.9421657623105714
 20
21.431899828825308
 30
0.0
 11
0.9421657623105714
 21
21.431899828825308
 31
0.0
  0
LINE
  5
15DAF
  8
0
 62
     0
 10
8.8520894647250579
 20
21.44627167561082
 30
0.0
 11
8.8520894647250579
 21
21.44627167561082
 31
0.0
  0
LINE
  5
15DB0
  8
0
 62
     0
 10
3.817885924667944
 20
24.653413037833008
 30
0.0
 11
3.817885924667944
 21
24.653413037833008
 31
0.0
  0
LINE
  5
15DB1
  8
0
 62
     0
 10
7.8718239368261278
 20
27.124318693980069
 30
0.0
 11
7.8718239368261278
 21
27.124318693980069
 31
0.0
  0
LINE
  5
15DB2
  8
0
 62
     0
 10
6.8007168006437642
 20
27.806689196580539
 30
0.0
 11
6.8007168006437642
 21
27.806689196580539
 31
0.0
  0
LINE
  5
15DB3
  8
0
 62
     0
 10
1.76651326058665
 20
31.013830558802731
 30
0.0
 11
1.76651326058665
 21
31.013830558802731
 31
0.0
  0
LINE
  5
15DB4
  8
0
 62
     0
 10
5.8204512727446627
 20
33.484736214949912
 30
0.0
 11
5.8204512727446627
 21
33.484736214949912
 31
0.0
  0
LINE
  5
15DB5
  8
0
 62
     0
 10
4.749344136562299
 20
34.167106717550368
 30
0.0
 11
4.749344136562299
 21
34.167106717550368
 31
0.0
  0
LINE
  5
15DB6
  8
0
 62
     0
 10
7.6250642989196979
 20
37.388619926558029
 30
0.0
 11
7.6250642989196979
 21
37.388619926558029
 31
0.0
  0
LINE
  5
15DB7
  8
0
 62
     0
 10
3.769078608663186
 20
39.845153735919709
 30
0.0
 11
3.769078608663186
 21
39.845153735919709
 31
0.0
  0
LINE
  5
15DB8
  8
0
 62
     0
 10
2.697971472480821
 20
40.527524238520179
 30
0.0
 11
2.697971472480821
 21
40.527524238520179
 31
0.0
  0
LINE
  5
15DB9
  8
0
 62
     0
 10
5.5736916348382826
 20
43.749037447527833
 30
0.0
 11
5.5736916348382826
 21
43.749037447527833
 31
0.0
  0
LINE
  5
15DBA
  8
0
 62
     0
 10
8.5586983347236547
 20
-60.733363906378372
 30
0.0
 11
8.5586983347236547
 21
-60.733363906378372
 31
0.0
  0
LINE
  5
15DBB
  8
0
 62
     0
 10
6.493716977454282
 20
-61.00522385953429
 30
0.0
 11
6.493716977454282
 21
-61.00522385953429
 31
0.0
  0
LINE
  5
15DBC
  8
0
 62
     0
 10
5.1716252548123061
 20
-61.179280536859729
 30
0.0
 11
5.1716252548123061
 21
-61.179280536859729
 31
0.0
  0
LINE
  5
15DBD
  8
0
 62
     0
 10
6.2168282575837468
 20
-54.465234574863508
 30
0.0
 11
6.2168282575837468
 21
-54.465234574863508
 31
0.0
  0
LINE
  5
15DBE
  8
0
 62
     0
 10
4.151846900314375
 20
-54.737094528019441
 30
0.0
 11
4.151846900314375
 21
-54.737094528019441
 31
0.0
  0
LINE
  5
15DBF
  8
0
 62
     0
 10
2.829755177672399
 20
-54.911151205344872
 30
0.0
 11
2.829755177672399
 21
-54.911151205344872
 31
0.0
  0
LINE
  5
15DC0
  8
0
 62
     0
 10
8.6470797316944097
 20
-47.568843522335911
 30
0.0
 11
8.6470797316944097
 21
-47.568843522335911
 31
0.0
  0
LINE
  5
15DC1
  8
0
 62
     0
 10
7.324988009052432
 20
-47.742900199661349
 30
0.0
 11
7.324988009052432
 21
-47.742900199661349
 31
0.0
  0
LINE
  5
15DC2
  8
0
 62
     0
 10
3.8749581804438469
 20
-48.197105243348688
 30
0.0
 11
3.8749581804438469
 21
-48.197105243348688
 31
0.0
  0
LINE
  5
15DC3
  8
0
 62
     0
 10
1.8099768231744751
 20
-48.468965196504612
 30
0.0
 11
1.8099768231744751
 21
-48.468965196504612
 31
0.0
  0
LINE
  5
15DC4
  8
0
 62
     0
 10
0.4878851005324989
 20
-48.643021873830051
 30
0.0
 11
0.4878851005324989
 21
-48.643021873830051
 31
0.0
  0
LINE
  5
15DC5
  8
0
 62
     0
 10
8.3701910118238132
 20
-41.028854237665151
 30
0.0
 11
8.3701910118238132
 21
-41.028854237665151
 31
0.0
  0
LINE
  5
15DC6
  8
0
 62
     0
 10
6.3052096545544423
 20
-41.300714190821083
 30
0.0
 11
6.3052096545544423
 21
-41.300714190821083
 31
0.0
  0
LINE
  5
15DC7
  8
0
 62
     0
 10
4.9831179319124663
 20
-41.474770868146521
 30
0.0
 11
4.9831179319124663
 21
-41.474770868146521
 31
0.0
  0
LINE
  5
15DC8
  8
0
 62
     0
 10
1.5330881033038799
 20
-41.928975911833859
 30
0.0
 11
1.5330881033038799
 21
-41.928975911833859
 31
0.0
  0
LINE
  5
15DC9
  8
0
 62
     0
 10
6.0283209346837987
 20
-34.76072490615033
 30
0.0
 11
6.0283209346837987
 21
-34.76072490615033
 31
0.0
  0
LINE
  5
15DCA
  8
0
 62
     0
 10
3.9633395774144269
 20
-35.032584859306262
 30
0.0
 11
3.9633395774144269
 21
-35.032584859306262
 31
0.0
  0
LINE
  5
15DCB
  8
0
 62
     0
 10
2.6412478547724509
 20
-35.206641536631693
 30
0.0
 11
2.6412478547724509
 21
-35.206641536631693
 31
0.0
  0
LINE
  5
15DCC
  8
0
 62
     0
 10
8.4585724087945735
 20
-27.8643338536227
 30
0.0
 11
8.4585724087945735
 21
-27.8643338536227
 31
0.0
  0
LINE
  5
15DCD
  8
0
 62
     0
 10
7.1364806861525958
 20
-28.038390530948138
 30
0.0
 11
7.1364806861525958
 21
-28.038390530948138
 31
0.0
  0
LINE
  5
15DCE
  8
0
 62
     0
 10
3.6864508575440111
 20
-28.49259557463547
 30
0.0
 11
3.6864508575440111
 21
-28.49259557463547
 31
0.0
  0
LINE
  5
15DCF
  8
0
 62
     0
 10
1.621469500274638
 20
-28.764455527791402
 30
0.0
 11
1.621469500274638
 21
-28.764455527791402
 31
0.0
  0
LINE
  5
15DD0
  8
0
 62
     0
 10
0.2993777776326627
 20
-28.93851220511683
 30
0.0
 11
0.2993777776326627
 21
-28.93851220511683
 31
0.0
  0
LINE
  5
15DD1
  8
0
 62
     0
 10
8.1816836889240907
 20
-21.324344568951911
 30
0.0
 11
8.1816836889240907
 21
-21.324344568951911
 31
0.0
  0
LINE
  5
15DD2
  8
0
 62
     0
 10
6.116702331654718
 20
-21.596204522107829
 30
0.0
 11
6.116702331654718
 21
-21.596204522107829
 31
0.0
  0
LINE
  5
15DD3
  8
0
 62
     0
 10
4.7946106090127421
 20
-21.770261199433271
 30
0.0
 11
4.7946106090127421
 21
-21.770261199433271
 31
0.0
  0
LINE
  5
15DD4
  8
0
 62
     0
 10
1.3445807804041561
 20
-22.224466243120609
 30
0.0
 11
1.3445807804041561
 21
-22.224466243120609
 31
0.0
  0
LINE
  5
15DD5
  8
0
 62
     0
 10
5.8398136117840771
 20
-15.05621523743708
 30
0.0
 11
5.8398136117840771
 21
-15.05621523743708
 31
0.0
  0
LINE
  5
15DD6
  8
0
 62
     0
 10
3.7748322545147039
 20
-15.328075190592999
 30
0.0
 11
3.7748322545147039
 21
-15.328075190592999
 31
0.0
  0
LINE
  5
15DD7
  8
0
 62
     0
 10
2.452740531872728
 20
-15.50213186791844
 30
0.0
 11
2.452740531872728
 21
-15.50213186791844
 31
0.0
  0
LINE
  5
15DD8
  8
0
 62
     0
 10
7.9931763660241417
 20
-1.61983490023871
 30
0.0
 11
7.9931763660241417
 21
-1.61983490023871
 31
0.0
  0
LINE
  5
15DD9
  8
0
 62
     0
 10
5.9281950087547699
 20
-1.8916948533946341
 30
0.0
 11
5.9281950087547699
 21
-1.8916948533946341
 31
0.0
  0
LINE
  5
15DDA
  8
0
 62
     0
 10
4.606103286112794
 20
-2.065751530720072
 30
0.0
 11
4.606103286112794
 21
-2.065751530720072
 31
0.0
  0
LINE
  5
15DDB
  8
0
 62
     0
 10
1.1560734575042091
 20
-2.5199565744074079
 30
0.0
 11
1.1560734575042091
 21
-2.5199565744074079
 31
0.0
  0
LINE
  5
15DDC
  8
0
 62
     0
 10
5.6513062888843519
 20
4.648294431276164
 30
0.0
 11
5.6513062888843519
 21
4.648294431276164
 31
0.0
  0
LINE
  5
15DDD
  8
0
 62
     0
 10
3.586324931614981
 20
4.3764344781202409
 30
0.0
 11
3.586324931614981
 21
4.3764344781202409
 31
0.0
  0
LINE
  5
15DDE
  8
0
 62
     0
 10
2.2642332089730042
 20
4.2023778007948032
 30
0.0
 11
2.2642332089730042
 21
4.2023778007948032
 31
0.0
  0
LINE
  5
15DDF
  8
0
 62
     0
 10
3.3094362117444769
 20
10.916423762791
 30
0.0
 11
3.3094362117444769
 21
10.916423762791
 31
0.0
  0
LINE
  5
15DE0
  8
0
 62
     0
 10
1.2444548544750369
 20
10.644563809635081
 30
0.0
 11
1.2444548544750369
 21
10.644563809635081
 31
0.0
  0
LINE
  5
15DE1
  8
0
 62
     0
 10
8.081557762995029
 20
11.54468548380378
 30
0.0
 11
8.081557762995029
 21
11.54468548380378
 31
0.0
  0
LINE
  5
15DE2
  8
0
 62
     0
 10
6.7594660403530522
 20
11.37062880647834
 30
0.0
 11
6.7594660403530522
 21
11.37062880647834
 31
0.0
  0
LINE
  5
15DE3
  8
0
 62
     0
 10
7.8046690431244183
 20
18.084674768474539
 30
0.0
 11
7.8046690431244183
 21
18.084674768474539
 31
0.0
  0
LINE
  5
15DE4
  8
0
 62
     0
 10
5.7396876858550456
 20
17.812814815318621
 30
0.0
 11
5.7396876858550456
 21
17.812814815318621
 31
0.0
  0
LINE
  5
15DE5
  8
0
 62
     0
 10
4.4175959632130697
 20
17.638758137993179
 30
0.0
 11
4.4175959632130697
 21
17.638758137993179
 31
0.0
  0
LINE
  5
15DE6
  8
0
 62
     0
 10
0.9675661346044847
 20
17.184553094305841
 30
0.0
 11
0.9675661346044847
 21
17.184553094305841
 31
0.0
  0
LINE
  5
15DE7
  8
0
 62
     0
 10
8.9128287945932172
 20
24.807009143676751
 30
0.0
 11
8.9128287945932172
 21
24.807009143676751
 31
0.0
  0
LINE
  5
15DE8
  8
0
 62
     0
 10
5.4627989659846303
 20
24.35280409998941
 30
0.0
 11
5.4627989659846303
 21
24.35280409998941
 31
0.0
  0
LINE
  5
15DE9
  8
0
 62
     0
 10
3.3978176087152572
 20
24.080944146833492
 30
0.0
 11
3.3978176087152572
 21
24.080944146833492
 31
0.0
  0
LINE
  5
15DEA
  8
0
 62
     0
 10
2.0757258860732808
 20
23.90688746950805
 30
0.0
 11
2.0757258860732808
 21
23.90688746950805
 31
0.0
  0
LINE
  5
15DEB
  8
0
 62
     0
 10
7.8930504400952897
 20
31.249195152517011
 30
0.0
 11
7.8930504400952897
 21
31.249195152517011
 31
0.0
  0
LINE
  5
15DEC
  8
0
 62
     0
 10
6.5709587174533137
 20
31.075138475191579
 30
0.0
 11
6.5709587174533137
 21
31.075138475191579
 31
0.0
  0
LINE
  5
15DED
  8
0
 62
     0
 10
3.1209288888447282
 20
30.620933431504241
 30
0.0
 11
3.1209288888447282
 21
30.620933431504241
 31
0.0
  0
LINE
  5
15DEE
  8
0
 62
     0
 10
1.0559475315753559
 20
30.34907347834832
 30
0.0
 11
1.0559475315753559
 21
30.34907347834832
 31
0.0
  0
LINE
  5
15DEF
  8
0
 62
     0
 10
7.6161617202245822
 20
37.789184437187778
 30
0.0
 11
7.6161617202245822
 21
37.789184437187778
 31
0.0
  0
LINE
  5
15DF0
  8
0
 62
     0
 10
5.5511803629552086
 20
37.517324484031853
 30
0.0
 11
5.5511803629552086
 21
37.517324484031853
 31
0.0
  0
LINE
  5
15DF1
  8
0
 62
     0
 10
4.2290886403132326
 20
37.343267806706422
 30
0.0
 11
4.2290886403132326
 21
37.343267806706422
 31
0.0
  0
LINE
  5
15DF2
  8
0
 62
     0
 10
0.7790588117046476
 20
36.889062763019083
 30
0.0
 11
0.7790588117046476
 21
36.889062763019083
 31
0.0
  0
LINE
  5
15DF3
  8
0
 62
     0
 10
8.7243214716932656
 20
44.511518812389951
 30
0.0
 11
8.7243214716932656
 21
44.511518812389951
 31
0.0
  0
LINE
  5
15DF4
  8
0
 62
     0
 10
5.2742916430846796
 20
44.05731376870262
 30
0.0
 11
5.2742916430846796
 21
44.05731376870262
 31
0.0
  0
LINE
  5
15DF5
  8
0
 62
     0
 10
3.2093102858153082
 20
43.785453815546688
 30
0.0
 11
3.2093102858153082
 21
43.785453815546688
 31
0.0
  0
LINE
  5
15DF6
  8
0
 62
     0
 10
1.887218563173332
 20
43.61139713822125
 30
0.0
 11
1.887218563173332
 21
43.61139713822125
 31
0.0
  0
LINE
  5
15DF7
  8
0
 62
     0
 10
8.2992554627512423
 20
-60.099467008910388
 30
0.0
 11
8.2992554627512423
 21
-60.099467008910388
 31
0.0
  0
LINE
  5
15DF8
  8
0
 62
     0
 10
8.1392523331528608
 20
-55.205334635616929
 30
0.0
 11
8.1392523331528608
 21
-55.205334635616929
 31
0.0
  0
LINE
  5
15DF9
  8
0
 62
     0
 10
5.076273756956458
 20
-57.555640760733802
 30
0.0
 11
5.076273756956458
 21
-57.555640760733802
 31
0.0
  0
LINE
  5
15DFA
  8
0
 62
     0
 10
1.8017078449043851
 20
-60.06830355896728
 30
0.0
 11
1.8017078449043851
 21
-60.06830355896728
 31
0.0
  0
LINE
  5
15DFB
  8
0
 62
     0
 10
7.9792492035542066
 20
-50.311202262323569
 30
0.0
 11
7.9792492035542066
 21
-50.311202262323569
 31
0.0
  0
LINE
  5
15DFC
  8
0
 62
     0
 10
4.9162706273578047
 20
-52.661508387440442
 30
0.0
 11
4.9162706273578047
 21
-52.661508387440442
 31
0.0
  0
LINE
  5
15DFD
  8
0
 62
     0
 10
1.6417047153057309
 20
-55.174171185673941
 30
0.0
 11
1.6417047153057309
 21
-55.174171185673941
 31
0.0
  0
LINE
  5
15DFE
  8
0
 62
     0
 10
7.8192460739558518
 20
-45.41706988903023
 30
0.0
 11
7.8192460739558518
 21
-45.41706988903023
 31
0.0
  0
LINE
  5
15DFF
  8
0
 62
     0
 10
4.7562674977594499
 20
-47.767376014147089
 30
0.0
 11
4.7562674977594499
 21
-47.767376014147089
 31
0.0
  0
LINE
  5
15E00
  8
0
 62
     0
 10
1.4817015857073761
 20
-50.280038812380589
 30
0.0
 11
1.4817015857073761
 21
-50.280038812380589
 31
0.0
  0
LINE
  5
15E01
  8
0
 62
     0
 10
7.6592429443577439
 20
-40.522937515736587
 30
0.0
 11
7.6592429443577439
 21
-40.522937515736587
 31
0.0
  0
LINE
  5
15E02
  8
0
 62
     0
 10
4.596264368161342
 20
-42.87324364085346
 30
0.0
 11
4.596264368161342
 21
-42.87324364085346
 31
0.0
  0
LINE
  5
15E03
  8
0
 62
     0
 10
1.3216984561092691
 20
-45.385906439086959
 30
0.0
 11
1.3216984561092691
 21
-45.385906439086959
 31
0.0
  0
LINE
  5
15E04
  8
0
 62
     0
 10
7.4992398147591617
 20
-35.628805142443262
 30
0.0
 11
7.4992398147591617
 21
-35.628805142443262
 31
0.0
  0
LINE
  5
15E05
  8
0
 62
     0
 10
4.4362612385627598
 20
-37.979111267560121
 30
0.0
 11
4.4362612385627598
 21
-37.979111267560121
 31
0.0
  0
LINE
  5
15E06
  8
0
 62
     0
 10
1.1616953265106871
 20
-40.491774065793606
 30
0.0
 11
1.1616953265106871
 21
-40.491774065793606
 31
0.0
  0
LINE
  5
15E07
  8
0
 62
     0
 10
7.3392366851608069
 20
-30.734672769149899
 30
0.0
 11
7.3392366851608069
 21
-30.734672769149899
 31
0.0
  0
LINE
  5
15E08
  8
0
 62
     0
 10
4.2762581089644049
 20
-33.084978894266769
 30
0.0
 11
4.2762581089644049
 21
-33.084978894266769
 31
0.0
  0
LINE
  5
15E09
  8
0
 62
     0
 10
1.001692196912332
 20
-35.597641692500261
 30
0.0
 11
1.001692196912332
 21
-35.597641692500261
 31
0.0
  0
LINE
  5
15E0A
  8
0
 62
     0
 10
7.1792335555623392
 20
-25.84054039585649
 30
0.0
 11
7.1792335555623392
 21
-25.84054039585649
 31
0.0
  0
LINE
  5
15E0B
  8
0
 62
     0
 10
4.1162549793659373
 20
-28.190846520973359
 30
0.0
 11
4.1162549793659373
 21
-28.190846520973359
 31
0.0
  0
LINE
  5
15E0C
  8
0
 62
     0
 10
0.8416890673138636
 20
-30.703509319206859
 30
0.0
 11
0.8416890673138636
 21
-30.703509319206859
 31
0.0
  0
LINE
  5
15E0D
  8
0
 62
     0
 10
7.0192304259640501
 20
-20.946408022562949
 30
0.0
 11
7.0192304259640501
 21
-20.946408022562949
 31
0.0
  0
LINE
  5
15E0E
  8
0
 62
     0
 10
3.9562518497676491
 20
-23.296714147679818
 30
0.0
 11
3.9562518497676491
 21
-23.296714147679818
 31
0.0
  0
LINE
  5
15E0F
  8
0
 62
     0
 10
0.6816859377155757
 20
-25.809376945913311
 30
0.0
 11
0.6816859377155757
 21
-25.809376945913311
 31
0.0
  0
LINE
  5
15E10
  8
0
 62
     0
 10
6.8592272963655807
 20
-16.052275649269589
 30
0.0
 11
6.8592272963655807
 21
-16.052275649269589
 31
0.0
  0
LINE
  5
15E11
  8
0
 62
     0
 10
3.7962487201691801
 20
-18.402581774386459
 30
0.0
 11
3.7962487201691801
 21
-18.402581774386459
 31
0.0
  0
LINE
  5
15E12
  8
0
 62
     0
 10
0.5216828081171072
 20
-20.915244572619962
 30
0.0
 11
0.5216828081171072
 21
-20.915244572619962
 31
0.0
  0
LINE
  5
15E13
  8
0
 62
     0
 10
6.6992241667671131
 20
-11.15814327597619
 30
0.0
 11
6.6992241667671131
 21
-11.15814327597619
 31
0.0
  0
LINE
  5
15E14
  8
0
 62
     0
 10
3.6362455905707121
 20
-13.50844940109306
 30
0.0
 11
3.6362455905707121
 21
-13.50844940109306
 31
0.0
  0
LINE
  5
15E15
  8
0
 62
     0
 10
0.3616796785186386
 20
-16.021112199326549
 30
0.0
 11
0.3616796785186386
 21
-16.021112199326549
 31
0.0
  0
LINE
  5
15E16
  8
0
 62
     0
 10
6.5392210371686241
 20
-6.2640109026828332
 30
0.0
 11
6.5392210371686241
 21
-6.2640109026828332
 31
0.0
  0
LINE
  5
15E17
  8
0
 62
     0
 10
0.2016765489201704
 20
-11.126979826033139
 30
0.0
 11
0.2016765489201704
 21
-11.126979826033139
 31
0.0
  0
LINE
  5
15E18
  8
0
 62
     0
 10
6.37921790757047
 20
-1.3698785293892941
 30
0.0
 11
6.37921790757047
 21
-1.3698785293892941
 31
0.0
  0
LINE
  5
15E19
  8
0
 62
     0
 10
3.316239331374069
 20
-3.7201846545061632
 30
0.0
 11
3.316239331374069
 21
-3.7201846545061632
 31
0.0
  0
LINE
  5
15E1A
  8
0
 62
     0
 10
0.041673419321996
 20
-6.2328474527396569
 30
0.0
 11
0.041673419321996
 21
-6.2328474527396569
 31
0.0
  0
LINE
  5
15E1B
  8
0
 62
     0
 10
6.2192147779718221
 20
3.5242538439039741
 30
0.0
 11
6.2192147779718221
 21
3.5242538439039741
 31
0.0
  0
LINE
  5
15E1C
  8
0
 62
     0
 10
3.1562362017754202
 20
1.173947718787105
 30
0.0
 11
3.1562362017754202
 21
1.173947718787105
 31
0.0
  0
LINE
  5
15E1D
  8
0
 62
     0
 10
2.9962330721770178
 20
6.0680800920805931
 30
0.0
 11
2.9962330721770178
 21
6.0680800920805931
 31
0.0
  0
LINE
  5
15E1E
  8
0
 62
     0
 10
5.8992085187751311
 20
13.31251859049098
 30
0.0
 11
5.8992085187751311
 21
13.31251859049098
 31
0.0
  0
LINE
  5
15E1F
  8
0
 62
     0
 10
2.8362299425787301
 20
10.96221246537411
 30
0.0
 11
2.8362299425787301
 21
10.96221246537411
 31
0.0
  0
LINE
  5
15E20
  8
0
 62
     0
 10
5.7392053891766626
 20
18.206650963784352
 30
0.0
 11
5.7392053891766626
 21
18.206650963784352
 31
0.0
  0
LINE
  5
15E21
  8
0
 62
     0
 10
2.6762268129802611
 20
15.856344838667489
 30
0.0
 11
2.6762268129802611
 21
15.856344838667489
 31
0.0
  0
LINE
  5
15E22
  8
0
 62
     0
 10
5.5792022595783752
 20
23.10078333707779
 30
0.0
 11
5.5792022595783752
 21
23.10078333707779
 31
0.0
  0
LINE
  5
15E23
  8
0
 62
     0
 10
2.5162236833819742
 20
20.75047721196092
 30
0.0
 11
2.5162236833819742
 21
20.75047721196092
 31
0.0
  0
LINE
  5
15E24
  8
0
 62
     0
 10
8.8448988533574582
 20
30.623547560830851
 30
0.0
 11
8.8448988533574582
 21
30.623547560830851
 31
0.0
  0
LINE
  5
15E25
  8
0
 62
     0
 10
5.4191991299799058
 20
27.994915710371188
 30
0.0
 11
5.4191991299799058
 21
27.994915710371188
 31
0.0
  0
LINE
  5
15E26
  8
0
 62
     0
 10
2.3562205537835048
 20
25.644609585254329
 30
0.0
 11
2.3562205537835048
 21
25.644609585254329
 31
0.0
  0
LINE
  5
15E27
  8
0
 62
     0
 10
8.6848957237588778
 20
35.517679934124253
 30
0.0
 11
8.6848957237588778
 21
35.517679934124253
 31
0.0
  0
LINE
  5
15E28
  8
0
 62
     0
 10
5.2591960003813236
 20
32.889048083664598
 30
0.0
 11
5.2591960003813236
 21
32.889048083664598
 31
0.0
  0
LINE
  5
15E29
  8
0
 62
     0
 10
2.1962174241849231
 20
30.538741958547732
 30
0.0
 11
2.1962174241849231
 21
30.538741958547732
 31
0.0
  0
LINE
  5
15E2A
  8
0
 62
     0
 10
8.5248925941605211
 20
40.411812307417598
 30
0.0
 11
8.5248925941605211
 21
40.411812307417598
 31
0.0
  0
LINE
  5
15E2B
  8
0
 62
     0
 10
5.0991928707829688
 20
37.78318045695795
 30
0.0
 11
5.0991928707829688
 21
37.78318045695795
 31
0.0
  0
LINE
  5
15E2C
  8
0
 62
     0
 10
2.0362142945865682
 20
35.432874331841077
 30
0.0
 11
2.0362142945865682
 21
35.432874331841077
 31
0.0
  0
LINE
  5
15E2D
  8
0
 62
     0
 10
4.9391897411846823
 20
42.677312830251488
 30
0.0
 11
4.9391897411846823
 21
42.677312830251488
 31
0.0
  0
LINE
  5
15E2E
  8
0
 62
     0
 10
1.87621116498828
 20
40.327006705134622
 30
0.0
 11
1.87621116498828
 21
40.327006705134622
 31
0.0
  0
ENDBLK
  5
15E30
  8
0
  0
BLOCK
  8
0
  2
*U131
 70
     1
 10
0.0
 20
0.0
 30
0.0
  3
*U131
  1

  0
TEXT
  5
15E32
  8
1DIM
 62
   201
 10
-31.153865476029861
 20
54.018296023885341
 30
0.0
 40
3.5
  1
裏板9mm以上
  0
ENDBLK
  5
15E34
  8
0
  0
BLOCK
  8
0
  2
*U132
 70
     1
 10
0.0
 20
0.0
 30
0.0
  3
*U132
  1

  0
SOLID
  5
15E36
  8
1DIM
 10
12.044443127533439
 20
38.726957896894412
 30
0.0
 11
13.168864624287609
 21
37.039715350978668
 31
0.0
 12
11.55800886922316
 22
38.271078354924647
 32
0.0
 13
11.55800886922316
 23
38.271078354924647
 33
0.0
  0
POLYLINE
  5
15E37
  8
1DIM
 66
     1
 10
0.0
 20
0.0
 30
0.0
  0
VERTEX
  5
15E38
  8
1DIM
 10
11.8012259983783
 20
38.499018125909529
 30
0.0
  0
VERTEX
  5
15E39
  8
1DIM
 10
-2.0871988093631928
 20
53.318296023885338
 30
0.0
  0
VERTEX
  5
15E3A
  8
1DIM
 10
-33.987198809363193
 20
53.318296023885338
 30
0.0
  0
SEQEND
  5
15E3B
  8
1DIM
  0
ENDBLK
  5
15E3D
  8
0
  0
BLOCK
  8
0
  2
*U133
 70
     1
 10
0.0
 20
0.0
 30
0.0
  3
*U133
  1

  0
LINE
  5
15E3F
  8
0
 10
-0.3500000000000227
 20
2.0
 30
0.0
 11
0.0
 21
1.649999999999977
 31
0.0
  0
LINE
  5
15E40
  8
0
 10
-10.20000000000004
 20
2.0
 30
0.0
 11
-0.3500000000000227
 21
2.0
 31
0.0
  0
LINE
  5
15E41
  8
0
 10
0.0
 20
1.649999999999977
 30
0.0
 11
0.0
 21
-1.6499999999998629
 31
0.0
  0
LINE
  5
15E42
  8
0
 10
-12.0
 20
0.2000000000000028
 30
0.0
 11
-10.20000000000004
 21
2.0
 31
0.0
  0
LINE
  5
15E43
  8
0
 10
0.0
 20
-1.6499999999998629
 30
0.0
 11
-0.3500000000000227
 21
-2.0
 31
0.0
  0
LINE
  5
15E44
  8
0
 10
-12.0
 20
0.2000000000000028
 30
0.0
 11
-12.0
 21
-0.200000000000017
 31
0.0
  0
LINE
  5
15E45
  8
0
 10
-10.19999999999999
 20
-1.9999999999999849
 30
0.0
 11
-0.3500000000000227
 21
-2.0
 31
0.0
  0
LINE
  5
15E46
  8
0
 10
-12.0
 20
-0.200000000000017
 30
0.0
 11
-10.19999999999999
 21
-1.9999999999999849
 31
0.0
  0
ENDBLK
  5
15E48
  8
0
  0
BLOCK
  8
0
  2
*U134
 70
     1
 10
0.0
 20
0.0
 30
0.0
  3
*U134
  1

  0
LINE
  5
15E4A
  8
0
 10
-7.9999999999999991
 20
2.5
 30
0.0
 11
-7.9999978000002088
 21
2.4999999999999432
 31
0.0
  0
LINE
  5
15E4B
  8
0
 10
-7.9999999999999991
 20
-2.4999999999999432
 30
0.0
 11
-7.9999999999999991
 21
2.5
 31
0.0
  0
LINE
  5
15E4C
  8
0
 10
-7.9999978000002088
 20
2.4999999999999432
 30
0.0
 11
-7.4999979000001629
 21
3.0
 31
0.0
  0
LINE
  5
15E4D
  8
0
 10
-8.0000021000010921
 20
-2.4999999999999432
 30
0.0
 11
-7.9999999999999991
 21
-2.4999999999999432
 31
0.0
  0
LINE
  5
15E4E
  8
0
 10
-7.4999979000001629
 20
3.0
 30
0.0
 11
-1.999998199999983
 21
3.0
 31
0.0
  0
LINE
  5
15E4F
  8
0
 10
-7.5000018999986429
 20
-3.000000000000056
 30
0.0
 11
-8.0000021000010921
 21
-2.4999999999999432
 31
0.0
  0
LINE
  5
15E50
  8
0
 10
-1.999998199999983
 20
3.0
 30
0.0
 11
-1.49999999999998
 21
2.0
 31
0.0
  0
LINE
  5
15E51
  8
0
 10
-1.999998199999959
 20
-2.9999999999999432
 30
0.0
 11
-7.5000018999986429
 21
-3.000000000000056
 31
0.0
  0
LINE
  5
15E52
  8
0
 10
-1.49999999999998
 20
2.0
 30
0.0
 11
-0.5000000000000004
 21
2.0
 31
0.0
  0
LINE
  5
15E53
  8
0
 10
-1.50000000000001
 20
-2.0
 30
0.0
 11
-1.999998199999959
 21
-2.9999999999999432
 31
0.0
  0
ARC
  5
15E54
  8
0
 10
-0.5000000000000006
 20
1.5
 30
0.0
 40
0.5000000000000004
 50
0.0
 51
90.0
  0
LINE
  5
15E55
  8
0
 10
-0.5
 20
-2.0
 30
0.0
 11
-1.50000000000001
 21
-2.0
 31
0.0
  0
LINE
  5
15E56
  8
0
 10
-0.0000000000000001
 20
1.5
 30
0.0
 11
-0.0000000000000001
 21
-1.5
 31
0.0
  0
ARC
  5
15E57
  8
0
 10
-0.5
 20
-1.5
 30
0.0
 40
0.5
 50
270.0
 51
0.0
  0
ENDBLK
  5
15E59
  8
0
  0
BLOCK
  8
0
  2
*U135
 70
     1
 10
0.0
 20
0.0
 30
0.0
  3
*U135
  1

  0
LINE
  5
15E5B
  8
1HATCH
 10
-1.5
 20
2.000000000000056
 30
0.0
 11
-1.7499990999999879
 21
2.5
 31
0.0
  0
LINE
  5
15E5C
  8
1HATCH
 10
-1.7499990999999879
 20
2.5
 30
0.0
 11
-7.999997800000223
 21
2.5
 31
0.0
  0
LINE
  5
15E5D
  8
1HATCH
 10
-1.5
 20
-2.000000000000056
 30
0.0
 11
-1.5
 21
2.000000000000056
 31
0.0
  0
LINE
  5
15E5E
  8
1HATCH
 10
-7.999997800000223
 20
2.5
 30
0.0
 11
-7.9999999999999991
 21
2.4999977999997318
 31
0.0
  0
LINE
  5
15E5F
  8
1HATCH
 10
-1.749999099999981
 20
-2.5
 30
0.0
 11
-1.5
 21
-2.000000000000056
 31
0.0
  0
LINE
  5
15E60
  8
1HATCH
 10
-7.9999999999999991
 20
2.4999977999997318
 30
0.0
 11
-7.9999999999999991
 21
-2.5
 31
0.0
  0
LINE
  5
15E61
  8
1HATCH
 10
-7.9999999999999991
 20
-2.5
 30
0.0
 11
-1.749999099999981
 21
-2.5
 31
0.0
  0
ENDBLK
  5
15E63
  8
0
  0
BLOCK
  8
0
  2
*U136
 70
     1
 10
0.0
 20
0.0
 30
0.0
  3
*U136
  1

  0
LINE
  5
15E65
  8
1HATCH
 10
-1.9999981999999989
 20
3.000000000000056
 30
0.0
 11
-7.4999979000001362
 21
3.0
 31
0.0
  0
LINE
  5
15E66
  8
1HATCH
 10
-7.4999979000001362
 20
3.0
 30
0.0
 11
-7.999997800000143
 21
2.5
 31
0.0
  0
LINE
  5
15E67
  8
1HATCH
 10
-1.749999099999983
 20
2.5
 30
0.0
 11
-1.9999981999999989
 21
3.000000000000056
 31
0.0
  0
LINE
  5
15E68
  8
1HATCH
 10
-7.999997800000143
 20
2.5
 30
0.0
 11
-1.749999099999983
 21
2.5
 31
0.0
  0
ENDBLK
  5
15E6A
  8
0
  0
BLOCK
  8
0
  2
*U137
 70
     1
 10
0.0
 20
0.0
 30
0.0
  3
*U137
  1

  0
ARC
  5
15E6C
  8
1HATCH
 10
-0.5000000000000002
 20
1.5
 30
0.0
 40
0.5000000000000002
 50
0.0
 51
90.000000000000028
  0
LINE
  5
15E6D
  8
1HATCH
 10
-0.5000000000000004
 20
2.0
 30
0.0
 11
-1.5
 21
2.0
 31
0.0
  0
LINE
  5
15E6E
  8
1HATCH
 10
0.0
 20
-1.5
 30
0.0
 11
0.0
 21
1.5
 31
0.0
  0
LINE
  5
15E6F
  8
1HATCH
 10
-1.5
 20
2.0
 30
0.0
 11
-1.5
 21
-2.0
 31
0.0
  0
ARC
  5
15E70
  8
1HATCH
 10
-0.5
 20
-1.5
 30
0.0
 40
0.5
 50
270.0
 51
0.0
  0
LINE
  5
15E71
  8
1HATCH
 10
-1.5
 20
-2.0
 30
0.0
 11
-0.5
 21
-2.0
 31
0.0
  0
ENDBLK
  5
15E73
  8
0
  0
BLOCK
  8
0
  2
*U138
 70
     1
 10
0.0
 20
0.0
 30
0.0
  3
*U138
  1

  0
LINE
  5
15E75
  8
0
 10
-14.649999999999981
 20
2.0
 30
0.0
 11
-0.0000000000000284
 21
2.0
 31
0.0
  0
LINE
  5
15E76
  8
0
 10
-14.649999999999981
 20
2.0
 30
0.0
 11
-15.0
 21
1.649999999999977
 31
0.0
  0
LINE
  5
15E77
  8
0
 10
0.0
 20
3.4999999999999432
 30
0.0
 11
-0.0000000000000284
 21
2.0
 31
0.0
  0
LINE
  5
15E78
  8
0
 10
-15.0
 20
1.649999999999977
 30
0.0
 11
-15.0
 21
-1.6499999999998629
 31
0.0
  0
LINE
  5
15E79
  8
0
 10
0.0
 20
3.4999999999999432
 30
0.0
 11
0.5999999999999375
 21
3.4999999999999432
 31
0.0
  0
LINE
  5
15E7A
  8
0
 10
-15.0
 20
-1.6499999999998629
 30
0.0
 11
-14.649999999999981
 21
-2.0
 31
0.0
  0
ARC
  5
15E7B
  8
0
 10
0.5999999999999944
 20
1.4999999999999429
 30
0.0
 40
2.0
 50
0.0
 51
90.000000000001606
  0
LINE
  5
15E7C
  8
0
 10
-14.649999999999981
 20
-2.0
 30
0.0
 11
0.0000000000000568
 21
-2.0
 31
0.0
  0
LINE
  5
15E7D
  8
0
 10
2.5999999999999939
 20
1.4999999999999429
 30
0.0
 11
2.5999999999999939
 21
-1.5
 31
0.0
  0
LINE
  5
15E7E
  8
0
 10
0.0000000000000568
 20
-2.0
 30
0.0
 11
0.0
 21
-3.5
 31
0.0
  0
ARC
  5
15E7F
  8
0
 10
0.5999999999999944
 20
-1.5
 30
0.0
 40
2.0
 50
270.0
 51
0.0
  0
LINE
  5
15E80
  8
0
 10
0.0
 20
-3.5
 30
0.0
 11
0.5999999999999944
 21
-3.5
 31
0.0
  0
ENDBLK
  5
15E82
  8
0
  0
BLOCK
  8
0
  2
*U139
 70
     1
 10
0.0
 20
0.0
 30
0.0
  3
*U139
  1

  0
TEXT
  5
15E84
  8
1DIM
 62
   201
 10
-1616.897729927111
 20
-833.21563741867692
 30
0.0
 40
3.5
  1
61 
  0
ENDBLK
  5
15E86
  8
0
  0
BLOCK
  8
0
  2
*U140
 70
     1
 10
0.0
 20
0.0
 30
0.0
  3
*U140
  1

  0
TEXT
  5
15E88
  8
1DIM
 62
   201
 10
-1614.481287872233
 20
-840.40921320642917
 30
0.0
 40
3.5
  1
51.5 
  0
ENDBLK
  5
15E8A
  8
0
  0
BLOCK
  8
0
  2
*U141
 70
     1
 10
0.0
 20
0.0
 30
0.0
  3
*U141
  1

  0
TEXT
  5
15E8C
  8
1DIM
 62
   201
 10
-1669.479385654191
 20
-876.28798197367382
 30
0.0
 40
3.5
  1
47 
 50
90.0
  0
ENDBLK
  5
15E8E
  8
0
  0
BLOCK
  8
0
  2
*U142
 70
     1
 10
0.0
 20
0.0
 30
0.0
  3
*U142
  1

  0
TEXT
  5
15E90
  8
1DIM
 62
   201
 10
-1698.220992848519
 20
-746.92512526607106
 30
0.0
 40
3.5
  1
20 
  0
ENDBLK
  5
15E92
  8
0
  0
BLOCK
  8
0
  2
*U143
 70
     1
 10
0.0
 20
0.0
 30
0.0
  3
*U143
  1

  0
TEXT
  5
15E94
  8
1DIM
 62
   201
 10
-1556.162169667899
 20
-875.52919484696292
 30
0.0
 40
3.5
  1
30 
 50
90.0
  0
ENDBLK
  5
15E96
  8
0
  0
BLOCK
  8
0
  2
*U144
 70
     1
 10
0.0
 20
0.0
 30
0.0
  3
*U144
  1

  0
TEXT
  5
15E98
  8
1DIM
 62
   201
 10
-1626.519878859044
 20
-734.02771317153315
 30
0.0
 40
3.5
  1
15.2 
 50
90.0
  0
ENDBLK
  5
15E9A
  8
0
  0
BLOCK
  8
0
  2
*U145
 70
     1
 10
0.0
 20
0.0
 30
0.0
  3
*U145
  1

  0
TEXT
  5
15E9C
  8
1DIM
 62
   201
 10
-1602.1717418850239
 20
-714.20159972599174
 30
0.0
 40
3.5
  1
40 
  0
ENDBLK
  5
15E9E
  8
0
  0
BLOCK
  8
0
  2
*U146
 70
     1
 10
0.0
 20
0.0
 30
0.0
  3
*U146
  1

  0
TEXT
  5
15EA0
  8
1DIM
 62
   201
 10
-1626.519878859044
 20
-768.91071551539426
 30
0.0
 40
3.5
  1
37.6 
 50
90.0
  0
ENDBLK
  5
15EA2
  8
0
  0
BLOCK
  8
0
  2
*U147
 70
     1
 10
0.0
 20
0.0
 30
0.0
  3
*U147
  1

  0
TEXT
  5
15EA4
  8
1DIM
 62
   201
 10
-1790.782828864209
 20
-840.74633461423934
 30
0.0
 40
3.5
  1
400 
  0
ENDBLK
  5
15EA6
  8
0
  0
BLOCK
  8
0
  2
*U148
 70
     1
 10
0.0
 20
0.0
 30
0.0
  3
*U148
  1

  0
TEXT
  5
15EA8
  8
1DIM
 62
   201
 10
-1790.025098209155
 20
-915.91377169642305
 30
0.0
 40
3.5
  1
420 
  0
ENDBLK
  5
15EAA
  8
0
  0
BLOCK
  8
0
  2
*U149
 70
     1
 10
0.0
 20
0.0
 30
0.0
  3
*U149
  1

  0
TEXT
  5
15EAC
  8
1DIM
 62
   201
 10
-613.37502745501956
 20
-883.56320887076765
 30
0.0
 40
3.5
  1
23.03 
 50
90.0
  0
ENDBLK
  5
15EAE
  8
0
  0
BLOCK
  8
0
  2
*U150
 70
     1
 10
0.0
 20
0.0
 30
0.0
  3
*U150
  1

  0
TEXT
  5
15EB0
  8
1DIM
 62
   201
 10
-603.37502745501968
 20
-883.20464864074756
 30
0.0
 40
3.5
  1
15 
 50
90.0
  0
ENDBLK
  5
15EB2
  8
0
  0
BLOCK
  8
0
  2
*U151
 70
     1
 10
0.0
 20
0.0
 30
0.0
  3
*U151
  1

  0
TEXT
  5
15EB4
  8
1DIM
 62
   201
 10
-492.37547667859451
 20
-890.99631530741067
 30
0.0
 40
3.5
  1
30 
 50
90.0
  0
ENDBLK
  5
15EB6
  8
0
  0
BLOCK
  8
0
  2
*U152
 70
     1
 10
0.0
 20
0.0
 30
0.0
  3
*U152
  1

  0
TEXT
  5
15EB8
  8
1DIM
 62
   201
 10
-492.37547667859451
 20
-862.26343576704744
 30
0.0
 40
3.5
  1
8.03 
 50
90.0
  0
ENDBLK
  5
15EBA
  8
0
  0
BLOCK
  8
0
  2
*U153
 70
     1
 10
0.0
 20
0.0
 30
0.0
  3
*U153
  1

  0
TEXT
  5
15EBC
  8
1DIM
 62
   201
 10
-544.50881001192806
 20
-921.63843576704608
 30
0.0
 40
3.5
  1
21 
  0
ENDBLK
  5
15EBE
  8
0
  0
BLOCK
  8
0
  2
*U154
 70
     1
 10
0.0
 20
0.0
 30
0.0
  3
*U154
  1

  0
TEXT
  5
15EC0
  8
1DIM1
 62
   201
 10
-870.17502745501849
 20
-940.2384357670461
 30
0.0
 40
10.5
  1
P400 
  0
ENDBLK
  5
15EC2
  8
0
  0
BLOCK
  8
0
  2
*U155
 70
     1
 10
0.0
 20
0.0
 30
0.0
  3
*U155
  1

  0
TEXT
  5
15EC4
  8
1DIM1
 62
   201
 10
-865.80002745501861
 20
-970.23843576704598
 30
0.0
 40
10.5
  1
420 
  0
ENDBLK
  5
15EC6
  8
0
  0
BLOCK
  8
0
  2
*U156
 70
     1
 10
0.0
 20
0.0
 30
0.0
  3
*U156
  1

  0
TEXT
  5
15EC8
  8
1DIM
 62
   201
 10
-623.37502745501956
 20
-891.75510243371446
 30
0.0
 40
3.5
  1
47 
 50
90.0
  0
ENDBLK
  5
15ECA
  8
0
  0
BLOCK
  8
0
  2
*U157
 70
     1
 10
0.0
 20
0.0
 30
0.0
  3
*U157
  1

  0
TEXT
  5
15ECC
  8
1DIM
 62
   201
 10
-803.37502745502002
 20
-879.58843576704794
 30
0.0
 40
3.5
  1
φ13
 50
90.0
  0
ENDBLK
  5
15ECE
  8
0
  0
BLOCK
  8
0
  2
*U158
 70
     1
 10
0.0
 20
0.0
 30
0.0
  3
*U158
  1

  0
TEXT
  5
15ED0
  8
1DIM
 62
   201
 10
-564.50858540014065
 20
-931.63843576704608
 30
0.0
 40
3.5
  1
61 
  0
ENDBLK
  5
15ED2
  8
0
  0
BLOCK
  8
0
  2
*U159
 70
     1
 10
0.0
 20
0.0
 30
0.0
  3
*U159
  1

  0
TEXT
  5
15ED4
  8
1DIM
 62
   201
 10
369.72466330302171
 20
-883.20464864074665
 30
0.0
 40
3.5
  1
15 
 50
90.0
  0
ENDBLK
  5
15ED6
  8
0
  0
BLOCK
  8
0
  2
*U160
 70
     1
 10
0.0
 20
0.0
 30
0.0
  3
*U160
  1

  0
TEXT
  5
15ED8
  8
1DIM
 62
   201
 10
480.72421407944682
 20
-890.99631530740999
 30
0.0
 40
3.5
  1
30 
 50
90.0
  0
ENDBLK
  5
15EDA
  8
0
  0
BLOCK
  8
0
  2
*U161
 70
     1
 10
0.0
 20
0.0
 30
0.0
  3
*U161
  1

  0
TEXT
  5
15EDC
  8
1DIM
 62
   201
 10
480.72421407944682
 20
-862.26343576704664
 30
0.0
 40
3.5
  1
8.03 
 50
90.0
  0
ENDBLK
  5
15EDE
  8
0
  0
BLOCK
  8
0
  2
*U162
 70
     1
 10
0.0
 20
0.0
 30
0.0
  3
*U162
  1

  0
TEXT
  5
15EE0
  8
1DIM
 62
   201
 10
428.59088074611338
 20
-921.63843576704539
 30
0.0
 40
3.5
  1
21 
  0
ENDBLK
  5
15EE2
  8
0
  0
BLOCK
  8
0
  2
*U163
 70
     1
 10
0.0
 20
0.0
 30
0.0
  3
*U163
  1

  0
TEXT
  5
15EE4
  8
1DIM1
 62
   201
 10
102.9246633030228
 20
-940.23843576704542
 30
0.0
 40
10.5
  1
P400 
  0
ENDBLK
  5
15EE6
  8
0
  0
BLOCK
  8
0
  2
*U164
 70
     1
 10
0.0
 20
0.0
 30
0.0
  3
*U164
  1

  0
TEXT
  5
15EE8
  8
1DIM1
 62
   201
 10
107.2996633030229
 20
-970.23843576704553
 30
0.0
 40
10.5
  1
420 
  0
ENDBLK
  5
15EEA
  8
0
  0
BLOCK
  8
0
  2
*U165
 70
     1
 10
0.0
 20
0.0
 30
0.0
  3
*U165
  1

  0
TEXT
  5
15EEC
  8
1DIM
 62
   201
 10
349.72466330302171
 20
-891.75510243371377
 30
0.0
 40
3.5
  1
47 
 50
90.0
  0
ENDBLK
  5
15EEE
  8
0
  0
BLOCK
  8
0
  2
*U166
 70
     1
 10
0.0
 20
0.0
 30
0.0
  3
*U166
  1

  0
TEXT
  5
15EF0
  8
1DIM
 62
   201
 10
169.72466330302149
 20
-879.58843576704714
 30
0.0
 40
3.5
  1
φ13
 50
90.0
  0
ENDBLK
  5
15EF2
  8
0
  0
BLOCK
  8
0
  2
*U167
 70
     1
 10
0.0
 20
0.0
 30
0.0
  3
*U167
  1

  0
TEXT
  5
15EF4
  8
1DIM
 62
   201
 10
408.59110535790091
 20
-931.63843576704562
 30
0.0
 40
3.5
  1
61 
  0
ENDBLK
  5
15EF6
  8
0
  0
BLOCK
  8
0
  2
*U168
 70
     1
 10
0.0
 20
0.0
 30
0.0
  3
*U168
  1

  0
TEXT
  5
15EF8
  8
1DIM
 62
   201
 10
359.72466330302171
 20
-879.77154220410011
 30
0.0
 40
3.5
  1
23 
 50
90.0
  0
ENDBLK
  5
15EFA
  8
0
  0
BLOCK
  8
0
  2
*U169
 70
     1
 10
0.0
 20
0.0
 30
0.0
  3
*U169
  1

  0
LINE
  5
15EFC
  8
0
 10
-24.70000348997651
 20
-1.4999534641020771
 30
0.0
 11
-2.8000383918526941
 21
-1.4999534641020771
 31
0.0
  0
LINE
  5
15EFD
  8
0
 10
-0.3000093071805736
 20
-4.0
 30
0.0
 11
-2.8000383918526941
 21
-1.4999534641020771
 31
0.0
  0
LINE
  5
15EFE
  8
0
 10
-29.999999999837598
 20
0.0000465358979227
 30
0.0
 11
-24.70000348997651
 21
-1.4999534641020771
 31
0.0
  0
LINE
  5
15EFF
  8
0
 10
-0.3000093071805736
 20
-4.0
 30
0.0
 11
-0.0000093071795959
 21
-4.0
 31
0.0
  0
LINE
  5
15F00
  8
0
 10
-29.999999999837598
 20
0.0000465358979227
 30
0.0
 11
-24.69999650959226
 21
1.500046535897922
 31
0.0
  0
LINE
  5
15F01
  8
0
 10
-0.0000093071795959
 20
-4.0
 30
0.0
 11
0.0000093071795959
 21
4.0
 31
0.0
  0
LINE
  5
15F02
  8
0
 10
-24.69999650959226
 20
1.500046535897922
 30
0.0
 11
-2.7999732414874918
 21
1.500046535897922
 31
0.0
  0
LINE
  5
15F03
  8
0
 10
-0.2999906928214955
 20
4.0
 30
0.0
 11
0.0000093071795959
 21
4.0
 31
0.0
  0
LINE
  5
15F04
  8
0
 10
-0.2999906928214955
 20
4.0
 30
0.0
 11
-2.7999732414874918
 21
1.500046535897922
 31
0.0
  0
ENDBLK
  5
15F06
  8
0
  0
BLOCK
  8
0
  2
*U170
 70
     1
 10
0.0
 20
0.0
 30
0.0
  3
*U170
  1

  0
TEXT
  5
15F08
  8
1DIM
 62
   201
 10
-1008.919210539351
 20
207.46990524339981
 30
0.0
 40
3.5
  1
P=450
  0
ENDBLK
  5
15F0A
  8
0
  0
BLOCK
  8
0
  2
*U171
 70
     1
 10
0.0
 20
0.0
 30
0.0
  3
*U171
  1

  0
TEXT
  5
15F0C
  8
1DIM
 62
   201
 10
-1006.36356196512
 20
213.55762486616129
 30
0.0
 40
3.5
  1
505
  0
ENDBLK
  5
15F0E
  8
0
  0
BLOCK
  8
0
  2
*U172
 70
     1
 10
0.0
 20
0.0
 30
0.0
  3
*U172
  1

  0
TEXT
  5
15F10
  8
1DIM
 62
   201
 10
-1015.14339916709
 20
200.18280725281031
 30
0.0
 40
3.5
  1
パイプ長445
  0
ENDBLK
  5
15F12
  8
0
  0
BLOCK
  8
0
  2
*U173
 70
     1
 10
0.0
 20
0.0
 30
0.0
  3
*U173
  1

  0
TEXT
  5
15F14
  8
1DIM
 62
   201
 10
-886.72677626692644
 20
156.241262641693
 30
0.0
 40
3.5
  1
φ55
 50
90.0
  0
ENDBLK
  5
15F16
  8
0
  0
BLOCK
  8
0
  2
*U174
 70
     1
 10
0.0
 20
0.0
 30
0.0
  3
*U174
  1

  0
TEXT
  5
15F18
  8
1DIM
 62
   201
 10
-830.50984228727259
 20
213.55762486616129
 30
0.0
 40
3.5
  1
65 
  0
ENDBLK
  5
15F1A
  8
0
  0
BLOCK
  8
0
  2
*U175
 70
     1
 10
0.0
 20
0.0
 30
0.0
  3
*U175
  1

  0
ARC
  5
15F1C
  8
0
 10
-0.5000000000000006
 20
-1.499999999992212
 30
0.0
 40
0.5
 50
269.99968004273472
 51
0.0
  0
LINE
  5
15F1D
  8
0
 10
0.0
 20
1.499999999992212
 30
0.0
 11
0.0
 21
-1.499999999992212
 31
0.0
  0
LINE
  5
15F1E
  8
0
 10
-0.500002792153873
 20
-1.999999999984424
 30
0.0
 11
-2.9999999999350222
 21
-1.9999860392306339
 31
0.0
  0
ARC
  5
15F1F
  8
0
 10
-0.5
 20
1.499999999992212
 30
0.0
 40
0.5000000000000001
 50
0.0
 51
89.999680042734667
  0
LINE
  5
15F20
  8
0
 10
-2.9999999999350222
 20
-1.9999860392306339
 30
0.0
 11
-3.49999819993592
 21
-2.9999860392323958
 31
0.0
  0
LINE
  5
15F21
  8
0
 10
-2.9999999999350848
 20
2.000013960769365
 30
0.0
 11
-0.499997207846127
 21
1.999999999984424
 31
0.0
  0
LINE
  5
15F22
  8
0
 10
-3.49999819993592
 20
-2.9999860392323958
 30
0.0
 11
-10.50000189991937
 21
-2.999979058844076
 31
0.0
  0
LINE
  5
15F23
  8
0
 10
-3.4999981999341561
 20
3.000013960767546
 30
0.0
 11
-2.9999999999350848
 21
2.000013960769365
 31
0.0
  0
LINE
  5
15F24
  8
0
 10
-10.50000189991937
 20
-2.999979058844076
 30
0.0
 11
-11.000002099921749
 21
-2.4999790588440192
 31
0.0
  0
LINE
  5
15F25
  8
0
 10
-10.499997899921031
 20
3.0000209411519441
 30
0.0
 11
-3.4999981999341561
 21
3.000013960767546
 31
0.0
  0
LINE
  5
15F26
  8
0
 10
-11.000002099921749
 20
-2.4999790588440192
 30
0.0
 11
-10.99999999991879
 21
-2.499979058845951
 31
0.0
  0
LINE
  5
15F27
  8
0
 10
-10.99999779992098
 20
2.500020941152115
 30
0.0
 11
-10.499997899921031
 21
3.0000209411519441
 31
0.0
  0
LINE
  5
15F28
  8
0
 10
-10.99999999991879
 20
-2.499979058845951
 30
0.0
 11
-10.99999999991879
 21
2.500020941154105
 31
0.0
  0
LINE
  5
15F29
  8
0
 10
-10.99999999991879
 20
2.500020941154105
 30
0.0
 11
-10.99999779992098
 21
2.500020941152115
 31
0.0
  0
ENDBLK
  5
15F2B
  8
0
  0
BLOCK
  8
0
  2
*U176
 70
     1
 10
0.0
 20
0.0
 30
0.0
  3
*U176
  1

  0
TEXT
  5
15F2D
  8
1DIM
 62
   201
 10
-2212.7591677015448
 20
-315.08487129327608
 30
0.0
 40
3.5
  1
P=450
  0
ENDBLK
  5
15F2F
  8
0
  0
BLOCK
  8
0
  2
*U177
 70
     1
 10
0.0
 20
0.0
 30
0.0
  3
*U177
  1

  0
TEXT
  5
15F31
  8
1DIM
 62
   201
 10
-2210.2035191273148
 20
-308.9971516705146
 30
0.0
 40
3.5
  1
505
  0
ENDBLK
  5
15F33
  8
0
  0
BLOCK
  8
0
  2
*U178
 70
     1
 10
0.0
 20
0.0
 30
0.0
  3
*U178
  1

  0
TEXT
  5
15F35
  8
1DIM
 62
   201
 10
-2218.983356329285
 20
-322.37196928386572
 30
0.0
 40
3.5
  1
パイプ長445
  0
ENDBLK
  5
15F37
  8
0
  0
BLOCK
  8
0
  2
*U179
 70
     1
 10
0.0
 20
0.0
 30
0.0
  3
*U179
  1

  0
TEXT
  5
15F39
  8
1DIM
 62
   201
 10
-2090.5667334291202
 20
-366.3135138949832
 30
0.0
 40
3.5
  1
φ55
 50
90.0
  0
ENDBLK
  5
15F3B
  8
0
  0
BLOCK
  8
0
  2
*U180
 70
     1
 10
0.0
 20
0.0
 30
0.0
  3
*U180
  1

  0
TEXT
  5
15F3D
  8
1DIM
 62
   201
 10
-2034.3497994494669
 20
-308.9971516705146
 30
0.0
 40
3.5
  1
65 
  0
ENDBLK
  5
15F3F
  8
0
  0
BLOCK
  8
0
  2
*U181
 70
     1
 10
0.0
 20
0.0
 30
0.0
  3
*U181
  1

  0
TEXT
  5
15F41
  8
1DIM
 62
   201
 10
-2210.0890968807348
 20
-428.9425888023232
 30
0.0
 40
3.5
  1
150 
  0
ENDBLK
  5
15F43
  8
0
  0
BLOCK
  8
0
  2
*U182
 70
     1
 10
0.0
 20
0.0
 30
0.0
  3
*U182
  1

  0
TEXT
  5
15F45
  8
1DIM
 62
   201
 10
-2360.6724302140692
 20
-412.72204982343271
 30
0.0
 40
3.5
  1
450 
  0
ENDBLK
  5
15F47
  8
0
  0
BLOCK
  8
0
  2
*U183
 70
     1
 10
0.0
 20
0.0
 30
0.0
  3
*U183
  1

  0
TEXT
  5
15F49
  8
1DIM
 62
   201
 10
-753.81303831494631
 20
-2141.03775604457
 30
0.0
 40
3.5
  1
27.5 
 50
90.0
  0
ENDBLK
  5
15F4B
  8
0
  0
BLOCK
  8
0
  2
*U184
 70
     1
 10
0.0
 20
0.0
 30
0.0
  3
*U184
  1

  0
TEXT
  5
15F4D
  8
1DIM
 62
   201
 10
-692.44637214420322
 20
-2186.3377560445701
 30
0.0
 40
3.5
  1
18 
  0
ENDBLK
  5
15F4F
  8
0
  0
BLOCK
  8
0
  2
*U185
 70
     1
 10
0.0
 20
0.0
 30
0.0
  3
*U185
  1

  0
TEXT
  5
15F51
  8
1DIM
 62
   201
 10
-712.52970498161312
 20
-2111.3377560445701
 30
0.0
 40
3.5
  1
57 
  0
ENDBLK
  5
15F53
  8
0
  0
BLOCK
  8
0
  2
*U186
 70
     1
 10
0.0
 20
0.0
 30
0.0
  3
*U186
  1

  0
TEXT
  5
15F55
  8
1DIM
 62
   201
 10
-716.52970498161312
 20
-2101.3377560445701
 30
0.0
 40
3.5
  1
65 
  0
ENDBLK
  5
15F57
  8
0
  0
BLOCK
  8
0
  2
*U187
 70
     1
 10
0.0
 20
0.0
 30
0.0
  3
*U187
  1

  0
TEXT
  5
15F59
  8
1DIM
 62
   201
 10
-641.83049072138363
 20
-2130.4875141618832
 30
0.0
 40
3.5
  1
12 
 50
90.0
  0
ENDBLK
  5
15F5B
  8
0
  0
BLOCK
  8
0
  2
*U188
 70
     1
 10
0.0
 20
0.0
 30
0.0
  3
*U188
  1

  0
TEXT
  5
15F5D
  8
1DIM
 62
   201
 10
-641.83049072138363
 20
-2151.8956056125289
 30
0.0
 40
3.5
  1
30 
 50
90.0
  0
ENDBLK
  5
15F5F
  8
0
  0
BLOCK
  8
0
  2
*U189
 70
     1
 10
0.0
 20
0.0
 30
0.0
  3
*U189
  1

  0
TEXT
  5
15F61
  8
1DIM
 62
   201
 10
-1995.867189309475
 20
80.435242852404528
 30
0.0
 40
3.5
  1
27.5 
 50
90.0
  0
ENDBLK
  5
15F63
  8
0
  0
BLOCK
  8
0
  2
*U190
 70
     1
 10
0.0
 20
0.0
 30
0.0
  3
*U190
  1

  0
TEXT
  5
15F65
  8
1DIM
 62
   201
 10
-1961.4762155794031
 20
-322.7468472283162
 30
0.0
 40
3.5
  1
57 
  0
ENDBLK
  5
15F67
  8
0
  0
BLOCK
  8
0
  2
*U191
 70
     1
 10
0.0
 20
0.0
 30
0.0
  3
*U191
  1

  0
TEXT
  5
15F69
  8
1DIM
 62
   201
 10
-1965.4762155794031
 20
-312.74684722831569
 30
0.0
 40
3.5
  1
65 
  0
ENDBLK
  5
15F6B
  8
0
  0
BLOCK
  8
0
  2
*U192
 70
     1
 10
0.0
 20
0.0
 30
0.0
  3
*U192
  1

  0
TEXT
  5
15F6E
  8
1DIM1
 62
   201
 10
-908.30002745501986
 20
-940.2384357670461
 30
0.0
 40
10.5
  1
450 
  0
ENDBLK
  5
15F70
  8
0
  0
BLOCK
  8
0
  2
*U193
 70
     1
 10
0.0
 20
0.0
 30
0.0
  3
*U193
  1

  0
TEXT
  5
15F72
  8
1DIM
 62
   201
 10
430.09088025019042
 20
-925.43846573904807
 30
0.0
 40
3.5
  1
18 
  0
ENDBLK
  5
15F74
  8
0
  0
BLOCK
  8
0
  2
*U194
 70
     1
 10
0.0
 20
0.0
 30
0.0
  3
*U194
  1

  0
TEXT
  5
15F76
  8
1DIM
 62
   201
 10
480.70676167300979
 20
-869.58822385636086
 30
0.0
 40
3.5
  1
12 
 50
90.0
  0
ENDBLK
  5
15F78
  8
0
  0
BLOCK
  8
0
  2
*U195
 70
     1
 10
0.0
 20
0.0
 30
0.0
  3
*U195
  1

  0
TEXT
  5
15F7A
  8
1DIM
 62
   201
 10
480.70676167300979
 20
-890.99631530700685
 30
0.0
 40
3.5
  1
30 
 50
90.0
  0
ENDBLK
  5
15F7C
  8
0
  0
BLOCK
  8
0
  2
*U196
 70
     1
 10
0.0
 20
0.0
 30
0.0
  3
*U196
  1

  0
TEXT
  5
15F7E
  8
1DIM1
 62
   201
 10
55.549214079446877
 20
-944.03846573904809
 30
0.0
 40
10.5
  1
P450 
  0
ENDBLK
  5
15F80
  8
0
  0
BLOCK
  8
0
  2
*U197
 70
     1
 10
0.0
 20
0.0
 30
0.0
  3
*U197
  1

  0
TEXT
  5
15F82
  8
1DIM1
 62
   201
 10
60.799214079446919
 20
-974.03846573904798
 30
0.0
 40
10.5
  1
505 
  0
ENDBLK
  5
15F84
  8
0
  0
BLOCK
  8
0
  2
*U198
 70
     1
 10
0.0
 20
0.0
 30
0.0
  3
*U198
  1

  0
TEXT
  5
15F86
  8
1DIM
 62
   201
 10
165.72421407944711
 20
-893.43397029073492
 30
0.0
 40
3.5
  1
φ12
 50
90.0
  0
ENDBLK
  5
15F88
  8
0
  0
BLOCK
  8
0
  2
*U199
 70
     1
 10
0.0
 20
0.0
 30
0.0
  3
*U199
  1

  0
TEXT
  5
15F8A
  8
1DIM
 62
   201
 10
355.72421407944711
 20
-880.138465739048
 30
0.0
 40
3.5
  1
27.5 
 50
90.0
  0
ENDBLK
  5
15F8C
  8
0
  0
BLOCK
  8
0
  2
*U200
 70
     1
 10
0.0
 20
0.0
 30
0.0
  3
*U200
  1

  0
TEXT
  5
15F8E
  8
1DIM
 62
   201
 10
365.72421407944699
 20
-883.33822385636086
 30
0.0
 40
3.5
  1
15 
 50
90.0
  0
ENDBLK
  5
15F90
  8
0
  0
BLOCK
  8
0
  2
*U201
 70
     1
 10
0.0
 20
0.0
 30
0.0
  3
*U201
  1

  0
TEXT
  5
15F92
  8
1DIM
 62
   201
 10
345.72421407944711
 20
-894.00513240571468
 30
0.0
 40
3.5
  1
φ55
 50
90.0
  0
ENDBLK
  5
15F94
  8
0
  0
BLOCK
  8
0
  2
*U202
 70
     1
 10
0.0
 20
0.0
 30
0.0
  3
*U202
  1

  0
TEXT
  5
15F96
  8
1DIM
 62
   201
 10
406.00754741278041
 20
-935.43846573904807
 30
0.0
 40
3.5
  1
65 
  0
ENDBLK
  5
15F98
  8
0
  0
ENDSEC
  0
SECTION
  2
ENTITIES
  0
TEXT
  5
120B6
  8
1TEXT
 10
146.4242140794469
 20
-753.60233724216255
 30
0.0
 40
8.0
  1
SA481-
  0
LINE
  5
1522E
  8
01
 10
318.92421407944732
 20
-881.13846573904812
 30
0.0
 11
318.92421407944693
 21
-896.138465739048
 31
0.0
  0
ARC
  5
1522F
  8
01
 10
318.42421407944693
 20
-896.138465739048
 30
0.0
 40
0.5
 50
270.0
 51
0.0
  0
LINE
  5
15231
  8
01
 10
278.92421407944693
 20
-881.13846573904812
 30
0.0
 11
278.92421407944693
 21
-896.138465739048
 31
0.0
  0
ARC
  5
15232
  8
01
 10
279.42421407944693
 20
-881.13846573904812
 30
0.0
 40
0.5
 50
90.0
 51
180.0
  0
LINE
  5
15233
  8
01
 10
318.42421407944693
 20
-896.63846573904834
 30
0.0
 11
279.42421407944693
 21
-896.63846573904812
 31
0.0
  0
ARC
  5
15234
  8
01
 10
279.42421407944693
 20
-896.138465739048
 30
0.0
 40
0.5
 50
180.0
 51
270.0
  0
LINE
  5
15235
  8
01
 10
318.42421407944732
 20
-880.63846573904812
 30
0.0
 11
279.42421407944693
 21
-880.63846573904812
 31
0.0
  0
ARC
  5
15236
  8
01
 10
318.42421407944732
 20
-881.13846573904812
 30
0.0
 40
0.5
 50
0.0
 51
90.0
  0
ARC
  5
15237
  8
01
 10
298.92421407944693
 20
-888.63846573904812
 30
0.0
 40
12.0
 50
221.8103148957837
 51
318.18968510421632
  0
ARC
  5
15238
  8
01
 10
298.92421407944693
 20
-888.63846573904812
 30
0.0
 40
12.0
 50
41.810314895783719
 51
138.18968510421621
  0
ARC
  5
15239
  8
01
 10
298.92421407944693
 20
-888.63846573904812
 30
0.0
 40
27.5
 50
192.62825070097861
 51
167.4237183834349
  0
LINE
  5
1523B
  8
01
 10
326.42421407944693
 20
-771.63846573904823
 30
0.0
 11
326.42421407944693
 21
-766.13846573904823
 31
0.0
  0
ARC
  5
1523C
  8
01
 10
325.92421407944693
 20
-771.63846573904823
 30
0.0
 40
0.5
 50
270.0
 51
0.0
  0
LINE
  5
1523D
  8
01
 10
271.42421407944693
 20
-771.63846573904777
 30
0.0
 11
271.42421407944693
 21
-766.13846573904777
 31
0.0
  0
ARC
  5
1523E
  8
01
 10
271.92421407944693
 20
-771.63846573904777
 30
0.0
 40
0.5
 50
180.0
 51
270.0
  0
LINE
  5
1523F
  8
01
 10
310.92421407944693
 20
-795.63846573904812
 30
0.0
 11
310.92421407944693
 21
-772.13846573904812
 31
0.0
  0
ARC
  5
15240
  8
01
 10
310.42421407944693
 20
-795.63846573904812
 30
0.0
 40
0.5
 50
270.0
 51
0.0
  0
LINE
  5
15241
  8
01
 10
286.92421407944693
 20
-795.63846573904812
 30
0.0
 11
286.92421407944693
 21
-772.138465739048
 31
0.0
  0
ARC
  5
15242
  8
01
 10
287.42421407944693
 20
-795.63846573904812
 30
0.0
 40
0.5
 50
180.0
 51
270.0
  0
LINE
  5
15243
  8
01
 10
278.92421407944693
 20
-830.63846573904812
 30
0.0
 11
278.92421407944693
 21
-815.638465739048
 31
0.0
  0
ARC
  5
15244
  8
01
 10
279.42421407944693
 20
-815.638465739048
 30
0.0
 40
0.5
 50
90.0
 51
180.0
  0
LINE
  5
15245
  8
01
 10
318.92421407944693
 20
-830.63846573904812
 30
0.0
 11
318.92421407944693
 21
-815.63846573904823
 31
0.0
  0
ARC
  5
15246
  8
01
 10
318.42421407944693
 20
-830.63846573904812
 30
0.0
 40
0.5
 50
270.0
 51
0.0
  0
LINE
  5
15247
  8
01
 10
291.92421407944693
 20
-814.63846573904812
 30
0.0
 11
291.92421407944693
 21
-796.13846573904812
 31
0.0
  0
ARC
  5
15248
  8
01
 10
291.42421407944693
 20
-814.63846573904812
 30
0.0
 40
0.5
 50
270.0
 51
0.0
  0
LINE
  5
15249
  8
01
 10
305.92421407944693
 20
-814.63846573904812
 30
0.0
 11
305.92421407944693
 21
-796.13846573904812
 31
0.0
  0
LINE
  5
1524A
  8
01
 10
279.42421407944693
 20
-815.13846573904812
 30
0.0
 11
291.42421407944693
 21
-815.13846573904812
 31
0.0
  0
LINE
  5
1524B
  8
01
 10
306.42421407944693
 20
-815.13846573904812
 30
0.0
 11
318.42421407944693
 21
-815.13846573904812
 31
0.0
  0
ARC
  5
1524C
  8
01
 10
306.42421407944693
 20
-814.63846573904812
 30
0.0
 40
0.5
 50
180.0
 51
270.0
  0
ARC
  5
1524D
  8
01
 10
318.42421407944693
 20
-815.63846573904823
 30
0.0
 40
0.5
 50
0.0
 51
90.0
  0
LINE
  5
1524E
  8
01
 10
279.42421407944693
 20
-831.13846573904812
 30
0.0
 11
318.42421407944693
 21
-831.13846573904812
 31
0.0
  0
ARC
  5
1524F
  8
01
 10
279.42421407944693
 20
-830.63846573904812
 30
0.0
 40
0.5
 50
180.0
 51
270.0
  0
LINE
  5
15250
  8
01
 10
310.42421407944693
 20
-796.13846573904812
 30
0.0
 11
287.42421407944693
 21
-796.13846573904812
 31
0.0
  0
LINE
  5
15251
  8
01
 10
325.92421407944693
 20
-772.13846573904823
 30
0.0
 11
271.92421407944693
 21
-772.13846573904789
 31
0.0
  0
LINE
  5
15252
  8
01
 10
326.42421407944693
 20
-766.13846573904823
 30
0.0
 11
271.42421407944693
 21
-766.13846573904777
 31
0.0
  0
POLYLINE
  5
15253
  8
01
 10
305.92421407944693
 20
-814.63846573904812
 30
0.0
 66
     1
 70
     8
  0
VERTEX
  8
01
  5
15F99
 10
305.924
 20
-814.638
 30
0.000000
  70
    32
  0
VERTEX
  8
01
  5
15F9A
 10
305.922
 20
-814.752
 30
0.000000
  70
    32
  0
VERTEX
  8
01
  5
15F9B
 10
305.916
 20
-814.866
 30
0.000000
  70
    32
  0
VERTEX
  8
01
  5
15F9C
 10
305.905
 20
-814.979
 30
0.000000
  70
    32
  0
VERTEX
  8
01
  5
15F9D
 10
305.891
 20
-815.092
 30
0.000000
  70
    32
  0
VERTEX
  8
01
  5
15F9E
 10
305.872
 20
-815.205
 30
0.000000
  70
    32
  0
VERTEX
  8
01
  5
15F9F
 10
305.848
 20
-815.317
 30
0.000000
  70
    32
  0
VERTEX
  8
01
  5
15FA0
 10
305.821
 20
-815.430
 30
0.000000
  70
    32
  0
VERTEX
  8
01
  5
15FA1
 10
305.790
 20
-815.541
 30
0.000000
  70
    32
  0
VERTEX
  8
01
  5
15FA2
 10
305.754
 20
-815.652
 30
0.000000
  70
    32
  0
VERTEX
  8
01
  5
15FA3
 10
305.714
 20
-815.763
 30
0.000000
  70
    32
  0
VERTEX
  8
01
  5
15FA4
 10
305.671
 20
-815.873
 30
0.000000
  70
    32
  0
VERTEX
  8
01
  5
15FA5
 10
305.623
 20
-815.982
 30
0.000000
  70
    32
  0
VERTEX
  8
01
  5
15FA6
 10
305.571
 20
-816.090
 30
0.000000
  70
    32
  0
VERTEX
  8
01
  5
15FA7
 10
305.515
 20
-816.197
 30
0.000000
  70
    32
  0
VERTEX
  8
01
  5
15FA8
 10
305.455
 20
-816.304
 30
0.000000
  70
    32
  0
VERTEX
  8
01
  5
15FA9
 10
305.391
 20
-816.409
 30
0.000000
  70
    32
  0
VERTEX
  8
01
  5
15FAA
 10
305.324
 20
-816.514
 30
0.000000
  70
    32
  0
VERTEX
  8
01
  5
15FAB
 10
305.252
 20
-816.617
 30
0.000000
  70
    32
  0
VERTEX
  8
01
  5
15FAC
 10
305.177
 20
-816.719
 30
0.000000
  70
    32
  0
VERTEX
  8
01
  5
15FAD
 10
305.098
 20
-816.820
 30
0.000000
  70
    32
  0
VERTEX
  8
01
  5
15FAE
 10
305.015
 20
-816.919
 30
0.000000
  70
    32
  0
VERTEX
  8
01
  5
15FAF
 10
304.928
 20
-817.017
 30
0.000000
  70
    32
  0
VERTEX
  8
01
  5
15FB0
 10
304.838
 20
-817.114
 30
0.000000
  70
    32
  0
VERTEX
  8
01
  5
15FB1
 10
304.745
 20
-817.209
 30
0.000000
  70
    32
  0
VERTEX
  8
01
  5
15FB2
 10
304.647
 20
-817.303
 30
0.000000
  70
    32
  0
VERTEX
  8
01
  5
15FB3
 10
304.547
 20
-817.395
 30
0.000000
  70
    32
  0
VERTEX
  8
01
  5
15FB4
 10
304.443
 20
-817.485
 30
0.000000
  70
    32
  0
VERTEX
  8
01
  5
15FB5
 10
304.335
 20
-817.574
 30
0.000000
  70
    32
  0
VERTEX
  8
01
  5
15FB6
 10
304.225
 20
-817.661
 30
0.000000
  70
    32
  0
VERTEX
  8
01
  5
15FB7
 10
304.111
 20
-817.746
 30
0.000000
  70
    32
  0
VERTEX
  8
01
  5
15FB8
 10
303.994
 20
-817.829
 30
0.000000
  70
    32
  0
VERTEX
  8
01
  5
15FB9
 10
303.874
 20
-817.910
 30
0.000000
  70
    32
  0
VERTEX
  8
01
  5
15FBA
 10
303.751
 20
-817.990
 30
0.000000
  70
    32
  0
VERTEX
  8
01
  5
15FBB
 10
303.625
 20
-818.067
 30
0.000000
  70
    32
  0
VERTEX
  8
01
  5
15FBC
 10
303.496
 20
-818.142
 30
0.000000
  70
    32
  0
VERTEX
  8
01
  5
15FBD
 10
303.365
 20
-818.215
 30
0.000000
  70
    32
  0
VERTEX
  8
01
  5
15FBE
 10
303.231
 20
-818.286
 30
0.000000
  70
    32
  0
VERTEX
  8
01
  5
15FBF
 10
303.094
 20
-818.355
 30
0.000000
  70
    32
  0
VERTEX
  8
01
  5
15FC0
 10
302.955
 20
-818.421
 30
0.000000
  70
    32
  0
VERTEX
  8
01
  5
15FC1
 10
302.813
 20
-818.486
 30
0.000000
  70
    32
  0
VERTEX
  8
01
  5
15FC2
 10
302.669
 20
-818.548
 30
0.000000
  70
    32
  0
VERTEX
  8
01
  5
15FC3
 10
302.523
 20
-818.607
 30
0.000000
  70
    32
  0
VERTEX
  8
01
  5
15FC4
 10
302.375
 20
-818.664
 30
0.000000
  70
    32
  0
VERTEX
  8
01
  5
15FC5
 10
302.224
 20
-818.719
 30
0.000000
  70
    32
  0
VERTEX
  8
01
  5
15FC6
 10
302.071
 20
-818.771
 30
0.000000
  70
    32
  0
VERTEX
  8
01
  5
15FC7
 10
301.917
 20
-818.821
 30
0.000000
  70
    32
  0
VERTEX
  8
01
  5
15FC8
 10
301.761
 20
-818.869
 30
0.000000
  70
    32
  0
VERTEX
  8
01
  5
15FC9
 10
301.603
 20
-818.913
 30
0.000000
  70
    32
  0
VERTEX
  8
01
  5
15FCA
 10
301.443
 20
-818.955
 30
0.000000
  70
    32
  0
VERTEX
  8
01
  5
15FCB
 10
301.282
 20
-818.995
 30
0.000000
  70
    32
  0
VERTEX
  8
01
  5
15FCC
 10
301.120
 20
-819.032
 30
0.000000
  70
    32
  0
VERTEX
  8
01
  5
15FCD
 10
300.956
 20
-819.066
 30
0.000000
  70
    32
  0
VERTEX
  8
01
  5
15FCE
 10
300.791
 20
-819.098
 30
0.000000
  70
    32
  0
VERTEX
  8
01
  5
15FCF
 10
300.625
 20
-819.127
 30
0.000000
  70
    32
  0
VERTEX
  8
01
  5
15FD0
 10
300.458
 20
-819.153
 30
0.000000
  70
    32
  0
VERTEX
  8
01
  5
15FD1
 10
300.290
 20
-819.177
 30
0.000000
  70
    32
  0
VERTEX
  8
01
  5
15FD2
 10
300.121
 20
-819.197
 30
0.000000
  70
    32
  0
VERTEX
  8
01
  5
15FD3
 10
299.951
 20
-819.215
 30
0.000000
  70
    32
  0
VERTEX
  8
01
  5
15FD4
 10
299.781
 20
-819.231
 30
0.000000
  70
    32
  0
VERTEX
  8
01
  5
15FD5
 10
299.610
 20
-819.243
 30
0.000000
  70
    32
  0
VERTEX
  8
01
  5
15FD6
 10
299.439
 20
-819.253
 30
0.000000
  70
    32
  0
VERTEX
  8
01
  5
15FD7
 10
299.268
 20
-819.260
 30
0.000000
  70
    32
  0
VERTEX
  8
01
  5
15FD8
 10
299.096
 20
-819.264
 30
0.000000
  70
    32
  0
VERTEX
  8
01
  5
15FD9
 10
298.924
 20
-819.265
 30
0.000000
  70
    32
  0
VERTEX
  8
01
  5
15FDA
 10
298.752
 20
-819.264
 30
0.000000
  70
    32
  0
VERTEX
  8
01
  5
15FDB
 10
298.581
 20
-819.260
 30
0.000000
  70
    32
  0
VERTEX
  8
01
  5
15FDC
 10
298.409
 20
-819.253
 30
0.000000
  70
    32
  0
VERTEX
  8
01
  5
15FDD
 10
298.238
 20
-819.243
 30
0.000000
  70
    32
  0
VERTEX
  8
01
  5
15FDE
 10
298.067
 20
-819.231
 30
0.000000
  70
    32
  0
VERTEX
  8
01
  5
15FDF
 10
297.897
 20
-819.215
 30
0.000000
  70
    32
  0
VERTEX
  8
01
  5
15FE0
 10
297.727
 20
-819.197
 30
0.000000
  70
    32
  0
VERTEX
  8
01
  5
15FE1
 10
297.559
 20
-819.177
 30
0.000000
  70
    32
  0
VERTEX
  8
01
  5
15FE2
 10
297.391
 20
-819.153
 30
0.000000
  70
    32
  0
VERTEX
  8
01
  5
15FE3
 10
297.223
 20
-819.127
 30
0.000000
  70
    32
  0
VERTEX
  8
01
  5
15FE4
 10
297.057
 20
-819.098
 30
0.000000
  70
    32
  0
VERTEX
  8
01
  5
15FE5
 10
296.892
 20
-819.066
 30
0.000000
  70
    32
  0
VERTEX
  8
01
  5
15FE6
 10
296.728
 20
-819.032
 30
0.000000
  70
    32
  0
VERTEX
  8
01
  5
15FE7
 10
296.566
 20
-818.995
 30
0.000000
  70
    32
  0
VERTEX
  8
01
  5
15FE8
 10
296.405
 20
-818.955
 30
0.000000
  70
    32
  0
VERTEX
  8
01
  5
15FE9
 10
296.245
 20
-818.913
 30
0.000000
  70
    32
  0
VERTEX
  8
01
  5
15FEA
 10
296.088
 20
-818.869
 30
0.000000
  70
    32
  0
VERTEX
  8
01
  5
15FEB
 10
295.931
 20
-818.821
 30
0.000000
  70
    32
  0
VERTEX
  8
01
  5
15FEC
 10
295.777
 20
-818.771
 30
0.000000
  70
    32
  0
VERTEX
  8
01
  5
15FED
 10
295.624
 20
-818.719
 30
0.000000
  70
    32
  0
VERTEX
  8
01
  5
15FEE
 10
295.474
 20
-818.664
 30
0.000000
  70
    32
  0
VERTEX
  8
01
  5
15FEF
 10
295.325
 20
-818.607
 30
0.000000
  70
    32
  0
VERTEX
  8
01
  5
15FF0
 10
295.179
 20
-818.548
 30
0.000000
  70
    32
  0
VERTEX
  8
01
  5
15FF1
 10
295.035
 20
-818.486
 30
0.000000
  70
    32
  0
VERTEX
  8
01
  5
15FF2
 10
294.894
 20
-818.421
 30
0.000000
  70
    32
  0
VERTEX
  8
01
  5
15FF3
 10
294.754
 20
-818.355
 30
0.000000
  70
    32
  0
VERTEX
  8
01
  5
15FF4
 10
294.618
 20
-818.286
 30
0.000000
  70
    32
  0
VERTEX
  8
01
  5
15FF5
 10
294.483
 20
-818.215
 30
0.000000
  70
    32
  0
VERTEX
  8
01
  5
15FF6
 10
294.352
 20
-818.142
 30
0.000000
  70
    32
  0
VERTEX
  8
01
  5
15FF7
 10
294.223
 20
-818.067
 30
0.000000
  70
    32
  0
VERTEX
  8
01
  5
15FF8
 10
294.097
 20
-817.990
 30
0.000000
  70
    32
  0
VERTEX
  8
01
  5
15FF9
 10
293.974
 20
-817.910
 30
0.000000
  70
    32
  0
VERTEX
  8
01
  5
15FFA
 10
293.854
 20
-817.829
 30
0.000000
  70
    32
  0
VERTEX
  8
01
  5
15FFB
 10
293.738
 20
-817.746
 30
0.000000
  70
    32
  0
VERTEX
  8
01
  5
15FFC
 10
293.624
 20
-817.661
 30
0.000000
  70
    32
  0
VERTEX
  8
01
  5
15FFD
 10
293.513
 20
-817.574
 30
0.000000
  70
    32
  0
VERTEX
  8
01
  5
15FFE
 10
293.406
 20
-817.485
 30
0.000000
  70
    32
  0
VERTEX
  8
01
  5
15FFF
 10
293.302
 20
-817.395
 30
0.000000
  70
    32
  0
VERTEX
  8
01
  5
16000
 10
293.201
 20
-817.303
 30
0.000000
  70
    32
  0
VERTEX
  8
01
  5
16001
 10
293.104
 20
-817.209
 30
0.000000
  70
    32
  0
VERTEX
  8
01
  5
16002
 10
293.010
 20
-817.114
 30
0.000000
  70
    32
  0
VERTEX
  8
01
  5
16003
 10
292.920
 20
-817.017
 30
0.000000
  70
    32
  0
VERTEX
  8
01
  5
16004
 10
292.834
 20
-816.919
 30
0.000000
  70
    32
  0
VERTEX
  8
01
  5
16005
 10
292.751
 20
-816.820
 30
0.000000
  70
    32
  0
VERTEX
  8
01
  5
16006
 10
292.672
 20
-816.719
 30
0.000000
  70
    32
  0
VERTEX
  8
01
  5
16007
 10
292.596
 20
-816.617
 30
0.000000
  70
    32
  0
VERTEX
  8
01
  5
16008
 10
292.525
 20
-816.514
 30
0.000000
  70
    32
  0
VERTEX
  8
01
  5
16009
 10
292.457
 20
-816.409
 30
0.000000
  70
    32
  0
VERTEX
  8
01
  5
1600A
 10
292.393
 20
-816.304
 30
0.000000
  70
    32
  0
VERTEX
  8
01
  5
1600B
 10
292.333
 20
-816.197
 30
0.000000
  70
    32
  0
VERTEX
  8
01
  5
1600C
 10
292.278
 20
-816.090
 30
0.000000
  70
    32
  0
VERTEX
  8
01
  5
1600D
 10
292.226
 20
-815.982
 30
0.000000
  70
    32
  0
VERTEX
  8
01
  5
1600E
 10
292.178
 20
-815.873
 30
0.000000
  70
    32
  0
VERTEX
  8
01
  5
1600F
 10
292.134
 20
-815.763
 30
0.000000
  70
    32
  0
VERTEX
  8
01
  5
16010
 10
292.094
 20
-815.652
 30
0.000000
  70
    32
  0
VERTEX
  8
01
  5
16011
 10
292.059
 20
-815.541
 30
0.000000
  70
    32
  0
VERTEX
  8
01
  5
16012
 10
292.027
 20
-815.430
 30
0.000000
  70
    32
  0
VERTEX
  8
01
  5
16013
 10
292.000
 20
-815.317
 30
0.000000
  70
    32
  0
VERTEX
  8
01
  5
16014
 10
291.977
 20
-815.205
 30
0.000000
  70
    32
  0
VERTEX
  8
01
  5
16015
 10
291.958
 20
-815.092
 30
0.000000
  70
    32
  0
VERTEX
  8
01
  5
16016
 10
291.943
 20
-814.979
 30
0.000000
  70
    32
  0
VERTEX
  8
01
  5
16017
 10
291.933
 20
-814.866
 30
0.000000
  70
    32
  0
VERTEX
  8
01
  5
16018
 10
291.926
 20
-814.752
 30
0.000000
  70
    32
  0
VERTEX
  8
01
  5
16019
 10
291.924
 20
-814.638
 30
0.000000
  70
    32
  0
SEQEND
  8
01
  5
1601A
  0
LINE
  5
152EB
  8
01
 10
-171.07578592055361
 20
-881.13846573904812
 30
0.0
 11
-171.0757859205531
 21
-896.138465739048
 31
0.0
  0
ARC
  5
152EC
  8
01
 10
-170.5757859205531
 20
-896.138465739048
 30
0.0
 40
0.5
 50
180.0
 51
270.0
  0
LINE
  5
152EE
  8
01
 10
-131.0757859205581
 20
-881.13846573904777
 30
0.0
 11
-131.0757859205531
 21
-896.138465739048
 31
0.0
  0
ARC
  5
152EF
  8
01
 10
-131.5757859205531
 20
-881.13846573904812
 30
0.0
 40
0.5
 50
0.0
 51
90.0
  0
LINE
  5
152F0
  8
01
 10
-170.5757859205531
 20
-896.63846573904834
 30
0.0
 11
-131.5757859205531
 21
-896.63846573904812
 31
0.0
  0
ARC
  5
152F1
  8
01
 10
-131.5757859205531
 20
-896.138465739048
 30
0.0
 40
0.5
 50
270.0
 51
0.0
  0
LINE
  5
152F2
  8
01
 10
-170.57578592055361
 20
-880.63846573904812
 30
0.0
 11
-131.5757859205531
 21
-880.63846573904812
 31
0.0
  0
ARC
  5
152F3
  8
01
 10
-170.57578592055361
 20
-881.13846573904812
 30
0.0
 40
0.5
 50
90.0
 51
180.0
  0
ARC
  5
152F4
  8
01
 10
-151.0757859205531
 20
-888.63846573904812
 30
0.0
 40
12.0
 50
221.8103148957837
 51
318.18968510421632
  0
ARC
  5
152F5
  8
01
 10
-151.0757859205531
 20
-888.63846573904812
 30
0.0
 40
12.0
 50
41.810314895783719
 51
138.18968510421621
  0
ARC
  5
152F6
  8
01
 10
-151.0757859205531
 20
-888.63846573904812
 30
0.0
 40
27.5
 50
12.576281616565041
 51
347.37174929902142
  0
LINE
  5
152F8
  8
01
 10
-178.5757859205531
 20
-771.63846573904823
 30
0.0
 11
-178.5757859205531
 21
-766.13846573904823
 31
0.0
  0
ARC
  5
152F9
  8
01
 10
-178.0757859205531
 20
-771.63846573904823
 30
0.0
 40
0.5
 50
180.0
 51
270.0
  0
LINE
  5
152FA
  8
01
 10
-123.5757859205531
 20
-771.63846573904777
 30
0.0
 11
-123.5757859205531
 21
-766.13846573904777
 31
0.0
  0
ARC
  5
152FB
  8
01
 10
-124.0757859205531
 20
-771.63846573904777
 30
0.0
 40
0.5
 50
270.0
 51
0.0
  0
LINE
  5
152FC
  8
01
 10
-163.0757859205531
 20
-795.63846573904812
 30
0.0
 11
-163.0757859205531
 21
-772.13846573904812
 31
0.0
  0
ARC
  5
152FD
  8
01
 10
-162.5757859205531
 20
-795.63846573904812
 30
0.0
 40
0.5
 50
180.0
 51
270.0
  0
LINE
  5
152FE
  8
01
 10
-139.0757859205531
 20
-795.63846573904812
 30
0.0
 11
-139.0757859205531
 21
-772.138465739048
 31
0.0
  0
ARC
  5
152FF
  8
01
 10
-139.5757859205531
 20
-795.63846573904812
 30
0.0
 40
0.5
 50
270.0
 51
0.0
  0
LINE
  5
15300
  8
01
 10
-131.0757859205531
 20
-830.63846573904812
 30
0.0
 11
-131.0757859205531
 21
-815.638465739048
 31
0.0
  0
ARC
  5
15301
  8
01
 10
-131.5757859205531
 20
-815.638465739048
 30
0.0
 40
0.5
 50
0.0
 51
90.0
  0
LINE
  5
15302
  8
01
 10
-171.0757859205531
 20
-830.63846573904812
 30
0.0
 11
-171.0757859205531
 21
-815.63846573904823
 31
0.0
  0
ARC
  5
15303
  8
01
 10
-170.5757859205531
 20
-830.63846573904812
 30
0.0
 40
0.5
 50
180.0
 51
270.0
  0
LINE
  5
15304
  8
01
 10
-144.0757859205531
 20
-814.63846573904812
 30
0.0
 11
-144.0757859205531
 21
-796.13846573904812
 31
0.0
  0
ARC
  5
15305
  8
01
 10
-143.5757859205531
 20
-814.63846573904812
 30
0.0
 40
0.5
 50
180.0
 51
270.0
  0
LINE
  5
15306
  8
01
 10
-158.0757859205531
 20
-814.63846573904812
 30
0.0
 11
-158.0757859205531
 21
-796.13846573904812
 31
0.0
  0
LINE
  5
15307
  8
01
 10
-131.5757859205531
 20
-815.13846573904812
 30
0.0
 11
-143.5757859205531
 21
-815.13846573904812
 31
0.0
  0
LINE
  5
15308
  8
01
 10
-158.5757859205531
 20
-815.13846573904812
 30
0.0
 11
-170.5757859205531
 21
-815.13846573904812
 31
0.0
  0
ARC
  5
15309
  8
01
 10
-158.5757859205531
 20
-814.63846573904812
 30
0.0
 40
0.5
 50
270.0
 51
0.0
  0
ARC
  5
1530A
  8
01
 10
-170.5757859205531
 20
-815.63846573904823
 30
0.0
 40
0.5
 50
90.0
 51
180.0
  0
LINE
  5
1530B
  8
01
 10
-131.5757859205531
 20
-831.13846573904812
 30
0.0
 11
-170.5757859205531
 21
-831.13846573904812
 31
0.0
  0
ARC
  5
1530C
  8
01
 10
-131.5757859205531
 20
-830.63846573904812
 30
0.0
 40
0.5
 50
270.0
 51
0.0
  0
LINE
  5
1530D
  8
01
 10
-162.5757859205531
 20
-796.13846573904812
 30
0.0
 11
-139.5757859205531
 21
-796.13846573904812
 31
0.0
  0
LINE
  5
1530E
  8
01
 10
-178.0757859205531
 20
-772.13846573904823
 30
0.0
 11
-124.0757859205531
 21
-772.13846573904789
 31
0.0
  0
LINE
  5
1530F
  8
01
 10
-178.5757859205531
 20
-766.13846573904823
 30
0.0
 11
-123.5757859205531
 21
-766.13846573904777
 31
0.0
  0
POLYLINE
  5
15310
  8
01
 10
-158.0757859205531
 20
-814.63846573904812
 30
0.0
 66
     1
 70
     8
  0
VERTEX
  8
01
  5
1601B
 10
-158.076
 20
-814.638
 30
0.000000
  70
    32
  0
VERTEX
  8
01
  5
1601C
 10
-158.074
 20
-814.752
 30
0.000000
  70
    32
  0
VERTEX
  8
01
  5
1601D
 10
-158.067
 20
-814.866
 30
0.000000
  70
    32
  0
VERTEX
  8
01
  5
1601E
 10
-158.057
 20
-814.979
 30
0.000000
  70
    32
  0
VERTEX
  8
01
  5
1601F
 10
-158.042
 20
-815.092
 30
0.000000
  70
    32
  0
VERTEX
  8
01
  5
16020
 10
-158.023
 20
-815.205
 30
0.000000
  70
    32
  0
VERTEX
  8
01
  5
16021
 10
-158.000
 20
-815.317
 30
0.000000
  70
    32
  0
VERTEX
  8
01
  5
16022
 10
-157.973
 20
-815.430
 30
0.000000
  70
    32
  0
VERTEX
  8
01
  5
16023
 10
-157.941
 20
-815.541
 30
0.000000
  70
    32
  0
VERTEX
  8
01
  5
16024
 10
-157.906
 20
-815.652
 30
0.000000
  70
    32
  0
VERTEX
  8
01
  5
16025
 10
-157.866
 20
-815.763
 30
0.000000
  70
    32
  0
VERTEX
  8
01
  5
16026
 10
-157.822
 20
-815.873
 30
0.000000
  70
    32
  0
VERTEX
  8
01
  5
16027
 10
-157.774
 20
-815.982
 30
0.000000
  70
    32
  0
VERTEX
  8
01
  5
16028
 10
-157.722
 20
-816.090
 30
0.000000
  70
    32
  0
VERTEX
  8
01
  5
16029
 10
-157.667
 20
-816.197
 30
0.000000
  70
    32
  0
VERTEX
  8
01
  5
1602A
 10
-157.607
 20
-816.304
 30
0.000000
  70
    32
  0
VERTEX
  8
01
  5
1602B
 10
-157.543
 20
-816.409
 30
0.000000
  70
    32
  0
VERTEX
  8
01
  5
1602C
 10
-157.475
 20
-816.514
 30
0.000000
  70
    32
  0
VERTEX
  8
01
  5
1602D
 10
-157.404
 20
-816.617
 30
0.000000
  70
    32
  0
VERTEX
  8
01
  5
1602E
 10
-157.328
 20
-816.719
 30
0.000000
  70
    32
  0
VERTEX
  8
01
  5
1602F
 10
-157.249
 20
-816.820
 30
0.000000
  70
    32
  0
VERTEX
  8
01
  5
16030
 10
-157.166
 20
-816.919
 30
0.000000
  70
    32
  0
VERTEX
  8
01
  5
16031
 10
-157.080
 20
-817.017
 30
0.000000
  70
    32
  0
VERTEX
  8
01
  5
16032
 10
-156.990
 20
-817.114
 30
0.000000
  70
    32
  0
VERTEX
  8
01
  5
16033
 10
-156.896
 20
-817.209
 30
0.000000
  70
    32
  0
VERTEX
  8
01
  5
16034
 10
-156.799
 20
-817.303
 30
0.000000
  70
    32
  0
VERTEX
  8
01
  5
16035
 10
-156.698
 20
-817.395
 30
0.000000
  70
    32
  0
VERTEX
  8
01
  5
16036
 10
-156.594
 20
-817.485
 30
0.000000
  70
    32
  0
VERTEX
  8
01
  5
16037
 10
-156.487
 20
-817.574
 30
0.000000
  70
    32
  0
VERTEX
  8
01
  5
16038
 10
-156.376
 20
-817.661
 30
0.000000
  70
    32
  0
VERTEX
  8
01
  5
16039
 10
-156.262
 20
-817.746
 30
0.000000
  70
    32
  0
VERTEX
  8
01
  5
1603A
 10
-156.146
 20
-817.829
 30
0.000000
  70
    32
  0
VERTEX
  8
01
  5
1603B
 10
-156.026
 20
-817.910
 30
0.000000
  70
    32
  0
VERTEX
  8
01
  5
1603C
 10
-155.903
 20
-817.990
 30
0.000000
  70
    32
  0
VERTEX
  8
01
  5
1603D
 10
-155.777
 20
-818.067
 30
0.000000
  70
    32
  0
VERTEX
  8
01
  5
1603E
 10
-155.648
 20
-818.142
 30
0.000000
  70
    32
  0
VERTEX
  8
01
  5
1603F
 10
-155.517
 20
-818.215
 30
0.000000
  70
    32
  0
VERTEX
  8
01
  5
16040
 10
-155.382
 20
-818.286
 30
0.000000
  70
    32
  0
VERTEX
  8
01
  5
16041
 10
-155.246
 20
-818.355
 30
0.000000
  70
    32
  0
VERTEX
  8
01
  5
16042
 10
-155.106
 20
-818.421
 30
0.000000
  70
    32
  0
VERTEX
  8
01
  5
16043
 10
-154.965
 20
-818.486
 30
0.000000
  70
    32
  0
VERTEX
  8
01
  5
16044
 10
-154.821
 20
-818.548
 30
0.000000
  70
    32
  0
VERTEX
  8
01
  5
16045
 10
-154.675
 20
-818.607
 30
0.000000
  70
    32
  0
VERTEX
  8
01
  5
16046
 10
-154.526
 20
-818.664
 30
0.000000
  70
    32
  0
VERTEX
  8
01
  5
16047
 10
-154.376
 20
-818.719
 30
0.000000
  70
    32
  0
VERTEX
  8
01
  5
16048
 10
-154.223
 20
-818.771
 30
0.000000
  70
    32
  0
VERTEX
  8
01
  5
16049
 10
-154.069
 20
-818.821
 30
0.000000
  70
    32
  0
VERTEX
  8
01
  5
1604A
 10
-153.912
 20
-818.869
 30
0.000000
  70
    32
  0
VERTEX
  8
01
  5
1604B
 10
-153.755
 20
-818.913
 30
0.000000
  70
    32
  0
VERTEX
  8
01
  5
1604C
 10
-153.595
 20
-818.955
 30
0.000000
  70
    32
  0
VERTEX
  8
01
  5
1604D
 10
-153.434
 20
-818.995
 30
0.000000
  70
    32
  0
VERTEX
  8
01
  5
1604E
 10
-153.272
 20
-819.032
 30
0.000000
  70
    32
  0
VERTEX
  8
01
  5
1604F
 10
-153.108
 20
-819.066
 30
0.000000
  70
    32
  0
VERTEX
  8
01
  5
16050
 10
-152.943
 20
-819.098
 30
0.000000
  70
    32
  0
VERTEX
  8
01
  5
16051
 10
-152.777
 20
-819.127
 30
0.000000
  70
    32
  0
VERTEX
  8
01
  5
16052
 10
-152.609
 20
-819.153
 30
0.000000
  70
    32
  0
VERTEX
  8
01
  5
16053
 10
-152.441
 20
-819.177
 30
0.000000
  70
    32
  0
VERTEX
  8
01
  5
16054
 10
-152.273
 20
-819.197
 30
0.000000
  70
    32
  0
VERTEX
  8
01
  5
16055
 10
-152.103
 20
-819.215
 30
0.000000
  70
    32
  0
VERTEX
  8
01
  5
16056
 10
-151.933
 20
-819.231
 30
0.000000
  70
    32
  0
VERTEX
  8
01
  5
16057
 10
-151.762
 20
-819.243
 30
0.000000
  70
    32
  0
VERTEX
  8
01
  5
16058
 10
-151.591
 20
-819.253
 30
0.000000
  70
    32
  0
VERTEX
  8
01
  5
16059
 10
-151.419
 20
-819.260
 30
0.000000
  70
    32
  0
VERTEX
  8
01
  5
1605A
 10
-151.248
 20
-819.264
 30
0.000000
  70
    32
  0
VERTEX
  8
01
  5
1605B
 10
-151.076
 20
-819.265
 30
0.000000
  70
    32
  0
VERTEX
  8
01
  5
1605C
 10
-150.904
 20
-819.264
 30
0.000000
  70
    32
  0
VERTEX
  8
01
  5
1605D
 10
-150.732
 20
-819.260
 30
0.000000
  70
    32
  0
VERTEX
  8
01
  5
1605E
 10
-150.561
 20
-819.253
 30
0.000000
  70
    32
  0
VERTEX
  8
01
  5
1605F
 10
-150.390
 20
-819.243
 30
0.000000
  70
    32
  0
VERTEX
  8
01
  5
16060
 10
-150.219
 20
-819.231
 30
0.000000
  70
    32
  0
VERTEX
  8
01
  5
16061
 10
-150.049
 20
-819.215
 30
0.000000
  70
    32
  0
VERTEX
  8
01
  5
16062
 10
-149.879
 20
-819.197
 30
0.000000
  70
    32
  0
VERTEX
  8
01
  5
16063
 10
-149.710
 20
-819.177
 30
0.000000
  70
    32
  0
VERTEX
  8
01
  5
16064
 10
-149.542
 20
-819.153
 30
0.000000
  70
    32
  0
VERTEX
  8
01
  5
16065
 10
-149.375
 20
-819.127
 30
0.000000
  70
    32
  0
VERTEX
  8
01
  5
16066
 10
-149.209
 20
-819.098
 30
0.000000
  70
    32
  0
VERTEX
  8
01
  5
16067
 10
-149.044
 20
-819.066
 30
0.000000
  70
    32
  0
VERTEX
  8
01
  5
16068
 10
-148.880
 20
-819.032
 30
0.000000
  70
    32
  0
VERTEX
  8
01
  5
16069
 10
-148.718
 20
-818.995
 30
0.000000
  70
    32
  0
VERTEX
  8
01
  5
1606A
 10
-148.557
 20
-818.955
 30
0.000000
  70
    32
  0
VERTEX
  8
01
  5
1606B
 10
-148.397
 20
-818.913
 30
0.000000
  70
    32
  0
VERTEX
  8
01
  5
1606C
 10
-148.239
 20
-818.869
 30
0.000000
  70
    32
  0
VERTEX
  8
01
  5
1606D
 10
-148.083
 20
-818.821
 30
0.000000
  70
    32
  0
VERTEX
  8
01
  5
1606E
 10
-147.929
 20
-818.771
 30
0.000000
  70
    32
  0
VERTEX
  8
01
  5
1606F
 10
-147.776
 20
-818.719
 30
0.000000
  70
    32
  0
VERTEX
  8
01
  5
16070
 10
-147.625
 20
-818.664
 30
0.000000
  70
    32
  0
VERTEX
  8
01
  5
16071
 10
-147.477
 20
-818.607
 30
0.000000
  70
    32
  0
VERTEX
  8
01
  5
16072
 10
-147.331
 20
-818.548
 30
0.000000
  70
    32
  0
VERTEX
  8
01
  5
16073
 10
-147.187
 20
-818.486
 30
0.000000
  70
    32
  0
VERTEX
  8
01
  5
16074
 10
-147.045
 20
-818.421
 30
0.000000
  70
    32
  0
VERTEX
  8
01
  5
16075
 10
-146.906
 20
-818.355
 30
0.000000
  70
    32
  0
VERTEX
  8
01
  5
16076
 10
-146.769
 20
-818.286
 30
0.000000
  70
    32
  0
VERTEX
  8
01
  5
16077
 10
-146.635
 20
-818.215
 30
0.000000
  70
    32
  0
VERTEX
  8
01
  5
16078
 10
-146.504
 20
-818.142
 30
0.000000
  70
    32
  0
VERTEX
  8
01
  5
16079
 10
-146.375
 20
-818.067
 30
0.000000
  70
    32
  0
VERTEX
  8
01
  5
1607A
 10
-146.249
 20
-817.990
 30
0.000000
  70
    32
  0
VERTEX
  8
01
  5
1607B
 10
-146.126
 20
-817.910
 30
0.000000
  70
    32
  0
VERTEX
  8
01
  5
1607C
 10
-146.006
 20
-817.829
 30
0.000000
  70
    32
  0
VERTEX
  8
01
  5
1607D
 10
-145.889
 20
-817.746
 30
0.000000
  70
    32
  0
VERTEX
  8
01
  5
1607E
 10
-145.775
 20
-817.661
 30
0.000000
  70
    32
  0
VERTEX
  8
01
  5
1607F
 10
-145.665
 20
-817.574
 30
0.000000
  70
    32
  0
VERTEX
  8
01
  5
16080
 10
-145.557
 20
-817.485
 30
0.000000
  70
    32
  0
VERTEX
  8
01
  5
16081
 10
-145.453
 20
-817.395
 30
0.000000
  70
    32
  0
VERTEX
  8
01
  5
16082
 10
-145.353
 20
-817.303
 30
0.000000
  70
    32
  0
VERTEX
  8
01
  5
16083
 10
-145.255
 20
-817.209
 30
0.000000
  70
    32
  0
VERTEX
  8
01
  5
16084
 10
-145.162
 20
-817.114
 30
0.000000
  70
    32
  0
VERTEX
  8
01
  5
16085
 10
-145.072
 20
-817.017
 30
0.000000
  70
    32
  0
VERTEX
  8
01
  5
16086
 10
-144.985
 20
-816.919
 30
0.000000
  70
    32
  0
VERTEX
  8
01
  5
16087
 10
-144.902
 20
-816.820
 30
0.000000
  70
    32
  0
VERTEX
  8
01
  5
16088
 10
-144.823
 20
-816.719
 30
0.000000
  70
    32
  0
VERTEX
  8
01
  5
16089
 10
-144.748
 20
-816.617
 30
0.000000
  70
    32
  0
VERTEX
  8
01
  5
1608A
 10
-144.676
 20
-816.514
 30
0.000000
  70
    32
  0
VERTEX
  8
01
  5
1608B
 10
-144.609
 20
-816.409
 30
0.000000
  70
    32
  0
VERTEX
  8
01
  5
1608C
 10
-144.545
 20
-816.304
 30
0.000000
  70
    32
  0
VERTEX
  8
01
  5
1608D
 10
-144.485
 20
-816.197
 30
0.000000
  70
    32
  0
VERTEX
  8
01
  5
1608E
 10
-144.429
 20
-816.090
 30
0.000000
  70
    32
  0
VERTEX
  8
01
  5
1608F
 10
-144.377
 20
-815.982
 30
0.000000
  70
    32
  0
VERTEX
  8
01
  5
16090
 10
-144.329
 20
-815.873
 30
0.000000
  70
    32
  0
VERTEX
  8
01
  5
16091
 10
-144.286
 20
-815.763
 30
0.000000
  70
    32
  0
VERTEX
  8
01
  5
16092
 10
-144.246
 20
-815.652
 30
0.000000
  70
    32
  0
VERTEX
  8
01
  5
16093
 10
-144.210
 20
-815.541
 30
0.000000
  70
    32
  0
VERTEX
  8
01
  5
16094
 10
-144.179
 20
-815.430
 30
0.000000
  70
    32
  0
VERTEX
  8
01
  5
16095
 10
-144.152
 20
-815.317
 30
0.000000
  70
    32
  0
VERTEX
  8
01
  5
16096
 10
-144.128
 20
-815.205
 30
0.000000
  70
    32
  0
VERTEX
  8
01
  5
16097
 10
-144.109
 20
-815.092
 30
0.000000
  70
    32
  0
VERTEX
  8
01
  5
16098
 10
-144.095
 20
-814.979
 30
0.000000
  70
    32
  0
VERTEX
  8
01
  5
16099
 10
-144.084
 20
-814.866
 30
0.000000
  70
    32
  0
VERTEX
  8
01
  5
1609A
 10
-144.078
 20
-814.752
 30
0.000000
  70
    32
  0
VERTEX
  8
01
  5
1609B
 10
-144.076
 20
-814.638
 30
0.000000
  70
    32
  0
SEQEND
  8
01
  5
1609C
  0
LINE
  5
15328
  8
01
 10
-131.0757859205531
 20
-817.15063695740139
 30
0.0
 11
278.92421407944693
 21
-817.15063695740139
 31
0.0
  0
LINE
  5
15329
  8
01
 10
-131.0757859205531
 20
-829.1506369574015
 30
0.0
 11
278.92421407944693
 21
-829.1506369574015
 31
0.0
  0
LINE
  5
15334
  8
01
 10
-131.07578592055771
 20
-882.65063695740162
 30
0.0
 11
278.92421407944693
 21
-882.65063695740162
 31
0.0
  0
LINE
  5
15338
  8
01
 10
-131.07578592055361
 20
-894.65063695740128
 30
0.0
 11
278.92421407944693
 21
-894.65063695740128
 31
0.0
  0
LINE
  5
154E3
  8
1PHANTOM
 10
-138.5757859205531
 20
-766.13846573904834
 30
0.0
 11
-163.5757859205531
 21
-766.13846573904777
 31
0.0
  0
LINE
  5
154E4
  8
1PHANTOM
 10
-139.0757859205531
 20
-769.13846573904834
 30
0.0
 11
-144.5930886574377
 21
-769.13846573904834
 31
0.0
  0
LINE
  5
154E5
  8
1PHANTOM
 10
-157.5584831836685
 20
-769.13846573904789
 30
0.0
 11
-163.0757859205531
 21
-769.13846573904789
 31
0.0
  0
LINE
  5
154E6
  8
1PHANTOM
 10
-138.5757859205531
 20
-768.63846573904834
 30
0.0
 11
-138.5757859205531
 21
-766.13846573904834
 31
0.0
  0
ARC
  5
154E7
  8
1PHANTOM
 10
-139.07578592055259
 20
-768.63846573904789
 30
0.0
 40
0.5
 50
270.0
 51
0.0
  0
LINE
  5
154E8
  8
1PHANTOM
 10
-163.5757859205531
 20
-768.63846573904789
 30
0.0
 11
-163.5757859205531
 21
-766.13846573904777
 31
0.0
  0
ARC
  5
154E9
  8
1PHANTOM
 10
-163.0757859205527
 20
-768.63846573904789
 30
0.0
 40
0.5
 50
180.0
 51
270.0
  0
LINE
  5
154EA
  8
1PHANTOM
 10
-145.94249460048911
 20
-790.14719194226666
 30
0.0
 11
-145.59293635259371
 21
-770.12101333261103
 31
0.0
  0
ARC
  5
154EB
  8
1PHANTOM
 10
-144.59308865743679
 20
-770.13846573904777
 30
0.0
 40
1.0
 50
90.0
 51
178.99999999999821
  0
LINE
  5
154EC
  8
1PHANTOM
 10
-156.20907724061621
 20
-790.14719194226632
 30
0.0
 11
-156.55863548851249
 21
-770.12101333261057
 31
0.0
  0
ARC
  5
154ED
  8
1PHANTOM
 10
-155.70915339303821
 20
-790.13846573904789
 30
0.0
 40
0.5
 50
181.00000000000171
 51
270.0
  0
ARC
  5
154EE
  8
1PHANTOM
 10
-157.5584831836685
 20
-770.13846573904777
 30
0.0
 40
1.0
 50
1.000000000001761
 51
90.0
  0
LINE
  5
154EF
  8
1PHANTOM
 10
-146.44241844806751
 20
-790.63846573904834
 30
0.0
 11
-155.70915339303869
 21
-790.63846573904789
 31
0.0
  0
ARC
  5
154F0
  8
1PHANTOM
 10
-146.442418448068
 20
-790.13846573904789
 30
0.0
 40
0.5
 50
270.0
 51
358.99999999999818
  0
LINE
  5
154F2
  8
1PHANTOM
 10
-145.5757859205531
 20
-883.638465739048
 30
0.0
 11
-145.5757859205531
 21
-893.63846573904812
 31
0.0
  0
ARC
  5
154F3
  8
1PHANTOM
 10
-146.0757859205531
 20
-893.63846573904812
 30
0.0
 40
0.5
 50
270.0
 51
0.0
  0
LINE
  5
154F4
  8
1PHANTOM
 10
-156.5757859205531
 20
-883.638465739048
 30
0.0
 11
-156.5757859205531
 21
-893.63846573904812
 31
0.0
  0
ARC
  5
154F5
  8
1PHANTOM
 10
-156.0757859205531
 20
-883.638465739048
 30
0.0
 40
0.5
 50
90.0
 51
180.0
  0
LINE
  5
154F6
  8
1PHANTOM
 10
-163.5757859205531
 20
-868.63846573904812
 30
0.0
 11
-163.5757859205531
 21
-888.13846573904823
 31
0.0
  0
LINE
  5
154F7
  8
1PHANTOM
 10
-163.5757859205531
 20
-889.13846573904823
 30
0.0
 11
-163.5757859205531
 21
-908.638465739048
 31
0.0
  0
ARC
  5
154F8
  8
1PHANTOM
 10
-160.5757859205531
 20
-868.63846573904812
 30
0.0
 40
3.0
 50
90.0
 51
180.0
  0
LINE
  5
154F9
  8
1PHANTOM
 10
-138.5757859205531
 20
-868.63846573904812
 30
0.0
 11
-138.5757859205531
 21
-888.13846573904823
 31
0.0
  0
LINE
  5
154FA
  8
1PHANTOM
 10
-138.5757859205531
 20
-889.13846573904823
 30
0.0
 11
-138.5757859205531
 21
-908.638465739048
 31
0.0
  0
ARC
  5
154FB
  8
1PHANTOM
 10
-141.5757859205531
 20
-908.638465739048
 30
0.0
 40
3.0
 50
270.0
 51
0.0
  0
LINE
  5
154FC
  8
1PHANTOM
 10
-146.0757859205531
 20
-883.13846573904812
 30
0.0
 11
-156.0757859205531
 21
-883.13846573904812
 31
0.0
  0
ARC
  5
154FD
  8
1PHANTOM
 10
-146.0757859205531
 20
-883.638465739048
 30
0.0
 40
0.5
 50
0.0
 51
90.0
  0
LINE
  5
154FE
  8
1PHANTOM
 10
-146.0757859205531
 20
-894.138465739048
 30
0.0
 11
-156.0757859205531
 21
-894.138465739048
 31
0.0
  0
ARC
  5
154FF
  8
1PHANTOM
 10
-156.0757859205531
 20
-893.63846573904812
 30
0.0
 40
0.5
 50
180.0
 51
270.0
  0
LINE
  5
15500
  8
1PHANTOM
 10
-141.5757859205531
 20
-911.63846573904812
 30
0.0
 11
-150.5757859205531
 21
-911.63846573904812
 31
0.0
  0
LINE
  5
15501
  8
1PHANTOM
 10
-151.5757859205531
 20
-911.63846573904812
 30
0.0
 11
-160.5757859205531
 21
-911.63846573904812
 31
0.0
  0
ARC
  5
15502
  8
1PHANTOM
 10
-160.5757859205531
 20
-908.638465739048
 30
0.0
 40
3.0
 50
180.0
 51
270.0
  0
LINE
  5
15503
  8
1PHANTOM
 10
-141.5757859205531
 20
-865.638465739048
 30
0.0
 11
-150.5757859205531
 21
-865.638465739048
 31
0.0
  0
LINE
  5
15504
  8
1PHANTOM
 10
-151.5757859205531
 20
-865.638465739048
 30
0.0
 11
-160.5757859205531
 21
-865.638465739048
 31
0.0
  0
ARC
  5
15505
  8
1PHANTOM
 10
-141.5757859205531
 20
-868.63846573904812
 30
0.0
 40
3.0
 50
0.0
 51
90.0
  0
CIRCLE
  5
15506
  8
1PHANTOM
 10
-151.0757859205531
 20
-903.63846573904812
 30
0.0
 40
2.25
  0
CIRCLE
  5
15507
  8
1PHANTOM
 10
-151.0757859205531
 20
-873.638465739048
 30
0.0
 40
2.25
  0
LINE
  5
15508
  8
1PHANTOM
 10
-151.0757859205531
 20
-911.138465739048
 30
0.0
 11
-151.5757859205531
 21
-911.63846573904812
 31
0.0
  0
LINE
  5
15509
  8
1PHANTOM
 10
-151.0757859205531
 20
-911.138465739048
 30
0.0
 11
-150.5757859205531
 21
-911.63846573904812
 31
0.0
  0
LINE
  5
1550A
  8
1PHANTOM
 10
-151.0757859205531
 20
-866.13846573904812
 30
0.0
 11
-151.5757859205531
 21
-865.638465739048
 31
0.0
  0
LINE
  5
1550B
  8
1PHANTOM
 10
-151.0757859205531
 20
-866.13846573904812
 30
0.0
 11
-150.5757859205531
 21
-865.638465739048
 31
0.0
  0
LINE
  5
1550C
  8
1PHANTOM
 10
-163.0757859205531
 20
-888.63846573904812
 30
0.0
 11
-163.5757859205531
 21
-888.13846573904823
 31
0.0
  0
LINE
  5
1550D
  8
1PHANTOM
 10
-163.0757859205531
 20
-888.63846573904812
 30
0.0
 11
-163.5757859205531
 21
-889.13846573904823
 31
0.0
  0
LINE
  5
1550E
  8
1PHANTOM
 10
-139.0757859205531
 20
-888.63846573904812
 30
0.0
 11
-138.5757859205531
 21
-888.13846573904823
 31
0.0
  0
LINE
  5
1550F
  8
1PHANTOM
 10
-139.0757859205531
 20
-888.63846573904812
 30
0.0
 11
-138.5757859205531
 21
-889.13846573904823
 31
0.0
  0
LINE
  5
155BA
  8
01
 10
450.40676167300961
 20
-848.37131530700697
 30
0.0
 11
450.40676167300961
 21
-928.37131530700651
 31
0.0
  0
LINE
  5
155BB
  8
01
 10
459.40676167300973
 20
-848.37131530700697
 30
0.0
 11
459.40676167300973
 21
-928.37131530700651
 31
0.0
  0
LINE
  5
155BC
  8
01
 10
441.40676167300961
 20
-848.37131530700697
 30
0.0
 11
441.40676167300961
 21
-928.37131530700651
 31
0.0
  0
TEXT
  5
155BD
  8
1DIM
 10
451.22920740993931
 20
-834.08081851746692
 30
0.0
 40
3.5
  1
合板9mm以上
  0
SOLID
  5
155BE
  8
1DIM
 10
454.02991383957419
 20
-847.2366200341321
 30
0.0
 11
454.4847125090289
 21
-849.21254242161922
 31
0.0
 12
453.41365785819772
 22
-847.49092892084627
 32
0.0
 13
453.41365785819772
 23
-847.49092892084627
 33
0.0
  0
SOLID
  5
155C0
  8
1HATCH
 10
445.96639302704352
 20
-847.23223350403259
 30
0.0
 11
445.98673029508763
 21
-849.25971901733237
 31
0.0
 12
445.30992946965148
 22
-847.34842318627943
 32
0.0
 13
445.30992946965148
 23
-847.34842318627943
 33
0.0
  0
TEXT
  5
155C2
  8
1HATCH
 10
444.39519624873418
 20
-828.07947250034294
 30
0.0
 40
3.5
  1
PB
  0
LINE
  5
155C7
  8
01
 10
388.29719742565459
 20
-895.63846573904812
 30
0.0
 11
411.42421407944698
 21
-895.63846573904812
 31
0.0
  0
LINE
  5
155C8
  8
01
 10
388.29719742565459
 20
-881.638465739048
 30
0.0
 11
411.42421407944698
 21
-881.638465739048
 31
0.0
  0
LINE
  5
155C9
  8
01
 10
411.42421407944698
 20
-891.13846573904812
 30
0.0
 11
411.42421407944698
 21
-895.63846573904812
 31
0.0
  0
LINE
  5
155CA
  8
01
 10
411.92421407944698
 20
-876.63846573904823
 30
0.0
 11
435.42421407944693
 21
-876.63846573904823
 31
0.0
  0
ARC
  5
155CB
  8
01
 10
411.92421407944698
 20
-877.13846573904812
 30
0.0
 40
0.5
 50
90.0
 51
180.0
  0
LINE
  5
155CC
  8
01
 10
411.92421407944698
 20
-900.63846573904823
 30
0.0
 11
435.42421407944693
 21
-900.63846573904823
 31
0.0
  0
ARC
  5
155CD
  8
01
 10
411.92421407944698
 20
-900.13846573904812
 30
0.0
 40
0.5
 50
180.0
 51
270.0
  0
LINE
  5
155CE
  8
01
 10
435.42421407944693
 20
-861.63846573904812
 30
0.0
 11
435.42421407944647
 21
-915.638465739048
 31
0.0
  0
LINE
  5
155CF
  8
01
 10
411.42421407944698
 20
-877.13846573904812
 30
0.0
 11
411.42421407944698
 21
-900.13846573904812
 31
0.0
  0
LINE
  5
155D0
  8
1PHANTOM
 10
441.40676167300961
 20
-911.37131530700708
 30
0.0
 11
441.40676167300961
 21
-865.37131530700697
 31
0.0
  0
LINE
  5
155D1
  8
1PHANTOM
 10
438.40676167300973
 20
-910.87131530700697
 30
0.0
 11
438.40676167300978
 21
-894.85401257012279
 31
0.0
  0
ARC
  5
155D2
  8
1PHANTOM
 10
438.90676167300973
 20
-910.87131530700697
 30
0.0
 40
0.5
 50
180.0
 51
270.0
  0
LINE
  5
155D3
  8
1PHANTOM
 10
438.40676167300973
 20
-881.88861804389182
 30
0.0
 11
438.40676167300973
 21
-865.87131530700697
 31
0.0
  0
ARC
  5
155D4
  8
1PHANTOM
 10
438.90676167300973
 20
-865.87131530700697
 30
0.0
 40
0.5
 50
90.0
 51
180.0
  0
LINE
  5
155D5
  8
1PHANTOM
 10
417.39803546979101
 20
-883.23802398694352
 30
0.0
 11
437.42421407944698
 21
-882.88846573904823
 31
0.0
  0
ARC
  5
155D6
  8
1PHANTOM
 10
417.40676167300978
 20
-883.73794783452195
 30
0.0
 40
0.5
 50
91.000000000001776
 51
180.0
  0
ARC
  5
155D7
  8
1PHANTOM
 10
437.40676167300961
 20
-881.88861804389182
 30
0.0
 40
1.0
 50
271.00000000000182
 51
0.0
  0
LINE
  5
155D8
  8
1PHANTOM
 10
426.90676167300961
 20
-890.81653442303559
 30
0.0
 11
426.90676167300961
 21
-893.67058206033289
 31
0.0
  0
LINE
  5
155D9
  8
1PHANTOM
 10
419.40676167300961
 20
-891.25497880099681
 30
0.0
 11
419.40676167300961
 21
-893.53966907337087
 31
0.0
  0
LINE
  5
155DA
  8
1PHANTOM
 10
416.90676167300961
 20
-883.73794783452195
 30
0.0
 11
416.90676167300961
 21
-893.00468277949255
 31
0.0
  0
ARC
  5
155DB
  8
1PHANTOM
 10
417.40676167300973
 20
-893.00468277949255
 30
0.0
 40
0.5
 50
180.0
 51
268.99999999999829
  0
ARC
  5
155DC
  8
1PHANTOM
 10
419.9067616730099
 20
-891.25497880099681
 30
0.0
 40
0.5
 50
104.9999999999944
 51
180.0
  0
LINE
  5
155DD
  8
1PHANTOM
 10
438.90676167300973
 20
-911.37131530700708
 30
0.0
 11
441.40676167300961
 21
-911.37131530700708
 31
0.0
  0
LINE
  5
155DE
  8
1PHANTOM
 10
441.40676167300961
 20
-865.37131530700697
 30
0.0
 11
438.90676167300973
 21
-865.37131530700697
 31
0.0
  0
LINE
  5
155DF
  8
1PHANTOM
 10
417.39803546979101
 20
-893.5046066270711
 30
0.0
 11
419.40676167300961
 21
-893.53966907337087
 31
0.0
  0
LINE
  5
155E0
  8
1PHANTOM
 10
426.90676167300961
 20
-893.67058206033289
 30
0.0
 11
437.42421407944698
 21
-893.85416487496639
 31
0.0
  0
ARC
  5
155E1
  8
1PHANTOM
 10
437.4067616730099
 20
-894.85401257012279
 30
0.0
 40
1.0
 50
0.0
 51
88.999999999998224
  0
LINE
  5
155E2
  8
1PHANTOM
 10
425.01853310535603
 20
-889.36764568360184
 30
0.0
 11
419.77735215045851
 21
-890.77201588785226
 31
0.0
  0
ARC
  5
155E3
  8
1PHANTOM
 10
425.40676167300961
 20
-890.81653442303559
 30
0.0
 40
1.5
 50
6.2448453045700463
 51
104.9999999999944
  0
LINE
  5
155E4
  8
01
 10
441.4242140794471
 20
-861.138465739048
 30
0.0
 11
441.4242140794471
 21
-916.13846573904812
 31
0.0
  0
ARC
  5
155E5
  8
01
 10
435.92421407944698
 20
-915.638465739048
 30
0.0
 40
0.5
 50
180.0
 51
270.0
  0
LINE
  5
155E6
  8
01
 10
441.4242140794471
 20
-916.13846573904812
 30
0.0
 11
435.92421407944698
 21
-916.13846573904812
 31
0.0
  0
LINE
  5
155E7
  8
01
 10
441.4242140794471
 20
-861.138465739048
 30
0.0
 11
435.92421407944721
 21
-861.138465739048
 31
0.0
  0
ARC
  5
155E8
  8
01
 10
435.92421407944721
 20
-861.63846573904812
 30
0.0
 40
0.5
 50
90.0
 51
180.0
  0
LINE
  5
155EB
  8
1CENTER
 10
423.42421308760021
 20
-902.28215604906802
 30
0.0
 11
423.42423497561123
 21
-889.43403423232303
 31
0.0
  0
ARC
  5
155EC
  8
1PHANTOM
 10
424.92423502059341
 20
-890.53603173602414
 30
0.0
 40
0.5
 50
359.9996800427503
 51
90.0
  0
LINE
  5
155ED
  8
1PHANTOM
 10
421.92423502060882
 20
-890.03603173602426
 30
0.0
 11
424.92423502059341
 21
-890.03603173602426
 31
0.0
  0
LINE
  5
155EE
  8
1PHANTOM
 10
425.42423502058563
 20
-890.53603452817777
 30
0.0
 11
425.42422105983172
 21
-893.03603173595911
 31
0.0
  0
ARC
  5
155EF
  8
1PHANTOM
 10
421.92423502060882
 20
-890.53603173602414
 30
0.0
 40
0.5000000000000001
 50
90.0
 51
179.99968004275021
  0
LINE
  5
155F0
  8
1PHANTOM
 10
425.42422105983172
 20
-893.03603173595911
 30
0.0
 11
426.4242210598336
 21
-893.53602993595985
 31
0.0
  0
LINE
  5
155F1
  8
1PHANTOM
 10
421.42422105983172
 20
-893.03603173595911
 30
0.0
 11
421.42423502061649
 21
-890.53602894387041
 31
0.0
  0
LINE
  5
155F2
  8
1PHANTOM
 10
426.4242210598336
 20
-893.53602993595985
 30
0.0
 11
426.42421407944511
 21
-900.53603363594345
 31
0.0
  0
LINE
  5
155F3
  8
1PHANTOM
 10
420.42422105983349
 20
-893.53602993595814
 30
0.0
 11
421.42422105983172
 21
-893.03603173595911
 31
0.0
  0
LINE
  5
155F4
  8
1PHANTOM
 10
426.42421407944511
 20
-900.53603363594345
 30
0.0
 11
425.92421407944522
 21
-901.03603383594589
 31
0.0
  0
LINE
  5
155F5
  8
1PHANTOM
 10
420.4242140794492
 20
-900.53602963594528
 30
0.0
 11
420.42422105983349
 21
-893.53602993595814
 31
0.0
  0
LINE
  5
155F6
  8
1PHANTOM
 10
425.92421407944522
 20
-901.03603383594589
 30
0.0
 11
425.92421407944693
 21
-901.03603173594274
 31
0.0
  0
LINE
  5
155F7
  8
1PHANTOM
 10
420.92421407944897
 20
-901.03602953594509
 30
0.0
 11
420.4242140794492
 21
-900.53602963594528
 31
0.0
  0
LINE
  5
155F8
  8
1PHANTOM
 10
425.92421407944693
 20
-901.03603173594274
 30
0.0
 11
420.92421407944698
 21
-901.03603173594274
 31
0.0
  0
LINE
  5
155F9
  8
1PHANTOM
 10
420.92421407944698
 20
-901.03603173594274
 30
0.0
 11
420.92421407944897
 21
-901.03602953594509
 31
0.0
  0
LINE
  5
155FA
  8
1PHANTOM
 10
425.92421407944693
 20
-901.03603173594274
 30
0.0
 11
425.92422105983172
 21
-893.28603093595927
 31
0.0
  0
POINT
  5
155FB
  8
01
 10
423.42423502060109
 20
-889.6384657391294
 30
0.0
  0
CIRCLE
  5
155FD
  8
01
 10
384.42421407944698
 20
-888.63846573904812
 30
0.0
 40
8.0
  0
LINE
  5
155FF
  8
1PHANTOM
 10
420.9242163415563
 20
-901.03602321796643
 30
0.0
 11
420.92423576691249
 21
-893.28602241800388
 31
0.0
  0
LINE
  5
15600
  8
1CENTER
 10
384.42421407944698
 20
-891.638465739048
 30
0.0
 11
384.42421407944698
 21
-885.63846573904812
 31
0.0
  0
LINE
  5
15601
  8
1CENTER
 10
381.42421407944698
 20
-888.63846573904812
 30
0.0
 11
387.42421407944698
 21
-888.63846573904812
 31
0.0
  0
TEXT
  5
15606
  8
1TEXT
 10
153.1765950318279
 20
-761.63846573904834
 30
0.0
 40
4.0
  1
表面処理：
 72
     1
 11
163.8242140794469
 21
-761.63846573904834
 31
0.0
  0
TEXT
  5
15607
  8
1TEXT
 10
154.49088074611359
 20
-768.47375439857274
 30
0.0
 40
4.0
  1
クローム
 72
     1
 11
163.8242140794469
 21
-768.47375439857274
 31
0.0
  0
LINE
  5
15608
  8
1DIM
 10
146.4242140794469
 20
-756.13846573904834
 30
0.0
 11
216.4242140794469
 21
-756.13846573904834
 31
0.0
  0
LINE
  5
15609
  8
1DIM
 10
146.4242140794469
 20
-770.13846573904834
 30
0.0
 11
216.4242140794469
 21
-770.13846573904834
 31
0.0
  0
LINE
  5
1560A
  8
1DIM
 10
146.4242140794469
 20
-763.13846573904834
 30
0.0
 11
216.4242140794469
 21
-763.13846573904834
 31
0.0
  0
LINE
  5
1560B
  8
1DIM
 10
146.4242140794469
 20
-777.13846573904834
 30
0.0
 11
216.4242140794469
 21
-777.13846573904834
 31
0.0
  0
LINE
  5
1560C
  8
1DIM
 10
146.4242140794469
 20
-777.13846573904834
 30
0.0
 11
216.4242140794469
 21
-777.13846573904834
 31
0.0
  0
LINE
  5
1560D
  8
1DIM
 10
181.42421407944681
 20
-756.13846573904834
 30
0.0
 11
181.42421407944681
 21
-777.13846573904834
 31
0.0
  0
TEXT
  5
1560E
  8
1TEXT
 10
186.1575474127807
 20
-768.85282272269774
 30
0.0
 40
4.0
  1
SA481XC
 72
     1
 11
198.82421407944739
 21
-768.85282272269774
 31
0.0
  0
TEXT
  5
1560F
  8
1TEXT
 10
192.02421407944689
 20
-761.63846573904834
 30
0.0
 40
4.0
  1
コード
 72
     1
 11
198.8242140794469
 21
-761.63846573904834
 31
0.0
  0
LINE
  5
15610
  8
1DIM
 10
146.4242140794469
 20
-777.13846573904834
 30
0.0
 11
146.4242140794469
 21
-756.13846573904834
 31
0.0
  0
LINE
  5
15611
  8
1DIM
 10
216.4242140794469
 20
-777.13846573904834
 30
0.0
 11
216.4242140794469
 21
-756.13846573904834
 31
0.0
  0
TEXT
  5
15612
  8
1TEXT
 10
151.1575474127803
 20
-775.47375439857274
 30
0.0
 40
4.0
  1
鏡面+ブラストクローム
 41
0.5
 72
     1
 11
163.8242140794469
 21
-775.47375439857274
 31
0.0
  0
TEXT
  5
15613
  8
1TEXT
 10
186.1575474127807
 20
-775.85282272269774
 30
0.0
 40
4.0
  1
SA481CE
 72
     1
 11
198.82421407944739
 21
-775.85282272269774
 31
0.0
  0
LINE
  5
156C7
  8
1PHANTOM
 10
311.42421407944693
 20
-766.13846573904834
 30
0.0
 11
286.42421407944693
 21
-766.13846573904777
 31
0.0
  0
LINE
  5
156C8
  8
1PHANTOM
 10
310.92421407944693
 20
-769.13846573904834
 30
0.0
 11
305.40691134256218
 21
-769.13846573904834
 31
0.0
  0
LINE
  5
156C9
  8
1PHANTOM
 10
292.4415168163315
 20
-769.13846573904789
 30
0.0
 11
286.92421407944693
 21
-769.13846573904789
 31
0.0
  0
LINE
  5
156CA
  8
1PHANTOM
 10
311.42421407944693
 20
-768.63846573904834
 30
0.0
 11
311.42421407944693
 21
-766.13846573904834
 31
0.0
  0
ARC
  5
156CB
  8
1PHANTOM
 10
310.92421407944732
 20
-768.63846573904789
 30
0.0
 40
0.5
 50
270.0
 51
0.0
  0
LINE
  5
156CC
  8
1PHANTOM
 10
286.42421407944693
 20
-768.63846573904789
 30
0.0
 11
286.42421407944693
 21
-766.13846573904777
 31
0.0
  0
ARC
  5
156CD
  8
1PHANTOM
 10
286.92421407944732
 20
-768.63846573904789
 30
0.0
 40
0.5
 50
180.0
 51
270.0
  0
LINE
  5
156CE
  8
1PHANTOM
 10
304.05750539951089
 20
-790.14719194226666
 30
0.0
 11
304.40706364740629
 21
-770.12101333261103
 31
0.0
  0
ARC
  5
156CF
  8
1PHANTOM
 10
305.40691134256321
 20
-770.13846573904777
 30
0.0
 40
1.0
 50
90.0
 51
178.99999999999821
  0
LINE
  5
156D0
  8
1PHANTOM
 10
293.79092275938382
 20
-790.14719194226632
 30
0.0
 11
293.44136451148739
 21
-770.12101333261057
 31
0.0
  0
ARC
  5
156D1
  8
1PHANTOM
 10
294.29084660696168
 20
-790.13846573904789
 30
0.0
 40
0.5
 50
181.00000000000171
 51
270.0
  0
ARC
  5
156D2
  8
1PHANTOM
 10
292.4415168163315
 20
-770.13846573904777
 30
0.0
 40
1.0
 50
1.000000000001761
 51
90.0
  0
LINE
  5
156D3
  8
1PHANTOM
 10
303.55758155193251
 20
-790.63846573904834
 30
0.0
 11
294.29084660696128
 21
-790.63846573904789
 31
0.0
  0
ARC
  5
156D4
  8
1PHANTOM
 10
303.557581551932
 20
-790.13846573904789
 30
0.0
 40
0.5
 50
270.0
 51
358.99999999999818
  0
LINE
  5
156D6
  8
1PHANTOM
 10
304.42421407944693
 20
-883.638465739048
 30
0.0
 11
304.42421407944693
 21
-893.63846573904812
 31
0.0
  0
ARC
  5
156D7
  8
1PHANTOM
 10
303.92421407944693
 20
-893.63846573904812
 30
0.0
 40
0.5
 50
270.0
 51
0.0
  0
LINE
  5
156D8
  8
1PHANTOM
 10
293.42421407944693
 20
-883.638465739048
 30
0.0
 11
293.42421407944693
 21
-893.63846573904812
 31
0.0
  0
ARC
  5
156D9
  8
1PHANTOM
 10
293.92421407944693
 20
-883.638465739048
 30
0.0
 40
0.5
 50
90.0
 51
180.0
  0
LINE
  5
156DA
  8
1PHANTOM
 10
286.42421407944693
 20
-868.63846573904812
 30
0.0
 11
286.42421407944693
 21
-888.13846573904823
 31
0.0
  0
LINE
  5
156DB
  8
1PHANTOM
 10
286.42421407944693
 20
-889.13846573904823
 30
0.0
 11
286.42421407944693
 21
-908.638465739048
 31
0.0
  0
ARC
  5
156DC
  8
1PHANTOM
 10
289.42421407944693
 20
-868.63846573904812
 30
0.0
 40
3.0
 50
90.0
 51
180.0
  0
LINE
  5
156DD
  8
1PHANTOM
 10
311.42421407944693
 20
-868.63846573904812
 30
0.0
 11
311.42421407944693
 21
-888.13846573904823
 31
0.0
  0
LINE
  5
156DE
  8
1PHANTOM
 10
311.42421407944693
 20
-889.13846573904823
 30
0.0
 11
311.42421407944693
 21
-908.638465739048
 31
0.0
  0
ARC
  5
156DF
  8
1PHANTOM
 10
308.42421407944693
 20
-908.638465739048
 30
0.0
 40
3.0
 50
270.0
 51
0.0
  0
LINE
  5
156E0
  8
1PHANTOM
 10
303.92421407944693
 20
-883.13846573904812
 30
0.0
 11
293.92421407944693
 21
-883.13846573904812
 31
0.0
  0
ARC
  5
156E1
  8
1PHANTOM
 10
303.92421407944693
 20
-883.638465739048
 30
0.0
 40
0.5
 50
0.0
 51
90.0
  0
LINE
  5
156E2
  8
1PHANTOM
 10
303.92421407944693
 20
-894.138465739048
 30
0.0
 11
293.92421407944693
 21
-894.138465739048
 31
0.0
  0
ARC
  5
156E3
  8
1PHANTOM
 10
293.92421407944693
 20
-893.63846573904812
 30
0.0
 40
0.5
 50
180.0
 51
270.0
  0
LINE
  5
156E4
  8
1PHANTOM
 10
308.42421407944693
 20
-911.63846573904812
 30
0.0
 11
299.42421407944693
 21
-911.63846573904812
 31
0.0
  0
LINE
  5
156E5
  8
1PHANTOM
 10
298.42421407944693
 20
-911.63846573904812
 30
0.0
 11
289.42421407944693
 21
-911.63846573904812
 31
0.0
  0
ARC
  5
156E6
  8
1PHANTOM
 10
289.42421407944693
 20
-908.638465739048
 30
0.0
 40
3.0
 50
180.0
 51
270.0
  0
LINE
  5
156E7
  8
1PHANTOM
 10
308.42421407944693
 20
-865.638465739048
 30
0.0
 11
299.42421407944693
 21
-865.638465739048
 31
0.0
  0
LINE
  5
156E8
  8
1PHANTOM
 10
298.42421407944693
 20
-865.638465739048
 30
0.0
 11
289.42421407944693
 21
-865.638465739048
 31
0.0
  0
ARC
  5
156E9
  8
1PHANTOM
 10
308.42421407944693
 20
-868.63846573904812
 30
0.0
 40
3.0
 50
0.0
 51
90.0
  0
CIRCLE
  5
156EA
  8
1PHANTOM
 10
298.92421407944693
 20
-903.63846573904812
 30
0.0
 40
2.25
  0
CIRCLE
  5
156EB
  8
1PHANTOM
 10
298.92421407944693
 20
-873.638465739048
 30
0.0
 40
2.25
  0
LINE
  5
156EC
  8
1PHANTOM
 10
298.92421407944693
 20
-911.138465739048
 30
0.0
 11
298.42421407944693
 21
-911.63846573904812
 31
0.0
  0
LINE
  5
156ED
  8
1PHANTOM
 10
298.92421407944693
 20
-911.138465739048
 30
0.0
 11
299.42421407944693
 21
-911.63846573904812
 31
0.0
  0
LINE
  5
156EE
  8
1PHANTOM
 10
298.92421407944693
 20
-866.13846573904812
 30
0.0
 11
298.42421407944693
 21
-865.638465739048
 31
0.0
  0
LINE
  5
156EF
  8
1PHANTOM
 10
298.92421407944693
 20
-866.13846573904812
 30
0.0
 11
299.42421407944693
 21
-865.638465739048
 31
0.0
  0
LINE
  5
156F0
  8
1PHANTOM
 10
286.92421407944693
 20
-888.63846573904812
 30
0.0
 11
286.42421407944693
 21
-888.13846573904823
 31
0.0
  0
LINE
  5
156F1
  8
1PHANTOM
 10
286.92421407944693
 20
-888.63846573904812
 30
0.0
 11
286.42421407944693
 21
-889.13846573904823
 31
0.0
  0
LINE
  5
156F2
  8
1PHANTOM
 10
310.92421407944693
 20
-888.63846573904812
 30
0.0
 11
311.42421407944693
 21
-888.13846573904823
 31
0.0
  0
LINE
  5
156F3
  8
1PHANTOM
 10
310.92421407944693
 20
-888.63846573904812
 30
0.0
 11
311.42421407944693
 21
-889.13846573904823
 31
0.0
  0
CIRCLE
  5
156F6
  8
1PHANTOM
 10
384.42421407944698
 20
-888.63846573904812
 30
0.0
 40
6.0
  0
LINE
  5
15731
  8
1CENTER
 10
298.92421407944693
 20
-906.638465739048
 30
0.0
 11
298.92421407944693
 21
-900.63846573904823
 31
0.0
  0
LINE
  5
15732
  8
1CENTER
 10
295.92421407944693
 20
-903.63846573904812
 30
0.0
 11
301.92421407944693
 21
-903.63846573904812
 31
0.0
  0
LINE
  5
15733
  8
1CENTER
 10
298.92421407944693
 20
-876.63846573904823
 30
0.0
 11
298.92421407944693
 21
-870.63846573904812
 31
0.0
  0
LINE
  5
15734
  8
1CENTER
 10
295.92421407944693
 20
-873.638465739048
 30
0.0
 11
301.92421407944693
 21
-873.638465739048
 31
0.0
  0
LINE
  5
15735
  8
1CENTER
 10
-151.0757859205531
 20
-906.638465739048
 30
0.0
 11
-151.0757859205531
 21
-900.63846573904823
 31
0.0
  0
LINE
  5
15736
  8
1CENTER
 10
-154.0757859205531
 20
-903.63846573904812
 30
0.0
 11
-148.0757859205531
 21
-903.63846573904812
 31
0.0
  0
LINE
  5
15737
  8
1CENTER
 10
-151.0757859205531
 20
-876.63846573904823
 30
0.0
 11
-151.0757859205531
 21
-870.63846573904812
 31
0.0
  0
LINE
  5
15738
  8
1CENTER
 10
-154.0757859205531
 20
-873.638465739048
 30
0.0
 11
-148.0757859205531
 21
-873.638465739048
 31
0.0
  0
TEXT
  5
1592F
  8
1DIM
 10
333.18838609279021
 20
-844.48037018026105
 30
0.0
 40
3.5
  1
材質：亜鉛ダイキャスト
  0
TEXT
  5
15930
  8
1DIM
 10
333.18838609279021
 20
-850.31370351359465
 30
0.0
 40
3.5
  1
仕上げ：各種メッキ
  0
SOLID
  5
15931
  8
1DIM
 10
313.89278726335209
 20
-822.69675164799708
 30
0.0
 11
313.18838609279021
 21
-820.79545469538255
 31
0.0
 12
314.47134837389939
 22
-822.36552440605203
 32
0.0
 13
314.47134837389939
 23
-822.36552440605203
 33
0.0
  0
TEXT
  5
15933
  8
1DIM
 10
330.92421407944693
 20
-811.37870748958994
 30
0.0
 40
3.5
  1
材質：亜鉛ダイキャスト
  0
TEXT
  5
15934
  8
1DIM
 10
330.92421407944693
 20
-817.21204082292331
 30
0.0
 40
3.5
  1
仕上げ：各種メッキ
  0
SOLID
  5
15935
  8
1DIM
 10
311.62861525000881
 20
-789.59508895732586
 30
0.0
 11
310.92421407944693
 21
-787.69379200471121
 31
0.0
 12
312.2071763605561
 22
-789.2638617153807
 32
0.0
 13
312.2071763605561
 23
-789.2638617153807
 33
0.0
  0
TEXT
  5
15937
  8
1DIM
 10
336.25085095390602
 20
-798.55905302507836
 30
0.0
 40
3.5
  1
材質：亜鉛ダイキャスト
  0
TEXT
  5
15938
  8
1DIM
 10
336.25085095390602
 20
-804.39238635841173
 30
0.0
 40
3.5
  1
仕上げ：各種メッキ
  0
SOLID
  5
15939
  8
1DIM
 10
316.86833196686842
 20
-773.35109462127707
 30
0.0
 11
316.25085095390602
 21
-771.41981827912855
 31
0.0
 12
317.46131450956727
 22
-773.04643719317312
 32
0.0
 13
317.46131450956727
 23
-773.04643719317312
 33
0.0
  0
TEXT
  5
1593B
  8
1DIM
 10
204.83279079009449
 20
-797.12066614441176
 30
0.0
 40
3.5
  1
材質：ステンレス
  0
TEXT
  5
1593C
  8
1DIM
 10
204.83279079009449
 20
-802.95399947774536
 30
0.0
 40
3.5
  1
仕上げ：鏡面研磨
  0
SOLID
  5
1593D
  8
1DIM
 10
186.40992689128839
 20
-821.86464935866923
 30
0.0
 11
184.83279079009441
 21
-823.13891496262397
 31
0.0
 12
185.91140096021149
 22
-821.42202498011738
 32
0.0
 13
185.91140096021149
 23
-821.42202498011738
 33
0.0
  0
LINE
  5
1593F
  8
1DIM
 10
441.4242140794471
 20
-916.13846573904812
 30
0.0
 11
441.4242140794471
 21
-937.138465739048
 31
0.0
  0
LINE
  5
15940
  8
1DIM
 10
376.42421407944698
 20
-888.63846573904812
 30
0.0
 11
376.42421407944698
 21
-937.138465739048
 31
0.0
  0
LINE
  5
15941
  8
1DIM
 10
439.42421407944721
 20
-936.138465739048
 30
0.0
 11
378.42421407944698
 21
-936.138465739048
 31
0.0
  0
LINE
  5
15945
  8
1DIM
 10
435.92421407944698
 20
-916.13846573904812
 30
0.0
 11
345.42421407944693
 21
-916.13846573904812
 31
0.0
  0
LINE
  5
15946
  8
1DIM
 10
435.92421407944721
 20
-861.138465739048
 30
0.0
 11
345.42421407944698
 21
-861.138465739048
 31
0.0
  0
LINE
  5
15947
  8
1DIM
 10
346.42421407944693
 20
-914.13846573904823
 30
0.0
 11
346.42421407944698
 21
-863.13846573904823
 31
0.0
  0
LINE
  5
1594B
  8
1DIM
 10
437.17811870936117
 20
-873.37131530700697
 30
0.0
 11
365.42421407944693
 21
-873.37131530700697
 31
0.0
  0
LINE
  5
1594C
  8
1DIM
 10
381.42421407944698
 20
-888.63846573904812
 30
0.0
 11
365.42421407944693
 21
-888.63846573904812
 31
0.0
  0
LINE
  5
1594D
  8
1DIM
 10
366.42421407944693
 20
-875.37131530700708
 30
0.0
 11
366.42421407944693
 21
-886.63846573904812
 31
0.0
  0
LINE
  5
15951
  8
1DIM
 10
435.92421407944721
 20
-861.138465739048
 30
0.0
 11
355.42421407944698
 21
-861.138465739048
 31
0.0
  0
LINE
  5
15952
  8
1DIM
 10
381.42421407944698
 20
-888.63846573904812
 30
0.0
 11
355.42421407944698
 21
-888.63846573904812
 31
0.0
  0
LINE
  5
15953
  8
1DIM
 10
356.42421407944698
 20
-863.13846573904823
 30
0.0
 11
356.42421407944698
 21
-886.63846573904812
 31
0.0
  0
LINE
  5
15957
  8
1DIM
 10
166.42421407944701
 20
-892.65063695740128
 30
0.0
 11
166.42421407944701
 21
-884.6506369574015
 31
0.0
  0
LINE
  5
1595B
  8
1DIM1
 10
-178.5757859205531
 20
-888.63846573904812
 30
0.0
 11
-178.5757859205531
 21
-979.138465739048
 31
0.0
  0
LINE
  5
1595C
  8
1DIM1
 10
326.42421407944698
 20
-888.63846573904812
 30
0.0
 11
326.42421407944698
 21
-979.138465739048
 31
0.0
  0
LINE
  5
1595D
  8
1DIM1
 10
-172.5757859205531
 20
-976.13846573904812
 30
0.0
 11
320.42421407944698
 21
-976.13846573904812
 31
0.0
  0
LINE
  5
15961
  8
1DIM1
 10
-151.0757859205531
 20
-906.638465739048
 30
0.0
 11
-151.0757859205531
 21
-949.13846573904812
 31
0.0
  0
LINE
  5
15962
  8
1DIM1
 10
298.92421407944693
 20
-906.638465739048
 30
0.0
 11
298.92421407944693
 21
-949.13846573904812
 31
0.0
  0
LINE
  5
15963
  8
1DIM1
 10
-145.0757859205531
 20
-946.138465739048
 30
0.0
 11
292.92421407944693
 21
-946.138465739048
 31
0.0
  0
LINE
  5
15967
  8
1CENTER
 10
298.92421407944693
 20
-737.53396901113706
 30
0.0
 11
298.92421407944693
 21
-770.36710205851193
 31
0.0
  0
LINE
  5
15969
  8
0
 10
296.92426061534479
 20
-754.08846054840092
 30
0.0
 11
300.92426061534479
 21
-753.28846985557834
 31
0.0
  0
LINE
  5
1596A
  8
0
 10
297.37707675740359
 20
-742.68846160201099
 30
0.0
 11
300.24503945873403
 21
-741.88846827516988
 31
0.0
  0
LINE
  5
1596B
  8
0
 10
299.79222535432717
 20
-740.28846722156425
 30
0.0
 11
299.20394877928481
 21
-739.97669736531225
 31
0.0
  0
LINE
  5
1596C
  8
0
 10
298.28706210608289
 20
-741.23989845205574
 30
0.0
 11
297.82989026545181
 21
-741.08846265561533
 31
0.0
  0
LINE
  5
1596D
  8
0
 10
300.24503945873403
 20
-741.88846827516988
 30
0.0
 11
299.69328999493081
 21
-741.705704132542
 31
0.0
  0
LINE
  5
1596E
  8
0
 10
297.82989026545181
 20
-741.08846265561533
 30
0.0
 11
299.79222535432717
 21
-740.28846722156425
 31
0.0
  0
LINE
  5
1596F
  8
0
 10
297.42426061534479
 20
-746.18846171179803
 30
0.0
 11
296.92426061534479
 21
-746.08846054840092
 31
0.0
  0
LINE
  5
15970
  8
0
 10
296.92426061534479
 20
-746.08846054840092
 30
0.0
 11
300.92426061534479
 21
-745.28846985557834
 31
0.0
  0
LINE
  5
15971
  8
0
 10
300.92426061534479
 20
-745.28846985557834
 30
0.0
 11
300.42426061534479
 21
-745.18846869218123
 31
0.0
  0
LINE
  5
15972
  8
0
 10
297.42426061534479
 20
-747.78846171179794
 30
0.0
 11
296.92426061534479
 21
-747.68846054840083
 31
0.0
  0
LINE
  5
15973
  8
0
 10
300.92426061534479
 20
-746.88846985557825
 30
0.0
 11
300.42426061534479
 21
-746.78846869218114
 31
0.0
  0
LINE
  5
15974
  8
0
 10
296.92426061534479
 20
-747.68846054840083
 30
0.0
 11
300.92426061534479
 21
-746.88846985557825
 31
0.0
  0
LINE
  5
15975
  8
0
 10
297.42426061534479
 20
-749.38846171179807
 30
0.0
 11
296.92426061534479
 21
-749.28846054840085
 31
0.0
  0
LINE
  5
15976
  8
0
 10
296.92426061534479
 20
-749.28846054840085
 30
0.0
 11
300.92426061534479
 21
-748.48846985557827
 31
0.0
  0
LINE
  5
15977
  8
0
 10
300.92426061534479
 20
-748.48846985557827
 30
0.0
 11
300.42426061534479
 21
-748.38846869218116
 31
0.0
  0
LINE
  5
15978
  8
0
 10
297.42426061534479
 20
-744.38846171179796
 30
0.0
 11
296.92426061534479
 21
-744.28846054840085
 31
0.0
  0
LINE
  5
15979
  8
0
 10
297.8451752125535
 20
-742.80123111436114
 30
0.0
 11
297.37707675740359
 21
-742.68846160201099
 31
0.0
  0
LINE
  5
1597A
  8
0
 10
300.69785356314082
 20
-743.48846932877564
 30
0.0
 11
300.16125982786969
 21
-743.35919863114577
 31
0.0
  0
LINE
  5
1597B
  8
0
 10
296.92426061534479
 20
-744.28846054840085
 30
0.0
 11
300.69785356314082
 21
-743.48846932877564
 31
0.0
  0
LINE
  5
1597C
  8
0
 10
297.42426061534479
 20
-752.58846171179812
 30
0.0
 11
296.92426061534479
 21
-752.48846054840101
 31
0.0
  0
LINE
  5
1597D
  8
0
 10
300.92426061534479
 20
-751.68846985557843
 30
0.0
 11
300.42426061534479
 21
-751.58846869218132
 31
0.0
  0
LINE
  5
1597E
  8
0
 10
300.92426061534479
 20
-750.0884698555783
 30
0.0
 11
300.42426061534479
 21
-749.98846869218107
 31
0.0
  0
LINE
  5
1597F
  8
0
 10
297.42426061534479
 20
-750.98846171179798
 30
0.0
 11
296.92426061534479
 21
-750.88846054840076
 31
0.0
  0
LINE
  5
15980
  8
0
 10
296.92426061534479
 20
-750.88846054840076
 30
0.0
 11
300.92426061534479
 21
-750.0884698555783
 31
0.0
  0
LINE
  5
15981
  8
0
 10
296.92426061534479
 20
-752.48846054840101
 30
0.0
 11
300.92426061534479
 21
-751.68846985557843
 31
0.0
  0
LINE
  5
15982
  8
0
 10
300.92426061534479
 20
-753.28846985557834
 30
0.0
 11
300.42426061534479
 21
-753.18846869218123
 31
0.0
  0
LINE
  5
15983
  8
0
 10
294.92421407944693
 20
-768.68845589459454
 30
0.0
 11
302.92421407944693
 21
-768.68847450895373
 31
0.0
  0
LINE
  5
15984
  8
0
 10
296.92426061534479
 20
-765.28846054840528
 30
0.0
 11
300.92426061534479
 21
-764.48846985558703
 31
0.0
  0
LINE
  5
15985
  8
0
 10
297.42426061534479
 20
-763.78846171179862
 30
0.0
 11
296.92426061534479
 21
-763.68846054840105
 31
0.0
  0
LINE
  5
15986
  8
0
 10
300.92426061534479
 20
-764.48846985558703
 30
0.0
 11
300.42426061534479
 21
-764.38846869218935
 31
0.0
  0
LINE
  5
15987
  8
0
 10
297.42426061534479
 20
-760.58846171179846
 30
0.0
 11
296.92426061534479
 21
-760.48846054840089
 31
0.0
  0
LINE
  5
15988
  8
0
 10
296.92426061534479
 20
-762.08846054840114
 30
0.0
 11
300.92426061534479
 21
-761.28846985558289
 31
0.0
  0
LINE
  5
15989
  8
0
 10
300.92426061534479
 20
-761.28846985558289
 30
0.0
 11
300.42426061534479
 21
-761.18846869218498
 31
0.0
  0
LINE
  5
1598A
  8
0
 10
297.42426061534479
 20
-762.18846171179871
 30
0.0
 11
296.92426061534479
 21
-762.08846054840114
 31
0.0
  0
LINE
  5
1598B
  8
0
 10
300.92426061534479
 20
-762.8884698555828
 30
0.0
 11
300.42426061534479
 21
-762.78846869218489
 31
0.0
  0
LINE
  5
1598C
  8
0
 10
300.92426061534479
 20
-758.0884698555783
 30
0.0
 11
300.42426061534479
 21
-757.98846869218107
 31
0.0
  0
LINE
  5
1598D
  8
0
 10
300.92426061534479
 20
-759.68846985558275
 30
0.0
 11
300.42426061534479
 21
-759.58846869218485
 31
0.0
  0
LINE
  5
1598E
  8
0
 10
297.42426061534479
 20
-758.98846171179855
 30
0.0
 11
296.92426061534479
 21
-758.88846054840076
 31
0.0
  0
LINE
  5
1598F
  8
0
 10
297.42426061534479
 20
-757.38846171179807
 30
0.0
 11
296.92426061534479
 21
-757.28846054840085
 31
0.0
  0
LINE
  5
15990
  8
0
 10
296.92426061534479
 20
-758.88846054840076
 30
0.0
 11
300.92426061534479
 21
-758.0884698555783
 31
0.0
  0
LINE
  5
15991
  8
0
 10
296.92426061534479
 20
-760.48846054840089
 30
0.0
 11
300.92426061534479
 21
-759.68846985558275
 31
0.0
  0
LINE
  5
15992
  8
0
 10
296.92426061534479
 20
-763.68846054840105
 30
0.0
 11
300.92426061534479
 21
-762.8884698555828
 31
0.0
  0
LINE
  5
15993
  8
0
 10
300.92426061534479
 20
-756.48846985557839
 30
0.0
 11
300.42426061534479
 21
-756.38846869218116
 31
0.0
  0
LINE
  5
15994
  8
0
 10
300.92426061534479
 20
-754.88846985557825
 30
0.0
 11
300.42426061534479
 21
-754.78846869218114
 31
0.0
  0
LINE
  5
15995
  8
0
 10
297.42426061534479
 20
-755.78846171179794
 30
0.0
 11
296.92426061534479
 21
-755.68846054840071
 31
0.0
  0
LINE
  5
15996
  8
0
 10
297.42426061534479
 20
-754.18846171179803
 30
0.0
 11
296.92426061534479
 21
-754.08846054840092
 31
0.0
  0
LINE
  5
15997
  8
0
 10
296.92426061534479
 20
-755.68846054840071
 30
0.0
 11
300.92426061534479
 21
-754.88846985557825
 31
0.0
  0
LINE
  5
15998
  8
0
 10
296.92426061534479
 20
-757.28846054840085
 30
0.0
 11
300.92426061534479
 21
-756.48846985557839
 31
0.0
  0
LINE
  5
15999
  8
0
 10
297.42426061534479
 20
-765.38846171180296
 30
0.0
 11
296.92426061534479
 21
-765.28846054840528
 31
0.0
  0
LINE
  5
1599A
  8
0
 10
300.92426061534479
 20
-766.08846985558716
 30
0.0
 11
300.42426061534479
 21
-765.9884686921896
 31
0.0
  0
LINE
  5
1599B
  8
0
 10
300.42426061534479
 20
-766.18846869218953
 30
0.0
 11
300.92426061534479
 21
-766.08846985558716
 31
0.0
  0
LINE
  5
1599C
  8
1DIM
 10
470.0112517567361
 20
-873.37131530700697
 30
0.0
 11
482.40676167300973
 21
-873.37131530700697
 31
0.0
  0
LINE
  5
1599D
  8
1DIM
 10
470.0112517567361
 20
-903.37131530700697
 30
0.0
 11
482.40676167300961
 21
-903.37131530700697
 31
0.0
  0
LINE
  5
1599E
  8
1DIM
 10
481.40676167300973
 20
-875.37131530700708
 30
0.0
 11
481.40676167300961
 21
-901.37131530700708
 31
0.0
  0
LINE
  5
159A2
  8
1DIM
 10
470.0112517567361
 20
-873.37131530700697
 30
0.0
 11
482.40676167300961
 21
-873.37131530700697
 31
0.0
  0
LINE
  5
159A3
  8
1DIM
 10
441.4242140794471
 20
-861.138465739048
 30
0.0
 11
482.40676167300961
 21
-861.138465739048
 31
0.0
  0
LINE
  5
159A4
  8
1DIM
 10
481.40676167300961
 20
-871.37131530700697
 30
0.0
 11
481.40676167300961
 21
-863.13846573904823
 31
0.0
  0
LINE
  5
159A8
  8
1DIM
 10
441.4242140794471
 20
-916.13846573904812
 30
0.0
 11
441.4242140794471
 21
-927.13846573904812
 31
0.0
  0
LINE
  5
159A9
  8
1DIM
 10
423.42421308760021
 20
-902.28215604906802
 30
0.0
 11
423.42421308760021
 21
-927.13846573904812
 31
0.0
  0
LINE
  5
159AA
  8
1DIM
 10
439.42421407944721
 20
-926.13846573904812
 30
0.0
 11
425.42421308760032
 21
-926.13846573904812
 31
0.0
  0
LINE
  5
159AE
  8
1CENTER
 10
470.01125175673599
 20
-903.37131530700697
 30
0.0
 11
437.17811870936117
 21
-903.37131530700697
 31
0.0
  0
LINE
  5
159B0
  8
0
 10
453.45676021947207
 20
-901.37136184290489
 30
0.0
 11
454.25675091229471
 21
-905.371361842905
 31
0.0
  0
LINE
  5
159B1
  8
0
 10
464.85675916586189
 20
-901.82417798496374
 30
0.0
 11
465.65675249270311
 21
-904.69214068629424
 31
0.0
  0
LINE
  5
159B2
  8
0
 10
467.25675354630869
 20
-904.23932658188755
 30
0.0
 11
467.5685234025608
 21
-903.65105000684503
 31
0.0
  0
LINE
  5
159B3
  8
0
 10
466.30532231581731
 20
-902.73416333364321
 30
0.0
 11
466.45675811225772
 21
-902.27699149301213
 31
0.0
  0
LINE
  5
159B4
  8
0
 10
465.65675249270311
 20
-904.69214068629424
 30
0.0
 11
465.83951663533111
 21
-904.14039122249085
 31
0.0
  0
LINE
  5
159B5
  8
0
 10
466.45675811225772
 20
-902.27699149301213
 30
0.0
 11
467.25675354630869
 21
-904.23932658188755
 31
0.0
  0
LINE
  5
159B6
  8
0
 10
461.35675905607519
 20
-901.871361842905
 30
0.0
 11
461.4567602194723
 21
-901.37136184290489
 31
0.0
  0
LINE
  5
159B7
  8
0
 10
461.4567602194723
 20
-901.37136184290489
 30
0.0
 11
462.25675091229488
 21
-905.371361842905
 31
0.0
  0
LINE
  5
159B8
  8
0
 10
462.25675091229488
 20
-905.371361842905
 30
0.0
 11
462.35675207569187
 21
-904.87136184290489
 31
0.0
  0
LINE
  5
159B9
  8
0
 10
459.75675905607523
 20
-901.871361842905
 30
0.0
 11
459.85676021947222
 21
-901.37136184290489
 31
0.0
  0
LINE
  5
159BA
  8
0
 10
460.6567509122948
 20
-905.371361842905
 30
0.0
 11
460.75675207569191
 21
-904.87136184290489
 31
0.0
  0
LINE
  5
159BB
  8
0
 10
459.85676021947222
 20
-901.37136184290489
 30
0.0
 11
460.6567509122948
 21
-905.371361842905
 31
0.0
  0
LINE
  5
159BC
  8
0
 10
458.15675905607509
 20
-901.871361842905
 30
0.0
 11
458.2567602194722
 21
-901.37136184290489
 31
0.0
  0
LINE
  5
159BD
  8
0
 10
458.2567602194722
 20
-901.37136184290489
 30
0.0
 11
459.05675091229477
 21
-905.371361842905
 31
0.0
  0
LINE
  5
159BE
  8
0
 10
459.05675091229477
 20
-905.371361842905
 30
0.0
 11
459.15675207569188
 21
-904.87136184290489
 31
0.0
  0
LINE
  5
159BF
  8
0
 10
463.15675905607497
 20
-901.871361842905
 30
0.0
 11
463.25676021947208
 21
-901.37136184290489
 31
0.0
  0
LINE
  5
159C0
  8
0
 10
464.7439896535119
 20
-902.29227644011371
 30
0.0
 11
464.85675916586189
 21
-901.82417798496374
 31
0.0
  0
LINE
  5
159C1
  8
0
 10
464.05675143909752
 20
-905.14495479070104
 30
0.0
 11
464.18602213672727
 21
-904.6083610554299
 31
0.0
  0
LINE
  5
159C2
  8
0
 10
463.25676021947208
 20
-901.37136184290489
 30
0.0
 11
464.05675143909752
 21
-905.14495479070104
 31
0.0
  0
LINE
  5
159C3
  8
0
 10
454.95675905607499
 20
-901.871361842905
 30
0.0
 11
455.05676021947221
 21
-901.37136184290489
 31
0.0
  0
LINE
  5
159C4
  8
0
 10
455.85675091229479
 20
-905.371361842905
 30
0.0
 11
455.95675207569172
 21
-904.87136184290489
 31
0.0
  0
LINE
  5
159C5
  8
0
 10
457.45675091229481
 20
-905.371361842905
 30
0.0
 11
457.5567520756918
 21
-904.87136184290489
 31
0.0
  0
LINE
  5
159C6
  8
0
 10
456.55675905607512
 20
-901.871361842905
 30
0.0
 11
456.65676021947218
 21
-901.37136184290489
 31
0.0
  0
LINE
  5
159C7
  8
0
 10
456.65676021947218
 20
-901.37136184290489
 30
0.0
 11
457.45675091229481
 21
-905.371361842905
 31
0.0
  0
LINE
  5
159C8
  8
0
 10
455.05676021947221
 20
-901.37136184290489
 30
0.0
 11
455.85675091229479
 21
-905.371361842905
 31
0.0
  0
LINE
  5
159C9
  8
0
 10
454.25675091229471
 20
-905.371361842905
 30
0.0
 11
454.35675207569187
 21
-904.87136184290489
 31
0.0
  0
LINE
  5
159CA
  8
0
 10
438.85676487327851
 20
-899.37131530700708
 30
0.0
 11
438.85674625891937
 21
-907.37131530700708
 31
0.0
  0
LINE
  5
159CB
  8
0
 10
442.25676021946782
 20
-901.37136184290489
 30
0.0
 11
443.05675091228608
 21
-905.371361842905
 31
0.0
  0
LINE
  5
159CC
  8
0
 10
443.75675905607437
 20
-901.871361842905
 30
0.0
 11
443.85676021947211
 21
-901.37136184290489
 31
0.0
  0
LINE
  5
159CD
  8
0
 10
443.05675091228608
 20
-905.371361842905
 30
0.0
 11
443.1567520756837
 21
-904.87136184290489
 31
0.0
  0
LINE
  5
159CE
  8
0
 10
446.95675905607447
 20
-901.871361842905
 30
0.0
 11
447.05676021947221
 21
-901.37136184290489
 31
0.0
  0
LINE
  5
159CF
  8
0
 10
445.45676021947202
 20
-901.37136184290489
 30
0.0
 11
446.25675091229027
 21
-905.371361842905
 31
0.0
  0
LINE
  5
159D0
  8
0
 10
446.25675091229027
 20
-905.371361842905
 30
0.0
 11
446.35675207568801
 21
-904.87136184290489
 31
0.0
  0
LINE
  5
159D1
  8
0
 10
445.35675905607428
 20
-901.871361842905
 30
0.0
 11
445.45676021947202
 21
-901.37136184290489
 31
0.0
  0
LINE
  5
159D2
  8
0
 10
444.65675091229042
 20
-905.371361842905
 30
0.0
 11
444.7567520756881
 21
-904.87136184290489
 31
0.0
  0
LINE
  5
159D3
  8
0
 10
449.45675091229481
 20
-905.371361842905
 30
0.0
 11
449.55675207569192
 21
-904.87136184290489
 31
0.0
  0
LINE
  5
159D4
  8
0
 10
447.85675091229041
 20
-905.371361842905
 30
0.0
 11
447.95675207568809
 21
-904.87136184290489
 31
0.0
  0
LINE
  5
159D5
  8
0
 10
448.55675905607438
 20
-901.871361842905
 30
0.0
 11
448.65676021947218
 21
-901.37136184290489
 31
0.0
  0
LINE
  5
159D6
  8
0
 10
450.15675905607497
 20
-901.871361842905
 30
0.0
 11
450.25676021947208
 21
-901.37136184290489
 31
0.0
  0
LINE
  5
159D7
  8
0
 10
448.65676021947218
 20
-901.37136184290489
 30
0.0
 11
449.45675091229481
 21
-905.371361842905
 31
0.0
  0
LINE
  5
159D8
  8
0
 10
447.05676021947221
 20
-901.37136184290489
 30
0.0
 11
447.85675091229041
 21
-905.371361842905
 31
0.0
  0
LINE
  5
159D9
  8
0
 10
443.85676021947211
 20
-901.37136184290489
 30
0.0
 11
444.65675091229042
 21
-905.371361842905
 31
0.0
  0
LINE
  5
159DA
  8
0
 10
451.05675091229472
 20
-905.371361842905
 30
0.0
 11
451.15675207569188
 21
-904.87136184290489
 31
0.0
  0
LINE
  5
159DB
  8
0
 10
452.6567509122948
 20
-905.371361842905
 30
0.0
 11
452.75675207569191
 21
-904.87136184290489
 31
0.0
  0
LINE
  5
159DC
  8
0
 10
451.75675905607511
 20
-901.871361842905
 30
0.0
 11
451.85676021947222
 21
-901.37136184290489
 31
0.0
  0
LINE
  5
159DD
  8
0
 10
453.35675905607508
 20
-901.871361842905
 30
0.0
 11
453.45676021947207
 21
-901.37136184290489
 31
0.0
  0
LINE
  5
159DE
  8
0
 10
451.85676021947222
 20
-901.37136184290489
 30
0.0
 11
452.6567509122948
 21
-905.371361842905
 31
0.0
  0
LINE
  5
159DF
  8
0
 10
450.25676021947208
 20
-901.37136184290489
 30
0.0
 11
451.05675091229472
 21
-905.371361842905
 31
0.0
  0
LINE
  5
159E0
  8
0
 10
442.15675905607009
 20
-901.871361842905
 30
0.0
 11
442.25676021946782
 21
-901.37136184290489
 31
0.0
  0
LINE
  5
159E1
  8
0
 10
441.45675091228588
 20
-905.371361842905
 30
0.0
 11
441.55675207568362
 21
-904.87136184290489
 31
0.0
  0
LINE
  5
159E2
  8
0
 10
441.35675207568369
 20
-904.87136184290489
 30
0.0
 11
441.45675091228588
 21
-905.371361842905
 31
0.0
  0
LINE
  5
159E3
  8
1CENTER
 10
470.01125175673599
 20
-873.37131530700697
 30
0.0
 11
437.17811870936117
 21
-873.37131530700697
 31
0.0
  0
LINE
  5
159E5
  8
0
 10
453.45676021947207
 20
-871.371361842905
 30
0.0
 11
454.25675091229471
 21
-875.37136184290489
 31
0.0
  0
LINE
  5
159E6
  8
0
 10
464.85675916586189
 20
-871.82417798496385
 30
0.0
 11
465.65675249270311
 21
-874.69214068629412
 31
0.0
  0
LINE
  5
159E7
  8
0
 10
467.25675354630869
 20
-874.23932658188744
 30
0.0
 11
467.5685234025608
 21
-873.65105000684491
 31
0.0
  0
LINE
  5
159E8
  8
0
 10
466.30532231581731
 20
-872.7341633336431
 30
0.0
 11
466.45675811225772
 21
-872.27699149301202
 31
0.0
  0
LINE
  5
159E9
  8
0
 10
465.65675249270311
 20
-874.69214068629412
 30
0.0
 11
465.83951663533111
 21
-874.14039122249085
 31
0.0
  0
LINE
  5
159EA
  8
0
 10
466.45675811225772
 20
-872.27699149301202
 30
0.0
 11
467.25675354630869
 21
-874.23932658188744
 31
0.0
  0
LINE
  5
159EB
  8
0
 10
461.35675905607519
 20
-871.87136184290489
 30
0.0
 11
461.4567602194723
 21
-871.371361842905
 31
0.0
  0
LINE
  5
159EC
  8
0
 10
461.4567602194723
 20
-871.371361842905
 30
0.0
 11
462.25675091229488
 21
-875.37136184290489
 31
0.0
  0
LINE
  5
159ED
  8
0
 10
462.25675091229488
 20
-875.37136184290489
 30
0.0
 11
462.35675207569187
 21
-874.871361842905
 31
0.0
  0
LINE
  5
159EE
  8
0
 10
459.75675905607523
 20
-871.87136184290489
 30
0.0
 11
459.85676021947222
 21
-871.371361842905
 31
0.0
  0
LINE
  5
159EF
  8
0
 10
460.6567509122948
 20
-875.37136184290489
 30
0.0
 11
460.75675207569191
 21
-874.871361842905
 31
0.0
  0
LINE
  5
159F0
  8
0
 10
459.85676021947222
 20
-871.371361842905
 30
0.0
 11
460.6567509122948
 21
-875.37136184290489
 31
0.0
  0
LINE
  5
159F1
  8
0
 10
458.15675905607509
 20
-871.87136184290489
 30
0.0
 11
458.2567602194722
 21
-871.371361842905
 31
0.0
  0
LINE
  5
159F2
  8
0
 10
458.2567602194722
 20
-871.371361842905
 30
0.0
 11
459.05675091229477
 21
-875.37136184290489
 31
0.0
  0
LINE
  5
159F3
  8
0
 10
459.05675091229477
 20
-875.37136184290489
 30
0.0
 11
459.15675207569188
 21
-874.871361842905
 31
0.0
  0
LINE
  5
159F4
  8
0
 10
463.15675905607497
 20
-871.87136184290489
 30
0.0
 11
463.25676021947208
 21
-871.371361842905
 31
0.0
  0
LINE
  5
159F5
  8
0
 10
464.7439896535119
 20
-872.2922764401136
 30
0.0
 11
464.85675916586189
 21
-871.82417798496385
 31
0.0
  0
LINE
  5
159F6
  8
0
 10
464.05675143909752
 20
-875.14495479070115
 30
0.0
 11
464.18602213672727
 21
-874.6083610554299
 31
0.0
  0
LINE
  5
159F7
  8
0
 10
463.25676021947208
 20
-871.371361842905
 30
0.0
 11
464.05675143909752
 21
-875.14495479070115
 31
0.0
  0
LINE
  5
159F8
  8
0
 10
454.95675905607499
 20
-871.87136184290489
 30
0.0
 11
455.05676021947221
 21
-871.371361842905
 31
0.0
  0
LINE
  5
159F9
  8
0
 10
455.85675091229479
 20
-875.37136184290489
 30
0.0
 11
455.95675207569172
 21
-874.871361842905
 31
0.0
  0
LINE
  5
159FA
  8
0
 10
457.45675091229481
 20
-875.37136184290489
 30
0.0
 11
457.5567520756918
 21
-874.871361842905
 31
0.0
  0
LINE
  5
159FB
  8
0
 10
456.55675905607512
 20
-871.87136184290489
 30
0.0
 11
456.65676021947218
 21
-871.371361842905
 31
0.0
  0
LINE
  5
159FC
  8
0
 10
456.65676021947218
 20
-871.371361842905
 30
0.0
 11
457.45675091229481
 21
-875.37136184290489
 31
0.0
  0
LINE
  5
159FD
  8
0
 10
455.05676021947221
 20
-871.371361842905
 30
0.0
 11
455.85675091229479
 21
-875.37136184290489
 31
0.0
  0
LINE
  5
159FE
  8
0
 10
454.25675091229471
 20
-875.37136184290489
 30
0.0
 11
454.35675207569187
 21
-874.871361842905
 31
0.0
  0
LINE
  5
159FF
  8
0
 10
438.85676487327851
 20
-869.37131530700708
 30
0.0
 11
438.85674625891937
 21
-877.37131530700708
 31
0.0
  0
LINE
  5
15A00
  8
0
 10
442.25676021946782
 20
-871.371361842905
 30
0.0
 11
443.05675091228608
 21
-875.37136184290489
 31
0.0
  0
LINE
  5
15A01
  8
0
 10
443.75675905607437
 20
-871.87136184290489
 30
0.0
 11
443.85676021947211
 21
-871.371361842905
 31
0.0
  0
LINE
  5
15A02
  8
0
 10
443.05675091228608
 20
-875.37136184290489
 30
0.0
 11
443.1567520756837
 21
-874.871361842905
 31
0.0
  0
LINE
  5
15A03
  8
0
 10
446.95675905607447
 20
-871.87136184290489
 30
0.0
 11
447.05676021947221
 21
-871.371361842905
 31
0.0
  0
LINE
  5
15A04
  8
0
 10
445.45676021947202
 20
-871.371361842905
 30
0.0
 11
446.25675091229027
 21
-875.37136184290489
 31
0.0
  0
LINE
  5
15A05
  8
0
 10
446.25675091229027
 20
-875.37136184290489
 30
0.0
 11
446.35675207568801
 21
-874.871361842905
 31
0.0
  0
LINE
  5
15A06
  8
0
 10
445.35675905607428
 20
-871.87136184290489
 30
0.0
 11
445.45676021947202
 21
-871.371361842905
 31
0.0
  0
LINE
  5
15A07
  8
0
 10
444.65675091229042
 20
-875.37136184290489
 30
0.0
 11
444.7567520756881
 21
-874.871361842905
 31
0.0
  0
LINE
  5
15A08
  8
0
 10
449.45675091229481
 20
-875.37136184290489
 30
0.0
 11
449.55675207569192
 21
-874.871361842905
 31
0.0
  0
LINE
  5
15A09
  8
0
 10
447.85675091229041
 20
-875.37136184290489
 30
0.0
 11
447.95675207568809
 21
-874.871361842905
 31
0.0
  0
LINE
  5
15A0A
  8
0
 10
448.55675905607438
 20
-871.87136184290489
 30
0.0
 11
448.65676021947218
 21
-871.371361842905
 31
0.0
  0
LINE
  5
15A0B
  8
0
 10
450.15675905607497
 20
-871.87136184290489
 30
0.0
 11
450.25676021947208
 21
-871.371361842905
 31
0.0
  0
LINE
  5
15A0C
  8
0
 10
448.65676021947218
 20
-871.371361842905
 30
0.0
 11
449.45675091229481
 21
-875.37136184290489
 31
0.0
  0
LINE
  5
15A0D
  8
0
 10
447.05676021947221
 20
-871.371361842905
 30
0.0
 11
447.85675091229041
 21
-875.37136184290489
 31
0.0
  0
LINE
  5
15A0E
  8
0
 10
443.85676021947211
 20
-871.371361842905
 30
0.0
 11
444.65675091229042
 21
-875.37136184290489
 31
0.0
  0
LINE
  5
15A0F
  8
0
 10
451.05675091229472
 20
-875.37136184290489
 30
0.0
 11
451.15675207569188
 21
-874.871361842905
 31
0.0
  0
LINE
  5
15A10
  8
0
 10
452.6567509122948
 20
-875.37136184290489
 30
0.0
 11
452.75675207569191
 21
-874.871361842905
 31
0.0
  0
LINE
  5
15A11
  8
0
 10
451.75675905607511
 20
-871.87136184290489
 30
0.0
 11
451.85676021947222
 21
-871.371361842905
 31
0.0
  0
LINE
  5
15A12
  8
0
 10
453.35675905607508
 20
-871.87136184290489
 30
0.0
 11
453.45676021947207
 21
-871.371361842905
 31
0.0
  0
LINE
  5
15A13
  8
0
 10
451.85676021947222
 20
-871.371361842905
 30
0.0
 11
452.6567509122948
 21
-875.37136184290489
 31
0.0
  0
LINE
  5
15A14
  8
0
 10
450.25676021947208
 20
-871.371361842905
 30
0.0
 11
451.05675091229472
 21
-875.37136184290489
 31
0.0
  0
LINE
  5
15A15
  8
0
 10
442.15675905607009
 20
-871.87136184290489
 30
0.0
 11
442.25676021946782
 21
-871.371361842905
 31
0.0
  0
LINE
  5
15A16
  8
0
 10
441.45675091228588
 20
-875.37136184290489
 30
0.0
 11
441.55675207568362
 21
-874.871361842905
 31
0.0
  0
LINE
  5
15A17
  8
0
 10
441.35675207568369
 20
-874.871361842905
 30
0.0
 11
441.45675091228588
 21
-875.37136184290489
 31
0.0
  0
LINE
  5
15A18
  8
1HATCH
 10
445.6381612483475
 20
-847.2903283451559
 30
0.0
 11
442.36186291540071
 21
-828.77947250034265
 31
0.0
  0
LINE
  5
15A19
  8
1HATCH
 10
442.36186291540071
 20
-828.77947250034265
 30
0.0
 11
450.89519624873401
 21
-828.77947250034265
 31
0.0
  0
LINE
  5
15A1A
  8
1DIM
 10
453.72178584888587
 20
-847.36377447748919
 30
0.0
 11
448.52920740993932
 21
-834.78081851746674
 31
0.0
  0
LINE
  5
15A1B
  8
1DIM
 10
448.52920740993932
 20
-834.78081851746674
 30
0.0
 11
480.42920740993912
 21
-834.78081851746674
 31
0.0
  0
LINE
  5
15A1C
  8
1CENTER
 10
-151.0757859205531
 20
-737.53396901113706
 30
0.0
 11
-151.0757859205531
 21
-770.36710205851193
 31
0.0
  0
LINE
  5
15A1E
  8
0
 10
-153.07573938465521
 20
-754.08846054840092
 30
0.0
 11
-149.07573938465521
 21
-753.28846985557834
 31
0.0
  0
LINE
  5
15A1F
  8
0
 10
-152.62292324259641
 20
-742.68846160201099
 30
0.0
 11
-149.75496054126589
 21
-741.88846827516988
 31
0.0
  0
LINE
  5
15A20
  8
0
 10
-150.20777464567271
 20
-740.28846722156425
 30
0.0
 11
-150.79605122071521
 21
-739.97669736531225
 31
0.0
  0
LINE
  5
15A21
  8
0
 10
-151.71293789391709
 20
-741.23989845205574
 30
0.0
 11
-152.17010973454819
 21
-741.08846265561533
 31
0.0
  0
LINE
  5
15A22
  8
0
 10
-149.75496054126589
 20
-741.88846827516988
 30
0.0
 11
-150.30671000506919
 21
-741.705704132542
 31
0.0
  0
LINE
  5
15A23
  8
0
 10
-152.17010973454819
 20
-741.08846265561533
 30
0.0
 11
-150.20777464567271
 21
-740.28846722156425
 31
0.0
  0
LINE
  5
15A24
  8
0
 10
-152.57573938465521
 20
-746.18846171179803
 30
0.0
 11
-153.07573938465521
 21
-746.08846054840092
 31
0.0
  0
LINE
  5
15A25
  8
0
 10
-153.07573938465521
 20
-746.08846054840092
 30
0.0
 11
-149.07573938465521
 21
-745.28846985557834
 31
0.0
  0
LINE
  5
15A26
  8
0
 10
-149.07573938465521
 20
-745.28846985557834
 30
0.0
 11
-149.57573938465521
 21
-745.18846869218123
 31
0.0
  0
LINE
  5
15A27
  8
0
 10
-152.57573938465521
 20
-747.78846171179794
 30
0.0
 11
-153.07573938465521
 21
-747.68846054840083
 31
0.0
  0
LINE
  5
15A28
  8
0
 10
-149.07573938465521
 20
-746.88846985557825
 30
0.0
 11
-149.57573938465521
 21
-746.78846869218114
 31
0.0
  0
LINE
  5
15A29
  8
0
 10
-153.07573938465521
 20
-747.68846054840083
 30
0.0
 11
-149.07573938465521
 21
-746.88846985557825
 31
0.0
  0
LINE
  5
15A2A
  8
0
 10
-152.57573938465521
 20
-749.38846171179807
 30
0.0
 11
-153.07573938465521
 21
-749.28846054840085
 31
0.0
  0
LINE
  5
15A2B
  8
0
 10
-153.07573938465521
 20
-749.28846054840085
 30
0.0
 11
-149.07573938465521
 21
-748.48846985557827
 31
0.0
  0
LINE
  5
15A2C
  8
0
 10
-149.07573938465521
 20
-748.48846985557827
 30
0.0
 11
-149.57573938465521
 21
-748.38846869218116
 31
0.0
  0
LINE
  5
15A2D
  8
0
 10
-152.57573938465521
 20
-744.38846171179796
 30
0.0
 11
-153.07573938465521
 21
-744.28846054840085
 31
0.0
  0
LINE
  5
15A2E
  8
0
 10
-152.1548247874465
 20
-742.80123111436114
 30
0.0
 11
-152.62292324259641
 21
-742.68846160201099
 31
0.0
  0
LINE
  5
15A2F
  8
0
 10
-149.30214643685909
 20
-743.48846932877564
 30
0.0
 11
-149.83874017213029
 21
-743.35919863114577
 31
0.0
  0
LINE
  5
15A30
  8
0
 10
-153.07573938465521
 20
-744.28846054840085
 30
0.0
 11
-149.30214643685909
 21
-743.48846932877564
 31
0.0
  0
LINE
  5
15A31
  8
0
 10
-152.57573938465521
 20
-752.58846171179812
 30
0.0
 11
-153.07573938465521
 21
-752.48846054840101
 31
0.0
  0
LINE
  5
15A32
  8
0
 10
-149.07573938465521
 20
-751.68846985557843
 30
0.0
 11
-149.57573938465521
 21
-751.58846869218132
 31
0.0
  0
LINE
  5
15A33
  8
0
 10
-149.07573938465521
 20
-750.0884698555783
 30
0.0
 11
-149.57573938465521
 21
-749.98846869218107
 31
0.0
  0
LINE
  5
15A34
  8
0
 10
-152.57573938465521
 20
-750.98846171179798
 30
0.0
 11
-153.07573938465521
 21
-750.88846054840076
 31
0.0
  0
LINE
  5
15A35
  8
0
 10
-153.07573938465521
 20
-750.88846054840076
 30
0.0
 11
-149.07573938465521
 21
-750.0884698555783
 31
0.0
  0
LINE
  5
15A36
  8
0
 10
-153.07573938465521
 20
-752.48846054840101
 30
0.0
 11
-149.07573938465521
 21
-751.68846985557843
 31
0.0
  0
LINE
  5
15A37
  8
0
 10
-149.07573938465521
 20
-753.28846985557834
 30
0.0
 11
-149.57573938465521
 21
-753.18846869218123
 31
0.0
  0
LINE
  5
15A38
  8
0
 10
-155.0757859205531
 20
-768.68845589459454
 30
0.0
 11
-147.0757859205531
 21
-768.68847450895373
 31
0.0
  0
LINE
  5
15A39
  8
0
 10
-153.07573938465521
 20
-765.28846054840528
 30
0.0
 11
-149.07573938465521
 21
-764.48846985558703
 31
0.0
  0
LINE
  5
15A3A
  8
0
 10
-152.57573938465521
 20
-763.78846171179862
 30
0.0
 11
-153.07573938465521
 21
-763.68846054840105
 31
0.0
  0
LINE
  5
15A3B
  8
0
 10
-149.07573938465521
 20
-764.48846985558703
 30
0.0
 11
-149.57573938465521
 21
-764.38846869218935
 31
0.0
  0
LINE
  5
15A3C
  8
0
 10
-152.57573938465521
 20
-760.58846171179846
 30
0.0
 11
-153.07573938465521
 21
-760.48846054840089
 31
0.0
  0
LINE
  5
15A3D
  8
0
 10
-153.07573938465521
 20
-762.08846054840114
 30
0.0
 11
-149.07573938465521
 21
-761.28846985558289
 31
0.0
  0
LINE
  5
15A3E
  8
0
 10
-149.07573938465521
 20
-761.28846985558289
 30
0.0
 11
-149.57573938465521
 21
-761.18846869218498
 31
0.0
  0
LINE
  5
15A3F
  8
0
 10
-152.57573938465521
 20
-762.18846171179871
 30
0.0
 11
-153.07573938465521
 21
-762.08846054840114
 31
0.0
  0
LINE
  5
15A40
  8
0
 10
-149.07573938465521
 20
-762.8884698555828
 30
0.0
 11
-149.57573938465521
 21
-762.78846869218489
 31
0.0
  0
LINE
  5
15A41
  8
0
 10
-149.07573938465521
 20
-758.0884698555783
 30
0.0
 11
-149.57573938465521
 21
-757.98846869218107
 31
0.0
  0
LINE
  5
15A42
  8
0
 10
-149.07573938465521
 20
-759.68846985558275
 30
0.0
 11
-149.57573938465521
 21
-759.58846869218485
 31
0.0
  0
LINE
  5
15A43
  8
0
 10
-152.57573938465521
 20
-758.98846171179855
 30
0.0
 11
-153.07573938465521
 21
-758.88846054840076
 31
0.0
  0
LINE
  5
15A44
  8
0
 10
-152.57573938465521
 20
-757.38846171179807
 30
0.0
 11
-153.07573938465521
 21
-757.28846054840085
 31
0.0
  0
LINE
  5
15A45
  8
0
 10
-153.07573938465521
 20
-758.88846054840076
 30
0.0
 11
-149.07573938465521
 21
-758.0884698555783
 31
0.0
  0
LINE
  5
15A46
  8
0
 10
-153.07573938465521
 20
-760.48846054840089
 30
0.0
 11
-149.07573938465521
 21
-759.68846985558275
 31
0.0
  0
LINE
  5
15A47
  8
0
 10
-153.07573938465521
 20
-763.68846054840105
 30
0.0
 11
-149.07573938465521
 21
-762.8884698555828
 31
0.0
  0
LINE
  5
15A48
  8
0
 10
-149.07573938465521
 20
-756.48846985557839
 30
0.0
 11
-149.57573938465521
 21
-756.38846869218116
 31
0.0
  0
LINE
  5
15A49
  8
0
 10
-149.07573938465521
 20
-754.88846985557825
 30
0.0
 11
-149.57573938465521
 21
-754.78846869218114
 31
0.0
  0
LINE
  5
15A4A
  8
0
 10
-152.57573938465521
 20
-755.78846171179794
 30
0.0
 11
-153.07573938465521
 21
-755.68846054840071
 31
0.0
  0
LINE
  5
15A4B
  8
0
 10
-152.57573938465521
 20
-754.18846171179803
 30
0.0
 11
-153.07573938465521
 21
-754.08846054840092
 31
0.0
  0
LINE
  5
15A4C
  8
0
 10
-153.07573938465521
 20
-755.68846054840071
 30
0.0
 11
-149.07573938465521
 21
-754.88846985557825
 31
0.0
  0
LINE
  5
15A4D
  8
0
 10
-153.07573938465521
 20
-757.28846054840085
 30
0.0
 11
-149.07573938465521
 21
-756.48846985557839
 31
0.0
  0
LINE
  5
15A4E
  8
0
 10
-152.57573938465521
 20
-765.38846171180296
 30
0.0
 11
-153.07573938465521
 21
-765.28846054840528
 31
0.0
  0
LINE
  5
15A4F
  8
0
 10
-149.07573938465521
 20
-766.08846985558716
 30
0.0
 11
-149.57573938465521
 21
-765.9884686921896
 31
0.0
  0
LINE
  5
15A50
  8
0
 10
-149.57573938465521
 20
-766.18846869218953
 30
0.0
 11
-149.07573938465521
 21
-766.08846985558716
 31
0.0
  0
LINE
  5
15A51
  8
0
 10
-152.57573938465521
 20
-744.28846171179862
 30
0.0
 11
-152.57573938465521
 21
-766.18842680992248
 31
0.0
  0
LINE
  5
15A52
  8
0
 10
-155.0757859205531
 20
-768.68845589459454
 30
0.0
 11
-152.57573938465521
 21
-766.18842680992248
 31
0.0
  0
LINE
  5
15A53
  8
0
 10
-151.07573938465521
 20
-738.98846520193752
 30
0.0
 11
-152.57573938465521
 21
-744.28846171179862
 31
0.0
  0
LINE
  5
15A54
  8
0
 10
-155.0757859205531
 20
-768.68845589459454
 30
0.0
 11
-155.0757859205531
 21
-768.98845589459552
 31
0.0
  0
LINE
  5
15A55
  8
0
 10
-151.07573938465521
 20
-738.98846520193752
 30
0.0
 11
-149.57573938465521
 21
-744.28846869218285
 31
0.0
  0
LINE
  5
15A56
  8
0
 10
-155.0757859205531
 20
-768.98845589459552
 30
0.0
 11
-147.0757859205531
 21
-768.98847450895482
 31
0.0
  0
LINE
  5
15A57
  8
0
 10
-149.57573938465521
 20
-744.28846869218285
 30
0.0
 11
-149.57573938465521
 21
-766.18849196028771
 31
0.0
  0
LINE
  5
15A58
  8
0
 10
-147.0757859205531
 20
-768.68847450895373
 30
0.0
 11
-147.0757859205531
 21
-768.98847450895482
 31
0.0
  0
LINE
  5
15A59
  8
0
 10
-147.0757859205531
 20
-768.68847450895373
 30
0.0
 11
-149.57573938465521
 21
-766.18849196028771
 31
0.0
  0
LINE
  5
15A5A
  8
0
 10
463.25675905607449
 20
-871.87136184290489
 30
0.0
 11
441.35679395795069
 21
-871.87136184290489
 31
0.0
  0
LINE
  5
15A5B
  8
0
 10
438.85676487327851
 20
-869.37131530700708
 30
0.0
 11
441.35679395795069
 21
-871.87136184290489
 31
0.0
  0
LINE
  5
15A5C
  8
0
 10
468.55675556593548
 20
-873.371361842905
 30
0.0
 11
463.25675905607449
 21
-871.87136184290489
 31
0.0
  0
LINE
  5
15A5D
  8
0
 10
438.85676487327851
 20
-869.37131530700708
 30
0.0
 11
438.55676487327747
 21
-869.37131530700708
 31
0.0
  0
LINE
  5
15A5E
  8
0
 10
468.55675556593548
 20
-873.371361842905
 30
0.0
 11
463.2567520756902
 21
-874.871361842905
 31
0.0
  0
LINE
  5
15A5F
  8
0
 10
438.55676487327747
 20
-869.37131530700708
 30
0.0
 11
438.55674625891828
 21
-877.37131530700708
 31
0.0
  0
LINE
  5
15A60
  8
0
 10
463.2567520756902
 20
-874.871361842905
 30
0.0
 11
441.3567288075854
 21
-874.871361842905
 31
0.0
  0
LINE
  5
15A61
  8
0
 10
438.85674625891937
 20
-877.37131530700708
 30
0.0
 11
438.55674625891828
 21
-877.37131530700708
 31
0.0
  0
LINE
  5
15A62
  8
0
 10
438.85674625891937
 20
-877.37131530700708
 30
0.0
 11
441.3567288075854
 21
-874.871361842905
 31
0.0
  0
LINE
  5
15A63
  8
0
 10
463.25675905607449
 20
-901.871361842905
 30
0.0
 11
441.35679395795069
 21
-901.871361842905
 31
0.0
  0
LINE
  5
15A64
  8
0
 10
438.85676487327851
 20
-899.37131530700708
 30
0.0
 11
441.35679395795069
 21
-901.871361842905
 31
0.0
  0
LINE
  5
15A65
  8
0
 10
468.55675556593548
 20
-903.371361842905
 30
0.0
 11
463.25675905607449
 21
-901.871361842905
 31
0.0
  0
LINE
  5
15A66
  8
0
 10
438.85676487327851
 20
-899.37131530700708
 30
0.0
 11
438.55676487327747
 21
-899.37131530700708
 31
0.0
  0
LINE
  5
15A67
  8
0
 10
468.55675556593548
 20
-903.371361842905
 30
0.0
 11
463.2567520756902
 21
-904.87136184290489
 31
0.0
  0
LINE
  5
15A68
  8
0
 10
438.55676487327747
 20
-899.37131530700708
 30
0.0
 11
438.55674625891828
 21
-907.37131530700708
 31
0.0
  0
LINE
  5
15A69
  8
0
 10
463.2567520756902
 20
-904.87136184290489
 30
0.0
 11
441.3567288075854
 21
-904.87136184290489
 31
0.0
  0
LINE
  5
15A6A
  8
0
 10
438.85674625891937
 20
-907.37131530700708
 30
0.0
 11
438.55674625891828
 21
-907.37131530700708
 31
0.0
  0
LINE
  5
15A6B
  8
0
 10
438.85674625891937
 20
-907.37131530700708
 30
0.0
 11
441.3567288075854
 21
-904.87136184290489
 31
0.0
  0
TEXT
  5
15A6C
  8
1DIM
 10
430.09088025019042
 20
-925.43846573904807
 30
0.0
 40
3.5
  1
18 
  0
LINE
  5
15A6D
  8
0
  6
BYBLOCK
 10
425.42421308760032
 20
-926.67436411904805
 30
0.0
 11
423.42421308760021
 21
-926.13846573904812
 31
0.0
  0
LINE
  5
15A6E
  8
0
  6
BYBLOCK
 10
423.42421308760021
 20
-926.13846573904812
 30
0.0
 11
425.42421308760032
 21
-925.60256735904795
 31
0.0
  0
LINE
  5
15A6F
  8
0
  6
BYBLOCK
 10
423.42421308760021
 20
-926.13846573904812
 30
0.0
 11
425.42421308760032
 21
-926.13846573904812
 31
0.0
  0
LINE
  5
15A70
  8
0
  6
BYBLOCK
 10
439.42421407944721
 20
-925.60256735904795
 30
0.0
 11
441.4242140794471
 21
-926.13846573904812
 31
0.0
  0
LINE
  5
15A71
  8
0
  6
BYBLOCK
 10
441.4242140794471
 20
-926.13846573904812
 30
0.0
 11
439.42421407944721
 21
-926.67436411904805
 31
0.0
  0
LINE
  5
15A72
  8
0
  6
BYBLOCK
 10
441.4242140794471
 20
-926.13846573904812
 30
0.0
 11
439.42421407944721
 21
-926.13846573904812
 31
0.0
  0
TEXT
  5
15A73
  8
1DIM
 10
480.70676167300979
 20
-869.58822385636086
 30
0.0
 40
3.5
  1
12 
 50
90.0
  0
LINE
  5
15A74
  8
0
  6
BYBLOCK
 10
480.87086329300962
 20
-863.13846573904823
 30
0.0
 11
481.40676167300961
 21
-861.138465739048
 31
0.0
  0
LINE
  5
15A75
  8
0
  6
BYBLOCK
 10
481.40676167300961
 20
-861.138465739048
 30
0.0
 11
481.9426600530096
 21
-863.13846573904823
 31
0.0
  0
LINE
  5
15A76
  8
0
  6
BYBLOCK
 10
481.40676167300961
 20
-861.138465739048
 30
0.0
 11
481.40676167300961
 21
-863.13846573904823
 31
0.0
  0
LINE
  5
15A77
  8
0
  6
BYBLOCK
 10
481.9426600530096
 20
-871.37131530700697
 30
0.0
 11
481.40676167300961
 21
-873.37131530700697
 31
0.0
  0
LINE
  5
15A78
  8
0
  6
BYBLOCK
 10
481.40676167300961
 20
-873.37131530700697
 30
0.0
 11
480.87086329300962
 21
-871.37131530700697
 31
0.0
  0
LINE
  5
15A79
  8
0
  6
BYBLOCK
 10
481.40676167300961
 20
-873.37131530700697
 30
0.0
 11
481.40676167300961
 21
-871.37131530700697
 31
0.0
  0
TEXT
  5
15A7A
  8
1DIM
 10
480.70676167300979
 20
-890.99631530700685
 30
0.0
 40
3.5
  1
30 
 50
90.0
  0
LINE
  5
15A7B
  8
0
  6
BYBLOCK
 10
481.9426600530096
 20
-901.37131530700708
 30
0.0
 11
481.40676167300961
 21
-903.37131530700697
 31
0.0
  0
LINE
  5
15A7C
  8
0
  6
BYBLOCK
 10
481.40676167300961
 20
-903.37131530700697
 30
0.0
 11
480.87086329300962
 21
-901.37131530700708
 31
0.0
  0
LINE
  5
15A7D
  8
0
  6
BYBLOCK
 10
481.40676167300961
 20
-903.37131530700697
 30
0.0
 11
481.40676167300961
 21
-901.37131530700708
 31
0.0
  0
LINE
  5
15A7E
  8
0
  6
BYBLOCK
 10
480.87086329300968
 20
-875.37131530700708
 30
0.0
 11
481.40676167300973
 21
-873.37131530700697
 31
0.0
  0
LINE
  5
15A7F
  8
0
  6
BYBLOCK
 10
481.40676167300973
 20
-873.37131530700697
 30
0.0
 11
481.94266005300972
 21
-875.37131530700708
 31
0.0
  0
LINE
  5
15A80
  8
0
  6
BYBLOCK
 10
481.40676167300973
 20
-873.37131530700697
 30
0.0
 11
481.40676167300973
 21
-875.37131530700708
 31
0.0
  0
LINE
  5
15A81
  8
0
 10
297.42426061534479
 20
-744.28846171179862
 30
0.0
 11
297.42426061534479
 21
-766.18842680992248
 31
0.0
  0
LINE
  5
15A82
  8
0
 10
294.92421407944693
 20
-768.68845589459454
 30
0.0
 11
297.42426061534479
 21
-766.18842680992248
 31
0.0
  0
LINE
  5
15A83
  8
0
 10
298.92426061534479
 20
-738.98846520193752
 30
0.0
 11
297.42426061534479
 21
-744.28846171179862
 31
0.0
  0
LINE
  5
15A84
  8
0
 10
294.92421407944693
 20
-768.68845589459454
 30
0.0
 11
294.92421407944693
 21
-768.98845589459552
 31
0.0
  0
LINE
  5
15A85
  8
0
 10
298.92426061534479
 20
-738.98846520193752
 30
0.0
 11
300.42426061534479
 21
-744.28846869218285
 31
0.0
  0
LINE
  5
15A86
  8
0
 10
294.92421407944693
 20
-768.98845589459552
 30
0.0
 11
302.92421407944693
 21
-768.98847450895482
 31
0.0
  0
LINE
  5
15A87
  8
0
 10
300.42426061534479
 20
-744.28846869218285
 30
0.0
 11
300.42426061534479
 21
-766.18849196028771
 31
0.0
  0
LINE
  5
15A88
  8
0
 10
302.92421407944693
 20
-768.68847450895373
 30
0.0
 11
302.92421407944693
 21
-768.98847450895482
 31
0.0
  0
LINE
  5
15A89
  8
0
 10
302.92421407944693
 20
-768.68847450895373
 30
0.0
 11
300.42426061534479
 21
-766.18849196028771
 31
0.0
  0
TEXT
  5
15A8A
  8
1DIM1
 10
55.549214079446877
 20
-944.03846573904809
 30
0.0
 40
10.5
  1
P450 
  0
LINE
  5
15A8B
  8
0
  6
BYBLOCK
 10
292.92421407944693
 20
-944.53077059904808
 30
0.0
 11
298.92421407944693
 21
-946.138465739048
 31
0.0
  0
LINE
  5
15A8C
  8
0
  6
BYBLOCK
 10
298.92421407944693
 20
-946.138465739048
 30
0.0
 11
292.92421407944693
 21
-947.74616087904815
 31
0.0
  0
LINE
  5
15A8D
  8
0
  6
BYBLOCK
 10
298.92421407944693
 20
-946.138465739048
 30
0.0
 11
292.92421407944693
 21
-946.138465739048
 31
0.0
  0
LINE
  5
15A8E
  8
0
  6
BYBLOCK
 10
-145.0757859205531
 20
-947.74616087904815
 30
0.0
 11
-151.0757859205531
 21
-946.138465739048
 31
0.0
  0
LINE
  5
15A8F
  8
0
  6
BYBLOCK
 10
-151.0757859205531
 20
-946.138465739048
 30
0.0
 11
-145.0757859205531
 21
-944.53077059904808
 31
0.0
  0
LINE
  5
15A90
  8
0
  6
BYBLOCK
 10
-151.0757859205531
 20
-946.138465739048
 30
0.0
 11
-145.0757859205531
 21
-946.138465739048
 31
0.0
  0
TEXT
  5
15A91
  8
1DIM1
 10
60.799214079446919
 20
-974.03846573904798
 30
0.0
 40
10.5
  1
505 
  0
LINE
  5
15A92
  8
0
  6
BYBLOCK
 10
320.42421407944698
 20
-974.53077059904797
 30
0.0
 11
326.42421407944698
 21
-976.13846573904812
 31
0.0
  0
LINE
  5
15A93
  8
0
  6
BYBLOCK
 10
326.42421407944698
 20
-976.13846573904812
 30
0.0
 11
320.42421407944698
 21
-977.74616087904815
 31
0.0
  0
LINE
  5
15A94
  8
0
  6
BYBLOCK
 10
326.42421407944698
 20
-976.13846573904812
 30
0.0
 11
320.42421407944698
 21
-976.13846573904812
 31
0.0
  0
LINE
  5
15A95
  8
0
  6
BYBLOCK
 10
-172.5757859205531
 20
-977.74616087904815
 30
0.0
 11
-178.5757859205531
 21
-976.13846573904812
 31
0.0
  0
LINE
  5
15A96
  8
0
  6
BYBLOCK
 10
-178.5757859205531
 20
-976.13846573904812
 30
0.0
 11
-172.5757859205531
 21
-974.53077059904797
 31
0.0
  0
LINE
  5
15A97
  8
0
  6
BYBLOCK
 10
-178.5757859205531
 20
-976.13846573904812
 30
0.0
 11
-172.5757859205531
 21
-976.13846573904812
 31
0.0
  0
TEXT
  5
15A98
  8
1DIM
 10
165.72421407944711
 20
-893.43397029073492
 30
0.0
 40
3.5
  1
φ12
 50
90.0
  0
LINE
  5
15A99
  8
0
  6
BYBLOCK
 10
165.88831569944699
 20
-884.6506369574015
 30
0.0
 11
166.42421407944701
 21
-882.65063695740162
 31
0.0
  0
LINE
  5
15A9A
  8
0
  6
BYBLOCK
 10
166.42421407944701
 20
-882.65063695740162
 30
0.0
 11
166.96011245944689
 21
-884.6506369574015
 31
0.0
  0
LINE
  5
15A9B
  8
0
  6
BYBLOCK
 10
166.42421407944701
 20
-882.65063695740162
 30
0.0
 11
166.42421407944701
 21
-884.6506369574015
 31
0.0
  0
LINE
  5
15A9C
  8
0
  6
BYBLOCK
 10
166.96011245944689
 20
-892.65063695740128
 30
0.0
 11
166.42421407944701
 21
-894.65063695740128
 31
0.0
  0
LINE
  5
15A9D
  8
0
  6
BYBLOCK
 10
166.42421407944701
 20
-894.65063695740128
 30
0.0
 11
165.88831569944699
 21
-892.65063695740128
 31
0.0
  0
LINE
  5
15A9E
  8
0
  6
BYBLOCK
 10
166.42421407944701
 20
-894.65063695740128
 30
0.0
 11
166.42421407944701
 21
-892.65063695740128
 31
0.0
  0
TEXT
  5
15A9F
  8
1DIM
 10
355.72421407944711
 20
-880.138465739048
 30
0.0
 40
3.5
  1
27.5 
 50
90.0
  0
LINE
  5
15AA0
  8
0
  6
BYBLOCK
 10
356.96011245944698
 20
-886.63846573904812
 30
0.0
 11
356.42421407944698
 21
-888.63846573904812
 31
0.0
  0
LINE
  5
15AA1
  8
0
  6
BYBLOCK
 10
356.42421407944698
 20
-888.63846573904812
 30
0.0
 11
355.88831569944699
 21
-886.63846573904812
 31
0.0
  0
LINE
  5
15AA2
  8
0
  6
BYBLOCK
 10
356.42421407944698
 20
-888.63846573904812
 30
0.0
 11
356.42421407944698
 21
-886.63846573904812
 31
0.0
  0
LINE
  5
15AA3
  8
0
  6
BYBLOCK
 10
355.88831569944699
 20
-863.13846573904823
 30
0.0
 11
356.42421407944698
 21
-861.138465739048
 31
0.0
  0
LINE
  5
15AA4
  8
0
  6
BYBLOCK
 10
356.42421407944698
 20
-861.138465739048
 30
0.0
 11
356.96011245944698
 21
-863.13846573904823
 31
0.0
  0
LINE
  5
15AA5
  8
0
  6
BYBLOCK
 10
356.42421407944698
 20
-861.138465739048
 30
0.0
 11
356.42421407944698
 21
-863.13846573904823
 31
0.0
  0
TEXT
  5
15AA6
  8
1DIM
 10
365.72421407944699
 20
-883.33822385636086
 30
0.0
 40
3.5
  1
15 
 50
90.0
  0
LINE
  5
15AA7
  8
0
  6
BYBLOCK
 10
366.96011245944692
 20
-886.63846573904812
 30
0.0
 11
366.42421407944693
 21
-888.63846573904812
 31
0.0
  0
LINE
  5
15AA8
  8
0
  6
BYBLOCK
 10
366.42421407944693
 20
-888.63846573904812
 30
0.0
 11
365.88831569944688
 21
-886.63846573904812
 31
0.0
  0
LINE
  5
15AA9
  8
0
  6
BYBLOCK
 10
366.42421407944693
 20
-888.63846573904812
 30
0.0
 11
366.42421407944693
 21
-886.63846573904812
 31
0.0
  0
LINE
  5
15AAA
  8
0
  6
BYBLOCK
 10
365.88831569944688
 20
-875.37131530700708
 30
0.0
 11
366.42421407944693
 21
-873.37131530700697
 31
0.0
  0
LINE
  5
15AAB
  8
0
  6
BYBLOCK
 10
366.42421407944693
 20
-873.37131530700697
 30
0.0
 11
366.96011245944692
 21
-875.37131530700708
 31
0.0
  0
LINE
  5
15AAC
  8
0
  6
BYBLOCK
 10
366.42421407944693
 20
-873.37131530700697
 30
0.0
 11
366.42421407944693
 21
-875.37131530700708
 31
0.0
  0
TEXT
  5
15AAD
  8
1DIM
 10
345.72421407944711
 20
-894.00513240571468
 30
0.0
 40
3.5
  1
φ55
 50
90.0
  0
LINE
  5
15AAE
  8
0
  6
BYBLOCK
 10
345.88831569944699
 20
-863.13846573904823
 30
0.0
 11
346.42421407944698
 21
-861.138465739048
 31
0.0
  0
LINE
  5
15AAF
  8
0
  6
BYBLOCK
 10
346.42421407944698
 20
-861.138465739048
 30
0.0
 11
346.96011245944698
 21
-863.13846573904823
 31
0.0
  0
LINE
  5
15AB0
  8
0
  6
BYBLOCK
 10
346.42421407944698
 20
-861.138465739048
 30
0.0
 11
346.42421407944698
 21
-863.13846573904823
 31
0.0
  0
LINE
  5
15AB1
  8
0
  6
BYBLOCK
 10
346.96011245944692
 20
-914.13846573904823
 30
0.0
 11
346.42421407944693
 21
-916.13846573904812
 31
0.0
  0
LINE
  5
15AB2
  8
0
  6
BYBLOCK
 10
346.42421407944693
 20
-916.13846573904812
 30
0.0
 11
345.88831569944699
 21
-914.13846573904823
 31
0.0
  0
LINE
  5
15AB3
  8
0
  6
BYBLOCK
 10
346.42421407944693
 20
-916.13846573904812
 30
0.0
 11
346.42421407944693
 21
-914.13846573904823
 31
0.0
  0
TEXT
  5
15AB4
  8
1DIM
 10
406.00754741278041
 20
-935.43846573904807
 30
0.0
 40
3.5
  1
65 
  0
LINE
  5
15AB5
  8
0
  6
BYBLOCK
 10
378.42421407944698
 20
-936.67436411904805
 30
0.0
 11
376.42421407944698
 21
-936.138465739048
 31
0.0
  0
LINE
  5
15AB6
  8
0
  6
BYBLOCK
 10
376.42421407944698
 20
-936.138465739048
 30
0.0
 11
378.42421407944698
 21
-935.60256735904795
 31
0.0
  0
LINE
  5
15AB7
  8
0
  6
BYBLOCK
 10
376.42421407944698
 20
-936.138465739048
 30
0.0
 11
378.42421407944698
 21
-936.138465739048
 31
0.0
  0
LINE
  5
15AB8
  8
0
  6
BYBLOCK
 10
439.42421407944721
 20
-935.60256735904795
 30
0.0
 11
441.4242140794471
 21
-936.138465739048
 31
0.0
  0
LINE
  5
15AB9
  8
0
  6
BYBLOCK
 10
441.4242140794471
 20
-936.138465739048
 30
0.0
 11
439.42421407944721
 21
-936.67436411904805
 31
0.0
  0
LINE
  5
15ABA
  8
0
  6
BYBLOCK
 10
441.4242140794471
 20
-936.138465739048
 30
0.0
 11
439.42421407944721
 21
-936.138465739048
 31
0.0
  0
LINE
  5
15ABB
  8
1DIM
 10
186.16066392574999
 20
-821.64333716939336
 30
0.0
 11
202.1327907900945
 21
-803.65399947774517
 31
0.0
  0
LINE
  5
15ABC
  8
1DIM
 10
202.1327907900945
 20
-803.65399947774517
 30
0.0
 11
237.49945745676121
 21
-803.65399947774517
 31
0.0
  0
LINE
  5
15ABD
  8
1DIM
 10
317.16482323821788
 20
-773.19876590722504
 30
0.0
 11
333.55085095390609
 21
-805.09238635841166
 31
0.0
  0
LINE
  5
15ABE
  8
1DIM
 10
333.55085095390609
 20
-805.09238635841166
 30
0.0
 11
381.51751762057268
 21
-805.09238635841166
 31
0.0
  0
LINE
  5
15ABF
  8
1DIM
 10
311.9178958052824
 20
-789.42947533635333
 30
0.0
 11
328.22421407944688
 21
-817.91204082292336
 31
0.0
  0
LINE
  5
15AC0
  8
1DIM
 10
328.22421407944688
 20
-817.91204082292336
 30
0.0
 11
376.19088074611358
 21
-817.91204082292336
 31
0.0
  0
LINE
  5
15AC1
  8
1DIM
 10
314.1820678186258
 20
-822.53113802702455
 30
0.0
 11
330.48838609279022
 21
-851.01370351359446
 31
0.0
  0
LINE
  5
15AC2
  8
1DIM
 10
330.48838609279022
 20
-851.01370351359446
 30
0.0
 11
378.45505275945692
 21
-851.01370351359446
 31
0.0
  0
VIEWPORT
  5
57
 67
     1
  8
0
 10
-12.71820606546882
 20
10.09248672500371
 30
0.0
 40
426.48431561502389
 41
282.79835762855021
 68
     1
 69
     1
1001
ACAD
1000
MVIEW
1002
{
1070
    16
1010
0.0
1020
0.0
1030
0.0
1010
0.0
1020
0.0
1030
1.0
1040
0.0
1040
282.79835762855021
1040
-12.71820606546882
1040
10.09248672500371
1040
50.0
1040
0.0
1040
0.0
1070
     0
1070
   100
1070
     1
1070
     1
1070
     0
1070
     0
1070
     0
1070
     0
1040
0.0
1040
0.0
1040
0.0
1040
10.0
1040
10.0
1040
10.0
1040
10.0
1070
     0
1002
{
1002
}
1002
}
  0
ENDSEC
  0
EOF
