  0
SECTION
  2
HEADER
  9
$ACADVER
  1
AC1009
  9
$INSBASE
 10
0.0
 20
0.0
 30
0.0
  9
$EXTMIN
 10
-328.7828927017394
 20
-953.37131530700628
 30
0.0
  9
$EXTMAX
 10
483.62421733691502
 20
-674.21039745839244
 30
0.0
  9
$LIMMIN
 10
0.0
 20
0.0
  9
$LIMMAX
 10
420.0
 20
297.0
  9
$ORTHOMODE
 70
     0
  9
$REGENMODE
 70
     1
  9
$FILLMODE
 70
     1
  9
$QTEXTMODE
 70
     0
  9
$MIRRTEXT
 70
     0
  9
$DRAGMODE
 70
     2
  9
$LTSCALE
 40
0.5
  9
$OSMODE
 70
  2175
  9
$ATTMODE
 70
     1
  9
$TEXTSIZE
 40
4.0
  9
$TRACEWID
 40
1.0
  9
$TEXTSTYLE
  7
STANDARD
  9
$CLAYER
  8
1TEXT
  9
$CELTYPE
  6
BYLAYER
  9
$CECOLOR
 62
   256
  9
$DIMSCALE
 40
1.0
  9
$DIMASZ
 40
2.0
  9
$DIMEXO
 40
0.0
  9
$DIMDLI
 40
7.0
  9
$DIMRND
 40
0.0
  9
$DIMDLE
 40
0.0
  9
$DIMEXE
 40
1.0
  9
$DIMTP
 40
0.0
  9
$DIMTM
 40
0.0
  9
$DIMTXT
 40
3.5
  9
$DIMCEN
 40
0.0
  9
$DIMTSZ
 40
0.0
  9
$DIMTOL
 70
     0
  9
$DIMLIM
 70
     0
  9
$DIMTIH
 70
     0
  9
$DIMTOH
 70
     0
  9
$DIMSE1
 70
     0
  9
$DIMSE2
 70
     0
  9
$DIMTAD
 70
     1
  9
$DIMZIN
 70
     8
  9
$DIMBLK
  1

  9
$DIMASO
 70
     1
  9
$DIMSHO
 70
     1
  9
$DIMPOST
  1
 
  9
$DIMAPOST
  1

  9
$DIMALT
 70
     0
  9
$DIMALTD
 70
     2
  9
$DIMALTF
 40
25.399999999999999
  9
$DIMLFAC
 40
1.0
  9
$DIMTOFL
 70
     1
  9
$DIMTVP
 40
0.0
  9
$DIMTIX
 70
     0
  9
$DIMSOXD
 70
     0
  9
$DIMSAH
 70
     1
  9
$DIMBLK1
  1
OPEN30
  9
$DIMBLK2
  1
OPEN30
  9
$DIMSTYLE
  2
NEWX10
  9
$DIMCLRD
 70
   256
  9
$DIMCLRE
 70
   256
  9
$DIMCLRT
 70
   201
  9
$DIMTFAC
 40
0.7
  9
$DIMGAP
 40
0.7
  9
$LUNITS
 70
     2
  9
$LUPREC
 70
     4
  9
$SKETCHINC
 40
1.0
  9
$FILLETRAD
 40
0.0
  9
$AUNITS
 70
     0
  9
$AUPREC
 70
     2
  9
$MENU
  1
acad
  9
$ELEVATION
 40
0.0
  9
$PELEVATION
 40
0.0
  9
$THICKNESS
 40
0.0
  9
$LIMCHECK
 70
     0
  9
$BLIPMODE
 70
     0
  9
$CHAMFERA
 40
10.0
  9
$CHAMFERB
 40
10.0
  9
$SKPOLY
 70
     0
  9
$TDCREATE
 40
2453033.7326634838
  9
$TDUPDATE
 40
2454481.8049046881
  9
$TDINDWG
 40
1.7408758333000001
  9
$TDUSRTIMER
 40
1.7408758333000001
  9
$USRTIMER
 70
     1
  9
$ANGBASE
 50
0.0
  9
$ANGDIR
 70
     0
  9
$PDMODE
 70
     0
  9
$PDSIZE
 40
0.0
  9
$PLINEWID
 40
0.0
  9
$COORDS
 70
     2
  9
$SPLFRAME
 70
     0
  9
$SPLINETYPE
 70
     6
  9
$SPLINESEGS
 70
     8
  9
$ATTDIA
 70
     0
  9
$ATTREQ
 70
     1
  9
$HANDLING
 70
     1
  9
$HANDSEED
  5
196E9
  9
$SURFTAB1
 70
     6
  9
$SURFTAB2
 70
     6
  9
$SURFTYPE
 70
     6
  9
$SURFU
 70
     6
  9
$SURFV
 70
     6
  9
$UCSNAME
  2

  9
$UCSORG
 10
0.0
 20
0.0
 30
0.0
  9
$UCSXDIR
 10
1.0
 20
0.0
 30
0.0
  9
$UCSYDIR
 10
0.0
 20
1.0
 30
0.0
  9
$PUCSNAME
  2

  9
$PUCSORG
 10
0.0
 20
0.0
 30
0.0
  9
$PUCSXDIR
 10
1.0
 20
0.0
 30
0.0
  9
$PUCSYDIR
 10
0.0
 20
1.0
 30
0.0
  9
$USERI1
 70
     0
  9
$USERI2
 70
     0
  9
$USERI3
 70
     0
  9
$USERI4
 70
     0
  9
$USERI5
 70
     0
  9
$USERR1
 40
0.0
  9
$USERR2
 40
0.0
  9
$USERR3
 40
0.0
  9
$USERR4
 40
0.0
  9
$USERR5
 40
133.30000000000001
  9
$WORLDVIEW
 70
     1
  9
$SHADEDGE
 70
     3
  9
$SHADEDIF
 70
    70
  9
$TILEMODE
 70
     1
  9
$MAXACTVP
 70
    48
  9
$PLIMCHECK
 70
     0
  9
$PEXTMIN
 10
1.0000000000000000E+020
 20
1.0000000000000000E+020
 30
1.0000000000000000E+020
  9
$PEXTMAX
 10
-1.0000000000000000E+020
 20
-1.0000000000000000E+020
 30
-1.0000000000000000E+020
  9
$PLIMMIN
 10
0.0
 20
0.0
  9
$PLIMMAX
 10
420.0
 20
297.0
  9
$UNITMODE
 70
     0
  9
$VISRETAIN
 70
     1
  9
$PLINEGEN
 70
     0
  9
$PSLTSCALE
 70
     1
  0
ENDSEC
  0
SECTION
  2
TABLES
  0
TABLE
  2
VPORT
 70
     4
  0
VPORT
  2
*ACTIVE
 70
     0
 10
0.0
 20
0.0
 11
1.0
 21
1.0
 12
77.420664209120901
 22
-813.79777540724615
 13
0.0
 23
0.0
 14
10.0
 24
10.0
 15
10.0
 25
10.0
 16
0.0
 26
0.0
 36
1.0
 17
0.0
 27
0.0
 37
0.0
 40
570.12456514350515
 41
1.508086253369272
 42
50.0
 43
0.0
 44
0.0
 50
0.0
 51
0.0
 71
     0
 72
   100
 73
     1
 74
     1
 75
     0
 76
     0
 77
     0
 78
     0
  0
ENDTAB
  0
TABLE
  2
LTYPE
 70
    15
  0
LTYPE
  2
CONTINUOUS
 70
     0
  3
Solid line
 72
    65
 73
     0
 40
0.0
  0
LTYPE
  2
CENTER2
 70
     0
  3
Center (.5x) ___ _ ___ _ ___ _ ___ _ ___ _ ___
 72
    65
 73
     4
 40
28.574999999999999
 49
19.050000000000001
 49
-3.1749999999999989
 49
3.1749999999999989
 49
-3.1749999999999989
  0
LTYPE
  2
XREF1|CENTER2
 70
    48
  3
Center (.5x) ___ _ ___ _ ___ _ ___ _ ___ _ ___
 72
    65
 73
     4
 40
28.574999999999999
 49
19.050000000000001
 49
-3.1749999999999989
 49
3.1749999999999989
 49
-3.1749999999999989
  0
LTYPE
  2
PHANTOM2
 70
     0
  3
Phantom (.5x) ___ _ _ ___ _ _ ___ _ _ ___ _ _
 72
    65
 73
     6
 40
31.75
 49
15.875
 49
-3.1749999999999989
 49
3.1749999999999989
 49
-3.1749999999999989
 49
3.1749999999999989
 49
-3.1749999999999989
  0
LTYPE
  2
A3WAKUDAKE|CENTER2
 70
    48
  3
Center (.5x) ___ _ ___ _ ___ _ ___ _ ___ _ ___
 72
    65
 73
     4
 40
28.574999999999999
 49
19.050000000000001
 49
-3.1749999999999989
 49
3.1749999999999989
 49
-3.1749999999999989
  0
ENDTAB
  0
TABLE
  2
LAYER
 70
    44
  0
LAYER
  2
0
 70
     0
 62
     7
  6
CONTINUOUS
  0
LAYER
  2
1CENTER
 70
     0
 62
     7
  6
CENTER2
  0
LAYER
  2
1TEXT
 70
     0
 62
     7
  6
CONTINUOUS
  0
LAYER
  2
1DIM
 70
     0
 62
     7
  6
CONTINUOUS
  0
LAYER
  2
1PHANTOM
 70
     0
 62
     7
  6
PHANTOM2
  0
LAYER
  2
01
 70
     0
 62
     1
  6
CONTINUOUS
  0
LAYER
  2
1DIM1
 70
     0
 62
     7
  6
CONTINUOUS
  0
LAYER
  2
XREF1|1CENTER
 70
    48
 62
     7
  6
XREF1|CENTER2
  0
LAYER
  2
A3WAKUDAKE|THICK
 70
    48
 62
     7
  6
CONTINUOUS
  0
LAYER
  2
A3WAKUDAKE|POINT
 70
    48
 62
     7
  6
CONTINUOUS
  0
LAYER
  2
A3WAKUDAKE|1CENTER
 70
    48
 62
     7
  6
A3WAKUDAKE|CENTER2
  0
LAYER
  2
A3WAKUDAKE|0-6
 70
    48
 62
     7
  6
CONTINUOUS
  0
LAYER
  2
A3WAKUDAKE|1DIM
 70
    48
 62
     7
  6
CONTINUOUS
  0
ENDTAB
  0
TABLE
  2
STYLE
 70
    22
  0
STYLE
  2
STANDARD
 70
     0
 40
0.0
 41
1.0
 50
0.0
 71
     0
 42
4.0
  3
txt.shx
  4
extfont.shx
  0
ENDTAB
  0
TABLE
  2
VIEW
 70
     0
  0
ENDTAB
  0
TABLE
  2
UCS
 70
     0
  0
ENDTAB
  0
TABLE
  2
APPID
 70
     9
  0
APPID
  2
ACAD
 70
     0
  0
APPID
  2
DRAWINGVARIABLESXDATA
 70
     0
  0
APPID
  2
CONTENTTABDATA
 70
     0
  0
APPID
  2
CONTENTCURRENTTAB
 70
     0
  0
APPID
  2
CONTENTBLOCKDESCRIPTION
 70
     0
  0
APPID
  2
CONTENTBLOCKICON
 70
     0
  0
APPID
  2
CONTENTLONGBLOCKNAME
 70
     0
  0
APPID
  2
ACAD_PSEXT
 70
     0
  0
APPID
  2
ACAD_DSTYLE_DIMTEXT_FILL
 70
     0
  0
ENDTAB
  0
TABLE
  2
DIMSTYLE
 70
     9
  0
DIMSTYLE
  2
NEWX10
 70
     0
  3
 
  4

  5

  6
OPEN30
  7
OPEN30
 40
1.0
 41
2.0
 42
0.0
 43
7.0
 44
1.0
 45
0.0
 46
0.0
 47
0.0
 48
0.0
140
3.5
141
0.0
142
0.0
143
25.399999999999999
144
1.0
145
0.0
146
0.7
147
0.7
 71
     0
 72
     0
 73
     0
 74
     0
 75
     0
 76
     0
 77
     1
 78
     8
170
     0
171
     2
172
     1
173
     1
174
     0
175
     0
176
   256
177
   256
178
   201
  0
ENDTAB
  0
ENDSEC
  0
SECTION
  2
BLOCKS
  0
BLOCK
  8
0
  2
$MODEL_SPACE
 70
     0
 10
0.0
 20
0.0
 30
0.0
  3
$MODEL_SPACE
  1

  0
ENDBLK
  5
1A
  8
0
  0
BLOCK
 67
     1
  8
0
  2
$PAPER_SPACE
 70
     0
 10
0.0
 20
0.0
 30
0.0
  3
$PAPER_SPACE
  1

  0
ENDBLK
  5
17
 67
     1
  8
0
  0
BLOCK
  8
0
  2
_OPEN30
 70
     0
 10
0.0
 20
0.0
 30
0.0
  3
_OPEN30
  1

  0
LINE
  5
44
  8
0
  6
BYBLOCK
 62
     0
 10
-1.0
 20
0.26794919
 30
0.0
 11
0.0
 21
0.0
 31
0.0
  0
LINE
  5
45
  8
0
  6
BYBLOCK
 62
     0
 10
0.0
 20
0.0
 30
0.0
 11
-1.0
 21
-0.26794919
 31
0.0
  0
LINE
  5
46
  8
0
  6
BYBLOCK
 62
     0
 10
0.0
 20
0.0
 30
0.0
 11
-1.0
 21
0.0
 31
0.0
  0
ENDBLK
  5
47
  8
0
  0
BLOCK
  8
0
  2
XREF1
 70
    36
 10
0.0
 20
0.0
 30
0.0
  3
XREF1
  1
D:\ACLT\FORMAT\KAWAJUN(9)図面用.dwg
  0
ENDBLK
  5
5D
  8
0
  0
BLOCK
  8
0
  2
A3WAKUDAKE
 70
    36
 10
0.0
 20
0.0
 30
0.0
  3
A3WAKUDAKE
  1
D:\ACLT\FORMAT\A3WAKUdake.dwg
  0
ENDBLK
  5
6DC
  8
0
  0
BLOCK
  8
0
  2
*U72
 70
     1
 10
0.0
 20
0.0
 30
0.0
  3
*U72
  1

  0
TEXT
  5
19227
  8
0
 62
   201
 10
-63.717024855154058
 20
-3.810911908990481
 30
0.0
 40
3.5
  1
φ5
 50
48.83031736650419
  0
ENDBLK
  5
19229
  8
0
  0
BLOCK
  8
0
  2
*U73
 70
     1
 10
0.0
 20
0.0
 30
0.0
  3
*U73
  1

  0
TEXT
  5
1922B
  8
1TEXT
 62
   201
 10
21.614708555164611
 20
22.401236958861659
 30
0.0
 40
2.0
  1
二文字
  0
TEXT
  5
1922C
  8
1TEXT
 62
   201
 10
21.614708555164611
 20
19.067903625528331
 30
0.0
 40
2.0
  1
(別途指定)
  0
TEXT
  5
1922D
  8
1TEXT
 62
   201
 10
21.614708555164611
 20
15.73457029219499
 30
0.0
 40
2.0
  1
天地 約1.8
  0
TEXT
  5
1922E
  8
1TEXT
 62
   201
 10
21.614708555164611
 20
12.401236958861659
 30
0.0
 40
2.0
  1
凸0.2
  0
ENDBLK
  5
19230
  8
0
  0
BLOCK
  8
0
  2
*U74
 70
     1
 10
0.0
 20
0.0
 30
0.0
  3
*U74
  1

  0
SOLID
  5
19232
  8
1DIM
 10
17.769912945885331
 20
22.805130681268722
 30
0.0
 11
17.678379796037799
 21
23.814783819854821
 31
0.0
 12
18.0924202800296
 22
22.889392953575271
 32
0.0
 13
18.0924202800296
 23
22.889392953575271
 33
0.0
  0
POLYLINE
  5
19233
  8
1DIM
 66
     1
 10
0.0
 20
0.0
 30
0.0
  0
VERTEX
  5
19234
  8
1DIM
 10
17.931166612957469
 20
22.847261817422002
 30
0.0
  0
VERTEX
  5
19235
  8
1DIM
 10
20.91703607932029
 20
11.41907722970881
 30
0.0
  0
VERTEX
  5
19236
  8
1DIM
 10
35.143226555510758
 20
11.41907722970881
 30
0.0
  0
SEQEND
  5
19237
  8
1DIM
  0
ENDBLK
  5
19239
  8
0
  0
BLOCK
  8
0
  2
*U75
 70
     1
 10
0.0
 20
0.0
 30
0.0
  3
*U75
  1

  0
TEXT
  5
1923B
  8
1DIM
 62
   201
 10
8.9421530727463576
 20
19.285028579396069
 30
0.0
 40
2.0
  1
枠
  0
TEXT
  5
1923C
  8
1DIM
 62
   201
 10
7.0754864060796914
 20
15.951695246062741
 30
0.0
 40
2.0
  1
φ5
  0
TEXT
  5
1923D
  8
1DIM
 62
   201
 10
4.7421530727463583
 20
12.61836191272941
 30
0.0
 40
2.0
  1
凹0.3
  0
ENDBLK
  5
1923F
  8
0
  0
BLOCK
  8
0
  2
*U76
 70
     1
 10
0.0
 20
0.0
 30
0.0
  3
*U76
  1

  0
SOLID
  5
19241
  8
1DIM
 10
14.77538895849114
 20
20.894651819020488
 30
0.0
 11
15.75963814806016
 21
22.667323431007279
 31
0.0
 12
15.403512140193291
 22
20.67125595278117
 32
0.0
 13
15.403512140193291
 23
20.67125595278117
 33
0.0
  0
POLYLINE
  5
19242
  8
1DIM
 66
     1
 10
0.0
 20
0.0
 30
0.0
  0
VERTEX
  5
19243
  8
1DIM
 10
15.089450549342221
 20
20.782953885900831
 30
0.0
  0
VERTEX
  5
19244
  8
1DIM
 10
11.821762131327951
 20
11.59517937383526
 30
0.0
  0
VERTEX
  5
19245
  8
1DIM
 10
2.3789049884708091
 20
11.59517937383526
 30
0.0
  0
SEQEND
  5
19246
  8
1DIM
  0
ENDBLK
  5
19248
  8
0
  0
BLOCK
  8
0
  2
*U77
 70
     1
 10
0.0
 20
0.0
 30
0.0
  3
*U77
  1

  0
TEXT
  5
1924B
  8
1TEXT
 10
14.9745471932972
 20
24.09947430071913
 30
0.0
 40
1.8
  1
XY
  0
ENDBLK
  5
1924D
  8
0
  0
BLOCK
  8
0
  2
*U78
 70
     1
 10
0.0
 20
0.0
 30
0.0
  3
*U78
  1

  0
LINE
  5
1924F
  8
0
 10
-4.1999999999999877
 20
-1.9999999999999849
 30
0.0
 11
-0.3500000000000227
 21
-2.0
 31
0.0
  0
LINE
  5
19250
  8
0
 10
0.0
 20
-1.6499999999998629
 30
0.0
 11
-0.3500000000000227
 21
-2.0
 31
0.0
  0
LINE
  5
19251
  8
0
 10
-6.0
 20
-0.200000000000017
 30
0.0
 11
-4.1999999999999877
 21
-1.9999999999999849
 31
0.0
  0
LINE
  5
19252
  8
0
 10
0.0
 20
1.649999999999977
 30
0.0
 11
0.0
 21
-1.6499999999998629
 31
0.0
  0
LINE
  5
19253
  8
0
 10
-6.0
 20
0.2000000000000028
 30
0.0
 11
-6.0
 21
-0.200000000000017
 31
0.0
  0
LINE
  5
19254
  8
0
 10
-0.3500000000000227
 20
2.0
 30
0.0
 11
0.0
 21
1.649999999999977
 31
0.0
  0
LINE
  5
19255
  8
0
 10
-6.0
 20
0.2000000000000028
 30
0.0
 11
-4.2000000000000446
 21
2.0
 31
0.0
  0
LINE
  5
19256
  8
0
 10
-4.2000000000000446
 20
2.0
 30
0.0
 11
-0.3500000000000227
 21
2.0
 31
0.0
  0
ENDBLK
  5
19258
  8
0
  0
BLOCK
  8
0
  2
*U79
 70
     1
 10
0.0
 20
0.0
 30
0.0
  3
*U79
  1

  0
LINE
  5
1925A
  8
0
 10
-5.6499999999999773
 20
2.0000000000000142
 30
0.0
 11
-0.3500000000000227
 21
2.0
 31
0.0
  0
LINE
  5
1925B
  8
0
 10
-5.6499999999999773
 20
2.0000000000000142
 30
0.0
 11
-6.0
 21
1.6499999999999631
 31
0.0
  0
LINE
  5
1925C
  8
0
 10
-0.3500000000000227
 20
2.0
 30
0.0
 11
0.0
 21
1.649999999999977
 31
0.0
  0
LINE
  5
1925D
  8
0
 10
-6.0
 20
1.6499999999999631
 30
0.0
 11
-6.0
 21
-1.6499999999998629
 31
0.0
  0
LINE
  5
1925E
  8
0
 10
0.0
 20
1.649999999999977
 30
0.0
 11
0.0
 21
-1.6499999999998629
 31
0.0
  0
LINE
  5
1925F
  8
0
 10
-6.0
 20
-1.6499999999998629
 30
0.0
 11
-5.6499999999999773
 21
-1.9999999999999849
 31
0.0
  0
LINE
  5
19260
  8
0
 10
0.0
 20
-1.6499999999998629
 30
0.0
 11
-0.3500000000000227
 21
-2.0
 31
0.0
  0
LINE
  5
19261
  8
0
 10
-5.6499999999999773
 20
-1.9999999999999849
 30
0.0
 11
-0.3500000000000227
 21
-2.0
 31
0.0
  0
ENDBLK
  5
19263
  8
0
  0
BLOCK
  8
0
  2
*X80
 70
     1
 10
0.0
 20
0.0
 30
0.0
  3
*X80
  1

  0
LINE
  5
19265
  8
0
 62
     0
 10
10.35561001165331
 20
1.7353216665921991
 30
0.0
 11
1.735321666592085
 21
10.35561001165342
 31
0.0
  0
LINE
  5
19266
  8
0
 62
     0
 10
0.0000000000001137
 20
8.4988292298177157
 30
0.0
 11
-1.838891835213303
 21
10.337721065031021
 31
0.0
  0
LINE
  5
19267
  8
0
 62
     0
 10
8.4988292298179431
 20
-0.0000000000001137
 30
0.0
 11
0.0000000000001137
 21
8.4988292298177157
 31
0.0
  0
LINE
  5
19268
  8
0
 62
     0
 10
10.337721065031131
 20
-1.838891835213303
 30
0.0
 11
8.4988292298179431
 21
-0.0000000000001137
 31
0.0
  0
LINE
  5
19269
  8
0
 62
     0
 10
-0.2377810848388435
 20
5.1445078662289907
 30
0.0
 11
-4.5542045235814612
 21
9.4609313049716093
 31
0.0
  0
LINE
  5
1926A
  8
0
 62
     0
 10
9.4609313049714956
 20
-4.5542045235813466
 30
0.0
 11
5.1445078662289907
 21
-0.2377810848388435
 31
0.0
  0
LINE
  5
1926B
  8
0
 62
     0
 10
-2.9244738727450108
 20
4.2390982057073643
 30
0.0
 11
-6.7381554127728123
 21
8.0527797457351653
 31
0.0
  0
LINE
  5
1926C
  8
0
 62
     0
 10
8.0527797457350516
 20
-6.7381554127726977
 30
0.0
 11
4.2390982057073643
 21
-2.9244738727450108
 31
0.0
  0
LINE
  5
1926D
  8
0
 62
     0
 10
-4.5977163449367699
 20
2.3202382294715558
 30
0.0
 11
-8.4755144637537114
 21
6.1980363482883831
 31
0.0
  0
LINE
  5
1926E
  8
0
 62
     0
 10
6.1980363482882694
 20
-8.4755144637535977
 30
0.0
 11
2.3202382294715558
 21
-4.5977163449367699
 31
0.0
  0
LINE
  5
1926F
  8
0
 62
     0
 10
-5.0907718486563454
 20
-0.7788087152364369
 30
0.0
 11
-5.8695805638927823
 21
0.0
 31
0.0
  0
LINE
  5
19270
  8
0
 62
     0
 10
-5.8695805638928951
 20
0.0
 30
0.0
 11
-9.9540062277598054
 21
4.0844256638669094
 31
0.0
  0
LINE
  5
19271
  8
0
 62
     0
 10
3.8851808324346839
 20
-9.7547613963275808
 30
0.0
 11
2.0
 21
-7.8695805638928951
 31
0.0
  0
LINE
  5
19272
  8
0
 62
     0
 10
-9.4616830123206892
 20
0.0
 30
0.0
 11
-18.103896804350711
 21
8.6422137920301338
 31
0.0
  0
LINE
  5
19273
  8
0
 62
     0
 10
-2.0000000000001128
 20
-7.4616830123204627
 30
0.0
 11
-9.4616830123204636
 21
-0.0000000000001137
 31
0.0
  0
LINE
  5
19274
  8
0
 62
     0
 10
-13.05378546074826
 20
0.0000000000001137
 30
0.0
 11
-15.175214195387071
 21
2.1214287346389251
 31
0.0
  0
LINE
  5
19275
  8
0
 62
     0
 10
-16.603785460748661
 20
3.5500000000005221
 30
0.0
 11
-23.851266556543241
 21
10.79748109579509
 31
0.0
  0
LINE
  5
19276
  8
0
 62
     0
 10
-2.9878714975766338
 20
-10.065913963171511
 30
0.0
 11
-13.053785460748029
 21
-0.0000000000001137
 31
0.0
  0
LINE
  5
19277
  8
0
 62
     0
 10
-20.195887909176118
 20
3.5500000000002951
 30
0.0
 11
-28.659515684223379
 21
12.013627775047439
 31
0.0
  0
LINE
  5
19278
  8
0
 62
     0
 10
-29.100013291500659
 20
12.454125382324831
 30
0.0
 11
-29.745874817675372
 21
13.09998690849943
 31
0.0
  0
LINE
  5
19279
  8
0
 62
     0
 10
-12.628969351714661
 20
-4.0169185574611674
 30
0.0
 11
-14.93702132611565
 21
-1.7088665830602841
 31
0.0
  0
LINE
  5
1927A
  8
0
 62
     0
 10
-23.78799035760369
 20
3.550000000000181
 30
0.0
 11
-27.799999599999751
 21
7.5620092423962433
 31
0.0
  0
LINE
  5
1927B
  8
0
 62
     0
 10
-31.237990357603621
 20
11.00000000000011
 30
0.0
 11
-33.000000200000052
 21
12.762009842396539
 31
0.0
  0
LINE
  5
1927C
  8
0
 62
     0
 10
-13.78316865624026
 20
-6.454821701363243
 30
0.0
 11
-16.687990357603208
 21
-3.5500000000002951
 31
0.0
  0
LINE
  5
1927D
  8
0
 62
     0
 10
-16.124704244214509
 20
-7.7053885618167888
 30
0.0
 11
-20.280092806031231
 21
-3.5500000000000682
 31
0.0
  0
LINE
  5
1927E
  8
0
 62
     0
 10
-18.57318348346837
 20
-8.849011770990387
 30
0.0
 11
-20.133604742031139
 21
-7.2885905124276169
 31
0.0
  0
LINE
  5
1927F
  8
0
 62
     0
 10
-24.295840827822978
 20
-6.7184568750635663
 30
0.0
 11
-27.132148651443231
 21
-3.8821490514432071
 31
0.0
  0
LINE
  5
19280
  8
0
 62
     0
 10
-23.818861225215301
 20
-10.787538926098931
 30
0.0
 11
-27.799999599999872
 21
-6.8064005513143684
 31
0.0
  0
LINE
  5
19281
  8
0
 62
     0
 10
-26.63513577162314
 20
-11.56336682811866
 30
0.0
 11
-28.117386294735979
 21
-10.081116305005819
 31
0.0
  0
LINE
  5
19282
  8
0
 62
     0
 10
-29.133782390785999
 20
-12.656822657383479
 30
0.0
 11
-30.790605048169478
 21
-11.00000000000011
 31
0.0
  0
LINE
  5
19283
  8
0
 62
     0
 10
-31.632707496597501
 20
-13.749999999999661
 30
0.0
 11
-33.000000200000159
 21
-12.38270729659712
 31
0.0
  0
ENDBLK
  5
19285
  8
0
  0
BLOCK
  8
0
  2
*X81
 70
     1
 10
0.0
 20
0.0
 30
0.0
  3
*X81
  1

  0
LINE
  5
19287
  8
0
 62
     0
 10
-0.0000000000000284
 20
-9.5063084520140251
 30
0.0
 11
1.2436915465089271
 21
-10.749999998522981
 31
0.0
  0
LINE
  5
19288
  8
0
 62
     0
 10
1.3407299661463119
 20
-9.5
 30
0.0
 11
1.8000087437750381
 21
-9.9592787776287253
 31
0.0
  0
LINE
  5
19289
  8
0
 62
     0
 10
-0.0000000000000568
 20
-4.118154779372559
 30
0.0
 11
0.8818452206275254
 21
-5.0000000000001128
 31
0.0
  0
LINE
  5
1928A
  8
0
 62
     0
 10
0.0
 20
-2.7711163612121932
 30
0.0
 11
1.8000087437751511
 21
-4.5711251049873454
 31
0.0
  0
LINE
  5
1928B
  8
0
 62
     0
 10
0.0
 20
-1.4240779430518271
 30
0.0
 11
2.125922055471249
 21
-3.5499999985230768
 31
0.0
  0
LINE
  5
1928C
  8
0
 62
     0
 10
-0.0000000000000284
 20
-0.0770395248914611
 30
0.0
 11
3.222960475108493
 21
-3.2999999999999821
 31
0.0
  0
LINE
  5
1928D
  8
0
 62
     0
 10
1.269998893268933
 20
0.0
 30
0.0
 11
4.5699988932688882
 21
-3.2999999999999541
 31
0.0
  0
LINE
  5
1928E
  8
0
 62
     0
 10
-0.0000000000000284
 20
1.2699988932689621
 30
0.0
 11
1.269998893268905
 21
0.0000000000000284
 31
0.0
  0
LINE
  5
1928F
  8
0
 62
     0
 10
2.6170373114292711
 20
0.0
 30
0.0
 11
5.9170373114292261
 21
-3.2999999999999541
 31
0.0
  0
LINE
  5
19290
  8
0
 62
     0
 10
-0.0000000000000568
 20
2.6170373114293279
 30
0.0
 11
2.6170373114292711
 21
0.0
 31
0.0
  0
LINE
  5
19291
  8
0
 62
     0
 10
3.9640757295896658
 20
0.0
 30
0.0
 11
7.2640757295896199
 21
-3.2999999999999541
 31
0.0
  0
LINE
  5
19292
  8
0
 62
     0
 10
-0.0000000000000284
 20
3.9640757295896938
 30
0.0
 11
3.9640757295896369
 21
0.0
 31
0.0
  0
LINE
  5
19293
  8
0
 62
     0
 10
5.3111141477500894
 20
-0.0000000000000568
 30
0.0
 11
8.6111141477499871
 21
-3.2999999999999821
 31
0.0
  0
LINE
  5
19294
  8
0
 62
     0
 10
0.3111141477501178
 20
4.9999999999998863
 30
0.0
 11
5.3111141477500317
 21
0.0
 31
0.0
  0
LINE
  5
19295
  8
0
 62
     0
 10
3.3581525659104439
 20
3.2999999999999541
 30
0.0
 11
6.6581525659103704
 21
0.0
 31
0.0
  0
LINE
  5
19296
  8
0
 62
     0
 10
6.6581525659104548
 20
-0.0000000000000568
 30
0.0
 11
9.5072519243349518
 21
-2.8490993584245521
 31
0.0
  0
LINE
  5
19297
  8
0
 62
     0
 10
1.65815256591037
 20
5.0
 30
0.0
 11
1.8000087437750381
 21
4.8581438221353599
 31
0.0
  0
LINE
  5
19298
  8
0
 62
     0
 10
8.0051909840708202
 20
-0.0000000000000853
 30
0.0
 11
11.167075174998409
 21
-3.1618841909276512
 31
0.0
  0
LINE
  5
19299
  8
0
 62
     0
 10
4.7051909840708097
 20
3.2999999999999541
 30
0.0
 11
8.0051909840707651
 21
0.0
 31
0.0
  0
LINE
  5
1929A
  8
0
 62
     0
 10
9.3522294022312167
 20
-0.0000000000000853
 30
0.0
 11
12.652229402231111
 21
-3.2999999999999541
 31
0.0
  0
LINE
  5
1929B
  8
0
 62
     0
 10
6.0522294022312053
 20
3.2999999999999261
 30
0.0
 11
9.3522294022311598
 21
0.0
 31
0.0
  0
LINE
  5
1929C
  8
0
 62
     0
 10
7.3992678203915707
 20
3.2999999999999261
 30
0.0
 11
10.699267820391499
 21
0.0
 31
0.0
  0
LINE
  5
1929D
  8
0
 62
     0
 10
10.699267820391579
 20
-0.0000000000000853
 30
0.0
 11
12.90000019999991
 21
-2.2007323796084099
 31
0.0
  0
LINE
  5
1929E
  8
0
 62
     0
 10
-0.0000000000000284
 20
10.699267820391521
 30
0.0
 11
1.1992678203915259
 21
9.5
 31
0.0
  0
LINE
  5
1929F
  8
0
 62
     0
 10
9.2443367211198222
 20
2.8019695174320409
 30
0.0
 11
12.046306238551891
 21
0.0
 31
0.0
  0
LINE
  5
192A0
  8
0
 62
     0
 10
12.046306238551979
 20
-0.0000000000000853
 30
0.0
 11
14.046306238551949
 21
-2.000000000000056
 31
0.0
  0
LINE
  5
192A1
  8
0
 62
     0
 10
1.2963062400290251
 20
10.74999999852287
 30
0.0
 11
1.8000087437750381
 21
10.246297494776851
 31
0.0
  0
LINE
  5
192A2
  8
0
 62
     0
 10
13.393344656712371
 20
-0.0000000000001137
 30
0.0
 11
15.393344656712291
 21
-2.000000000000056
 31
0.0
  0
LINE
  5
192A3
  8
0
 62
     0
 10
15.90000020000002
 20
-2.5066555432877911
 30
0.0
 11
16.143344656712259
 21
-2.750000000000028
 31
0.0
  0
LINE
  5
192A4
  8
0
 62
     0
 10
10.379815373485821
 20
3.0135292832264038
 30
0.0
 11
13.39334465671226
 21
0.0
 31
0.0
  0
LINE
  5
192A5
  8
0
 62
     0
 10
14.74038307487274
 20
-0.0000000000000853
 30
0.0
 11
16.995191537436309
 21
-2.2548084625636871
 31
0.0
  0
LINE
  5
192A6
  8
0
 62
     0
 10
11.513261852327391
 20
3.227121222545235
 30
0.0
 11
14.74038307487262
 21
0.0
 31
0.0
  0
LINE
  5
192A7
  8
0
 62
     0
 10
14.0874214930331
 20
1.9999999999998861
 30
0.0
 11
16.087421493032991
 21
0.0
 31
0.0
  0
LINE
  5
192A8
  8
0
 62
     0
 10
16.087421493033101
 20
-0.0000000000001137
 30
0.0
 11
17.00000000000005
 21
-0.9125785069670656
 31
0.0
  0
LINE
  5
192A9
  8
0
 62
     0
 10
12.78742149303284
 20
3.300000000000181
 30
0.0
 11
12.90000019999988
 21
3.1874212930331391
 31
0.0
  0
LINE
  5
192AA
  8
0
 62
     0
 10
15.43445991119358
 20
1.999999999999801
 30
0.0
 11
17.000000000000082
 21
0.4344599111932724
 31
0.0
  0
LINE
  5
192AB
  8
0
 62
     0
 10
16.031498329353749
 20
2.75
 30
0.0
 11
17.000000000000082
 21
1.7814983293536379
 31
0.0
  0
ENDBLK
  5
192AD
  8
0
  0
BLOCK
  8
0
  2
*X82
 70
     1
 10
0.0
 20
0.0
 30
0.0
  3
*X82
  1

  0
LINE
  5
192AF
  8
0
 62
     0
 10
13.41339771754258
 20
-3.163142703204584
 30
0.0
 11
14.23685749679546
 21
-3.986602482457442
 31
0.0
  0
LINE
  5
192B0
  8
0
 62
     0
 10
13.43543246913447
 20
-2.7361646487429989
 30
0.0
 11
14.66383555125705
 21
-3.9645677308655531
 31
0.0
  0
LINE
  5
192B1
  8
0
 62
     0
 10
13.57832483846698
 20
-2.4300442120220671
 30
0.0
 11
14.969955987978009
 21
-3.821675361533067
 31
0.0
  0
LINE
  5
192B2
  8
0
 62
     0
 10
13.79845481036614
 20
-2.2011613778677481
 30
0.0
 11
15.198838822132331
 21
-3.601545389633912
 31
0.0
  0
LINE
  5
192B3
  8
0
 62
     0
 10
14.09420797036085
 20
-2.04790173180902
 30
0.0
 11
15.352098468191031
 21
-3.3057922296391662
 31
0.0
  0
LINE
  5
192B4
  8
0
 62
     0
 10
14.50036871342669
 20
-2.005049668821413
 30
0.0
 11
15.39495053117866
 21
-2.8996314865733832
 31
0.0
  0
LINE
  5
192B5
  8
0
 62
     0
 10
13.48049176570316
 20
2.6069297273297991
 30
0.0
 11
14.00692992732988
 21
2.0804915657031131
 31
0.0
  0
LINE
  5
192B6
  8
0
 62
     0
 10
13.408249854336271
 20
3.1281844447501612
 30
0.0
 11
14.52818464475018
 21
2.0082496543362529
 31
0.0
  0
LINE
  5
192B7
  8
0
 62
     0
 10
13.51667895516789
 20
3.468768149971992
 30
0.0
 11
14.86876834997204
 21
2.1166787551678108
 31
0.0
  0
LINE
  5
192B8
  8
0
 62
     0
 10
13.71033322290037
 20
3.7241266882929831
 30
0.0
 11
15.124126888293031
 21
2.3103330229002941
 31
0.0
  0
LINE
  5
192B9
  8
0
 62
     0
 10
13.977233952031639
 20
3.9062387652151642
 30
0.0
 11
15.306238965215179
 21
2.5772337520315882
 31
0.0
  0
LINE
  5
192BA
  8
0
 62
     0
 10
14.334624784025429
 20
3.9978607392748131
 30
0.0
 11
15.39786093927486
 21
2.9346245840254142
 31
0.0
  0
LINE
  5
192BB
  8
0
 62
     0
 10
14.93953507999831
 20
3.8419632493554161
 30
0.0
 11
15.24196344935546
 21
3.5395348799982278
 31
0.0
  0
ENDBLK
  5
192BD
  8
0
  0
BLOCK
  8
0
  2
*X83
 70
     1
 10
0.0
 20
0.0
 30
0.0
  3
*X83
  1

  0
LINE
  5
192BF
  8
0
 62
     0
 10
6.8579485945102761
 20
5.150000099999942
 30
0.0
 11
1.636218397399261
 21
10.37173029711095
 31
0.0
  0
LINE
  5
192C0
  8
0
 62
     0
 10
0.0000000000001137
 20
8.4158462460825376
 30
0.0
 11
-1.909133603078998
 21
10.32497984916165
 31
0.0
  0
LINE
  5
192C1
  8
0
 62
     0
 10
3.2658461460825938
 20
5.150000099999942
 30
0.0
 11
0.0000000000001137
 21
8.4158462460825376
 31
0.0
  0
LINE
  5
192C2
  8
0
 62
     0
 10
-0.3262563023448592
 20
5.150000099999942
 30
0.0
 11
-4.6100846621066012
 21
9.4338284597616848
 31
0.0
  0
LINE
  5
192C3
  8
0
 62
     0
 10
-3.9183587507726538
 20
5.150000099999942
 30
0.0
 11
-6.7832174315673219
 21
8.0148587807946114
 31
0.0
  0
LINE
  5
192C4
  8
0
 62
     0
 10
8.0148587807946114
 20
-6.7832174315674356
 30
0.0
 11
6.3816414492273452
 21
-5.1500001000001703
 31
0.0
  0
LINE
  5
192C5
  8
0
 62
     0
 10
-7.5104611992003347
 20
5.150000099999942
 30
0.0
 11
-8.5000000000001137
 21
6.1395389007996073
 31
0.0
  0
LINE
  5
192C6
  8
0
 62
     0
 10
6.1499847166651298
 20
-8.5104458158656371
 30
0.0
 11
2.789539000799663
 21
-5.1500001000000557
 31
0.0
  0
LINE
  5
192C7
  8
0
 62
     0
 10
0.0
 20
-5.9525635476279604
 30
0.0
 11
-0.8025634476280174
 21
-5.1500001000000557
 31
0.0
  0
LINE
  5
192C8
  8
0
 62
     0
 10
4.0606450332290933
 20
-10.01320858085716
 30
0.0
 11
0.0000000000002274
 21
-5.9525635476283014
 31
0.0
  0
LINE
  5
192C9
  8
0
 62
     0
 10
0.0
 20
-9.5446659960557554
 30
0.0
 11
-4.3946658960555851
 21
-5.1500001000000557
 31
0.0
  0
LINE
  5
192CA
  8
0
 62
     0
 10
8.7087069959245582
 20
-18.2533729919802
 30
0.0
 11
0.0000000000003411
 21
-9.5446659960559828
 31
0.0
  0
LINE
  5
192CB
  8
0
 62
     0
 10
1.925088887040374
 20
-15.061857331523809
 30
0.0
 11
0.0
 21
-13.13676844448343
 31
0.0
  0
LINE
  5
192CC
  8
0
 62
     0
 10
0.0
 20
-13.13676844448343
 30
0.0
 11
-7.9867683444833801
 21
-5.1500001000000557
 31
0.0
  0
LINE
  5
192CD
  8
0
 62
     0
 10
10.833910220719069
 20
-23.97067866520263
 30
0.0
 11
3.54999999999984
 21
-16.686768444483391
 31
0.0
  0
LINE
  5
192CE
  8
0
 62
     0
 10
12.03432820925218
 20
-28.763199102163071
 30
0.0
 11
3.5499999999999541
 21
-20.278870892910842
 31
0.0
  0
LINE
  5
192CF
  8
0
 62
     0
 10
-1.761475686666472
 20
-14.96739520624442
 30
0.0
 11
-4.0379039399838339
 21
-12.69096695292717
 31
0.0
  0
LINE
  5
192D0
  8
0
 62
     0
 10
13.099999999999911
 20
-29.8288708929108
 30
0.0
 11
12.37112930708906
 21
-29.100000199999961
 31
0.0
  0
LINE
  5
192D1
  8
0
 62
     0
 10
7.4790262586612917
 20
-27.799999599999872
 30
0.0
 11
3.54999999999984
 21
-23.870973341338409
 31
0.0
  0
LINE
  5
192D2
  8
0
 62
     0
 10
-3.5500000000000682
 20
-16.7709733413385
 30
0.0
 11
-6.4848783247022084
 21
-13.83609501663636
 31
0.0
  0
LINE
  5
192D3
  8
0
 62
     0
 10
12.67902685866159
 20
-33.000000200000159
 30
0.0
 11
11.00000000000011
 21
-31.320973341338689
 31
0.0
  0
LINE
  5
192D4
  8
0
 62
     0
 10
-3.5499999999999541
 20
-20.363075789766409
 30
0.0
 11
-7.7330368020898268
 21
-16.180038987676539
 31
0.0
  0
LINE
  5
192D5
  8
0
 62
     0
 10
-3.5499999999999541
 20
-23.95517823819409
 30
0.0
 11
-8.8741186659308369
 21
-18.631059572263212
 31
0.0
  0
LINE
  5
192D6
  8
0
 62
     0
 10
-3.9236405433106252
 20
-27.173640143311101
 30
0.0
 11
-9.901571718252967
 21
-21.195708968368759
 31
0.0
  0
LINE
  5
192D7
  8
0
 62
     0
 10
-6.8893835350494319
 20
-27.799999599999872
 30
0.0
 11
-10.8070040231338
 21
-23.882379111915501
 31
0.0
  0
LINE
  5
192D8
  8
0
 62
     0
 10
-10.130989661818029
 20
-28.150495921658951
 30
0.0
 11
-11.57961971301688
 21
-26.7018658704601
 31
0.0
  0
LINE
  5
192D9
  8
0
 62
     0
 10
-10.999999999999771
 20
-30.873588031904781
 30
0.0
 11
-12.716460966271249
 21
-29.15712706563329
 31
0.0
  0
LINE
  5
192DA
  8
0
 62
     0
 10
-12.465690280332071
 20
-33.000000200000159
 30
0.0
 11
-13.76550531945383
 21
-31.700185160878501
 31
0.0
  0
ENDBLK
  5
192DC
  8
0
  0
BLOCK
  8
0
  2
*X84
 70
     1
 10
0.0
 20
0.0
 30
0.0
  3
*X84
  1

  0
LINE
  5
192DE
  8
0
 62
     0
 10
17.749270850893371
 20
-61.46873075173783
 30
0.0
 11
18.00000000000006
 21
-61.218001602631091
 31
0.0
  0
LINE
  5
192DF
  8
0
 62
     0
 10
15.504206820626109
 20
-61.46873075173783
 30
0.0
 11
18.00000000000011
 21
-58.972937572363769
 31
0.0
  0
LINE
  5
192E0
  8
0
 62
     0
 10
13.259142790358849
 20
-61.46873075173783
 30
0.0
 11
18.00000000000011
 21
-56.727873542096518
 31
0.0
  0
LINE
  5
192E1
  8
0
 62
     0
 10
11.014078760091589
 20
-61.46873075173778
 30
0.0
 11
18.00000000000011
 21
-54.482809511829259
 31
0.0
  0
LINE
  5
192E2
  8
0
 62
     0
 10
9.0000000000000568
 20
-61.237745481561952
 30
0.0
 11
18.00000000000006
 21
-52.237745481561937
 31
0.0
  0
LINE
  5
192E3
  8
0
 62
     0
 10
9.0000000000000568
 20
-58.992681451294679
 30
0.0
 11
18.00000000000011
 21
-49.992681451294622
 31
0.0
  0
LINE
  5
192E4
  8
0
 62
     0
 10
9.0000000000001137
 20
-56.747617421027421
 30
0.0
 11
18.00000000000011
 21
-47.747617421027371
 31
0.0
  0
LINE
  5
192E5
  8
0
 62
     0
 10
9.0000000000001137
 20
-54.50255339076012
 30
0.0
 11
18.000000000000171
 21
-45.502553390759999
 31
0.0
  0
LINE
  5
192E6
  8
0
 62
     0
 10
9.0
 20
-52.257489360492848
 30
0.0
 11
18.00000000000011
 21
-43.257489360492741
 31
0.0
  0
LINE
  5
192E7
  8
0
 62
     0
 10
9.0000000000000568
 20
-50.01242533022554
 30
0.0
 11
18.00000000000011
 21
-41.012425330225483
 31
0.0
  0
LINE
  5
192E8
  8
0
 62
     0
 10
9.0000000000000568
 20
-47.767361299958267
 30
0.0
 11
18.00000000000011
 21
-38.767361299958232
 31
0.0
  0
LINE
  5
192E9
  8
0
 62
     0
 10
9.0000000000000568
 20
-45.522297269690966
 30
0.0
 11
18.00000000000011
 21
-36.52229726969091
 31
0.0
  0
LINE
  5
192EA
  8
0
 62
     0
 10
9.0000000000000568
 20
-43.277233239423651
 30
0.0
 11
18.000000000000171
 21
-34.277233239423538
 31
0.0
  0
LINE
  5
192EB
  8
0
 62
     0
 10
9.0000000000000568
 20
-41.032169209156393
 30
0.0
 11
18.000000000000171
 21
-32.03216920915628
 31
0.0
  0
LINE
  5
192EC
  8
0
 62
     0
 10
9.0000000000000568
 20
-38.787105178889142
 30
0.0
 11
18.000000000000231
 21
-29.787105178889021
 31
0.0
  0
LINE
  5
192ED
  8
0
 62
     0
 10
9.0000000000000568
 20
-36.54204114862182
 30
0.0
 11
18.000000000000171
 21
-27.54204114862171
 31
0.0
  0
LINE
  5
192EE
  8
0
 62
     0
 10
8.9999999999999432
 20
-34.296977118354619
 30
0.0
 11
18.000000000000171
 21
-25.296977118354391
 31
0.0
  0
LINE
  5
192EF
  8
0
 62
     0
 10
9.0
 20
-32.051913088087311
 30
0.0
 11
18.000000000000171
 21
-23.051913088087129
 31
0.0
  0
LINE
  5
192F0
  8
0
 62
     0
 10
9.0
 20
-29.806849057820049
 30
0.0
 11
18.000000000000231
 21
-20.806849057819822
 31
0.0
  0
LINE
  5
192F1
  8
0
 62
     0
 10
9.0
 20
-27.56178502755273
 30
0.0
 11
18.000000000000231
 21
-18.561785027552499
 31
0.0
  0
LINE
  5
192F2
  8
0
 62
     0
 10
8.9999999999999432
 20
-25.316720997285479
 30
0.0
 11
18.000000000000231
 21
-16.316720997285241
 31
0.0
  0
LINE
  5
192F3
  8
0
 62
     0
 10
8.9999999999999432
 20
-23.07165696701821
 30
0.0
 11
18.000000000000231
 21
-14.071656967017979
 31
0.0
  0
LINE
  5
192F4
  8
0
 62
     0
 10
8.9999999999999432
 20
-20.826592936750899
 30
0.0
 11
18.000000000000231
 21
-11.826592936750609
 31
0.0
  0
LINE
  5
192F5
  8
0
 62
     0
 10
8.9999999999999432
 20
-18.58152890648358
 30
0.0
 11
18.000000000000171
 21
-9.5815289064833564
 31
0.0
  0
LINE
  5
192F6
  8
0
 62
     0
 10
16.353366242229299
 20
-8.9830986339870265
 30
0.0
 11
16.58651145322483
 21
-8.7499534229914389
 31
0.0
  0
LINE
  5
192F7
  8
0
 62
     0
 10
8.9999999999999432
 20
-16.336464876216318
 30
0.0
 11
16.264414818379521
 21
-9.0720500578367478
 31
0.0
  0
LINE
  5
192F8
  8
0
 62
     0
 10
17.341447422598829
 20
-5.7499534233501768
 30
0.0
 11
18.00000000000011
 21
-5.091400845948896
 31
0.0
  0
LINE
  5
192F9
  8
0
 62
     0
 10
8.9999999999999432
 20
-14.091400845949069
 30
0.0
 11
14.34144742402435
 21
-8.7499534219246584
 31
0.0
  0
LINE
  5
192FA
  8
0
 62
     0
 10
15.09638339339835
 20
-5.7499534222833404
 30
0.0
 11
15.475887752038769
 21
-5.3704490636429218
 31
0.0
  0
LINE
  5
192FB
  8
0
 62
     0
 10
15.516052887897841
 20
-5.3302839277838521
 30
0.0
 11
18.00000000000011
 21
-2.8463368156815809
 31
0.0
  0
LINE
  5
192FC
  8
0
 62
     0
 10
9.0
 20
-11.84633681568169
 30
0.0
 11
12.096383394823871
 21
-8.7499534208578211
 31
0.0
  0
LINE
  5
192FD
  8
0
 62
     0
 10
12.85131936419776
 20
-5.7499534212166159
 30
0.0
 11
18.00000000000006
 21
-0.6012727854143236
 31
0.0
  0
LINE
  5
192FE
  8
0
 62
     0
 10
8.9999999999999432
 20
-9.6012727854144373
 30
0.0
 11
9.8085489289221073
 21
-8.7927238564922732
 31
0.0
  0
LINE
  5
192FF
  8
0
 62
     0
 10
10.76769871211496
 20
-5.5885100430321577
 30
0.0
 11
18.00000000000006
 21
1.6437912448529339
 31
0.0
  0
LINE
  5
19300
  8
0
 62
     0
 10
8.9999999999999432
 20
-5.11114472487992
 30
0.0
 11
18.00000000000006
 21
3.8888552751201919
 31
0.0
  0
LINE
  5
19301
  8
0
 62
     0
 10
8.9999999999999432
 20
-2.866080694612605
 30
0.0
 11
17.61612726817793
 21
5.7500465735653838
 31
0.0
  0
LINE
  5
19302
  8
0
 62
     0
 10
8.9999999999999432
 20
-0.6210166643452908
 30
0.0
 11
15.37106323897728
 21
5.7500465746320506
 31
0.0
  0
LINE
  5
19303
  8
0
 62
     0
 10
16.125999208351288
 20
8.7500465742733127
 30
0.0
 11
18.00000000000011
 21
10.62404736592214
 31
0.0
  0
LINE
  5
19304
  8
0
 62
     0
 10
8.9999999999999432
 20
1.624047365921967
 30
0.0
 11
13.02099569600597
 21
5.645043061927935
 31
0.0
  0
LINE
  5
19305
  8
0
 62
     0
 10
13.98014547919882
 20
8.8492568753880505
 30
0.0
 11
18.00000000000011
 21
12.869111396189391
 31
0.0
  0
LINE
  5
19306
  8
0
 62
     0
 10
9.0
 20
3.869111396189282
 30
0.0
 11
10.88093518057638
 21
5.7500465767656124
 31
0.0
  0
LINE
  5
19307
  8
0
 62
     0
 10
11.635871149950271
 20
8.7500465764068736
 30
0.0
 11
18.00000000000011
 21
15.114175426456709
 31
0.0
  0
LINE
  5
19308
  8
0
 62
     0
 10
9.3908071207497414
 20
8.7500465774735972
 30
0.0
 11
18.00000000000006
 21
17.359239456723969
 31
0.0
  0
LINE
  5
19309
  8
0
 62
     0
 10
9.0000000000001137
 20
10.604303486991229
 30
0.0
 11
18.00000000000006
 21
19.604303486991231
 31
0.0
  0
LINE
  5
1930A
  8
0
 62
     0
 10
9.0000000000001137
 20
12.849367517258541
 30
0.0
 11
18.00000000000011
 21
21.849367517258599
 31
0.0
  0
LINE
  5
1930B
  8
0
 62
     0
 10
9.0000000000001137
 20
15.094431547525859
 30
0.0
 11
18.00000000000011
 21
24.094431547525861
 31
0.0
  0
LINE
  5
1930C
  8
0
 62
     0
 10
9.0000000000000568
 20
17.339495577793109
 30
0.0
 11
18.00000000000011
 21
26.339495577793169
 31
0.0
  0
LINE
  5
1930D
  8
0
 62
     0
 10
9.0000000000000568
 20
19.584559608060371
 30
0.0
 11
18.00000000000011
 21
28.584559608060431
 31
0.0
  0
LINE
  5
1930E
  8
0
 62
     0
 10
9.0000000000001137
 20
21.82962363832775
 30
0.0
 11
18.00000000000011
 21
30.82962363832775
 31
0.0
  0
LINE
  5
1930F
  8
0
 62
     0
 10
9.0000000000000568
 20
24.074687668595001
 30
0.0
 11
18.00000000000006
 21
33.074687668594997
 31
0.0
  0
LINE
  5
19310
  8
0
 62
     0
 10
9.0000000000000568
 20
26.31975169886227
 30
0.0
 11
18.00000000000006
 21
35.319751698862262
 31
0.0
  0
LINE
  5
19311
  8
0
 62
     0
 10
9.0000000000001137
 20
28.564815729129521
 30
0.0
 11
18.00000000000011
 21
37.564815729129577
 31
0.0
  0
LINE
  5
19312
  8
0
 62
     0
 10
9.0000000000001137
 20
30.809879759396839
 30
0.0
 11
18.00000000000011
 21
39.809879759396892
 31
0.0
  0
LINE
  5
19313
  8
0
 62
     0
 10
9.0000000000000568
 20
33.054943789664151
 30
0.0
 11
18.00000000000011
 21
42.0549437896642
 31
0.0
  0
LINE
  5
19314
  8
0
 62
     0
 10
9.0000000000000568
 20
35.300007819931409
 30
0.0
 11
18.00000000000011
 21
44.300007819931459
 31
0.0
  0
LINE
  5
19315
  8
0
 62
     0
 10
9.0000000000000568
 20
37.545071850198667
 30
0.0
 11
16.07742504976892
 21
44.622496899967523
 31
0.0
  0
LINE
  5
19316
  8
0
 62
     0
 10
9.0000000000001137
 20
39.790135880466039
 30
0.0
 11
13.83236101950166
 21
44.622496899967587
 31
0.0
  0
LINE
  5
19317
  8
0
 62
     0
 10
9.0000000000000568
 20
42.035199910733297
 30
0.0
 11
11.587296989234339
 21
44.622496899967587
 31
0.0
  0
LINE
  5
19318
  8
0
 62
     0
 10
9.0000000000001137
 20
44.280263941000548
 30
0.0
 11
9.3422329589670881
 21
44.622496899967587
 31
0.0
  0
ENDBLK
  5
1931A
  8
0
  0
BLOCK
  8
0
  2
*X85
 70
     1
 10
0.0
 20
0.0
 30
0.0
  3
*X85
  1

  0
LINE
  5
1931C
  8
0
 62
     0
 10
4.01579819129564
 20
-61.431188349899848
 30
0.0
 11
4.01579819129564
 21
-61.431188349899848
 31
0.0
  0
LINE
  5
1931D
  8
0
 62
     0
 10
3.5476270824212111
 20
-61.002188568063907
 30
0.0
 11
3.5476270824212111
 21
-61.002188568063907
 31
0.0
  0
LINE
  5
1931E
  8
0
 62
     0
 10
1.0195030944992971
 20
-58.685589746149809
 30
0.0
 11
1.0195030944992971
 21
-58.685589746149809
 31
0.0
  0
LINE
  5
1931F
  8
0
 62
     0
 10
8.6550676192222316
 20
-56.456296513577612
 30
0.0
 11
8.6550676192222316
 21
-56.456296513577612
 31
0.0
  0
LINE
  5
19320
  8
0
 62
     0
 10
6.4452999853349269
 20
-54.431417543311952
 30
0.0
 11
6.4452999853349269
 21
-54.431417543311952
 31
0.0
  0
LINE
  5
19321
  8
0
 62
     0
 10
5.9771288764604993
 20
-54.002417761476011
 30
0.0
 11
5.9771288764604993
 21
-54.002417761476011
 31
0.0
  0
LINE
  5
19322
  8
0
 62
     0
 10
3.449004888538584
 20
-51.685818939561912
 30
0.0
 11
3.449004888538584
 21
-51.685818939561912
 31
0.0
  0
LINE
  5
19323
  8
0
 62
     0
 10
1.23923725465128
 20
-49.660939969296251
 30
0.0
 11
1.23923725465128
 21
-49.660939969296251
 31
0.0
  0
LINE
  5
19324
  8
0
 62
     0
 10
0.7710661457768521
 20
-49.23194018746031
 30
0.0
 11
0.7710661457768521
 21
-49.23194018746031
 31
0.0
  0
LINE
  5
19325
  8
0
 62
     0
 10
8.8748017793742875
 20
-47.431646736724133
 30
0.0
 11
8.8748017793742875
 21
-47.431646736724133
 31
0.0
  0
LINE
  5
19326
  8
0
 62
     0
 10
8.4066306704998581
 20
-47.002646954888192
 30
0.0
 11
8.4066306704998581
 21
-47.002646954888192
 31
0.0
  0
LINE
  5
19327
  8
0
 62
     0
 10
5.8785066825779433
 20
-44.686048132974094
 30
0.0
 11
5.8785066825779433
 21
-44.686048132974094
 31
0.0
  0
LINE
  5
19328
  8
0
 62
     0
 10
3.668739048690639
 20
-42.661169162708433
 30
0.0
 11
3.668739048690639
 21
-42.661169162708433
 31
0.0
  0
LINE
  5
19329
  8
0
 62
     0
 10
3.200567939816211
 20
-42.232169380872492
 30
0.0
 11
3.200567939816211
 21
-42.232169380872492
 31
0.0
  0
LINE
  5
1932A
  8
0
 62
     0
 10
0.6724439518942967
 20
-39.915570558958393
 30
0.0
 11
0.6724439518942967
 21
-39.915570558958393
 31
0.0
  0
LINE
  5
1932B
  8
0
 62
     0
 10
8.3080084766172941
 20
-37.68627732638619
 30
0.0
 11
8.3080084766172941
 21
-37.68627732638619
 31
0.0
  0
LINE
  5
1932C
  8
0
 62
     0
 10
6.0982408427299903
 20
-35.661398356120543
 30
0.0
 11
6.0982408427299903
 21
-35.661398356120543
 31
0.0
  0
LINE
  5
1932D
  8
0
 62
     0
 10
5.630069733855561
 20
-35.232398574284602
 30
0.0
 11
5.630069733855561
 21
-35.232398574284602
 31
0.0
  0
LINE
  5
1932E
  8
0
 62
     0
 10
3.1019457459336461
 20
-32.915799752370503
 30
0.0
 11
3.1019457459336461
 21
-32.915799752370503
 31
0.0
  0
LINE
  5
1932F
  8
0
 62
     0
 10
0.8921781120463432
 20
-30.890920782104839
 30
0.0
 11
0.8921781120463432
 21
-30.890920782104839
 31
0.0
  0
LINE
  5
19330
  8
0
 62
     0
 10
0.4240070031719147
 20
-30.461921000268891
 30
0.0
 11
0.4240070031719147
 21
-30.461921000268891
 31
0.0
  0
LINE
  5
19331
  8
0
 62
     0
 10
8.5277426367693003
 20
-28.661627549532721
 30
0.0
 11
8.5277426367693003
 21
-28.661627549532721
 31
0.0
  0
LINE
  5
19332
  8
0
 62
     0
 10
8.0595715278948692
 20
-28.232627767696769
 30
0.0
 11
8.0595715278948692
 21
-28.232627767696769
 31
0.0
  0
LINE
  5
19333
  8
0
 62
     0
 10
5.5314475399729552
 20
-25.916028945782671
 30
0.0
 11
5.5314475399729552
 21
-25.916028945782671
 31
0.0
  0
LINE
  5
19334
  8
0
 62
     0
 10
3.321679906085651
 20
-23.89114997551701
 30
0.0
 11
3.321679906085651
 21
-23.89114997551701
 31
0.0
  0
LINE
  5
19335
  8
0
 62
     0
 10
2.853508797211223
 20
-23.462150193681069
 30
0.0
 11
2.853508797211223
 21
-23.462150193681069
 31
0.0
  0
LINE
  5
19336
  8
0
 62
     0
 10
0.3253848092893086
 20
-21.14555137176697
 30
0.0
 11
0.3253848092893086
 21
-21.14555137176697
 31
0.0
  0
LINE
  5
19337
  8
0
 62
     0
 10
7.960949334012235
 20
-18.916258139194781
 30
0.0
 11
7.960949334012235
 21
-18.916258139194781
 31
0.0
  0
LINE
  5
19338
  8
0
 62
     0
 10
5.751181700124933
 20
-16.89137916892912
 30
0.0
 11
5.751181700124933
 21
-16.89137916892912
 31
0.0
  0
LINE
  5
19339
  8
0
 62
     0
 10
5.2830105912505037
 20
-16.462379387093169
 30
0.0
 11
5.2830105912505037
 21
-16.462379387093169
 31
0.0
  0
LINE
  5
1933A
  8
0
 62
     0
 10
2.7548866033285888
 20
-14.14578056517907
 30
0.0
 11
2.7548866033285888
 21
-14.14578056517907
 31
0.0
  0
LINE
  5
1933B
  8
0
 62
     0
 10
0.5451189694412864
 20
-12.12090159491342
 30
0.0
 11
0.5451189694412864
 21
-12.12090159491342
 31
0.0
  0
LINE
  5
1933C
  8
0
 62
     0
 10
0.0769478605668576
 20
-11.69190181307747
 30
0.0
 11
0.0769478605668576
 21
-11.69190181307747
 31
0.0
  0
LINE
  5
1933D
  8
0
 62
     0
 10
8.1806834941643185
 20
-9.8916083623412607
 30
0.0
 11
8.1806834941643185
 21
-9.8916083623412607
 31
0.0
  0
LINE
  5
1933E
  8
0
 62
     0
 10
7.71251238528989
 20
-9.4626085805053162
 30
0.0
 11
7.71251238528989
 21
-9.4626085805053162
 31
0.0
  0
LINE
  5
1933F
  8
0
 62
     0
 10
2.9746207634806661
 20
-5.1211307883256101
 30
0.0
 11
2.9746207634806661
 21
-5.1211307883256101
 31
0.0
  0
LINE
  5
19340
  8
0
 62
     0
 10
2.506449654606238
 20
-4.6921310064896664
 30
0.0
 11
2.506449654606238
 21
-4.6921310064896664
 31
0.0
  0
LINE
  5
19341
  8
0
 62
     0
 10
7.6138901914073207
 20
-0.1462389520033798
 30
0.0
 11
7.6138901914073207
 21
-0.1462389520033798
 31
0.0
  0
LINE
  5
19342
  8
0
 62
     0
 10
5.4041225575200169
 20
1.8786400182622769
 30
0.0
 11
5.4041225575200169
 21
1.8786400182622769
 31
0.0
  0
LINE
  5
19343
  8
0
 62
     0
 10
4.9359514486455893
 20
2.307639800098221
 30
0.0
 11
4.9359514486455893
 21
2.307639800098221
 31
0.0
  0
LINE
  5
19344
  8
0
 62
     0
 10
2.407827460723674
 20
4.6242386220123208
 30
0.0
 11
2.407827460723674
 21
4.6242386220123208
 31
0.0
  0
LINE
  5
19345
  8
0
 62
     0
 10
7.8336243515593544
 20
8.8784108248501266
 30
0.0
 11
7.8336243515593544
 21
8.8784108248501266
 31
0.0
  0
LINE
  5
19346
  8
0
 62
     0
 10
7.3654532426849251
 20
9.3074106066860711
 30
0.0
 11
7.3654532426849251
 21
9.3074106066860711
 31
0.0
  0
LINE
  5
19347
  8
0
 62
     0
 10
4.8373292547630111
 20
11.62400942860017
 30
0.0
 11
4.8373292547630111
 21
11.62400942860017
 31
0.0
  0
LINE
  5
19348
  8
0
 62
     0
 10
2.6275616208757082
 20
13.64888839886583
 30
0.0
 11
2.6275616208757082
 21
13.64888839886583
 31
0.0
  0
LINE
  5
19349
  8
0
 62
     0
 10
2.1593905120012789
 20
14.07788818070177
 30
0.0
 11
2.1593905120012789
 21
14.07788818070177
 31
0.0
  0
LINE
  5
1934A
  8
0
 62
     0
 10
7.2668310488023229
 20
18.623780235188089
 30
0.0
 11
7.2668310488023229
 21
18.623780235188089
 31
0.0
  0
LINE
  5
1934B
  8
0
 62
     0
 10
5.0570634149150191
 20
20.648659205453761
 30
0.0
 11
5.0570634149150191
 21
20.648659205453761
 31
0.0
  0
LINE
  5
1934C
  8
0
 62
     0
 10
4.5888923060405906
 20
21.077658987289698
 30
0.0
 11
4.5888923060405906
 21
21.077658987289698
 31
0.0
  0
LINE
  5
1934D
  8
0
 62
     0
 10
2.0607683181186771
 20
23.3942578092038
 30
0.0
 11
2.0607683181186771
 21
23.3942578092038
 31
0.0
  0
LINE
  5
1934E
  8
0
 62
     0
 10
7.4865652089542847
 20
27.648430012041619
 30
0.0
 11
7.4865652089542847
 21
27.648430012041619
 31
0.0
  0
LINE
  5
1934F
  8
0
 62
     0
 10
7.0183941000798571
 20
28.07742979387756
 30
0.0
 11
7.0183941000798571
 21
28.07742979387756
 31
0.0
  0
LINE
  5
19350
  8
0
 62
     0
 10
4.4902701121579423
 20
30.394028615791662
 30
0.0
 11
4.4902701121579423
 21
30.394028615791662
 31
0.0
  0
LINE
  5
19351
  8
0
 62
     0
 10
2.2805024782706389
 20
32.418907586057323
 30
0.0
 11
2.2805024782706389
 21
32.418907586057323
 31
0.0
  0
LINE
  5
19352
  8
0
 62
     0
 10
1.81233136939621
 20
32.847907367893256
 30
0.0
 11
1.81233136939621
 21
32.847907367893256
 31
0.0
  0
LINE
  5
19353
  8
0
 62
     0
 10
6.9197719061972807
 20
37.393799422379502
 30
0.0
 11
6.9197719061972807
 21
37.393799422379502
 31
0.0
  0
LINE
  5
19354
  8
0
 62
     0
 10
4.7100042723099769
 20
39.418678392645162
 30
0.0
 11
4.7100042723099769
 21
39.418678392645162
 31
0.0
  0
LINE
  5
19355
  8
0
 62
     0
 10
4.2418331634355493
 20
39.847678174481111
 30
0.0
 11
4.2418331634355493
 21
39.847678174481111
 31
0.0
  0
LINE
  5
19356
  8
0
 62
     0
 10
1.713709175513634
 20
42.164276996395202
 30
0.0
 11
1.713709175513634
 21
42.164276996395202
 31
0.0
  0
LINE
  5
19357
  8
0
 62
     0
 10
7.6039294291079393
 20
-61.37093519581228
 30
0.0
 11
7.6039294291079393
 21
-61.37093519581228
 31
0.0
  0
LINE
  5
19358
  8
0
 62
     0
 10
2.569725889050825
 20
-58.163793833590091
 30
0.0
 11
2.569725889050825
 21
-58.163793833590091
 31
0.0
  0
LINE
  5
19359
  8
0
 62
     0
 10
6.62366390120894
 20
-55.692888177442953
 30
0.0
 11
6.62366390120894
 21
-55.692888177442953
 31
0.0
  0
LINE
  5
1935A
  8
0
 62
     0
 10
5.5525567650265764
 20
-55.010517674842482
 30
0.0
 11
5.5525567650265764
 21
-55.010517674842482
 31
0.0
  0
LINE
  5
1935B
  8
0
 62
     0
 10
0.5183532249694629
 20
-51.803376312620287
 30
0.0
 11
0.5183532249694629
 21
-51.803376312620287
 31
0.0
  0
LINE
  5
1935C
  8
0
 62
     0
 10
8.4282769273839921
 20
-51.789004465834807
 30
0.0
 11
8.4282769273839921
 21
-51.789004465834807
 31
0.0
  0
LINE
  5
1935D
  8
0
 62
     0
 10
4.5722912371274811
 20
-49.332470656473127
 30
0.0
 11
4.5722912371274811
 21
-49.332470656473127
 31
0.0
  0
LINE
  5
1935E
  8
0
 62
     0
 10
3.501184100945117
 20
-48.650100153872657
 30
0.0
 11
3.501184100945117
 21
-48.650100153872657
 31
0.0
  0
LINE
  5
1935F
  8
0
 62
     0
 10
6.3769042633026087
 20
-45.428586944865053
 30
0.0
 11
6.3769042633026087
 21
-45.428586944865053
 31
0.0
  0
LINE
  5
19360
  8
0
 62
     0
 10
2.5209185730460968
 20
-42.972053135503373
 30
0.0
 11
2.5209185730460968
 21
-42.972053135503373
 31
0.0
  0
LINE
  5
19361
  8
0
 62
     0
 10
1.4498114368637329
 20
-42.289682632902903
 30
0.0
 11
1.4498114368637329
 21
-42.289682632902903
 31
0.0
  0
LINE
  5
19362
  8
0
 62
     0
 10
4.3255315992211782
 20
-39.068169423895192
 30
0.0
 11
4.3255315992211782
 21
-39.068169423895192
 31
0.0
  0
LINE
  5
19363
  8
0
 62
     0
 10
0.4695459089646658
 20
-36.611635614533512
 30
0.0
 11
0.4695459089646658
 21
-36.611635614533512
 31
0.0
  0
LINE
  5
19364
  8
0
 62
     0
 10
8.3794696113792817
 20
-36.597263767748082
 30
0.0
 11
8.3794696113792817
 21
-36.597263767748082
 31
0.0
  0
LINE
  5
19365
  8
0
 62
     0
 10
7.3083624751969172
 20
-35.914893265147612
 30
0.0
 11
7.3083624751969172
 21
-35.914893265147612
 31
0.0
  0
LINE
  5
19366
  8
0
 62
     0
 10
2.2741589351398028
 20
-32.707751902925423
 30
0.0
 11
2.2741589351398028
 21
-32.707751902925423
 31
0.0
  0
LINE
  5
19367
  8
0
 62
     0
 10
6.328096947297821
 20
-30.236846246778288
 30
0.0
 11
6.328096947297821
 21
-30.236846246778288
 31
0.0
  0
LINE
  5
19368
  8
0
 62
     0
 10
5.2569898111154574
 20
-29.554475744177829
 30
0.0
 11
5.2569898111154574
 21
-29.554475744177829
 31
0.0
  0
LINE
  5
19369
  8
0
 62
     0
 10
0.2227862710583442
 20
-26.34733438195563
 30
0.0
 11
0.2227862710583442
 21
-26.34733438195563
 31
0.0
  0
LINE
  5
1936A
  8
0
 62
     0
 10
8.1327099734729629
 20
-26.332962535170171
 30
0.0
 11
8.1327099734729629
 21
-26.332962535170171
 31
0.0
  0
LINE
  5
1936B
  8
0
 62
     0
 10
4.27672428321645
 20
-23.876428725808481
 30
0.0
 11
4.27672428321645
 21
-23.876428725808481
 31
0.0
  0
LINE
  5
1936C
  8
0
 62
     0
 10
3.2056171470340851
 20
-23.194058223208021
 30
0.0
 11
3.2056171470340851
 21
-23.194058223208021
 31
0.0
  0
LINE
  5
1936D
  8
0
 62
     0
 10
6.08133730939148
 20
-19.97254501420036
 30
0.0
 11
6.08133730939148
 21
-19.97254501420036
 31
0.0
  0
LINE
  5
1936E
  8
0
 62
     0
 10
2.225351619134968
 20
-17.51601120483868
 30
0.0
 11
2.225351619134968
 21
-17.51601120483868
 31
0.0
  0
LINE
  5
1936F
  8
0
 62
     0
 10
1.1542444829526031
 20
-16.83364070223821
 30
0.0
 11
1.1542444829526031
 21
-16.83364070223821
 31
0.0
  0
LINE
  5
19370
  8
0
 62
     0
 10
4.0299646453101081
 20
-13.61212749323059
 30
0.0
 11
4.0299646453101081
 21
-13.61212749323059
 31
0.0
  0
LINE
  5
19371
  8
0
 62
     0
 10
0.1739789550535956
 20
-11.15559368386891
 30
0.0
 11
0.1739789550535956
 21
-11.15559368386891
 31
0.0
  0
LINE
  5
19372
  8
0
 62
     0
 10
8.0839026574682151
 20
-11.14122183708349
 30
0.0
 11
8.0839026574682151
 21
-11.14122183708349
 31
0.0
  0
LINE
  5
19373
  8
0
 62
     0
 10
7.0127955212858497
 20
-10.45885133448302
 30
0.0
 11
7.0127955212858497
 21
-10.45885133448302
 31
0.0
  0
LINE
  5
19374
  8
0
 62
     0
 10
6.0325299933867882
 20
-4.7808043161136462
 30
0.0
 11
6.0325299933867882
 21
-4.7808043161136462
 31
0.0
  0
LINE
  5
19375
  8
0
 62
     0
 10
4.9614228572044228
 20
-4.0984338135131786
 30
0.0
 11
4.9614228572044228
 21
-4.0984338135131786
 31
0.0
  0
LINE
  5
19376
  8
0
 62
     0
 10
7.8371430195619052
 20
-0.8769206045055604
 30
0.0
 11
7.8371430195619052
 21
-0.8769206045055604
 31
0.0
  0
LINE
  5
19377
  8
0
 62
     0
 10
3.9811573293053919
 20
1.5796132048561189
 30
0.0
 11
3.9811573293053919
 21
1.5796132048561189
 31
0.0
  0
LINE
  5
19378
  8
0
 62
     0
 10
2.9100501931230269
 20
2.2619837074565861
 30
0.0
 11
2.9100501931230269
 21
2.2619837074565861
 31
0.0
  0
LINE
  5
19379
  8
0
 62
     0
 10
5.7857703554804303
 20
5.4834969164642349
 30
0.0
 11
5.7857703554804303
 21
5.4834969164642349
 31
0.0
  0
LINE
  5
1937A
  8
0
 62
     0
 10
3.734397691399074
 20
11.84391443743405
 30
0.0
 11
3.734397691399074
 21
11.84391443743405
 31
0.0
  0
LINE
  5
1937B
  8
0
 62
     0
 10
7.7883357035571521
 20
14.31482009358125
 30
0.0
 11
7.7883357035571521
 21
14.31482009358125
 31
0.0
  0
LINE
  5
1937C
  8
0
 62
     0
 10
6.7172285673747876
 20
14.997190596181721
 30
0.0
 11
6.7172285673747876
 21
14.997190596181721
 31
0.0
  0
LINE
  5
1937D
  8
0
 62
     0
 10
1.6830250273176739
 20
18.204331958403909
 30
0.0
 11
1.6830250273176739
 21
18.204331958403909
 31
0.0
  0
LINE
  5
1937E
  8
0
 62
     0
 10
5.7369630394757527
 20
20.675237614551001
 30
0.0
 11
5.7369630394757527
 21
20.675237614551001
 31
0.0
  0
LINE
  5
1937F
  8
0
 62
     0
 10
4.6658559032933891
 20
21.357608117151461
 30
0.0
 11
4.6658559032933891
 21
21.357608117151461
 31
0.0
  0
LINE
  5
19380
  8
0
 62
     0
 10
7.5415760656507649
 20
24.57912132615909
 30
0.0
 11
7.5415760656507649
 21
24.57912132615909
 31
0.0
  0
LINE
  5
19381
  8
0
 62
     0
 10
3.685590375394252
 20
27.03565513552077
 30
0.0
 11
3.685590375394252
 21
27.03565513552077
 31
0.0
  0
LINE
  5
19382
  8
0
 62
     0
 10
2.614483239211888
 20
27.71802563812124
 30
0.0
 11
2.614483239211888
 21
27.71802563812124
 31
0.0
  0
LINE
  5
19383
  8
0
 62
     0
 10
5.4902034015693664
 20
30.939538847128901
 30
0.0
 11
5.4902034015693664
 21
30.939538847128901
 31
0.0
  0
LINE
  5
19384
  8
0
 62
     0
 10
1.6342177113128531
 20
33.396072656490567
 30
0.0
 11
1.6342177113128531
 21
33.396072656490567
 31
0.0
  0
LINE
  5
19385
  8
0
 62
     0
 10
0.5631105751304892
 20
34.078443159091037
 30
0.0
 11
0.5631105751304892
 21
34.078443159091037
 31
0.0
  0
LINE
  5
19386
  8
0
 62
     0
 10
8.4730342775450875
 20
34.092815005876503
 30
0.0
 11
8.4730342775450875
 21
34.092815005876503
 31
0.0
  0
LINE
  5
19387
  8
0
 62
     0
 10
3.4388307374879732
 20
37.299956368098691
 30
0.0
 11
3.4388307374879732
 21
37.299956368098691
 31
0.0
  0
LINE
  5
19388
  8
0
 62
     0
 10
7.492768749646034
 20
39.77086202424583
 30
0.0
 11
7.492768749646034
 21
39.77086202424583
 31
0.0
  0
LINE
  5
19389
  8
0
 62
     0
 10
6.4216616134636686
 20
40.4532325268463
 30
0.0
 11
6.4216616134636686
 21
40.4532325268463
 31
0.0
  0
LINE
  5
1938A
  8
0
 62
     0
 10
1.387458073406556
 20
43.660373889068488
 30
0.0
 11
1.387458073406556
 21
43.660373889068488
 31
0.0
  0
LINE
  5
1938B
  8
0
 62
     0
 10
8.2994528038308442
 20
-55.941633358613942
 30
0.0
 11
8.2994528038308442
 21
-55.941633358613942
 31
0.0
  0
LINE
  5
1938C
  8
0
 62
     0
 10
6.2344714465614741
 20
-56.213493311769859
 30
0.0
 11
6.2344714465614741
 21
-56.213493311769859
 31
0.0
  0
LINE
  5
1938D
  8
0
 62
     0
 10
4.9123797239194982
 20
-56.387549989095298
 30
0.0
 11
4.9123797239194982
 21
-56.387549989095298
 31
0.0
  0
LINE
  5
1938E
  8
0
 62
     0
 10
1.462349895310912
 20
-56.84175503278265
 30
0.0
 11
1.462349895310912
 21
-56.84175503278265
 31
0.0
  0
LINE
  5
1938F
  8
0
 62
     0
 10
5.957582726691057
 20
-49.673504027099071
 30
0.0
 11
5.957582726691057
 21
-49.673504027099071
 31
0.0
  0
LINE
  5
19390
  8
0
 62
     0
 10
3.8926013694216861
 20
-49.945363980255003
 30
0.0
 11
3.8926013694216861
 21
-49.945363980255003
 31
0.0
  0
LINE
  5
19391
  8
0
 62
     0
 10
2.5705096467797102
 20
-50.119420657580442
 30
0.0
 11
2.5705096467797102
 21
-50.119420657580442
 31
0.0
  0
LINE
  5
19392
  8
0
 62
     0
 10
8.3878342008016062
 20
-42.777112974571473
 30
0.0
 11
8.3878342008016062
 21
-42.777112974571473
 31
0.0
  0
LINE
  5
19393
  8
0
 62
     0
 10
7.0657424781596294
 20
-42.951169651896898
 30
0.0
 11
7.0657424781596294
 21
-42.951169651896898
 31
0.0
  0
LINE
  5
19394
  8
0
 62
     0
 10
3.615712649551043
 20
-43.40537469558425
 30
0.0
 11
3.615712649551043
 21
-43.40537469558425
 31
0.0
  0
LINE
  5
19395
  8
0
 62
     0
 10
1.5507312922816709
 20
-43.677234648740168
 30
0.0
 11
1.5507312922816709
 21
-43.677234648740168
 31
0.0
  0
LINE
  5
19396
  8
0
 62
     0
 10
0.2286395696396954
 20
-43.851291326065613
 30
0.0
 11
0.2286395696396954
 21
-43.851291326065613
 31
0.0
  0
LINE
  5
19397
  8
0
 62
     0
 10
8.1109454809310098
 20
-36.23712368990072
 30
0.0
 11
8.1109454809310098
 21
-36.23712368990072
 31
0.0
  0
LINE
  5
19398
  8
0
 62
     0
 10
6.045964123661637
 20
-36.508983643056638
 30
0.0
 11
6.045964123661637
 21
-36.508983643056638
 31
0.0
  0
LINE
  5
19399
  8
0
 62
     0
 10
4.7238724010196611
 20
-36.683040320382077
 30
0.0
 11
4.7238724010196611
 21
-36.683040320382077
 31
0.0
  0
LINE
  5
1939A
  8
0
 62
     0
 10
1.2738425724110749
 20
-37.137245364069422
 30
0.0
 11
1.2738425724110749
 21
-37.137245364069422
 31
0.0
  0
LINE
  5
1939B
  8
0
 62
     0
 10
5.7690754037913328
 20
-29.96899435838586
 30
0.0
 11
5.7690754037913328
 21
-29.96899435838586
 31
0.0
  0
LINE
  5
1939C
  8
0
 62
     0
 10
3.7040940465219601
 20
-30.240854311541781
 30
0.0
 11
3.7040940465219601
 21
-30.240854311541781
 31
0.0
  0
LINE
  5
1939D
  8
0
 62
     0
 10
2.382002323879985
 20
-30.41491098886722
 30
0.0
 11
2.382002323879985
 21
-30.41491098886722
 31
0.0
  0
LINE
  5
1939E
  8
0
 62
     0
 10
8.1993268779017701
 20
-23.07260330585823
 30
0.0
 11
8.1993268779017701
 21
-23.07260330585823
 31
0.0
  0
LINE
  5
1939F
  8
0
 62
     0
 10
6.8772351552597932
 20
-23.246659983183669
 30
0.0
 11
6.8772351552597932
 21
-23.246659983183669
 31
0.0
  0
LINE
  5
193A0
  8
0
 62
     0
 10
3.4272053266512059
 20
-23.700865026871011
 30
0.0
 11
3.4272053266512059
 21
-23.700865026871011
 31
0.0
  0
LINE
  5
193A1
  8
0
 62
     0
 10
1.3622239693818341
 20
-23.972724980026928
 30
0.0
 11
1.3622239693818341
 21
-23.972724980026928
 31
0.0
  0
LINE
  5
193A2
  8
0
 62
     0
 10
0.0401322467398583
 20
-24.146781657352371
 30
0.0
 11
0.0401322467398583
 21
-24.146781657352371
 31
0.0
  0
LINE
  5
193A3
  8
0
 62
     0
 10
7.9224381580313974
 20
-16.532614021187449
 30
0.0
 11
7.9224381580313974
 21
-16.532614021187449
 31
0.0
  0
LINE
  5
193A4
  8
0
 62
     0
 10
5.8574568007620247
 20
-16.804473974343381
 30
0.0
 11
5.8574568007620247
 21
-16.804473974343381
 31
0.0
  0
LINE
  5
193A5
  8
0
 62
     0
 10
4.5353650781200487
 20
-16.978530651668819
 30
0.0
 11
4.5353650781200487
 21
-16.978530651668819
 31
0.0
  0
LINE
  5
193A6
  8
0
 62
     0
 10
1.0853352495114641
 20
-17.432735695356151
 30
0.0
 11
1.0853352495114641
 21
-17.432735695356151
 31
0.0
  0
LINE
  5
193A7
  8
0
 62
     0
 10
5.5805680808913829
 20
-10.26448468967264
 30
0.0
 11
5.5805680808913829
 21
-10.26448468967264
 31
0.0
  0
LINE
  5
193A8
  8
0
 62
     0
 10
3.5155867236220111
 20
-10.53634464282856
 30
0.0
 11
3.5155867236220111
 21
-10.53634464282856
 31
0.0
  0
LINE
  5
193A9
  8
0
 62
     0
 10
2.193495000980036
 20
-10.710401320154
 30
0.0
 11
2.193495000980036
 21
-10.710401320154
 31
0.0
  0
LINE
  5
193AA
  8
0
 62
     0
 10
8.0108195550021595
 20
-3.3680936371449901
 30
0.0
 11
8.0108195550021595
 21
-3.3680936371449901
 31
0.0
  0
LINE
  5
193AB
  8
0
 62
     0
 10
6.6887278323601818
 20
-3.5421503144704292
 30
0.0
 11
6.6887278323601818
 21
-3.5421503144704292
 31
0.0
  0
LINE
  5
193AC
  8
0
 62
     0
 10
3.2386980037515962
 20
-3.9963553581577642
 30
0.0
 11
3.2386980037515962
 21
-3.9963553581577642
 31
0.0
  0
LINE
  5
193AD
  8
0
 62
     0
 10
1.1737166464822231
 20
-4.2682153113136883
 30
0.0
 11
1.1737166464822231
 21
-4.2682153113136883
 31
0.0
  0
LINE
  5
193AE
  8
0
 62
     0
 10
7.7339308351315621
 20
3.1718956475257549
 30
0.0
 11
7.7339308351315621
 21
3.1718956475257549
 31
0.0
  0
LINE
  5
193AF
  8
0
 62
     0
 10
5.6689494778621903
 20
2.9000356943698322
 30
0.0
 11
5.6689494778621903
 21
2.9000356943698322
 31
0.0
  0
LINE
  5
193B0
  8
0
 62
     0
 10
4.3468577552202143
 20
2.7259790170443932
 30
0.0
 11
4.3468577552202143
 21
2.7259790170443932
 31
0.0
  0
LINE
  5
193B1
  8
0
 62
     0
 10
0.896827926611628
 20
2.2717739733570581
 30
0.0
 11
0.896827926611628
 21
2.2717739733570581
 31
0.0
  0
LINE
  5
193B2
  8
0
 62
     0
 10
2.0049876780801821
 20
8.9941083485592426
 30
0.0
 11
2.0049876780801821
 21
8.9941083485592426
 31
0.0
  0
LINE
  5
193B3
  8
0
 62
     0
 10
8.8420905866000723
 20
9.8942300227279318
 30
0.0
 11
8.8420905866000723
 21
9.8942300227279318
 31
0.0
  0
LINE
  5
193B4
  8
0
 62
     0
 10
5.3920607579914854
 20
9.4400249790405972
 30
0.0
 11
5.3920607579914854
 21
9.4400249790405972
 31
0.0
  0
LINE
  5
193B5
  8
0
 62
     0
 10
3.3270794007221132
 20
9.1681650258846741
 30
0.0
 11
3.3270794007221132
 21
9.1681650258846741
 31
0.0
  0
LINE
  5
193B6
  8
0
 62
     0
 10
7.8223122321023224
 20
16.336416031568241
 30
0.0
 11
7.8223122321023224
 21
16.336416031568241
 31
0.0
  0
LINE
  5
193B7
  8
0
 62
     0
 10
6.5002205094603456
 20
16.162359354242799
 30
0.0
 11
6.5002205094603456
 21
16.162359354242799
 31
0.0
  0
LINE
  5
193B8
  8
0
 62
     0
 10
3.05019068085176
 20
15.708154310555461
 30
0.0
 11
3.05019068085176
 21
15.708154310555461
 31
0.0
  0
LINE
  5
193B9
  8
0
 62
     0
 10
0.9852093235823877
 20
15.436294357399539
 30
0.0
 11
0.9852093235823877
 21
15.436294357399539
 31
0.0
  0
LINE
  5
193BA
  8
0
 62
     0
 10
7.5454235122316131
 20
22.87640531623898
 30
0.0
 11
7.5454235122316131
 21
22.87640531623898
 31
0.0
  0
LINE
  5
193BB
  8
0
 62
     0
 10
5.4804421549622413
 20
22.604545363083059
 30
0.0
 11
5.4804421549622413
 21
22.604545363083059
 31
0.0
  0
LINE
  5
193BC
  8
0
 62
     0
 10
4.1583504323202654
 20
22.43048868575762
 30
0.0
 11
4.1583504323202654
 21
22.43048868575762
 31
0.0
  0
LINE
  5
193BD
  8
0
 62
     0
 10
0.7083206037116793
 20
21.976283642070278
 30
0.0
 11
0.7083206037116793
 21
21.976283642070278
 31
0.0
  0
LINE
  5
193BE
  8
0
 62
     0
 10
8.6535832637005257
 20
29.598739691441182
 30
0.0
 11
8.6535832637005257
 21
29.598739691441182
 31
0.0
  0
LINE
  5
193BF
  8
0
 62
     0
 10
5.2035534350919379
 20
29.14453464775384
 30
0.0
 11
5.2035534350919379
 21
29.14453464775384
 31
0.0
  0
LINE
  5
193C0
  8
0
 62
     0
 10
3.1385720778225661
 20
28.872674694597919
 30
0.0
 11
3.1385720778225661
 21
28.872674694597919
 31
0.0
  0
LINE
  5
193C1
  8
0
 62
     0
 10
1.8164803551805899
 20
28.69861801727248
 30
0.0
 11
1.8164803551805899
 21
28.69861801727248
 31
0.0
  0
LINE
  5
193C2
  8
0
 62
     0
 10
7.6338049092024871
 20
36.040925700281463
 30
0.0
 11
7.6338049092024871
 21
36.040925700281463
 31
0.0
  0
LINE
  5
193C3
  8
0
 62
     0
 10
6.3117131865605112
 20
35.866869022956017
 30
0.0
 11
6.3117131865605112
 21
35.866869022956017
 31
0.0
  0
LINE
  5
193C4
  8
0
 62
     0
 10
2.8616833579519252
 20
35.412663979268679
 30
0.0
 11
2.8616833579519252
 21
35.412663979268679
 31
0.0
  0
LINE
  5
193C5
  8
0
 62
     0
 10
0.7967020006825532
 20
35.140804026112761
 30
0.0
 11
0.7967020006825532
 21
35.140804026112761
 31
0.0
  0
LINE
  5
193C6
  8
0
 62
     0
 10
7.3569161893318897
 20
42.580914984952237
 30
0.0
 11
7.3569161893318897
 21
42.580914984952237
 31
0.0
  0
LINE
  5
193C7
  8
0
 62
     0
 10
5.2919348320625179
 20
42.309055031796319
 30
0.0
 11
5.2919348320625179
 21
42.309055031796319
 31
0.0
  0
LINE
  5
193C8
  8
0
 62
     0
 10
3.969843109420542
 20
42.134998354470881
 30
0.0
 11
3.969843109420542
 21
42.134998354470881
 31
0.0
  0
LINE
  5
193C9
  8
0
 62
     0
 10
0.5198132808119568
 20
41.680793310783542
 30
0.0
 11
0.5198132808119568
 21
41.680793310783542
 31
0.0
  0
LINE
  5
193CA
  8
0
 62
     0
 10
6.4354054388360371
 20
-59.471602609558943
 30
0.0
 11
6.4354054388360371
 21
-59.471602609558943
 31
0.0
  0
LINE
  5
193CB
  8
0
 62
     0
 10
6.275402309237827
 20
-54.577470236265448
 30
0.0
 11
6.275402309237827
 21
-54.577470236265448
 31
0.0
  0
LINE
  5
193CC
  8
0
 62
     0
 10
3.0008363971857528
 20
-57.09013303449894
 30
0.0
 11
3.0008363971857528
 21
-57.09013303449894
 31
0.0
  0
LINE
  5
193CD
  8
0
 62
     0
 10
6.1153991796394154
 20
-49.683337862972039
 30
0.0
 11
6.1153991796394154
 21
-49.683337862972039
 31
0.0
  0
LINE
  5
193CE
  8
0
 62
     0
 10
2.840833267587342
 20
-52.196000661205531
 30
0.0
 11
2.840833267587342
 21
-52.196000661205531
 31
0.0
  0
LINE
  5
193CF
  8
0
 62
     0
 10
5.9553960500409788
 20
-44.789205489678679
 30
0.0
 11
5.9553960500409788
 21
-44.789205489678679
 31
0.0
  0
LINE
  5
193D0
  8
0
 62
     0
 10
2.6808301379889059
 20
-47.301868287912171
 30
0.0
 11
2.6808301379889059
 21
-47.301868287912171
 31
0.0
  0
LINE
  5
193D1
  8
0
 62
     0
 10
8.8583714966390943
 20
-37.544766991268268
 30
0.0
 11
8.8583714966390943
 21
-37.544766991268268
 31
0.0
  0
LINE
  5
193D2
  8
0
 62
     0
 10
5.7953929204426924
 20
-39.895073116385142
 30
0.0
 11
5.7953929204426924
 21
-39.895073116385142
 31
0.0
  0
LINE
  5
193D3
  8
0
 62
     0
 10
2.520827008390619
 20
-42.40773591461862
 30
0.0
 11
2.520827008390619
 21
-42.40773591461862
 31
0.0
  0
LINE
  5
193D4
  8
0
 62
     0
 10
8.6983683670406258
 20
-32.650634617974859
 30
0.0
 11
8.6983683670406258
 21
-32.650634617974859
 31
0.0
  0
LINE
  5
193D5
  8
0
 62
     0
 10
5.635389790844223
 20
-35.000940743091732
 30
0.0
 11
5.635389790844223
 21
-35.000940743091732
 31
0.0
  0
LINE
  5
193D6
  8
0
 62
     0
 10
2.3608238787921501
 20
-37.513603541325217
 30
0.0
 11
2.3608238787921501
 21
-37.513603541325217
 31
0.0
  0
LINE
  5
193D7
  8
0
 62
     0
 10
8.5383652374421573
 20
-27.756502244681499
 30
0.0
 11
8.5383652374421573
 21
-27.756502244681499
 31
0.0
  0
LINE
  5
193D8
  8
0
 62
     0
 10
5.4753866612457553
 20
-30.106808369798369
 30
0.0
 11
5.4753866612457553
 21
-30.106808369798369
 31
0.0
  0
LINE
  5
193D9
  8
0
 62
     0
 10
2.2008207491936811
 20
-32.619471168031872
 30
0.0
 11
2.2008207491936811
 21
-32.619471168031872
 31
0.0
  0
LINE
  5
193DA
  8
0
 62
     0
 10
8.3783621078436887
 20
-22.862369871388101
 30
0.0
 11
8.3783621078436887
 21
-22.862369871388101
 31
0.0
  0
LINE
  5
193DB
  8
0
 62
     0
 10
5.3153835316472859
 20
-25.21267599650497
 30
0.0
 11
5.3153835316472859
 21
-25.21267599650497
 31
0.0
  0
LINE
  5
193DC
  8
0
 62
     0
 10
2.040817619595213
 20
-27.725338794738459
 30
0.0
 11
2.040817619595213
 21
-27.725338794738459
 31
0.0
  0
LINE
  5
193DD
  8
0
 62
     0
 10
8.2183589782453996
 20
-17.968237498094609
 30
0.0
 11
8.2183589782453996
 21
-17.968237498094609
 31
0.0
  0
LINE
  5
193DE
  8
0
 62
     0
 10
5.1553804020489977
 20
-20.318543623211479
 30
0.0
 11
5.1553804020489977
 21
-20.318543623211479
 31
0.0
  0
LINE
  5
193DF
  8
0
 62
     0
 10
1.880814489996925
 20
-22.831206421444971
 30
0.0
 11
1.880814489996925
 21
-22.831206421444971
 31
0.0
  0
LINE
  5
193E0
  8
0
 62
     0
 10
8.0583558486470217
 20
-13.074105124801131
 30
0.0
 11
8.0583558486470217
 21
-13.074105124801131
 31
0.0
  0
LINE
  5
193E1
  8
0
 62
     0
 10
4.9953772724506189
 20
-15.424411249918
 30
0.0
 11
4.9953772724506189
 21
-15.424411249918
 31
0.0
  0
LINE
  5
193E2
  8
0
 62
     0
 10
1.720811360398546
 20
-17.937074048151491
 30
0.0
 11
1.720811360398546
 21
-17.937074048151491
 31
0.0
  0
LINE
  5
193E3
  8
0
 62
     0
 10
4.835374142852241
 20
-10.53027887662458
 30
0.0
 11
4.835374142852241
 21
-10.53027887662458
 31
0.0
  0
LINE
  5
193E4
  8
0
 62
     0
 10
1.5608082308001681
 20
-13.04294167485808
 30
0.0
 11
1.5608082308001681
 21
-13.04294167485808
 31
0.0
  0
LINE
  5
193E5
  8
0
 62
     0
 10
4.6753710132538711
 20
-5.6361465033311111
 30
0.0
 11
4.6753710132538711
 21
-5.6361465033311111
 31
0.0
  0
LINE
  5
193E6
  8
0
 62
     0
 10
7.7383495894502312
 20
-3.2858403782142722
 30
0.0
 11
7.7383495894502312
 21
-3.2858403782142722
 31
0.0
  0
LINE
  5
193E7
  8
0
 62
     0
 10
7.5783464598517973
 20
1.608291995079111
 30
0.0
 11
7.5783464598517973
 21
1.608291995079111
 31
0.0
  0
LINE
  5
193E8
  8
0
 62
     0
 10
4.5153678836553954
 20
-0.7420141300377581
 30
0.0
 11
4.5153678836553954
 21
-0.7420141300377581
 31
0.0
  0
LINE
  5
193E9
  8
0
 62
     0
 10
1.240801971603321
 20
-3.2546769282712522
 30
0.0
 11
1.240801971603321
 21
-3.2546769282712522
 31
0.0
  0
LINE
  5
193EA
  8
0
 62
     0
 10
4.3553647540568701
 20
4.1521182432556483
 30
0.0
 11
4.3553647540568701
 21
4.1521182432556483
 31
0.0
  0
LINE
  5
193EB
  8
0
 62
     0
 10
1.080798842004796
 20
1.6394554450221539
 30
0.0
 11
1.080798842004796
 21
1.6394554450221539
 31
0.0
  0
LINE
  5
193EC
  8
0
 62
     0
 10
7.2583402006548212
 20
11.39655674166589
 30
0.0
 11
7.2583402006548212
 21
11.39655674166589
 31
0.0
  0
LINE
  5
193ED
  8
0
 62
     0
 10
4.1953616244584193
 20
9.0462506165490275
 30
0.0
 11
4.1953616244584193
 21
9.0462506165490275
 31
0.0
  0
LINE
  5
193EE
  8
0
 62
     0
 10
7.0983370710565712
 20
16.290689114959349
 30
0.0
 11
7.0983370710565712
 21
16.290689114959349
 31
0.0
  0
LINE
  5
193EF
  8
0
 62
     0
 10
4.0353584948601702
 20
13.94038298984249
 30
0.0
 11
4.0353584948601702
 21
13.94038298984249
 31
0.0
  0
LINE
  5
193F0
  8
0
 62
     0
 10
0.7607925828080968
 20
11.427720191608991
 30
0.0
 11
0.7607925828080968
 21
11.427720191608991
 31
0.0
  0
LINE
  5
193F1
  8
0
 62
     0
 10
6.9383339414581933
 20
21.18482148825278
 30
0.0
 11
6.9383339414581933
 21
21.18482148825278
 31
0.0
  0
LINE
  5
193F2
  8
0
 62
     0
 10
3.8753553652617909
 20
18.83451536313591
 30
0.0
 11
3.8753553652617909
 21
18.83451536313591
 31
0.0
  0
LINE
  5
193F3
  8
0
 62
     0
 10
0.6007894532097184
 20
16.321852564902411
 30
0.0
 11
0.6007894532097184
 21
16.321852564902411
 31
0.0
  0
LINE
  5
193F4
  8
0
 62
     0
 10
6.7783308118597239
 20
26.078953861546189
 30
0.0
 11
6.7783308118597239
 21
26.078953861546189
 31
0.0
  0
LINE
  5
193F5
  8
0
 62
     0
 10
3.7153522356633228
 20
23.728647736429309
 30
0.0
 11
3.7153522356633228
 21
23.728647736429309
 31
0.0
  0
LINE
  5
193F6
  8
0
 62
     0
 10
0.4407863236112499
 20
21.21598493819582
 30
0.0
 11
0.4407863236112499
 21
21.21598493819582
 31
0.0
  0
LINE
  5
193F7
  8
0
 62
     0
 10
6.6183276822614934
 20
30.97308623483967
 30
0.0
 11
6.6183276822614934
 21
30.97308623483967
 31
0.0
  0
LINE
  5
193F8
  8
0
 62
     0
 10
3.555349106065091
 20
28.6227801097228
 30
0.0
 11
3.555349106065091
 21
28.6227801097228
 31
0.0
  0
LINE
  5
193F9
  8
0
 62
     0
 10
0.2807831940130185
 20
26.110117311489311
 30
0.0
 11
0.2807831940130185
 21
26.110117311489311
 31
0.0
  0
LINE
  5
193FA
  8
0
 62
     0
 10
6.458324552662968
 20
35.867218608133022
 30
0.0
 11
6.458324552662968
 21
35.867218608133022
 31
0.0
  0
LINE
  5
193FB
  8
0
 62
     0
 10
3.3953459764665661
 20
33.516912483016149
 30
0.0
 11
3.3953459764665661
 21
33.516912483016149
 31
0.0
  0
LINE
  5
193FC
  8
0
 62
     0
 10
0.1207800644144936
 20
31.004249684782661
 30
0.0
 11
0.1207800644144936
 21
31.004249684782661
 31
0.0
  0
LINE
  5
193FD
  8
0
 62
     0
 10
6.2983214230645901
 20
40.761350981426489
 30
0.0
 11
6.2983214230645901
 21
40.761350981426489
 31
0.0
  0
LINE
  5
193FE
  8
0
 62
     0
 10
3.2353428468681882
 20
38.41104485630963
 30
0.0
 11
3.2353428468681882
 21
38.41104485630963
 31
0.0
  0
LINE
  5
193FF
  8
0
 62
     0
 10
3.0753397172696291
 20
43.305177229602961
 30
0.0
 11
3.0753397172696291
 21
43.305177229602961
 31
0.0
  0
ENDBLK
  5
19401
  8
0
  0
BLOCK
  8
0
  2
*U86
 70
     1
 10
0.0
 20
0.0
 30
0.0
  3
*U86
  1

  0
SOLID
  5
19403
  8
1DIM
 10
12.044443127533439
 20
38.649918419518762
 30
0.0
 11
13.168864624287609
 21
36.962675873603018
 31
0.0
 12
11.55800886922316
 22
38.194038877548998
 32
0.0
 13
11.55800886922316
 23
38.194038877548998
 33
0.0
  0
POLYLINE
  5
19404
  8
1DIM
 66
     1
 10
0.0
 20
0.0
 30
0.0
  0
VERTEX
  5
19405
  8
1DIM
 10
11.8012259983783
 20
38.42197864853388
 30
0.0
  0
VERTEX
  5
19406
  8
1DIM
 10
-2.0871988093631928
 20
53.241256546509689
 30
0.0
  0
VERTEX
  5
19407
  8
1DIM
 10
-33.987198809363193
 20
53.241256546509689
 30
0.0
  0
SEQEND
  5
19408
  8
1DIM
  0
ENDBLK
  5
1940A
  8
0
  0
BLOCK
  8
0
  2
*U87
 70
     1
 10
0.0
 20
0.0
 30
0.0
  3
*U87
  1

  0
TEXT
  5
1940C
  8
1DIM
 62
   201
 10
-31.153865476029861
 20
53.941256546509692
 30
0.0
 40
3.5
  1
裏板9mm以上
  0
ENDBLK
  5
1940E
  8
0
  0
BLOCK
  8
0
  2
*U88
 70
     1
 10
0.0
 20
0.0
 30
0.0
  3
*U88
  1

  0
LINE
  5
19410
  8
0
 10
-29.999999999837598
 20
0.0000465358979227
 30
0.0
 11
-24.700003489975941
 21
-1.4999534641020771
 31
0.0
  0
LINE
  5
19411
  8
0
 10
-24.700003489975941
 20
-1.4999534641020771
 30
0.0
 11
-0.0000034900840618
 21
-1.499953464101849
 31
0.0
  0
LINE
  5
19412
  8
0
 10
-29.999999999837598
 20
0.0000465358979227
 30
0.0
 11
-24.6999965095923
 21
1.5000465358980359
 31
0.0
  0
LINE
  5
19413
  8
0
 10
-0.0000081437821464
 20
-3.4999999999998859
 30
0.0
 11
-0.0000034900840618
 21
-1.499953464101849
 31
0.0
  0
LINE
  5
19414
  8
0
 10
-24.6999965095923
 20
1.5000465358980359
 30
0.0
 11
0.0000034903006139
 21
1.500046535897922
 31
0.0
  0
LINE
  5
19415
  8
0
 10
-0.0000081437821464
 20
-3.4999999999998859
 30
0.0
 11
1.0999953464131731
 21
-3.5
 31
0.0
  0
LINE
  5
19416
  8
0
 10
0.0000034903006139
 20
1.500046535897922
 30
0.0
 11
0.0000081437821322
 21
3.5
 31
0.0
  0
ARC
  5
19417
  8
0
 10
1.0999953464131731
 20
-2.0
 30
0.0
 40
1.5
 50
270.0
 51
359.99986668447059
  0
LINE
  5
19418
  8
0
 10
0.0000081437821322
 20
3.5
 30
0.0
 11
1.100004653592769
 21
3.5
 31
0.0
  0
LINE
  5
19419
  8
0
 10
2.5999953464091159
 20
-2.0000034901923982
 30
0.0
 11
2.6000046535887051
 21
1.9999965098076009
 31
0.0
  0
ARC
  5
1941A
  8
0
 10
1.100004653592769
 20
2.0
 30
0.0
 40
1.5
 50
359.99986668447059
 51
90.0
  0
ENDBLK
  5
1941C
  8
0
  0
BLOCK
  8
0
  2
*U89
 70
     1
 10
0.0
 20
0.0
 30
0.0
  3
*U89
  1

  0
LINE
  5
1941E
  8
0
 10
-9.6499999999999773
 20
2.0
 30
0.0
 11
-0.0000000000000284
 21
2.0
 31
0.0
  0
LINE
  5
1941F
  8
0
 10
-9.6499999999999773
 20
2.0
 30
0.0
 11
-10.0
 21
1.649999999999977
 31
0.0
  0
LINE
  5
19420
  8
0
 10
0.0
 20
3.4999999999999432
 30
0.0
 11
-0.0000000000000284
 21
2.0
 31
0.0
  0
LINE
  5
19421
  8
0
 10
-10.0
 20
1.649999999999977
 30
0.0
 11
-10.0
 21
-1.6499999999998629
 31
0.0
  0
LINE
  5
19422
  8
0
 10
0.0
 20
3.4999999999999432
 30
0.0
 11
0.5999999999999375
 21
3.4999999999999432
 31
0.0
  0
LINE
  5
19423
  8
0
 10
-10.0
 20
-1.6499999999998629
 30
0.0
 11
-9.6499999999999773
 21
-2.0
 31
0.0
  0
ARC
  5
19424
  8
0
 10
0.5999999999999944
 20
1.4999999999999429
 30
0.0
 40
2.0
 50
0.0
 51
90.000000000001606
  0
LINE
  5
19425
  8
0
 10
-9.6499999999999773
 20
-2.0
 30
0.0
 11
0.0000000000000568
 21
-2.0
 31
0.0
  0
LINE
  5
19426
  8
0
 10
2.5999999999999939
 20
1.4999999999999429
 30
0.0
 11
2.5999999999999939
 21
-1.5
 31
0.0
  0
LINE
  5
19427
  8
0
 10
0.0000000000000568
 20
-2.0
 30
0.0
 11
0.0
 21
-3.5
 31
0.0
  0
ARC
  5
19428
  8
0
 10
0.5999999999999944
 20
-1.5
 30
0.0
 40
2.0
 50
270.0
 51
0.0
  0
LINE
  5
19429
  8
0
 10
0.0
 20
-3.5
 30
0.0
 11
0.5999999999999944
 21
-3.5
 31
0.0
  0
ENDBLK
  5
1942B
  8
0
  0
BLOCK
  8
0
  2
*U90
 70
     1
 10
0.0
 20
0.0
 30
0.0
  3
*U90
  1

  0
LINE
  5
19451
  8
0
 10
-24.650013959859319
 20
-1.9997699899806769
 30
0.0
 11
-2.3000325751651469
 21
-1.999978593270384
 31
0.0
  0
LINE
  5
19452
  8
0
 10
-0.3000279215265778
 20
-3.9999972077595198
 30
0.0
 11
-2.3000325751651469
 21
-1.999978593270384
 31
0.0
  0
LINE
  5
19453
  8
0
 10
-25.000011516714508
 20
-1.649767320475461
 30
0.0
 11
-24.650013959859319
 21
-1.9997699899806769
 31
0.0
  0
LINE
  5
19454
  8
0
 10
-0.3000279215265778
 20
-3.9999972077595198
 30
0.0
 11
-0.0000279215387877
 21
-3.9999999999133702
 31
0.0
  0
LINE
  5
19455
  8
0
 10
-24.999988481445051
 20
1.650232679454916
 30
0.0
 11
-25.000011516714508
 21
-1.649767320475461
 31
0.0
  0
LINE
  5
19456
  8
0
 10
0.0000279215387877
 20
3.9999999999134839
 30
0.0
 11
-0.0000279215387877
 21
-3.9999999999133702
 31
0.0
  0
LINE
  5
19457
  8
0
 10
-24.999988481445051
 20
1.650232679454916
 30
0.0
 11
-24.649986038320591
 21
2.0002300099321242
 31
0.0
  0
LINE
  5
19458
  8
0
 10
-0.299972078449116
 20
4.0000027920673338
 30
0.0
 11
0.0000279215387877
 21
3.9999999999134839
 31
0.0
  0
LINE
  5
19459
  8
0
 10
-24.649986038320591
 20
2.0002300099321242
 30
0.0
 11
-2.299976732000899
 21
2.0000214063830981
 31
0.0
  0
LINE
  5
1945A
  8
0
 10
-0.299972078449116
 20
4.0000027920673338
 30
0.0
 11
-2.299976732000899
 21
2.0000214063830981
 31
0.0
  0
ENDBLK
  5
1945C
  8
0
  0
BLOCK
  8
0
  2
*X91
 70
     1
 10
0.0
 20
0.0
 30
0.0
  3
*X91
  1

  0
LINE
  5
1945E
  8
0
 62
     0
 10
16.671990294007681
 20
-61.391691274362131
 30
0.0
 11
18.0
 21
-60.063681568369759
 31
0.0
  0
LINE
  5
1945F
  8
0
 62
     0
 10
14.42692626374037
 20
-61.391691274362131
 30
0.0
 11
17.99999999999994
 21
-57.818617538102501
 31
0.0
  0
LINE
  5
19460
  8
0
 62
     0
 10
12.18186223347311
 20
-61.391691274362131
 30
0.0
 11
18.0
 21
-55.573553507835179
 31
0.0
  0
LINE
  5
19461
  8
0
 62
     0
 10
9.9367982032057398
 20
-61.391691274362181
 30
0.0
 11
18.0
 21
-53.328489477567928
 31
0.0
  0
LINE
  5
19462
  8
0
 62
     0
 10
9.0000000000001137
 20
-60.083425447300549
 30
0.0
 11
18.0
 21
-51.083425447300669
 31
0.0
  0
LINE
  5
19463
  8
0
 62
     0
 10
9.0000000000000568
 20
-57.83836141703329
 30
0.0
 11
17.99999999999994
 21
-48.838361417033411
 31
0.0
  0
LINE
  5
19464
  8
0
 62
     0
 10
9.0000000000000568
 20
-55.593297386765919
 30
0.0
 11
17.99999999999994
 21
-46.593297386766032
 31
0.0
  0
LINE
  5
19465
  8
0
 62
     0
 10
9.0000000000000568
 20
-53.348233356498667
 30
0.0
 11
17.99999999999994
 21
-44.348233356498781
 31
0.0
  0
LINE
  5
19466
  8
0
 62
     0
 10
9.0000000000000568
 20
-51.103169326231409
 30
0.0
 11
18.00000000000006
 21
-42.103169326231459
 31
0.0
  0
LINE
  5
19467
  8
0
 62
     0
 10
9.0000000000000568
 20
-48.858105295964087
 30
0.0
 11
18.0
 21
-39.858105295964208
 31
0.0
  0
LINE
  5
19468
  8
0
 62
     0
 10
9.0000000000000568
 20
-46.613041265696722
 30
0.0
 11
18.0
 21
-37.613041265696843
 31
0.0
  0
LINE
  5
19469
  8
0
 62
     0
 10
9.0000000000000568
 20
-44.367977235429457
 30
0.0
 11
18.0
 21
-35.367977235429578
 31
0.0
  0
LINE
  5
1946A
  8
0
 62
     0
 10
9.0000000000000568
 20
-42.122913205162213
 30
0.0
 11
18.0
 21
-33.12291320516232
 31
0.0
  0
LINE
  5
1946B
  8
0
 62
     0
 10
9.0
 20
-39.877849174894948
 30
0.0
 11
17.99999999999994
 21
-30.877849174895061
 31
0.0
  0
LINE
  5
1946C
  8
0
 62
     0
 10
9.0
 20
-37.63278514462769
 30
0.0
 11
18.0
 21
-28.63278514462769
 31
0.0
  0
LINE
  5
1946D
  8
0
 62
     0
 10
9.0
 20
-35.387721114360431
 30
0.0
 11
18.0
 21
-26.387721114360431
 31
0.0
  0
LINE
  5
1946E
  8
0
 62
     0
 10
8.9999999999999432
 20
-33.14265708409318
 30
0.0
 11
17.99999999999994
 21
-24.14265708409317
 31
0.0
  0
LINE
  5
1946F
  8
0
 62
     0
 10
8.9999999999999432
 20
-30.897593053825918
 30
0.0
 11
17.99999999999994
 21
-21.897593053825918
 31
0.0
  0
LINE
  5
19470
  8
0
 62
     0
 10
8.9999999999999432
 20
-28.65252902355866
 30
0.0
 11
17.99999999999994
 21
-19.65252902355866
 31
0.0
  0
LINE
  5
19471
  8
0
 62
     0
 10
8.9999999999999432
 20
-26.407464993291399
 30
0.0
 11
18.0
 21
-17.407464993291342
 31
0.0
  0
LINE
  5
19472
  8
0
 62
     0
 10
9.0
 20
-24.16240096302403
 30
0.0
 11
17.99999999999994
 21
-15.16240096302403
 31
0.0
  0
LINE
  5
19473
  8
0
 62
     0
 10
8.9999999999999432
 20
-21.917336932756712
 30
0.0
 11
17.99999999999994
 21
-12.91733693275671
 31
0.0
  0
LINE
  5
19474
  8
0
 62
     0
 10
8.9999999999999432
 20
-19.67227290248945
 30
0.0
 11
17.99999999999994
 21
-10.67227290248945
 31
0.0
  0
LINE
  5
19475
  8
0
 62
     0
 10
8.9999999999999432
 20
-17.427208872222192
 30
0.0
 11
15.821190608570189
 21
-10.606018263652
 31
0.0
  0
LINE
  5
19476
  8
0
 62
     0
 10
16.78433035397688
 20
-7.3978144879779393
 30
0.0
 11
18.0
 21
-6.1821448419548801
 31
0.0
  0
LINE
  5
19477
  8
0
 62
     0
 10
8.9999999999998863
 20
-15.182144841954941
 30
0.0
 11
13.682098306056441
 21
-10.500046535898431
 31
0.0
  0
LINE
  5
19478
  8
0
 62
     0
 10
11.14073620626419
 20
-10.796344605423309
 30
0.0
 11
11.437034275789189
 21
-10.50004653589837
 31
0.0
  0
LINE
  5
19479
  8
0
 62
     0
 10
14.437034275789189
 20
-7.5000465358983197
 30
0.0
 11
18.00000000000006
 21
-3.9370808116874509
 31
0.0
  0
LINE
  5
1947A
  8
0
 62
     0
 10
8.9999999999998863
 20
-12.93708081168762
 30
0.0
 11
11.072835431113271
 21
-10.86424538057423
 31
0.0
  0
LINE
  5
1947B
  8
0
 62
     0
 10
12.191970245521761
 20
-7.5000465358984911
 30
0.0
 11
18.00000000000006
 21
-1.692016781420193
 31
0.0
  0
LINE
  5
1947C
  8
0
 62
     0
 10
9.0
 20
-10.69201678142031
 30
0.0
 11
9.1919702455219294
 21
-10.50004653589837
 31
0.0
  0
LINE
  5
1947D
  8
0
 62
     0
 10
10.32448800965261
 20
-7.1224647415003801
 30
0.0
 11
18.00000000000006
 21
0.5530472488470651
 31
0.0
  0
LINE
  5
1947E
  8
0
 62
     0
 10
9.9469062152545007
 20
-7.5000465358984911
 30
0.0
 11
10.26327872882478
 21
-7.1836740223282041
 31
0.0
  0
LINE
  5
1947F
  8
0
 62
     0
 10
8.9999999999999432
 20
-6.2018887208857896
 30
0.0
 11
18.0
 21
2.7981112791143228
 31
0.0
  0
LINE
  5
19480
  8
0
 62
     0
 10
8.9999999999999432
 20
-3.956824690618475
 30
0.0
 11
18.00000000000006
 21
5.0431753093816951
 31
0.0
  0
LINE
  5
19481
  8
0
 62
     0
 10
8.9999999999999432
 20
-1.711760660351217
 30
0.0
 11
18.00000000000006
 21
7.2882393396489533
 31
0.0
  0
LINE
  5
19482
  8
0
 62
     0
 10
8.9999999999999432
 20
0.533303369916041
 30
0.0
 11
15.827771837741579
 21
7.3610752076577342
 31
0.0
  0
LINE
  5
19483
  8
0
 62
     0
 10
16.79123737884305
 20
10.56960477902652
 30
0.0
 11
18.0
 21
11.778367400183519
 31
0.0
  0
LINE
  5
19484
  8
0
 62
     0
 10
8.9999999999999432
 20
2.7783674001834688
 30
0.0
 11
13.721586063918149
 21
7.4999534641016794
 31
0.0
  0
LINE
  5
19485
  8
0
 62
     0
 10
11.13086412323616
 20
7.154295553686949
 30
0.0
 11
11.47652203365084
 21
7.4999534641015648
 31
0.0
  0
LINE
  5
19486
  8
0
 62
     0
 10
14.47652203365084
 20
10.499953464101621
 30
0.0
 11
18.00000000000011
 21
14.02343143045084
 31
0.0
  0
LINE
  5
19487
  8
0
 62
     0
 10
8.9999999999999432
 20
5.023431430450727
 30
0.0
 11
11.079416660284719
 21
7.102848090735506
 31
0.0
  0
LINE
  5
19488
  8
0
 62
     0
 10
12.231458003383411
 20
10.49995346410145
 30
0.0
 11
18.00000000000006
 21
16.26849546071816
 31
0.0
  0
LINE
  5
19489
  8
0
 62
     0
 10
8.9999999999999432
 20
7.2684954607179861
 30
0.0
 11
9.2314580033835796
 21
7.4999534641015648
 31
0.0
  0
LINE
  5
1948A
  8
0
 62
     0
 10
10.33106923882394
 20
10.844628729809241
 30
0.0
 11
18.00000000000006
 21
18.513559490985411
 31
0.0
  0
LINE
  5
1948B
  8
0
 62
     0
 10
9.9863939731161508
 20
10.49995346410145
 30
0.0
 11
10.25340664579676
 21
10.766966136782059
 31
0.0
  0
LINE
  5
1948C
  8
0
 62
     0
 10
9.0000000000000568
 20
11.75862352125273
 30
0.0
 11
18.0
 21
20.75862352125273
 31
0.0
  0
LINE
  5
1948D
  8
0
 62
     0
 10
9.0000000000001137
 20
14.00368755152004
 30
0.0
 11
18.0
 21
23.003687551519992
 31
0.0
  0
LINE
  5
1948E
  8
0
 62
     0
 10
9.0000000000001137
 20
16.2487515817873
 30
0.0
 11
18.00000000000011
 21
25.24875158178725
 31
0.0
  0
LINE
  5
1948F
  8
0
 62
     0
 10
9.0000000000000568
 20
18.493815612054561
 30
0.0
 11
18.00000000000006
 21
27.493815612054512
 31
0.0
  0
LINE
  5
19490
  8
0
 62
     0
 10
9.0000000000000568
 20
20.73887964232188
 30
0.0
 11
18.00000000000006
 21
29.73887964232182
 31
0.0
  0
LINE
  5
19491
  8
0
 62
     0
 10
9.0000000000000568
 20
22.983943672589131
 30
0.0
 11
18.00000000000006
 21
31.983943672589081
 31
0.0
  0
LINE
  5
19492
  8
0
 62
     0
 10
9.0000000000001705
 20
25.22900770285645
 30
0.0
 11
18.00000000000006
 21
34.229007702856343
 31
0.0
  0
LINE
  5
19493
  8
0
 62
     0
 10
9.0000000000001137
 20
27.474071733123711
 30
0.0
 11
18.00000000000011
 21
36.474071733123708
 31
0.0
  0
LINE
  5
19494
  8
0
 62
     0
 10
9.0000000000001137
 20
29.71913576339103
 30
0.0
 11
18.00000000000011
 21
38.719135763391023
 31
0.0
  0
LINE
  5
19495
  8
0
 62
     0
 10
9.0000000000001137
 20
31.964199793658281
 30
0.0
 11
18.00000000000011
 21
40.964199793658281
 31
0.0
  0
LINE
  5
19496
  8
0
 62
     0
 10
9.0000000000001137
 20
34.209263823925539
 30
0.0
 11
18.00000000000011
 21
43.209263823925539
 31
0.0
  0
LINE
  5
19497
  8
0
 62
     0
 10
9.0000000000000568
 20
36.454327854192968
 30
0.0
 11
17.245208523150438
 21
44.699536377343229
 31
0.0
  0
LINE
  5
19498
  8
0
 62
     0
 10
9.0000000000000568
 20
38.699391884460113
 30
0.0
 11
15.00014449288318
 21
44.699536377343229
 31
0.0
  0
LINE
  5
19499
  8
0
 62
     0
 10
9.0000000000000568
 20
40.944455914727477
 30
0.0
 11
12.75508046261592
 21
44.699536377343229
 31
0.0
  0
LINE
  5
1949A
  8
0
 62
     0
 10
9.0000000000001137
 20
43.189519944994743
 30
0.0
 11
10.510016432348721
 21
44.699536377343229
 31
0.0
  0
ENDBLK
  5
1949C
  8
0
  0
BLOCK
  8
0
  2
*X92
 70
     1
 10
0.0
 20
0.0
 30
0.0
  3
*X92
  1

  0
LINE
  5
1949E
  8
0
 62
     0
 10
4.719668856187476
 20
-60.905108537765202
 30
0.0
 11
4.719668856187476
 21
-60.905108537765202
 31
0.0
  0
LINE
  5
1949F
  8
0
 62
     0
 10
2.5099012223001722
 20
-58.880229567499541
 30
0.0
 11
2.5099012223001722
 21
-58.880229567499541
 31
0.0
  0
LINE
  5
194A0
  8
0
 62
     0
 10
2.0417301134257442
 20
-58.4512297856636
 30
0.0
 11
2.0417301134257442
 21
-58.4512297856636
 31
0.0
  0
LINE
  5
194A1
  8
0
 62
     0
 10
7.1491706502268144
 20
-53.905337731177347
 30
0.0
 11
7.1491706502268144
 21
-53.905337731177347
 31
0.0
  0
LINE
  5
194A2
  8
0
 62
     0
 10
4.9394030163395106
 20
-51.880458760911701
 30
0.0
 11
4.9394030163395106
 21
-51.880458760911701
 31
0.0
  0
LINE
  5
194A3
  8
0
 62
     0
 10
4.471231907465083
 20
-51.451458979075753
 30
0.0
 11
4.471231907465083
 21
-51.451458979075753
 31
0.0
  0
LINE
  5
194A4
  8
0
 62
     0
 10
1.943107919543168
 20
-49.134860157161647
 30
0.0
 11
1.943107919543168
 21
-49.134860157161647
 31
0.0
  0
LINE
  5
194A5
  8
0
 62
     0
 10
7.3689048103787469
 20
-44.880687954323847
 30
0.0
 11
7.3689048103787469
 21
-44.880687954323847
 31
0.0
  0
LINE
  5
194A6
  8
0
 62
     0
 10
6.9007337015043193
 20
-44.451688172487913
 30
0.0
 11
6.9007337015043193
 21
-44.451688172487913
 31
0.0
  0
LINE
  5
194A7
  8
0
 62
     0
 10
4.3726097135824036
 20
-42.135089350573821
 30
0.0
 11
4.3726097135824036
 21
-42.135089350573821
 31
0.0
  0
LINE
  5
194A8
  8
0
 62
     0
 10
2.1628420796950998
 20
-40.11021038030816
 30
0.0
 11
2.1628420796950998
 21
-40.11021038030816
 31
0.0
  0
LINE
  5
194A9
  8
0
 62
     0
 10
1.694670970820672
 20
-39.681210598472219
 30
0.0
 11
1.694670970820672
 21
-39.681210598472219
 31
0.0
  0
LINE
  5
194AA
  8
0
 62
     0
 10
6.8021115076217677
 20
-35.135318543985953
 30
0.0
 11
6.8021115076217677
 21
-35.135318543985953
 31
0.0
  0
LINE
  5
194AB
  8
0
 62
     0
 10
4.592343873734464
 20
-33.110439573720278
 30
0.0
 11
4.592343873734464
 21
-33.110439573720278
 31
0.0
  0
LINE
  5
194AC
  8
0
 62
     0
 10
4.1241727648600364
 20
-32.681439791884351
 30
0.0
 11
4.1241727648600364
 21
-32.681439791884351
 31
0.0
  0
LINE
  5
194AD
  8
0
 62
     0
 10
1.5960487769381211
 20
-30.364840969970238
 30
0.0
 11
1.5960487769381211
 21
-30.364840969970238
 31
0.0
  0
LINE
  5
194AE
  8
0
 62
     0
 10
7.0218456677738237
 20
-26.110668767132399
 30
0.0
 11
7.0218456677738237
 21
-26.110668767132399
 31
0.0
  0
LINE
  5
194AF
  8
0
 62
     0
 10
6.5536745588993961
 20
-25.681668985296461
 30
0.0
 11
6.5536745588993961
 21
-25.681668985296461
 31
0.0
  0
LINE
  5
194B0
  8
0
 62
     0
 10
4.0255505709774813
 20
-23.365070163382359
 30
0.0
 11
4.0255505709774813
 21
-23.365070163382359
 31
0.0
  0
LINE
  5
194B1
  8
0
 62
     0
 10
1.8157829370901779
 20
-21.340191193116699
 30
0.0
 11
1.8157829370901779
 21
-21.340191193116699
 31
0.0
  0
LINE
  5
194B2
  8
0
 62
     0
 10
1.347611828215749
 20
-20.911191411280761
 30
0.0
 11
1.347611828215749
 21
-20.911191411280761
 31
0.0
  0
LINE
  5
194B3
  8
0
 62
     0
 10
8.9831763529386919
 20
-18.681898178708529
 30
0.0
 11
8.9831763529386919
 21
-18.681898178708529
 31
0.0
  0
LINE
  5
194B4
  8
0
 62
     0
 10
6.4550523650167762
 20
-16.365299356794441
 30
0.0
 11
6.4550523650167762
 21
-16.365299356794441
 31
0.0
  0
LINE
  5
194B5
  8
0
 62
     0
 10
4.2452847311294732
 20
-14.34042038652878
 30
0.0
 11
4.2452847311294732
 21
-14.34042038652878
 31
0.0
  0
LINE
  5
194B6
  8
0
 62
     0
 10
3.7771136222550439
 20
-13.911420604692839
 30
0.0
 11
3.7771136222550439
 21
-13.911420604692839
 31
0.0
  0
LINE
  5
194B7
  8
0
 62
     0
 10
1.248989634333129
 20
-11.59482178277873
 30
0.0
 11
1.248989634333129
 21
-11.59482178277873
 31
0.0
  0
LINE
  5
194B8
  8
0
 62
     0
 10
6.6747865251688028
 20
-7.340649579940961
 30
0.0
 11
6.6747865251688028
 21
-7.340649579940961
 31
0.0
  0
LINE
  5
194B9
  8
0
 62
     0
 10
6.2066154162943752
 20
-6.9116497981050173
 30
0.0
 11
6.2066154162943752
 21
-6.9116497981050173
 31
0.0
  0
LINE
  5
194BA
  8
0
 62
     0
 10
3.6784914283724599
 20
-4.5950509761909171
 30
0.0
 11
3.6784914283724599
 21
-4.5950509761909171
 31
0.0
  0
LINE
  5
194BB
  8
0
 62
     0
 10
1.468723794485157
 20
-2.5701720059252589
 30
0.0
 11
1.468723794485157
 21
-2.5701720059252589
 31
0.0
  0
LINE
  5
194BC
  8
0
 62
     0
 10
1.0005526856107281
 20
-2.1411722240893152
 30
0.0
 11
1.0005526856107281
 21
-2.1411722240893152
 31
0.0
  0
LINE
  5
194BD
  8
0
 62
     0
 10
8.6361172103337154
 20
0.0881210084828284
 30
0.0
 11
8.6361172103337154
 21
0.0881210084828284
 31
0.0
  0
LINE
  5
194BE
  8
0
 62
     0
 10
6.1079932224118014
 20
2.4047198303969282
 30
0.0
 11
6.1079932224118014
 21
2.4047198303969282
 31
0.0
  0
LINE
  5
194BF
  8
0
 62
     0
 10
3.8982255885244972
 20
4.4295988006625846
 30
0.0
 11
3.8982255885244972
 21
4.4295988006625846
 31
0.0
  0
LINE
  5
194C0
  8
0
 62
     0
 10
3.4300544796500692
 20
4.85859858249853
 30
0.0
 11
3.4300544796500692
 21
4.85859858249853
 31
0.0
  0
LINE
  5
194C1
  8
0
 62
     0
 10
0.9019304917281541
 20
7.1751974044126294
 30
0.0
 11
0.9019304917281541
 21
7.1751974044126294
 31
0.0
  0
LINE
  5
194C2
  8
0
 62
     0
 10
6.3277273825637756
 20
11.42936960725048
 30
0.0
 11
6.3277273825637756
 21
11.42936960725048
 31
0.0
  0
LINE
  5
194C3
  8
0
 62
     0
 10
5.8595562736893481
 20
11.85836938908642
 30
0.0
 11
5.8595562736893481
 21
11.85836938908642
 31
0.0
  0
LINE
  5
194C4
  8
0
 62
     0
 10
3.3314322857674332
 20
14.17496821100052
 30
0.0
 11
3.3314322857674332
 21
14.17496821100052
 31
0.0
  0
LINE
  5
194C5
  8
0
 62
     0
 10
1.121664651880129
 20
16.199847181266179
 30
0.0
 11
1.121664651880129
 21
16.199847181266179
 31
0.0
  0
LINE
  5
194C6
  8
0
 62
     0
 10
0.6534935430057013
 20
16.628846963102131
 30
0.0
 11
0.6534935430057013
 21
16.628846963102131
 31
0.0
  0
LINE
  5
194C7
  8
0
 62
     0
 10
8.757229176603154
 20
18.429140413838351
 30
0.0
 11
8.757229176603154
 21
18.429140413838351
 31
0.0
  0
LINE
  5
194C8
  8
0
 62
     0
 10
8.2890580677287247
 20
18.858140195674299
 30
0.0
 11
8.2890580677287247
 21
18.858140195674299
 31
0.0
  0
LINE
  5
194C9
  8
0
 62
     0
 10
5.7609340798068081
 20
21.174739017588401
 30
0.0
 11
5.7609340798068081
 21
21.174739017588401
 31
0.0
  0
LINE
  5
194CA
  8
0
 62
     0
 10
3.5511664459195051
 20
23.199617987854051
 30
0.0
 11
3.5511664459195051
 21
23.199617987854051
 31
0.0
  0
LINE
  5
194CB
  8
0
 62
     0
 10
3.0829953370450758
 20
23.628617769689999
 30
0.0
 11
3.0829953370450758
 21
23.628617769689999
 31
0.0
  0
LINE
  5
194CC
  8
0
 62
     0
 10
0.5548713491231618
 20
25.945216591604101
 30
0.0
 11
0.5548713491231618
 21
25.945216591604101
 31
0.0
  0
LINE
  5
194CD
  8
0
 62
     0
 10
8.1904358738460896
 20
28.17450982417618
 30
0.0
 11
8.1904358738460896
 21
28.17450982417618
 31
0.0
  0
LINE
  5
194CE
  8
0
 62
     0
 10
5.9806682399587858
 20
30.199388794441841
 30
0.0
 11
5.9806682399587858
 21
30.199388794441841
 31
0.0
  0
LINE
  5
194CF
  8
0
 62
     0
 10
5.5124971310843582
 20
30.628388576277789
 30
0.0
 11
5.5124971310843582
 21
30.628388576277789
 31
0.0
  0
LINE
  5
194D0
  8
0
 62
     0
 10
2.984373143162443
 20
32.944987398191877
 30
0.0
 11
2.984373143162443
 21
32.944987398191877
 31
0.0
  0
LINE
  5
194D1
  8
0
 62
     0
 10
0.7746055092751402
 20
34.969866368457538
 30
0.0
 11
0.7746055092751402
 21
34.969866368457538
 31
0.0
  0
LINE
  5
194D2
  8
0
 62
     0
 10
0.3064344004007115
 20
35.398866150293493
 30
0.0
 11
0.3064344004007115
 21
35.398866150293493
 31
0.0
  0
LINE
  5
194D3
  8
0
 62
     0
 10
8.41017003399811
 20
37.199159601029763
 30
0.0
 11
8.41017003399811
 21
37.199159601029763
 31
0.0
  0
LINE
  5
194D4
  8
0
 62
     0
 10
7.9419989251236807
 20
37.628159382865697
 30
0.0
 11
7.9419989251236807
 21
37.628159382865697
 31
0.0
  0
LINE
  5
194D5
  8
0
 62
     0
 10
5.4138749372017658
 20
39.944758204779802
 30
0.0
 11
5.4138749372017658
 21
39.944758204779802
 31
0.0
  0
LINE
  5
194D6
  8
0
 62
     0
 10
3.204107303314462
 20
41.969637175045463
 30
0.0
 11
3.204107303314462
 21
41.969637175045463
 31
0.0
  0
LINE
  5
194D7
  8
0
 62
     0
 10
2.735936194440034
 20
42.398636956881397
 30
0.0
 11
2.735936194440034
 21
42.398636956881397
 31
0.0
  0
LINE
  5
194D8
  8
0
 62
     0
 10
3.8802392881250851
 20
-61.296643484138428
 30
0.0
 11
3.8802392881250851
 21
-61.296643484138428
 31
0.0
  0
LINE
  5
194D9
  8
0
 62
     0
 10
6.7559594504826217
 20
-58.075130275130718
 30
0.0
 11
6.7559594504826217
 21
-58.075130275130718
 31
0.0
  0
LINE
  5
194DA
  8
0
 62
     0
 10
2.8999737602261102
 20
-55.618596465769052
 30
0.0
 11
2.8999737602261102
 21
-55.618596465769052
 31
0.0
  0
LINE
  5
194DB
  8
0
 62
     0
 10
1.8288666240437459
 20
-54.936225963168582
 30
0.0
 11
1.8288666240437459
 21
-54.936225963168582
 31
0.0
  0
LINE
  5
194DC
  8
0
 62
     0
 10
4.7045867864011877
 20
-51.714712754160921
 30
0.0
 11
4.7045867864011877
 21
-51.714712754160921
 31
0.0
  0
LINE
  5
194DD
  8
0
 62
     0
 10
0.8486010961446758
 20
-49.258178944799241
 30
0.0
 11
0.8486010961446758
 21
-49.258178944799241
 31
0.0
  0
LINE
  5
194DE
  8
0
 62
     0
 10
8.7585247985592201
 20
-49.243807098013797
 30
0.0
 11
8.7585247985592201
 21
-49.243807098013797
 31
0.0
  0
LINE
  5
194DF
  8
0
 62
     0
 10
7.6874176623768546
 20
-48.561436595413333
 30
0.0
 11
7.6874176623768546
 21
-48.561436595413333
 31
0.0
  0
LINE
  5
194E0
  8
0
 62
     0
 10
2.6532141223197412
 20
-45.354295233191131
 30
0.0
 11
2.6532141223197412
 21
-45.354295233191131
 31
0.0
  0
LINE
  5
194E1
  8
0
 62
     0
 10
6.7071521344778677
 20
-42.883389577044078
 30
0.0
 11
6.7071521344778677
 21
-42.883389577044078
 31
0.0
  0
LINE
  5
194E2
  8
0
 62
     0
 10
5.6360449982955041
 20
-42.201019074443607
 30
0.0
 11
5.6360449982955041
 21
-42.201019074443607
 31
0.0
  0
LINE
  5
194E3
  8
0
 62
     0
 10
0.6018414582383905
 20
-38.993877712221433
 30
0.0
 11
0.6018414582383905
 21
-38.993877712221433
 31
0.0
  0
LINE
  5
194E4
  8
0
 62
     0
 10
8.5117651606529581
 20
-38.97950586543589
 30
0.0
 11
8.5117651606529581
 21
-38.97950586543589
 31
0.0
  0
LINE
  5
194E5
  8
0
 62
     0
 10
4.6557794703964452
 20
-36.522972056074209
 30
0.0
 11
4.6557794703964452
 21
-36.522972056074209
 31
0.0
  0
LINE
  5
194E6
  8
0
 62
     0
 10
3.5846723342140798
 20
-35.840601553473739
 30
0.0
 11
3.5846723342140798
 21
-35.840601553473739
 31
0.0
  0
LINE
  5
194E7
  8
0
 62
     0
 10
6.4603924965714628
 20
-32.619088344466078
 30
0.0
 11
6.4603924965714628
 21
-32.619088344466078
 31
0.0
  0
LINE
  5
194E8
  8
0
 62
     0
 10
2.6044068063149499
 20
-30.162554535104402
 30
0.0
 11
2.6044068063149499
 21
-30.162554535104402
 31
0.0
  0
LINE
  5
194E9
  8
0
 62
     0
 10
1.5332996701325861
 20
-29.480184032503931
 30
0.0
 11
1.5332996701325861
 21
-29.480184032503931
 31
0.0
  0
LINE
  5
194EA
  8
0
 62
     0
 10
4.4090198324901886
 20
-26.258670823496349
 30
0.0
 11
4.4090198324901886
 21
-26.258670823496349
 31
0.0
  0
LINE
  5
194EB
  8
0
 62
     0
 10
0.5530341422336775
 20
-23.802137014134669
 30
0.0
 11
0.5530341422336775
 21
-23.802137014134669
 31
0.0
  0
LINE
  5
194EC
  8
0
 62
     0
 10
8.4629578446482672
 20
-23.78776516734921
 30
0.0
 11
8.4629578446482672
 21
-23.78776516734921
 31
0.0
  0
LINE
  5
194ED
  8
0
 62
     0
 10
7.3918507084659044
 20
-23.105394664748751
 30
0.0
 11
7.3918507084659044
 21
-23.105394664748751
 31
0.0
  0
LINE
  5
194EE
  8
0
 62
     0
 10
2.3576471684087901
 20
-19.898253302526548
 30
0.0
 11
2.3576471684087901
 21
-19.898253302526548
 31
0.0
  0
LINE
  5
194EF
  8
0
 62
     0
 10
6.4115851805667248
 20
-17.427347646379371
 30
0.0
 11
6.4115851805667248
 21
-17.427347646379371
 31
0.0
  0
LINE
  5
194F0
  8
0
 62
     0
 10
5.3404780443843611
 20
-16.7449771437789
 30
0.0
 11
5.3404780443843611
 21
-16.7449771437789
 31
0.0
  0
LINE
  5
194F1
  8
0
 62
     0
 10
0.3062745043272478
 20
-13.53783578155671
 30
0.0
 11
0.3062745043272478
 21
-13.53783578155671
 31
0.0
  0
LINE
  5
194F2
  8
0
 62
     0
 10
8.2161982067418311
 20
-13.52346393477128
 30
0.0
 11
8.2161982067418311
 21
-13.52346393477128
 31
0.0
  0
LINE
  5
194F3
  8
0
 62
     0
 10
4.3602125164853183
 20
-11.0669301254096
 30
0.0
 11
4.3602125164853183
 21
-11.0669301254096
 31
0.0
  0
LINE
  5
194F4
  8
0
 62
     0
 10
6.1648255426604877
 20
-7.1630464138015846
 30
0.0
 11
6.1648255426604877
 21
-7.1630464138015846
 31
0.0
  0
LINE
  5
194F5
  8
0
 62
     0
 10
2.3088398524039762
 20
-4.7065126044399053
 30
0.0
 11
2.3088398524039762
 21
-4.7065126044399053
 31
0.0
  0
LINE
  5
194F6
  8
0
 62
     0
 10
1.237732716221611
 20
-4.0241421018394377
 30
0.0
 11
1.237732716221611
 21
-4.0241421018394377
 31
0.0
  0
LINE
  5
194F7
  8
0
 62
     0
 10
4.1134528785791007
 20
-0.802628892831747
 30
0.0
 11
4.1134528785791007
 21
-0.802628892831747
 31
0.0
  0
LINE
  5
194F8
  8
0
 62
     0
 10
0.2574671883225893
 20
1.6539049165299331
 30
0.0
 11
0.2574671883225893
 21
1.6539049165299331
 31
0.0
  0
LINE
  5
194F9
  8
0
 62
     0
 10
8.1673908907370851
 20
1.6682767633154569
 30
0.0
 11
8.1673908907370851
 21
1.6682767633154569
 31
0.0
  0
LINE
  5
194FA
  8
0
 62
     0
 10
7.0962837545547197
 20
2.350647265915923
 30
0.0
 11
7.0962837545547197
 21
2.350647265915923
 31
0.0
  0
LINE
  5
194FB
  8
0
 62
     0
 10
2.0620802144976071
 20
5.557788628138117
 30
0.0
 11
2.0620802144976071
 21
5.557788628138117
 31
0.0
  0
LINE
  5
194FC
  8
0
 62
     0
 10
0.0107075504163213
 20
11.91820614910781
 30
0.0
 11
0.0107075504163213
 21
11.91820614910781
 31
0.0
  0
LINE
  5
194FD
  8
0
 62
     0
 10
7.9206312528308631
 20
11.932577995893361
 30
0.0
 11
7.9206312528308631
 21
11.932577995893361
 31
0.0
  0
LINE
  5
194FE
  8
0
 62
     0
 10
4.0646455625743521
 20
14.389111805255039
 30
0.0
 11
4.0646455625743521
 21
14.389111805255039
 31
0.0
  0
LINE
  5
194FF
  8
0
 62
     0
 10
2.9935384263919871
 20
15.07148230785551
 30
0.0
 11
2.9935384263919871
 21
15.07148230785551
 31
0.0
  0
LINE
  5
19500
  8
0
 62
     0
 10
5.8692585887494468
 20
18.292995516863161
 30
0.0
 11
5.8692585887494468
 21
18.292995516863161
 31
0.0
  0
LINE
  5
19501
  8
0
 62
     0
 10
2.0132728984929349
 20
20.749529326224842
 30
0.0
 11
2.0132728984929349
 21
20.749529326224842
 31
0.0
  0
LINE
  5
19502
  8
0
 62
     0
 10
0.9421657623105714
 20
21.431899828825308
 30
0.0
 11
0.9421657623105714
 21
21.431899828825308
 31
0.0
  0
LINE
  5
19503
  8
0
 62
     0
 10
8.8520894647250579
 20
21.44627167561082
 30
0.0
 11
8.8520894647250579
 21
21.44627167561082
 31
0.0
  0
LINE
  5
19504
  8
0
 62
     0
 10
3.817885924667944
 20
24.653413037833008
 30
0.0
 11
3.817885924667944
 21
24.653413037833008
 31
0.0
  0
LINE
  5
19505
  8
0
 62
     0
 10
7.8718239368261278
 20
27.124318693980069
 30
0.0
 11
7.8718239368261278
 21
27.124318693980069
 31
0.0
  0
LINE
  5
19506
  8
0
 62
     0
 10
6.8007168006437642
 20
27.806689196580539
 30
0.0
 11
6.8007168006437642
 21
27.806689196580539
 31
0.0
  0
LINE
  5
19507
  8
0
 62
     0
 10
1.76651326058665
 20
31.013830558802731
 30
0.0
 11
1.76651326058665
 21
31.013830558802731
 31
0.0
  0
LINE
  5
19508
  8
0
 62
     0
 10
5.8204512727446627
 20
33.484736214949912
 30
0.0
 11
5.8204512727446627
 21
33.484736214949912
 31
0.0
  0
LINE
  5
19509
  8
0
 62
     0
 10
4.749344136562299
 20
34.167106717550368
 30
0.0
 11
4.749344136562299
 21
34.167106717550368
 31
0.0
  0
LINE
  5
1950A
  8
0
 62
     0
 10
7.6250642989196979
 20
37.388619926558029
 30
0.0
 11
7.6250642989196979
 21
37.388619926558029
 31
0.0
  0
LINE
  5
1950B
  8
0
 62
     0
 10
3.769078608663186
 20
39.845153735919709
 30
0.0
 11
3.769078608663186
 21
39.845153735919709
 31
0.0
  0
LINE
  5
1950C
  8
0
 62
     0
 10
2.697971472480821
 20
40.527524238520179
 30
0.0
 11
2.697971472480821
 21
40.527524238520179
 31
0.0
  0
LINE
  5
1950D
  8
0
 62
     0
 10
5.5736916348382826
 20
43.749037447527833
 30
0.0
 11
5.5736916348382826
 21
43.749037447527833
 31
0.0
  0
LINE
  5
1950E
  8
0
 62
     0
 10
8.5586983347236547
 20
-60.733363906378372
 30
0.0
 11
8.5586983347236547
 21
-60.733363906378372
 31
0.0
  0
LINE
  5
1950F
  8
0
 62
     0
 10
6.493716977454282
 20
-61.00522385953429
 30
0.0
 11
6.493716977454282
 21
-61.00522385953429
 31
0.0
  0
LINE
  5
19510
  8
0
 62
     0
 10
5.1716252548123061
 20
-61.179280536859729
 30
0.0
 11
5.1716252548123061
 21
-61.179280536859729
 31
0.0
  0
LINE
  5
19511
  8
0
 62
     0
 10
6.2168282575837468
 20
-54.465234574863508
 30
0.0
 11
6.2168282575837468
 21
-54.465234574863508
 31
0.0
  0
LINE
  5
19512
  8
0
 62
     0
 10
4.151846900314375
 20
-54.737094528019441
 30
0.0
 11
4.151846900314375
 21
-54.737094528019441
 31
0.0
  0
LINE
  5
19513
  8
0
 62
     0
 10
2.829755177672399
 20
-54.911151205344872
 30
0.0
 11
2.829755177672399
 21
-54.911151205344872
 31
0.0
  0
LINE
  5
19514
  8
0
 62
     0
 10
8.6470797316944097
 20
-47.568843522335911
 30
0.0
 11
8.6470797316944097
 21
-47.568843522335911
 31
0.0
  0
LINE
  5
19515
  8
0
 62
     0
 10
7.324988009052432
 20
-47.742900199661349
 30
0.0
 11
7.324988009052432
 21
-47.742900199661349
 31
0.0
  0
LINE
  5
19516
  8
0
 62
     0
 10
3.8749581804438469
 20
-48.197105243348688
 30
0.0
 11
3.8749581804438469
 21
-48.197105243348688
 31
0.0
  0
LINE
  5
19517
  8
0
 62
     0
 10
1.8099768231744751
 20
-48.468965196504612
 30
0.0
 11
1.8099768231744751
 21
-48.468965196504612
 31
0.0
  0
LINE
  5
19518
  8
0
 62
     0
 10
0.4878851005324989
 20
-48.643021873830051
 30
0.0
 11
0.4878851005324989
 21
-48.643021873830051
 31
0.0
  0
LINE
  5
19519
  8
0
 62
     0
 10
8.3701910118238132
 20
-41.028854237665151
 30
0.0
 11
8.3701910118238132
 21
-41.028854237665151
 31
0.0
  0
LINE
  5
1951A
  8
0
 62
     0
 10
6.3052096545544423
 20
-41.300714190821083
 30
0.0
 11
6.3052096545544423
 21
-41.300714190821083
 31
0.0
  0
LINE
  5
1951B
  8
0
 62
     0
 10
4.9831179319124663
 20
-41.474770868146521
 30
0.0
 11
4.9831179319124663
 21
-41.474770868146521
 31
0.0
  0
LINE
  5
1951C
  8
0
 62
     0
 10
1.5330881033038799
 20
-41.928975911833859
 30
0.0
 11
1.5330881033038799
 21
-41.928975911833859
 31
0.0
  0
LINE
  5
1951D
  8
0
 62
     0
 10
6.0283209346837987
 20
-34.76072490615033
 30
0.0
 11
6.0283209346837987
 21
-34.76072490615033
 31
0.0
  0
LINE
  5
1951E
  8
0
 62
     0
 10
3.9633395774144269
 20
-35.032584859306262
 30
0.0
 11
3.9633395774144269
 21
-35.032584859306262
 31
0.0
  0
LINE
  5
1951F
  8
0
 62
     0
 10
2.6412478547724509
 20
-35.206641536631693
 30
0.0
 11
2.6412478547724509
 21
-35.206641536631693
 31
0.0
  0
LINE
  5
19520
  8
0
 62
     0
 10
8.4585724087945735
 20
-27.8643338536227
 30
0.0
 11
8.4585724087945735
 21
-27.8643338536227
 31
0.0
  0
LINE
  5
19521
  8
0
 62
     0
 10
7.1364806861525958
 20
-28.038390530948138
 30
0.0
 11
7.1364806861525958
 21
-28.038390530948138
 31
0.0
  0
LINE
  5
19522
  8
0
 62
     0
 10
3.6864508575440111
 20
-28.49259557463547
 30
0.0
 11
3.6864508575440111
 21
-28.49259557463547
 31
0.0
  0
LINE
  5
19523
  8
0
 62
     0
 10
1.621469500274638
 20
-28.764455527791402
 30
0.0
 11
1.621469500274638
 21
-28.764455527791402
 31
0.0
  0
LINE
  5
19524
  8
0
 62
     0
 10
0.2993777776326627
 20
-28.93851220511683
 30
0.0
 11
0.2993777776326627
 21
-28.93851220511683
 31
0.0
  0
LINE
  5
19525
  8
0
 62
     0
 10
8.1816836889240907
 20
-21.324344568951911
 30
0.0
 11
8.1816836889240907
 21
-21.324344568951911
 31
0.0
  0
LINE
  5
19526
  8
0
 62
     0
 10
6.116702331654718
 20
-21.596204522107829
 30
0.0
 11
6.116702331654718
 21
-21.596204522107829
 31
0.0
  0
LINE
  5
19527
  8
0
 62
     0
 10
4.7946106090127421
 20
-21.770261199433271
 30
0.0
 11
4.7946106090127421
 21
-21.770261199433271
 31
0.0
  0
LINE
  5
19528
  8
0
 62
     0
 10
1.3445807804041561
 20
-22.224466243120609
 30
0.0
 11
1.3445807804041561
 21
-22.224466243120609
 31
0.0
  0
LINE
  5
19529
  8
0
 62
     0
 10
5.8398136117840771
 20
-15.05621523743708
 30
0.0
 11
5.8398136117840771
 21
-15.05621523743708
 31
0.0
  0
LINE
  5
1952A
  8
0
 62
     0
 10
3.7748322545147039
 20
-15.328075190592999
 30
0.0
 11
3.7748322545147039
 21
-15.328075190592999
 31
0.0
  0
LINE
  5
1952B
  8
0
 62
     0
 10
2.452740531872728
 20
-15.50213186791844
 30
0.0
 11
2.452740531872728
 21
-15.50213186791844
 31
0.0
  0
LINE
  5
1952C
  8
0
 62
     0
 10
7.9931763660241417
 20
-1.61983490023871
 30
0.0
 11
7.9931763660241417
 21
-1.61983490023871
 31
0.0
  0
LINE
  5
1952D
  8
0
 62
     0
 10
5.9281950087547699
 20
-1.8916948533946341
 30
0.0
 11
5.9281950087547699
 21
-1.8916948533946341
 31
0.0
  0
LINE
  5
1952E
  8
0
 62
     0
 10
4.606103286112794
 20
-2.065751530720072
 30
0.0
 11
4.606103286112794
 21
-2.065751530720072
 31
0.0
  0
LINE
  5
1952F
  8
0
 62
     0
 10
1.1560734575042091
 20
-2.5199565744074079
 30
0.0
 11
1.1560734575042091
 21
-2.5199565744074079
 31
0.0
  0
LINE
  5
19530
  8
0
 62
     0
 10
5.6513062888843519
 20
4.648294431276164
 30
0.0
 11
5.6513062888843519
 21
4.648294431276164
 31
0.0
  0
LINE
  5
19531
  8
0
 62
     0
 10
3.586324931614981
 20
4.3764344781202409
 30
0.0
 11
3.586324931614981
 21
4.3764344781202409
 31
0.0
  0
LINE
  5
19532
  8
0
 62
     0
 10
2.2642332089730042
 20
4.2023778007948032
 30
0.0
 11
2.2642332089730042
 21
4.2023778007948032
 31
0.0
  0
LINE
  5
19533
  8
0
 62
     0
 10
3.3094362117444769
 20
10.916423762791
 30
0.0
 11
3.3094362117444769
 21
10.916423762791
 31
0.0
  0
LINE
  5
19534
  8
0
 62
     0
 10
1.2444548544750369
 20
10.644563809635081
 30
0.0
 11
1.2444548544750369
 21
10.644563809635081
 31
0.0
  0
LINE
  5
19535
  8
0
 62
     0
 10
8.081557762995029
 20
11.54468548380378
 30
0.0
 11
8.081557762995029
 21
11.54468548380378
 31
0.0
  0
LINE
  5
19536
  8
0
 62
     0
 10
6.7594660403530522
 20
11.37062880647834
 30
0.0
 11
6.7594660403530522
 21
11.37062880647834
 31
0.0
  0
LINE
  5
19537
  8
0
 62
     0
 10
7.8046690431244183
 20
18.084674768474539
 30
0.0
 11
7.8046690431244183
 21
18.084674768474539
 31
0.0
  0
LINE
  5
19538
  8
0
 62
     0
 10
5.7396876858550456
 20
17.812814815318621
 30
0.0
 11
5.7396876858550456
 21
17.812814815318621
 31
0.0
  0
LINE
  5
19539
  8
0
 62
     0
 10
4.4175959632130697
 20
17.638758137993179
 30
0.0
 11
4.4175959632130697
 21
17.638758137993179
 31
0.0
  0
LINE
  5
1953A
  8
0
 62
     0
 10
0.9675661346044847
 20
17.184553094305841
 30
0.0
 11
0.9675661346044847
 21
17.184553094305841
 31
0.0
  0
LINE
  5
1953B
  8
0
 62
     0
 10
8.9128287945932172
 20
24.807009143676751
 30
0.0
 11
8.9128287945932172
 21
24.807009143676751
 31
0.0
  0
LINE
  5
1953C
  8
0
 62
     0
 10
5.4627989659846303
 20
24.35280409998941
 30
0.0
 11
5.4627989659846303
 21
24.35280409998941
 31
0.0
  0
LINE
  5
1953D
  8
0
 62
     0
 10
3.3978176087152572
 20
24.080944146833492
 30
0.0
 11
3.3978176087152572
 21
24.080944146833492
 31
0.0
  0
LINE
  5
1953E
  8
0
 62
     0
 10
2.0757258860732808
 20
23.90688746950805
 30
0.0
 11
2.0757258860732808
 21
23.90688746950805
 31
0.0
  0
LINE
  5
1953F
  8
0
 62
     0
 10
7.8930504400952897
 20
31.249195152517011
 30
0.0
 11
7.8930504400952897
 21
31.249195152517011
 31
0.0
  0
LINE
  5
19540
  8
0
 62
     0
 10
6.5709587174533137
 20
31.075138475191579
 30
0.0
 11
6.5709587174533137
 21
31.075138475191579
 31
0.0
  0
LINE
  5
19541
  8
0
 62
     0
 10
3.1209288888447282
 20
30.620933431504241
 30
0.0
 11
3.1209288888447282
 21
30.620933431504241
 31
0.0
  0
LINE
  5
19542
  8
0
 62
     0
 10
1.0559475315753559
 20
30.34907347834832
 30
0.0
 11
1.0559475315753559
 21
30.34907347834832
 31
0.0
  0
LINE
  5
19543
  8
0
 62
     0
 10
7.6161617202245822
 20
37.789184437187778
 30
0.0
 11
7.6161617202245822
 21
37.789184437187778
 31
0.0
  0
LINE
  5
19544
  8
0
 62
     0
 10
5.5511803629552086
 20
37.517324484031853
 30
0.0
 11
5.5511803629552086
 21
37.517324484031853
 31
0.0
  0
LINE
  5
19545
  8
0
 62
     0
 10
4.2290886403132326
 20
37.343267806706422
 30
0.0
 11
4.2290886403132326
 21
37.343267806706422
 31
0.0
  0
LINE
  5
19546
  8
0
 62
     0
 10
0.7790588117046476
 20
36.889062763019083
 30
0.0
 11
0.7790588117046476
 21
36.889062763019083
 31
0.0
  0
LINE
  5
19547
  8
0
 62
     0
 10
8.7243214716932656
 20
44.511518812389951
 30
0.0
 11
8.7243214716932656
 21
44.511518812389951
 31
0.0
  0
LINE
  5
19548
  8
0
 62
     0
 10
5.2742916430846796
 20
44.05731376870262
 30
0.0
 11
5.2742916430846796
 21
44.05731376870262
 31
0.0
  0
LINE
  5
19549
  8
0
 62
     0
 10
3.2093102858153082
 20
43.785453815546688
 30
0.0
 11
3.2093102858153082
 21
43.785453815546688
 31
0.0
  0
LINE
  5
1954A
  8
0
 62
     0
 10
1.887218563173332
 20
43.61139713822125
 30
0.0
 11
1.887218563173332
 21
43.61139713822125
 31
0.0
  0
LINE
  5
1954B
  8
0
 62
     0
 10
8.2992554627512423
 20
-60.099467008910388
 30
0.0
 11
8.2992554627512423
 21
-60.099467008910388
 31
0.0
  0
LINE
  5
1954C
  8
0
 62
     0
 10
8.1392523331528608
 20
-55.205334635616929
 30
0.0
 11
8.1392523331528608
 21
-55.205334635616929
 31
0.0
  0
LINE
  5
1954D
  8
0
 62
     0
 10
5.076273756956458
 20
-57.555640760733802
 30
0.0
 11
5.076273756956458
 21
-57.555640760733802
 31
0.0
  0
LINE
  5
1954E
  8
0
 62
     0
 10
1.8017078449043851
 20
-60.06830355896728
 30
0.0
 11
1.8017078449043851
 21
-60.06830355896728
 31
0.0
  0
LINE
  5
1954F
  8
0
 62
     0
 10
7.9792492035542066
 20
-50.311202262323569
 30
0.0
 11
7.9792492035542066
 21
-50.311202262323569
 31
0.0
  0
LINE
  5
19550
  8
0
 62
     0
 10
4.9162706273578047
 20
-52.661508387440442
 30
0.0
 11
4.9162706273578047
 21
-52.661508387440442
 31
0.0
  0
LINE
  5
19551
  8
0
 62
     0
 10
1.6417047153057309
 20
-55.174171185673941
 30
0.0
 11
1.6417047153057309
 21
-55.174171185673941
 31
0.0
  0
LINE
  5
19552
  8
0
 62
     0
 10
7.8192460739558518
 20
-45.41706988903023
 30
0.0
 11
7.8192460739558518
 21
-45.41706988903023
 31
0.0
  0
LINE
  5
19553
  8
0
 62
     0
 10
4.7562674977594499
 20
-47.767376014147089
 30
0.0
 11
4.7562674977594499
 21
-47.767376014147089
 31
0.0
  0
LINE
  5
19554
  8
0
 62
     0
 10
1.4817015857073761
 20
-50.280038812380589
 30
0.0
 11
1.4817015857073761
 21
-50.280038812380589
 31
0.0
  0
LINE
  5
19555
  8
0
 62
     0
 10
7.6592429443577439
 20
-40.522937515736587
 30
0.0
 11
7.6592429443577439
 21
-40.522937515736587
 31
0.0
  0
LINE
  5
19556
  8
0
 62
     0
 10
4.596264368161342
 20
-42.87324364085346
 30
0.0
 11
4.596264368161342
 21
-42.87324364085346
 31
0.0
  0
LINE
  5
19557
  8
0
 62
     0
 10
1.3216984561092691
 20
-45.385906439086959
 30
0.0
 11
1.3216984561092691
 21
-45.385906439086959
 31
0.0
  0
LINE
  5
19558
  8
0
 62
     0
 10
7.4992398147591617
 20
-35.628805142443262
 30
0.0
 11
7.4992398147591617
 21
-35.628805142443262
 31
0.0
  0
LINE
  5
19559
  8
0
 62
     0
 10
4.4362612385627598
 20
-37.979111267560121
 30
0.0
 11
4.4362612385627598
 21
-37.979111267560121
 31
0.0
  0
LINE
  5
1955A
  8
0
 62
     0
 10
1.1616953265106871
 20
-40.491774065793606
 30
0.0
 11
1.1616953265106871
 21
-40.491774065793606
 31
0.0
  0
LINE
  5
1955B
  8
0
 62
     0
 10
7.3392366851608069
 20
-30.734672769149899
 30
0.0
 11
7.3392366851608069
 21
-30.734672769149899
 31
0.0
  0
LINE
  5
1955C
  8
0
 62
     0
 10
4.2762581089644049
 20
-33.084978894266769
 30
0.0
 11
4.2762581089644049
 21
-33.084978894266769
 31
0.0
  0
LINE
  5
1955D
  8
0
 62
     0
 10
1.001692196912332
 20
-35.597641692500261
 30
0.0
 11
1.001692196912332
 21
-35.597641692500261
 31
0.0
  0
LINE
  5
1955E
  8
0
 62
     0
 10
7.1792335555623392
 20
-25.84054039585649
 30
0.0
 11
7.1792335555623392
 21
-25.84054039585649
 31
0.0
  0
LINE
  5
1955F
  8
0
 62
     0
 10
4.1162549793659373
 20
-28.190846520973359
 30
0.0
 11
4.1162549793659373
 21
-28.190846520973359
 31
0.0
  0
LINE
  5
19560
  8
0
 62
     0
 10
0.8416890673138636
 20
-30.703509319206859
 30
0.0
 11
0.8416890673138636
 21
-30.703509319206859
 31
0.0
  0
LINE
  5
19561
  8
0
 62
     0
 10
7.0192304259640501
 20
-20.946408022562949
 30
0.0
 11
7.0192304259640501
 21
-20.946408022562949
 31
0.0
  0
LINE
  5
19562
  8
0
 62
     0
 10
3.9562518497676491
 20
-23.296714147679818
 30
0.0
 11
3.9562518497676491
 21
-23.296714147679818
 31
0.0
  0
LINE
  5
19563
  8
0
 62
     0
 10
0.6816859377155757
 20
-25.809376945913311
 30
0.0
 11
0.6816859377155757
 21
-25.809376945913311
 31
0.0
  0
LINE
  5
19564
  8
0
 62
     0
 10
6.8592272963655807
 20
-16.052275649269589
 30
0.0
 11
6.8592272963655807
 21
-16.052275649269589
 31
0.0
  0
LINE
  5
19565
  8
0
 62
     0
 10
3.7962487201691801
 20
-18.402581774386459
 30
0.0
 11
3.7962487201691801
 21
-18.402581774386459
 31
0.0
  0
LINE
  5
19566
  8
0
 62
     0
 10
0.5216828081171072
 20
-20.915244572619962
 30
0.0
 11
0.5216828081171072
 21
-20.915244572619962
 31
0.0
  0
LINE
  5
19567
  8
0
 62
     0
 10
6.6992241667671131
 20
-11.15814327597619
 30
0.0
 11
6.6992241667671131
 21
-11.15814327597619
 31
0.0
  0
LINE
  5
19568
  8
0
 62
     0
 10
3.6362455905707121
 20
-13.50844940109306
 30
0.0
 11
3.6362455905707121
 21
-13.50844940109306
 31
0.0
  0
LINE
  5
19569
  8
0
 62
     0
 10
0.3616796785186386
 20
-16.021112199326549
 30
0.0
 11
0.3616796785186386
 21
-16.021112199326549
 31
0.0
  0
LINE
  5
1956A
  8
0
 62
     0
 10
6.5392210371686241
 20
-6.2640109026828332
 30
0.0
 11
6.5392210371686241
 21
-6.2640109026828332
 31
0.0
  0
LINE
  5
1956B
  8
0
 62
     0
 10
0.2016765489201704
 20
-11.126979826033139
 30
0.0
 11
0.2016765489201704
 21
-11.126979826033139
 31
0.0
  0
LINE
  5
1956C
  8
0
 62
     0
 10
6.37921790757047
 20
-1.3698785293892941
 30
0.0
 11
6.37921790757047
 21
-1.3698785293892941
 31
0.0
  0
LINE
  5
1956D
  8
0
 62
     0
 10
3.316239331374069
 20
-3.7201846545061632
 30
0.0
 11
3.316239331374069
 21
-3.7201846545061632
 31
0.0
  0
LINE
  5
1956E
  8
0
 62
     0
 10
0.041673419321996
 20
-6.2328474527396569
 30
0.0
 11
0.041673419321996
 21
-6.2328474527396569
 31
0.0
  0
LINE
  5
1956F
  8
0
 62
     0
 10
6.2192147779718221
 20
3.5242538439039741
 30
0.0
 11
6.2192147779718221
 21
3.5242538439039741
 31
0.0
  0
LINE
  5
19570
  8
0
 62
     0
 10
3.1562362017754202
 20
1.173947718787105
 30
0.0
 11
3.1562362017754202
 21
1.173947718787105
 31
0.0
  0
LINE
  5
19571
  8
0
 62
     0
 10
2.9962330721770178
 20
6.0680800920805931
 30
0.0
 11
2.9962330721770178
 21
6.0680800920805931
 31
0.0
  0
LINE
  5
19572
  8
0
 62
     0
 10
5.8992085187751311
 20
13.31251859049098
 30
0.0
 11
5.8992085187751311
 21
13.31251859049098
 31
0.0
  0
LINE
  5
19573
  8
0
 62
     0
 10
2.8362299425787301
 20
10.96221246537411
 30
0.0
 11
2.8362299425787301
 21
10.96221246537411
 31
0.0
  0
LINE
  5
19574
  8
0
 62
     0
 10
5.7392053891766626
 20
18.206650963784352
 30
0.0
 11
5.7392053891766626
 21
18.206650963784352
 31
0.0
  0
LINE
  5
19575
  8
0
 62
     0
 10
2.6762268129802611
 20
15.856344838667489
 30
0.0
 11
2.6762268129802611
 21
15.856344838667489
 31
0.0
  0
LINE
  5
19576
  8
0
 62
     0
 10
5.5792022595783752
 20
23.10078333707779
 30
0.0
 11
5.5792022595783752
 21
23.10078333707779
 31
0.0
  0
LINE
  5
19577
  8
0
 62
     0
 10
2.5162236833819742
 20
20.75047721196092
 30
0.0
 11
2.5162236833819742
 21
20.75047721196092
 31
0.0
  0
LINE
  5
19578
  8
0
 62
     0
 10
8.8448988533574582
 20
30.623547560830851
 30
0.0
 11
8.8448988533574582
 21
30.623547560830851
 31
0.0
  0
LINE
  5
19579
  8
0
 62
     0
 10
5.4191991299799058
 20
27.994915710371188
 30
0.0
 11
5.4191991299799058
 21
27.994915710371188
 31
0.0
  0
LINE
  5
1957A
  8
0
 62
     0
 10
2.3562205537835048
 20
25.644609585254329
 30
0.0
 11
2.3562205537835048
 21
25.644609585254329
 31
0.0
  0
LINE
  5
1957B
  8
0
 62
     0
 10
8.6848957237588778
 20
35.517679934124253
 30
0.0
 11
8.6848957237588778
 21
35.517679934124253
 31
0.0
  0
LINE
  5
1957C
  8
0
 62
     0
 10
5.2591960003813236
 20
32.889048083664598
 30
0.0
 11
5.2591960003813236
 21
32.889048083664598
 31
0.0
  0
LINE
  5
1957D
  8
0
 62
     0
 10
2.1962174241849231
 20
30.538741958547732
 30
0.0
 11
2.1962174241849231
 21
30.538741958547732
 31
0.0
  0
LINE
  5
1957E
  8
0
 62
     0
 10
8.5248925941605211
 20
40.411812307417598
 30
0.0
 11
8.5248925941605211
 21
40.411812307417598
 31
0.0
  0
LINE
  5
1957F
  8
0
 62
     0
 10
5.0991928707829688
 20
37.78318045695795
 30
0.0
 11
5.0991928707829688
 21
37.78318045695795
 31
0.0
  0
LINE
  5
19580
  8
0
 62
     0
 10
2.0362142945865682
 20
35.432874331841077
 30
0.0
 11
2.0362142945865682
 21
35.432874331841077
 31
0.0
  0
LINE
  5
19581
  8
0
 62
     0
 10
4.9391897411846823
 20
42.677312830251488
 30
0.0
 11
4.9391897411846823
 21
42.677312830251488
 31
0.0
  0
LINE
  5
19582
  8
0
 62
     0
 10
1.87621116498828
 20
40.327006705134622
 30
0.0
 11
1.87621116498828
 21
40.327006705134622
 31
0.0
  0
ENDBLK
  5
19584
  8
0
  0
BLOCK
  8
0
  2
*U93
 70
     1
 10
0.0
 20
0.0
 30
0.0
  3
*U93
  1

  0
TEXT
  5
19586
  8
1DIM
 62
   201
 10
-31.153865476029861
 20
54.018296023885341
 30
0.0
 40
3.5
  1
裏板9mm以上
  0
ENDBLK
  5
19588
  8
0
  0
BLOCK
  8
0
  2
*U94
 70
     1
 10
0.0
 20
0.0
 30
0.0
  3
*U94
  1

  0
SOLID
  5
1958A
  8
1DIM
 10
12.044443127533439
 20
38.726957896894412
 30
0.0
 11
13.168864624287609
 21
37.039715350978668
 31
0.0
 12
11.55800886922316
 22
38.271078354924647
 32
0.0
 13
11.55800886922316
 23
38.271078354924647
 33
0.0
  0
POLYLINE
  5
1958B
  8
1DIM
 66
     1
 10
0.0
 20
0.0
 30
0.0
  0
VERTEX
  5
1958C
  8
1DIM
 10
11.8012259983783
 20
38.499018125909529
 30
0.0
  0
VERTEX
  5
1958D
  8
1DIM
 10
-2.0871988093631928
 20
53.318296023885338
 30
0.0
  0
VERTEX
  5
1958E
  8
1DIM
 10
-33.987198809363193
 20
53.318296023885338
 30
0.0
  0
SEQEND
  5
1958F
  8
1DIM
  0
ENDBLK
  5
19591
  8
0
  0
BLOCK
  8
0
  2
*U95
 70
     1
 10
0.0
 20
0.0
 30
0.0
  3
*U95
  1

  0
LINE
  5
19593
  8
0
 10
-0.3500000000000227
 20
2.0
 30
0.0
 11
0.0
 21
1.649999999999977
 31
0.0
  0
LINE
  5
19594
  8
0
 10
-10.20000000000004
 20
2.0
 30
0.0
 11
-0.3500000000000227
 21
2.0
 31
0.0
  0
LINE
  5
19595
  8
0
 10
0.0
 20
1.649999999999977
 30
0.0
 11
0.0
 21
-1.6499999999998629
 31
0.0
  0
LINE
  5
19596
  8
0
 10
-12.0
 20
0.2000000000000028
 30
0.0
 11
-10.20000000000004
 21
2.0
 31
0.0
  0
LINE
  5
19597
  8
0
 10
0.0
 20
-1.6499999999998629
 30
0.0
 11
-0.3500000000000227
 21
-2.0
 31
0.0
  0
LINE
  5
19598
  8
0
 10
-12.0
 20
0.2000000000000028
 30
0.0
 11
-12.0
 21
-0.200000000000017
 31
0.0
  0
LINE
  5
19599
  8
0
 10
-10.19999999999999
 20
-1.9999999999999849
 30
0.0
 11
-0.3500000000000227
 21
-2.0
 31
0.0
  0
LINE
  5
1959A
  8
0
 10
-12.0
 20
-0.200000000000017
 30
0.0
 11
-10.19999999999999
 21
-1.9999999999999849
 31
0.0
  0
ENDBLK
  5
1959C
  8
0
  0
BLOCK
  8
0
  2
*U96
 70
     1
 10
0.0
 20
0.0
 30
0.0
  3
*U96
  1

  0
LINE
  5
1959E
  8
0
 10
-7.9999999999999991
 20
2.5
 30
0.0
 11
-7.9999978000002088
 21
2.4999999999999432
 31
0.0
  0
LINE
  5
1959F
  8
0
 10
-7.9999999999999991
 20
-2.4999999999999432
 30
0.0
 11
-7.9999999999999991
 21
2.5
 31
0.0
  0
LINE
  5
195A0
  8
0
 10
-7.9999978000002088
 20
2.4999999999999432
 30
0.0
 11
-7.4999979000001629
 21
3.0
 31
0.0
  0
LINE
  5
195A1
  8
0
 10
-8.0000021000010921
 20
-2.4999999999999432
 30
0.0
 11
-7.9999999999999991
 21
-2.4999999999999432
 31
0.0
  0
LINE
  5
195A2
  8
0
 10
-7.4999979000001629
 20
3.0
 30
0.0
 11
-1.999998199999983
 21
3.0
 31
0.0
  0
LINE
  5
195A3
  8
0
 10
-7.5000018999986429
 20
-3.000000000000056
 30
0.0
 11
-8.0000021000010921
 21
-2.4999999999999432
 31
0.0
  0
LINE
  5
195A4
  8
0
 10
-1.999998199999983
 20
3.0
 30
0.0
 11
-1.49999999999998
 21
2.0
 31
0.0
  0
LINE
  5
195A5
  8
0
 10
-1.999998199999959
 20
-2.9999999999999432
 30
0.0
 11
-7.5000018999986429
 21
-3.000000000000056
 31
0.0
  0
LINE
  5
195A6
  8
0
 10
-1.49999999999998
 20
2.0
 30
0.0
 11
-0.5000000000000004
 21
2.0
 31
0.0
  0
LINE
  5
195A7
  8
0
 10
-1.50000000000001
 20
-2.0
 30
0.0
 11
-1.999998199999959
 21
-2.9999999999999432
 31
0.0
  0
ARC
  5
195A8
  8
0
 10
-0.5000000000000006
 20
1.5
 30
0.0
 40
0.5000000000000004
 50
0.0
 51
90.0
  0
LINE
  5
195A9
  8
0
 10
-0.5
 20
-2.0
 30
0.0
 11
-1.50000000000001
 21
-2.0
 31
0.0
  0
LINE
  5
195AA
  8
0
 10
-0.0000000000000001
 20
1.5
 30
0.0
 11
-0.0000000000000001
 21
-1.5
 31
0.0
  0
ARC
  5
195AB
  8
0
 10
-0.5
 20
-1.5
 30
0.0
 40
0.5
 50
270.0
 51
0.0
  0
ENDBLK
  5
195AD
  8
0
  0
BLOCK
  8
0
  2
*U97
 70
     1
 10
0.0
 20
0.0
 30
0.0
  3
*U97
  1

  0
LINE
  5
195AF
  8
1TEXT
 10
-1.5
 20
2.000000000000056
 30
0.0
 11
-1.7499990999999879
 21
2.5
 31
0.0
  0
LINE
  5
195B0
  8
1TEXT
 10
-1.7499990999999879
 20
2.5
 30
0.0
 11
-7.999997800000223
 21
2.5
 31
0.0
  0
LINE
  5
195B1
  8
1TEXT
 10
-1.5
 20
-2.000000000000056
 30
0.0
 11
-1.5
 21
2.000000000000056
 31
0.0
  0
LINE
  5
195B2
  8
1TEXT
 10
-7.999997800000223
 20
2.5
 30
0.0
 11
-7.9999999999999991
 21
2.4999977999997318
 31
0.0
  0
LINE
  5
195B3
  8
1TEXT
 10
-1.749999099999981
 20
-2.5
 30
0.0
 11
-1.5
 21
-2.000000000000056
 31
0.0
  0
LINE
  5
195B4
  8
1TEXT
 10
-7.9999999999999991
 20
2.4999977999997318
 30
0.0
 11
-7.9999999999999991
 21
-2.5
 31
0.0
  0
LINE
  5
195B5
  8
1TEXT
 10
-7.9999999999999991
 20
-2.5
 30
0.0
 11
-1.749999099999981
 21
-2.5
 31
0.0
  0
ENDBLK
  5
195B7
  8
0
  0
BLOCK
  8
0
  2
*U98
 70
     1
 10
0.0
 20
0.0
 30
0.0
  3
*U98
  1

  0
LINE
  5
195B9
  8
1TEXT
 10
-1.9999981999999989
 20
3.000000000000056
 30
0.0
 11
-7.4999979000001362
 21
3.0
 31
0.0
  0
LINE
  5
195BA
  8
1TEXT
 10
-7.4999979000001362
 20
3.0
 30
0.0
 11
-7.999997800000143
 21
2.5
 31
0.0
  0
LINE
  5
195BB
  8
1TEXT
 10
-1.749999099999983
 20
2.5
 30
0.0
 11
-1.9999981999999989
 21
3.000000000000056
 31
0.0
  0
LINE
  5
195BC
  8
1TEXT
 10
-7.999997800000143
 20
2.5
 30
0.0
 11
-1.749999099999983
 21
2.5
 31
0.0
  0
ENDBLK
  5
195BE
  8
0
  0
BLOCK
  8
0
  2
*U99
 70
     1
 10
0.0
 20
0.0
 30
0.0
  3
*U99
  1

  0
ARC
  5
195C0
  8
1TEXT
 10
-0.5000000000000002
 20
1.5
 30
0.0
 40
0.5000000000000002
 50
0.0
 51
90.000000000000028
  0
LINE
  5
195C1
  8
1TEXT
 10
-0.5000000000000004
 20
2.0
 30
0.0
 11
-1.5
 21
2.0
 31
0.0
  0
LINE
  5
195C2
  8
1TEXT
 10
0.0
 20
-1.5
 30
0.0
 11
0.0
 21
1.5
 31
0.0
  0
LINE
  5
195C3
  8
1TEXT
 10
-1.5
 20
2.0
 30
0.0
 11
-1.5
 21
-2.0
 31
0.0
  0
ARC
  5
195C4
  8
1TEXT
 10
-0.5
 20
-1.5
 30
0.0
 40
0.5
 50
270.0
 51
0.0
  0
LINE
  5
195C5
  8
1TEXT
 10
-1.5
 20
-2.0
 30
0.0
 11
-0.5
 21
-2.0
 31
0.0
  0
ENDBLK
  5
195C7
  8
0
  0
BLOCK
  8
0
  2
*U100
 70
     1
 10
0.0
 20
0.0
 30
0.0
  3
*U100
  1

  0
LINE
  5
195C9
  8
0
 10
-14.649999999999981
 20
2.0
 30
0.0
 11
-0.0000000000000284
 21
2.0
 31
0.0
  0
LINE
  5
195CA
  8
0
 10
-14.649999999999981
 20
2.0
 30
0.0
 11
-15.0
 21
1.649999999999977
 31
0.0
  0
LINE
  5
195CB
  8
0
 10
0.0
 20
3.4999999999999432
 30
0.0
 11
-0.0000000000000284
 21
2.0
 31
0.0
  0
LINE
  5
195CC
  8
0
 10
-15.0
 20
1.649999999999977
 30
0.0
 11
-15.0
 21
-1.6499999999998629
 31
0.0
  0
LINE
  5
195CD
  8
0
 10
0.0
 20
3.4999999999999432
 30
0.0
 11
0.5999999999999375
 21
3.4999999999999432
 31
0.0
  0
LINE
  5
195CE
  8
0
 10
-15.0
 20
-1.6499999999998629
 30
0.0
 11
-14.649999999999981
 21
-2.0
 31
0.0
  0
ARC
  5
195CF
  8
0
 10
0.5999999999999944
 20
1.4999999999999429
 30
0.0
 40
2.0
 50
0.0
 51
90.000000000001606
  0
LINE
  5
195D0
  8
0
 10
-14.649999999999981
 20
-2.0
 30
0.0
 11
0.0000000000000568
 21
-2.0
 31
0.0
  0
LINE
  5
195D1
  8
0
 10
2.5999999999999939
 20
1.4999999999999429
 30
0.0
 11
2.5999999999999939
 21
-1.5
 31
0.0
  0
LINE
  5
195D2
  8
0
 10
0.0000000000000568
 20
-2.0
 30
0.0
 11
0.0
 21
-3.5
 31
0.0
  0
ARC
  5
195D3
  8
0
 10
0.5999999999999944
 20
-1.5
 30
0.0
 40
2.0
 50
270.0
 51
0.0
  0
LINE
  5
195D4
  8
0
 10
0.0
 20
-3.5
 30
0.0
 11
0.5999999999999944
 21
-3.5
 31
0.0
  0
ENDBLK
  5
195D6
  8
0
  0
BLOCK
  8
0
  2
*U101
 70
     1
 10
0.0
 20
0.0
 30
0.0
  3
*U101
  1

  0
LINE
  5
195D8
  8
0
 10
-7.6499860385006002
 20
2.0002042217355429
 30
0.0
 11
-2.2999767321809079
 21
1.9999956181865171
 31
0.0
  0
LINE
  5
195D9
  8
0
 10
-7.9999884816250519
 20
1.650206891258335
 30
0.0
 11
-7.6499860385006002
 21
2.0002042217355429
 31
0.0
  0
LINE
  5
195DA
  8
0
 10
-0.2999720786291249
 20
3.9999770038707529
 30
0.0
 11
-2.2999767321809079
 21
1.9999956181865171
 31
0.0
  0
LINE
  5
195DB
  8
0
 10
-7.9999884816250519
 20
1.650206891258335
 30
0.0
 11
-8.0000115168945172
 21
-1.6497931086720421
 31
0.0
  0
LINE
  5
195DC
  8
0
 10
-0.2999720786291249
 20
3.9999770038707529
 30
0.0
 11
0.0000279213587788
 21
3.999974211716903
 31
0.0
  0
LINE
  5
195DD
  8
0
 10
-8.0000115168945172
 20
-1.6497931086720421
 30
0.0
 11
-7.6500139600393311
 21
-1.999795778177258
 31
0.0
  0
LINE
  5
195DE
  8
0
 10
0.0000279213587788
 20
3.999974211716903
 30
0.0
 11
-0.0000279217187966
 21
-4.0000257881099506
 31
0.0
  0
LINE
  5
195DF
  8
0
 10
-7.6500139600393311
 20
-1.999795778177258
 30
0.0
 11
-2.3000325753451558
 21
-2.0000043814669648
 31
0.0
  0
LINE
  5
195E0
  8
0
 10
-0.3000279217065866
 20
-4.0000229959561011
 30
0.0
 11
-0.0000279217187966
 21
-4.0000257881099506
 31
0.0
  0
LINE
  5
195E1
  8
0
 10
-0.3000279217065866
 20
-4.0000229959561011
 30
0.0
 11
-2.3000325753451558
 21
-2.0000043814669648
 31
0.0
  0
ENDBLK
  5
195E3
  8
0
  0
BLOCK
  8
0
  2
*U102
 70
     1
 10
0.0
 20
0.0
 30
0.0
  3
*U102
  1

  0
LINE
  5
195E5
  8
0
 10
-10.0
 20
2.5
 30
0.0
 11
-9.5
 21
3.0
 31
0.0
  0
LINE
  5
195E6
  8
0
 10
-10.0
 20
2.5
 30
0.0
 11
-10.0
 21
-2.5
 31
0.0
  0
LINE
  5
195E7
  8
0
 10
-9.5
 20
3.0
 30
0.0
 11
-0.4999999999999432
 21
3.0
 31
0.0
  0
LINE
  5
195E8
  8
0
 10
-9.5
 20
-3.0
 30
0.0
 11
-10.0
 21
-2.5
 31
0.0
  0
LINE
  5
195E9
  8
0
 10
-0.4999999999999432
 20
3.0
 30
0.0
 11
0.0
 21
2.5
 31
0.0
  0
LINE
  5
195EA
  8
0
 10
-9.5
 20
-3.0
 30
0.0
 11
-0.5
 21
-3.0
 31
0.0
  0
LINE
  5
195EB
  8
0
 10
0.0
 20
2.5
 30
0.0
 11
0.0
 21
-2.5
 31
0.0
  0
LINE
  5
195EC
  8
0
 10
0.0
 20
-2.5
 30
0.0
 11
-0.5
 21
-3.0
 31
0.0
  0
ENDBLK
  5
195EE
  8
0
  0
BLOCK
  8
0
  2
*U103
 70
     1
 10
0.0
 20
0.0
 30
0.0
  3
*U103
  1

  0
LINE
  5
195F0
  8
0
 10
-11.5
 20
3.0
 30
0.0
 11
-0.4999999999999432
 21
3.0
 31
0.0
  0
LINE
  5
195F1
  8
0
 10
-12.00000000000005
 20
2.4999999999999432
 30
0.0
 11
-11.5
 21
3.0
 31
0.0
  0
LINE
  5
195F2
  8
0
 10
-0.4999999999999432
 20
3.0
 30
0.0
 11
0.0
 21
2.5
 31
0.0
  0
LINE
  5
195F3
  8
0
 10
-12.00000000000005
 20
2.4999999999999432
 30
0.0
 11
-12.0
 21
-2.5
 31
0.0
  0
LINE
  5
195F4
  8
0
 10
0.0
 20
2.5
 30
0.0
 11
0.0
 21
-2.5
 31
0.0
  0
LINE
  5
195F5
  8
0
 10
-11.5
 20
-3.0
 30
0.0
 11
-12.0
 21
-2.5
 31
0.0
  0
LINE
  5
195F6
  8
0
 10
0.0
 20
-2.5
 30
0.0
 11
-0.5
 21
-3.0
 31
0.0
  0
LINE
  5
195F7
  8
0
 10
-11.5
 20
-3.0
 30
0.0
 11
-0.5
 21
-3.0
 31
0.0
  0
ENDBLK
  5
195F9
  8
0
  0
BLOCK
  8
0
  2
*U104
 70
     1
 10
0.0
 20
0.0
 30
0.0
  3
*U104
  1

  0
LINE
  5
195FB
  8
0
 10
0.0
 20
3.3700000000000041
 30
0.0
 11
0.0
 21
-3.369999999999997
 31
0.0
  0
LINE
  5
195FC
  8
0
 10
0.0
 20
3.3700000000000041
 30
0.0
 11
-0.6300000000001093
 21
4.0000000000001128
 31
0.0
  0
LINE
  5
195FD
  8
0
 10
0.0
 20
-3.369999999999997
 30
0.0
 11
-0.6300000000001093
 21
-3.9999999999998792
 31
0.0
  0
LINE
  5
195FE
  8
0
 10
-9.3700000000000045
 20
4.0
 30
0.0
 11
-0.6300000000001093
 21
4.0000000000001128
 31
0.0
  0
LINE
  5
195FF
  8
0
 10
-9.3700000000000045
 20
-3.999999999999992
 30
0.0
 11
-0.6300000000001093
 21
-3.9999999999998792
 31
0.0
  0
LINE
  5
19600
  8
0
 10
-9.9999999999998863
 20
3.3700000000001178
 30
0.0
 11
-9.3700000000000045
 21
4.0
 31
0.0
  0
LINE
  5
19601
  8
0
 10
-9.3700000000000045
 20
-3.999999999999992
 30
0.0
 11
-10.00000000000011
 21
-3.3700000000001111
 31
0.0
  0
LINE
  5
19602
  8
0
 10
-9.9999999999998863
 20
3.3700000000001178
 30
0.0
 11
-10.00000000000011
 21
-3.3700000000001111
 31
0.0
  0
ENDBLK
  5
19604
  8
0
  0
BLOCK
  8
0
  2
*U105
 70
     1
 10
0.0
 20
0.0
 30
0.0
  3
*U105
  1

  0
SOLID
  5
19606
  8
1DIM
 10
1.57713335001965
 20
115.92351629660369
 30
0.0
 11
-0.0000027511742928
 21
114.64925069264901
 31
0.0
 12
1.078607418942797
 22
116.36614067515551
 32
0.0
 13
1.078607418942797
 23
116.36614067515551
 33
0.0
  0
POLYLINE
  5
19607
  8
1DIM
 66
     1
 10
0.0
 20
0.0
 30
0.0
  0
VERTEX
  5
19608
  8
1DIM
 10
1.327870384481223
 20
116.1448284858796
 30
0.0
  0
VERTEX
  5
19609
  8
1DIM
 10
17.299997248825711
 20
134.13416617752779
 30
0.0
  0
VERTEX
  5
1960A
  8
1DIM
 10
44.266663915492373
 20
134.13416617752779
 30
0.0
  0
SEQEND
  5
1960B
  8
1DIM
  0
ENDBLK
  5
1960D
  8
0
  0
BLOCK
  8
0
  2
*U106
 70
     1
 10
0.0
 20
0.0
 30
0.0
  3
*U106
  1

  0
TEXT
  5
1960F
  8
1DIM
 62
   201
 10
19.9999972488257
 20
134.83416617752769
 30
0.0
 40
3.5
  1
材質：ガラス
  0
ENDBLK
  5
19611
  8
0
  0
BLOCK
  8
0
  2
*U107
 70
     1
 10
0.0
 20
0.0
 30
0.0
  3
*U107
  1

  0
SOLID
  5
19613
  8
1DIM
 10
17.56889106306819
 20
112.8251897285937
 30
0.0
 11
16.68350261130206
 21
114.64925069264901
 31
0.0
 12
18.112619567531201
 22
113.2109406299263
 32
0.0
 13
18.112619567531201
 23
113.2109406299263
 33
0.0
  0
POLYLINE
  5
19614
  8
1DIM
 66
     1
 10
0.0
 20
0.0
 30
0.0
  0
VERTEX
  5
19615
  8
1DIM
 10
17.840755315299699
 20
113.01806517926001
 30
0.0
  0
VERTEX
  5
19616
  8
1DIM
 10
33.983502611302058
 20
90.264335207770316
 30
0.0
  0
VERTEX
  5
19617
  8
1DIM
 10
60.950169277968733
 20
90.264335207770316
 30
0.0
  0
SEQEND
  5
19618
  8
1DIM
  0
ENDBLK
  5
1961A
  8
0
  0
BLOCK
  8
0
  2
*U108
 70
     1
 10
0.0
 20
0.0
 30
0.0
  3
*U108
  1

  0
TEXT
  5
1961C
  8
1DIM
 62
   201
 10
36.68350261130206
 20
90.964335207770304
 30
0.0
 40
3.5
  1
材質：ガラス
  0
ENDBLK
  5
1961E
  8
0
  0
BLOCK
  8
0
  2
*U109
 70
     1
 10
0.0
 20
0.0
 30
0.0
  3
*U109
  1

  0
SOLID
  5
19620
  8
1DIM
 10
111.9601472365155
 20
27.374534829312559
 30
0.0
 11
113.0387574066326
 21
25.657644846806079
 31
0.0
 12
111.4616213054386
 22
26.931910450760721
 32
0.0
 13
111.4616213054386
 23
26.931910450760721
 33
0.0
  0
POLYLINE
  5
19621
  8
1DIM
 66
     1
 10
0.0
 20
0.0
 30
0.0
  0
VERTEX
  5
19622
  8
1DIM
 10
111.7108842709771
 20
27.153222640036638
 30
0.0
  0
VERTEX
  5
19623
  8
1DIM
 10
95.738757406632615
 20
45.142560331684798
 30
0.0
  0
VERTEX
  5
19624
  8
1DIM
 10
68.772090739965947
 20
45.142560331684798
 30
0.0
  0
SEQEND
  5
19625
  8
1DIM
  0
ENDBLK
  5
19627
  8
0
  0
BLOCK
  8
0
  2
*U110
 70
     1
 10
0.0
 20
0.0
 30
0.0
  3
*U110
  1

  0
TEXT
  5
19629
  8
1DIM
 62
   201
 10
69.238757406632601
 20
45.842560331684808
 30
0.0
 40
3.5
  1
材質：ガラス
  0
ENDBLK
  5
1962B
  8
0
  0
BLOCK
  8
0
  2
*U111
 70
     1
 10
0.0
 20
0.0
 30
0.0
  3
*U111
  1

  0
SOLID
  5
1962D
  8
1DIM
 10
94.960768732969711
 20
24.185732007697279
 30
0.0
 11
96.355252044156259
 21
25.657644846806079
 31
0.0
 12
95.513523346258324
 22
23.813030006183201
 32
0.0
 13
95.513523346258324
 23
23.813030006183201
 33
0.0
  0
POLYLINE
  5
1962E
  8
1DIM
 66
     1
 10
0.0
 20
0.0
 30
0.0
  0
VERTEX
  5
1962F
  8
1DIM
 10
95.237146039614004
 20
23.99938100694024
 30
0.0
  0
VERTEX
  5
19630
  8
1DIM
 10
79.055252044156262
 20
0.0000020892000763
 30
0.0
  0
VERTEX
  5
19631
  8
1DIM
 10
50.642183862338079
 20
0.0000020892000763
 30
0.0
  0
SEQEND
  5
19632
  8
1DIM
  0
ENDBLK
  5
19634
  8
0
  0
BLOCK
  8
0
  2
*U112
 70
     1
 10
0.0
 20
0.0
 30
0.0
  3
*U112
  1

  0
TEXT
  5
19636
  8
1DIM
 62
   201
 10
50.463206589610799
 20
1.1772748164728031
 30
0.0
 40
3.5
  1
材質：ガラス
  0
ENDBLK
  5
19638
  8
0
  0
BLOCK
  8
0
  2
*U113
 70
     1
 10
0.0
 20
0.0
 30
0.0
  3
*U113
  1

  0
SOLID
  5
1963A
  8
1DIM
 10
95.671308314887867
 20
115.92351629660369
 30
0.0
 11
94.094172213693923
 21
114.64925069264901
 31
0.0
 12
95.172782383810997
 22
116.36614067515551
 32
0.0
 13
95.172782383810997
 23
116.36614067515551
 33
0.0
  0
POLYLINE
  5
1963B
  8
1DIM
 66
     1
 10
0.0
 20
0.0
 30
0.0
  0
VERTEX
  5
1963C
  8
1DIM
 10
95.422045349349446
 20
116.1448284858796
 30
0.0
  0
VERTEX
  5
1963D
  8
1DIM
 10
111.39417221369391
 20
134.13416617752779
 30
0.0
  0
VERTEX
  5
1963E
  8
1DIM
 10
146.76083888036061
 20
134.13416617752779
 30
0.0
  0
SEQEND
  5
1963F
  8
1DIM
  0
ENDBLK
  5
19641
  8
0
  0
BLOCK
  8
0
  2
*U114
 70
     1
 10
0.0
 20
0.0
 30
0.0
  3
*U114
  1

  0
TEXT
  5
19643
  8
1DIM
 62
   201
 10
114.09417221369389
 20
134.83416617752769
 30
0.0
 40
3.5
  1
材質：強化ガラス
  0
ENDBLK
  5
19645
  8
0
  0
BLOCK
  8
0
  2
*U115
 70
     1
 10
0.0
 20
0.0
 30
0.0
  3
*U115
  1

  0
SOLID
  5
19647
  8
1DIM
 10
111.6630660279364
 20
112.8251897285937
 30
0.0
 11
110.77767757617021
 21
114.64925069264901
 31
0.0
 12
112.2067945323994
 22
113.2109406299263
 32
0.0
 13
112.2067945323994
 23
113.2109406299263
 33
0.0
  0
POLYLINE
  5
19648
  8
1DIM
 66
     1
 10
0.0
 20
0.0
 30
0.0
  0
VERTEX
  5
19649
  8
1DIM
 10
111.9349302801679
 20
113.01806517926001
 30
0.0
  0
VERTEX
  5
1964A
  8
1DIM
 10
128.07767757617029
 20
90.264335207770316
 30
0.0
  0
VERTEX
  5
1964B
  8
1DIM
 10
163.44434424283691
 20
90.264335207770316
 30
0.0
  0
SEQEND
  5
1964C
  8
1DIM
  0
ENDBLK
  5
1964E
  8
0
  0
BLOCK
  8
0
  2
*U116
 70
     1
 10
0.0
 20
0.0
 30
0.0
  3
*U116
  1

  0
TEXT
  5
19650
  8
1DIM
 62
   201
 10
130.77767757617019
 20
90.964335207770304
 30
0.0
 40
3.5
  1
材質：強化ガラス
  0
ENDBLK
  5
19652
  8
0
  0
BLOCK
  8
0
  2
*U117
 70
     1
 10
0.0
 20
0.0
 30
0.0
  3
*U117
  1

  0
SOLID
  5
19654
  8
1DIM
 10
206.05432220138371
 20
27.374534829312559
 30
0.0
 11
207.1329323715008
 21
25.657644846806079
 31
0.0
 12
205.5557962703069
 22
26.931910450760721
 32
0.0
 13
205.5557962703069
 23
26.931910450760721
 33
0.0
  0
POLYLINE
  5
19655
  8
1DIM
 66
     1
 10
0.0
 20
0.0
 30
0.0
  0
VERTEX
  5
19656
  8
1DIM
 10
205.80505923584531
 20
27.153222640036638
 30
0.0
  0
VERTEX
  5
19657
  8
1DIM
 10
189.83293237150079
 20
45.142560331684798
 30
0.0
  0
VERTEX
  5
19658
  8
1DIM
 10
154.46626570483409
 20
45.142560331684798
 30
0.0
  0
SEQEND
  5
19659
  8
1DIM
  0
ENDBLK
  5
1965B
  8
0
  0
BLOCK
  8
0
  2
*U118
 70
     1
 10
0.0
 20
0.0
 30
0.0
  3
*U118
  1

  0
TEXT
  5
1965D
  8
1DIM
 62
   201
 10
154.93293237150081
 20
45.842560331684808
 30
0.0
 40
3.5
  1
材質：強化ガラス
  0
ENDBLK
  5
1965F
  8
0
  0
BLOCK
  8
0
  2
*U119
 70
     1
 10
0.0
 20
0.0
 30
0.0
  3
*U119
  1

  0
SOLID
  5
19661
  8
1DIM
 10
189.02031005279531
 20
24.219334784083351
 30
0.0
 11
190.44942700902439
 21
25.657644846806079
 31
0.0
 12
189.5640385572583
 22
23.833583882750801
 32
0.0
 13
189.5640385572583
 23
23.833583882750801
 33
0.0
  0
POLYLINE
  5
19662
  8
1DIM
 66
     1
 10
0.0
 20
0.0
 30
0.0
  0
VERTEX
  5
19663
  8
1DIM
 10
189.2921743050268
 20
24.02645933341708
 30
0.0
  0
VERTEX
  5
19664
  8
1DIM
 10
173.14942700902441
 20
1.272729361927347
 30
0.0
  0
VERTEX
  5
19665
  8
1DIM
 10
137.78276034235779
 20
1.272729361927347
 30
0.0
  0
SEQEND
  5
19666
  8
1DIM
  0
ENDBLK
  5
19668
  8
0
  0
BLOCK
  8
0
  2
*U120
 70
     1
 10
0.0
 20
0.0
 30
0.0
  3
*U120
  1

  0
TEXT
  5
1966A
  8
1DIM
 62
   201
 10
138.2494270090244
 20
1.9727293619273469
 30
0.0
 40
3.5
  1
材質：強化ガラス
  0
ENDBLK
  5
1966C
  8
0
  0
BLOCK
  8
0
  2
*U121
 70
     1
 10
0.0
 20
0.0
 30
0.0
  3
*U121
  1

  0
TEXT
  5
1966E
  8
1DIM1
 62
   201
 10
130.2592140794477
 20
-918.27131530700638
 30
0.0
 40
10.5
  1
P183.3 
  0
ENDBLK
  5
19670
  8
0
  0
BLOCK
  8
0
  2
*U122
 70
     1
 10
0.0
 20
0.0
 30
0.0
  3
*U122
  1

  0
TEXT
  5
19672
  8
1DIM1
 62
   201
 10
-40.825785920552839
 20
-948.27131530700626
 30
0.0
 40
10.5
  1
600 
  0
ENDBLK
  5
19674
  8
0
  0
BLOCK
  8
0
  2
*U123
 70
     1
 10
0.0
 20
0.0
 30
0.0
  3
*U123
  1

  0
TEXT
  5
19676
  8
1DIM
 62
   201
 10
377.63254741278053
 20
-909.67131530700635
 30
0.0
 40
3.5
  1
120 
  0
ENDBLK
  5
19678
  8
0
  0
BLOCK
  8
0
  2
*U124
 70
     1
 10
0.0
 20
0.0
 30
0.0
  3
*U124
  1

  0
TEXT
  5
1967A
  8
1DIM
 62
   201
 10
426.05754741278048
 20
-899.67131530700635
 30
0.0
 40
3.5
  1
3.5 
  0
ENDBLK
  5
1967C
  8
0
  0
BLOCK
  8
0
  2
*U125
 70
     1
 10
0.0
 20
0.0
 30
0.0
  3
*U125
  1

  0
TEXT
  5
1967E
  8
1DIM
 62
   201
 10
310.72421407944728
 20
-859.53798197367314
 30
0.0
 40
3.5
  1
8 
 50
90.0
  0
ENDBLK
  5
19680
  8
0
  0
BLOCK
  8
0
  2
*U126
 70
     1
 10
0.0
 20
0.0
 30
0.0
  3
*U126
  1

  0
TEXT
  5
19682
  8
1DIM
 62
   201
 10
290.72421407944728
 20
-768.16298197367303
 30
0.0
 40
3.5
  1
120 
 50
90.0
  0
ENDBLK
  5
19684
  8
0
  0
BLOCK
  8
0
  2
*U127
 70
     1
 10
0.0
 20
0.0
 30
0.0
  3
*U127
  1

  0
TEXT
  5
19686
  8
1DIM
 62
   201
 10
300.72421407944739
 20
-875.28798197367314
 30
0.0
 40
3.5
  1
36 
 50
90.0
  0
ENDBLK
  5
19688
  8
0
  0
BLOCK
  8
0
  2
*U128
 70
     1
 10
0.0
 20
0.0
 30
0.0
  3
*U128
  1

  0
TEXT
  5
1968A
  8
1DIM1
 62
   201
 10
-53.07578592055097
 20
-918.27131530700638
 30
0.0
 40
10.5
  1
P183.3 
  0
ENDBLK
  5
1968C
  8
0
  0
BLOCK
  8
0
  2
*U129
 70
     1
 10
0.0
 20
0.0
 30
0.0
  3
*U129
  1

  0
TEXT
  5
1968E
  8
1DIM1
 62
   201
 10
-236.41078592055101
 20
-918.27131530700615
 30
0.0
 40
10.5
  1
P183.3 
  0
ENDBLK
  5
19690
  8
0
  0
BLOCK
  8
0
  2
*U130
 70
     1
 10
0.0
 20
0.0
 30
0.0
  3
*U130
  1

  0
TEXT
  5
19692
  8
1DIM
 62
   201
 10
481.92421733691509
 20
-867.70464864033977
 30
0.0
 40
3.5
  1
16 
 50
90.0
  0
ENDBLK
  5
19694
  8
0
  0
BLOCK
  8
0
  2
*U131
 70
     1
 10
0.0
 20
0.0
 30
0.0
  3
*U131
  1

  0
TEXT
  5
19696
  8
0
 62
   201
 10
-63.717024855154058
 20
-3.810911908990481
 30
0.0
 40
3.5
  1
φ5
 50
48.83031736650419
  0
ENDBLK
  5
19698
  8
0
  0
BLOCK
  8
0
  2
*U132
 70
     1
 10
0.0
 20
0.0
 30
0.0
  3
*U132
  1

  0
TEXT
  5
1969A
  8
1DIM1
 62
   201
 10
130.2592140794477
 20
-918.27131530700638
 30
0.0
 40
10.5
  1
P183.3 
  0
ENDBLK
  5
1969C
  8
0
  0
BLOCK
  8
0
  2
*U133
 70
     1
 10
0.0
 20
0.0
 30
0.0
  3
*U133
  1

  0
TEXT
  5
1969E
  8
1DIM1
 62
   201
 10
-40.825785920552839
 20
-948.27131530700626
 30
0.0
 40
10.5
  1
600 
  0
ENDBLK
  5
196A0
  8
0
  0
BLOCK
  8
0
  2
*U134
 70
     1
 10
0.0
 20
0.0
 30
0.0
  3
*U134
  1

  0
TEXT
  5
196A2
  8
1DIM
 62
   201
 10
377.63254741278053
 20
-909.67131530700635
 30
0.0
 40
3.5
  1
120 
  0
ENDBLK
  5
196A4
  8
0
  0
BLOCK
  8
0
  2
*U135
 70
     1
 10
0.0
 20
0.0
 30
0.0
  3
*U135
  1

  0
TEXT
  5
196A6
  8
1DIM
 62
   201
 10
426.05754741278048
 20
-899.67131530700635
 30
0.0
 40
3.5
  1
3.5 
  0
ENDBLK
  5
196A8
  8
0
  0
BLOCK
  8
0
  2
*U136
 70
     1
 10
0.0
 20
0.0
 30
0.0
  3
*U136
  1

  0
TEXT
  5
196AA
  8
1DIM
 62
   201
 10
310.72421407944728
 20
-859.53798197367314
 30
0.0
 40
3.5
  1
8 
 50
90.0
  0
ENDBLK
  5
196AC
  8
0
  0
BLOCK
  8
0
  2
*U137
 70
     1
 10
0.0
 20
0.0
 30
0.0
  3
*U137
  1

  0
TEXT
  5
196AE
  8
1DIM
 62
   201
 10
290.72421407944728
 20
-768.16298197367303
 30
0.0
 40
3.5
  1
120 
 50
90.0
  0
ENDBLK
  5
196B0
  8
0
  0
BLOCK
  8
0
  2
*U138
 70
     1
 10
0.0
 20
0.0
 30
0.0
  3
*U138
  1

  0
TEXT
  5
196B2
  8
1DIM
 62
   201
 10
300.72421407944739
 20
-875.28798197367314
 30
0.0
 40
3.5
  1
36 
 50
90.0
  0
ENDBLK
  5
196B4
  8
0
  0
BLOCK
  8
0
  2
*U139
 70
     1
 10
0.0
 20
0.0
 30
0.0
  3
*U139
  1

  0
TEXT
  5
196B6
  8
1DIM1
 62
   201
 10
-53.07578592055097
 20
-918.27131530700638
 30
0.0
 40
10.5
  1
P183.3 
  0
ENDBLK
  5
196B8
  8
0
  0
BLOCK
  8
0
  2
*U140
 70
     1
 10
0.0
 20
0.0
 30
0.0
  3
*U140
  1

  0
TEXT
  5
196BA
  8
1DIM1
 62
   201
 10
-236.41078592055101
 20
-918.27131530700615
 30
0.0
 40
10.5
  1
P183.3 
  0
ENDBLK
  5
196BC
  8
0
  0
BLOCK
  8
0
  2
*U141
 70
     1
 10
0.0
 20
0.0
 30
0.0
  3
*U141
  1

  0
TEXT
  5
196BE
  8
1DIM
 62
   201
 10
481.92421733691509
 20
-867.70464864033977
 30
0.0
 40
3.5
  1
16 
 50
90.0
  0
ENDBLK
  5
196C0
  8
0
  0
BLOCK
  8
0
  2
*U142
 70
     1
 10
0.0
 20
0.0
 30
0.0
  3
*U142
  1

  0
SOLID
  5
196C2
  8
1DIM
 10
409.04848864721311
 20
-860.81037686104776
 30
0.0
 11
410.33058960090602
 21
-859.23960372158717
 31
0.0
 12
409.62723133858913
 22
-861.1412867303826
 32
0.0
 13
409.62723133858913
 23
-861.1412867303826
 33
0.0
  0
POLYLINE
  5
196C3
  8
1DIM
 66
     1
 10
0.0
 20
0.0
 30
0.0
  0
VERTEX
  5
196C4
  8
1DIM
 10
409.33785999290109
 20
-860.97583179571507
 30
0.0
  0
VERTEX
  5
196C5
  8
1DIM
 10
395.30819730931239
 20
-885.51292026912893
 30
0.0
  0
VERTEX
  5
196C6
  8
1DIM
 10
338.94153064264572
 20
-885.51292026912893
 30
0.0
  0
SEQEND
  5
196C7
  8
1DIM
  0
ENDBLK
  5
196C9
  8
0
  0
BLOCK
  8
0
  2
*U143
 70
     1
 10
0.0
 20
0.0
 30
0.0
  3
*U143
  1

  0
TEXT
  5
196CB
  8
1DIM
 62
   201
 10
369.27486397597897
 20
-878.97958693579562
 30
0.0
 40
3.5
  1
材質：アルミ
  0
TEXT
  5
196CC
  8
1DIM
 62
   201
 10
339.64153064264571
 20
-884.81292026912888
 30
0.0
 40
3.5
  1
仕上げ：ブラストアルマイト
  0
ENDBLK
  5
196CE
  8
0
  0
BLOCK
  8
0
  2
*U144
 70
     1
 10
0.0
 20
0.0
 30
0.0
  3
*U144
  1

  0
TEXT
  5
196D0
  8
1DIM
 62
   201
 10
451.24665981637679
 20
-819.08081851746635
 30
0.0
 40
3.5
  1
合板9mm以上
  0
ENDBLK
  5
196D2
  8
0
  0
BLOCK
  8
0
  2
*U145
 70
     1
 10
0.0
 20
0.0
 30
0.0
  3
*U145
  1

  0
SOLID
  5
196D4
  8
1DIM
 10
454.04736624601179
 20
-832.23662003413131
 30
0.0
 11
454.50216491546638
 21
-834.21254242161865
 31
0.0
 12
453.43111026463498
 22
-832.4909289208457
 32
0.0
 13
453.43111026463498
 23
-832.4909289208457
 33
0.0
  0
POLYLINE
  5
196D5
  8
1DIM
 66
     1
 10
0.0
 20
0.0
 30
0.0
  0
VERTEX
  5
196D6
  8
1DIM
 10
453.73923825532341
 20
-832.3637744774885
 30
0.0
  0
VERTEX
  5
196D7
  8
1DIM
 10
448.5466598163768
 20
-819.78081851746629
 30
0.0
  0
VERTEX
  5
196D8
  8
1DIM
 10
480.44665981637672
 20
-819.78081851746629
 30
0.0
  0
SEQEND
  5
196D9
  8
1DIM
  0
ENDBLK
  5
196DB
  8
0
  0
BLOCK
  8
0
  2
*U146
 70
     1
 10
0.0
 20
0.0
 30
0.0
  3
*U146
  1

  0
SOLID
  5
196DD
  8
1DIM
 10
445.98384543348112
 20
-832.23223350403225
 30
0.0
 11
446.00418270152522
 21
-834.2597190173318
 31
0.0
 12
445.32738187608891
 22
-832.34842318627886
 32
0.0
 13
445.32738187608891
 23
-832.34842318627886
 33
0.0
  0
POLYLINE
  5
196DE
  8
1DIM
 66
     1
 10
0.0
 20
0.0
 30
0.0
  0
VERTEX
  5
196DF
  8
1DIM
 10
445.65561365478499
 20
-832.29032834515544
 30
0.0
  0
VERTEX
  5
196E0
  8
1DIM
 10
442.37931532183808
 20
-813.77947250034231
 30
0.0
  0
VERTEX
  5
196E1
  8
1DIM
 10
450.91264865517149
 20
-813.77947250034231
 30
0.0
  0
SEQEND
  5
196E2
  8
1DIM
  0
ENDBLK
  5
196E4
  8
0
  0
BLOCK
  8
0
  2
*U147
 70
     1
 10
0.0
 20
0.0
 30
0.0
  3
*U147
  1

  0
TEXT
  5
196E6
  8
1DIM
 62
   201
 10
445.07931532183812
 20
-813.07947250034238
 30
0.0
 40
3.5
  1
PB
  0
ENDBLK
  5
196E8
  8
0
  0
ENDSEC
  0
SECTION
  2
ENTITIES
  0
LINE
  5
17420
  8
01
 10
450.42421407944721
 20
-833.3713153070064
 30
0.0
 11
450.42421407944721
 21
-913.37131530700594
 31
0.0
  0
LINE
  5
17421
  8
01
 10
459.42421407944721
 20
-833.3713153070064
 30
0.0
 11
459.42421407944721
 21
-913.37131530700594
 31
0.0
  0
LINE
  5
17422
  8
01
 10
441.4242140794471
 20
-833.3713153070064
 30
0.0
 11
441.4242140794471
 21
-913.37131530700594
 31
0.0
  0
LINE
  5
17427
  8
1CENTER
 10
441.4242140794471
 20
-873.3713153070064
 30
0.0
 11
459.42421407944721
 21
-873.3713153070064
 31
0.0
  0
LINE
  5
17982
  8
01
 10
121.42421407944749
 20
-824.3713153070064
 30
0.0
 11
270.42421407944721
 21
-824.3713153070064
 31
0.0
  0
LINE
  5
17983
  8
01
 10
121.4242140794472
 20
-704.3713153070064
 30
0.0
 11
270.42421407944721
 21
-704.3713153070064
 31
0.0
  0
LINE
  5
17984
  8
01
 10
271.42421407944721
 20
-823.3713153070064
 30
0.0
 11
271.42421407944721
 21
-705.3713153070064
 31
0.0
  0
LINE
  5
17986
  8
1PHANTOM
 10
438.92422664409582
 20
-869.37131530700628
 30
0.0
 11
441.42426061534519
 21
-871.87136184290443
 31
0.0
  0
LINE
  5
17988
  8
01
 10
437.92421407944693
 20
-867.19974243175329
 30
0.0
 11
437.92421407944693
 21
-867.87131530700663
 31
0.0
  0
LINE
  5
1798A
  8
1PHANTOM
 10
438.92420802973669
 20
-877.3713153070064
 30
0.0
 11
441.42416754354957
 21
-874.87136184290432
 31
0.0
  0
LINE
  5
1798C
  8
01
 10
439.92421407944721
 20
-890.37131530700663
 30
0.0
 11
440.42421407944721
 21
-890.37131530700663
 31
0.0
  0
ARC
  5
1798D
  8
01
 10
439.92421407944721
 20
-888.37131530700674
 30
0.0
 40
2.0
 50
180.0
 51
270.0
  0
ARC
  5
17993
  8
01
 10
435.92421407944761
 20
-867.19974243175329
 30
0.0
 40
2.0
 50
0.0000000000065138
 51
45.000000000004597
  0
ARC
  5
17994
  8
01
 10
433.09578695470088
 20
-864.37131530700663
 30
0.0
 40
2.0
 50
45.000000000004597
 51
90.0
  0
LINE
  5
17995
  8
01
 10
441.22421407944728
 20
-855.97131530700665
 30
0.0
 11
441.22421407944739
 21
-888.77131530700694
 31
0.0
  0
ARC
  5
17996
  8
01
 10
440.42421407944721
 20
-889.37131530700663
 30
0.0
 40
1.0
 50
270.0
 51
36.869897645851843
  0
ARC
  5
17997
  8
01
 10
434.96863762838859
 20
-855.37131530700663
 30
0.0
 40
2.0
 50
270.0
 51
296.37069178816961
  0
LINE
  5
17998
  8
01
 10
270.42421407944721
 20
-854.37131530700628
 30
0.0
 11
121.4242140794485
 21
-854.37131530700628
 31
0.0
  0
LINE
  5
17999
  8
01
 10
270.42421407944721
 20
-862.37131530700651
 30
0.0
 11
121.4242140794485
 21
-862.37131530700651
 31
0.0
  0
LINE
  5
1799B
  8
01
 10
271.42421407944721
 20
-868.17131530700647
 30
0.0
 11
121.4242140794485
 21
-868.17131530700647
 31
0.0
  0
LINE
  5
1799C
  8
01
 10
271.42421407944721
 20
-878.57131530700644
 30
0.0
 11
121.4242140794485
 21
-878.57131530700644
 31
0.0
  0
LINE
  5
1799D
  8
01
 10
270.42421407944721
 20
-890.3713153070064
 30
0.0
 11
121.4242140794487
 21
-890.3713153070064
 31
0.0
  0
LINE
  5
1799E
  8
01
 10
271.42421407944721
 20
-855.37131530700628
 30
0.0
 11
271.42421407944721
 21
-889.37131530700651
 31
0.0
  0
CIRCLE
  5
179A3
  8
1PHANTOM
 10
246.42421407944639
 20
-873.3713153070064
 30
0.0
 40
2.2000000000000002
  0
CIRCLE
  5
179A5
  8
1PHANTOM
 10
63.094214079449038
 20
-873.3713153070064
 30
0.0
 40
2.2000000000000002
  0
ARC
  5
179A6
  8
01
 10
440.42421407944721
 20
-855.37131530700663
 30
0.0
 40
1.0
 50
323.13010235415862
 51
129.83004209016741
  0
ARC
  5
179A7
  8
01
 10
426.9734526677114
 20
-839.24441177766926
 30
0.0
 40
20.0
 50
296.37069178816961
 51
309.83004209017753
  0
LINE
  5
179A8
  8
01
 10
434.96863762838859
 20
-857.37131530700663
 30
0.0
 11
327.89366140915467
 21
-857.37131530700663
 31
0.0
  0
LINE
  5
179A9
  8
01
 10
433.095786954701
 20
-862.37131530700674
 30
0.0
 11
323.09965875911053
 21
-862.37131530700674
 31
0.0
  0
LINE
  5
179AB
  8
01
 10
437.33842764182077
 20
-865.78552886938019
 30
0.0
 11
434.51000051707382
 21
-862.95710174463363
 31
0.0
  0
LINE
  5
179C4
  8
1PHANTOM
 10
453.52422199028928
 20
-871.37136184290455
 30
0.0
 11
454.32421268311191
 21
-875.37136184290443
 31
0.0
  0
LINE
  5
179C5
  8
1PHANTOM
 10
464.92422093667909
 20
-871.82417798496317
 30
0.0
 11
465.7242142635202
 21
-874.69214068629356
 31
0.0
  0
LINE
  5
179C6
  8
1PHANTOM
 10
467.32421531712578
 20
-874.23932658188676
 30
0.0
 11
467.635985173378
 21
-873.65105000684434
 31
0.0
  0
LINE
  5
179C7
  8
1PHANTOM
 10
466.37278408663451
 20
-872.73416333364253
 30
0.0
 11
466.52421988307492
 21
-872.27699149301134
 31
0.0
  0
LINE
  5
179C8
  8
1PHANTOM
 10
465.7242142635202
 20
-874.69214068629356
 30
0.0
 11
465.9069784061482
 21
-874.14039122249028
 31
0.0
  0
LINE
  5
179C9
  8
1PHANTOM
 10
466.52421988307492
 20
-872.27699149301134
 30
0.0
 11
467.32421531712578
 21
-874.23932658188676
 31
0.0
  0
LINE
  5
179CA
  8
1PHANTOM
 10
461.42422082689239
 20
-871.87136184290443
 30
0.0
 11
461.5242219902895
 21
-871.37136184290455
 31
0.0
  0
LINE
  5
179CB
  8
1PHANTOM
 10
461.5242219902895
 20
-871.37136184290455
 30
0.0
 11
462.32421268311208
 21
-875.37136184290443
 31
0.0
  0
LINE
  5
179CC
  8
1PHANTOM
 10
462.32421268311208
 20
-875.37136184290443
 30
0.0
 11
462.42421384650919
 21
-874.87136184290455
 31
0.0
  0
LINE
  5
179CD
  8
1PHANTOM
 10
459.8242208268922
 20
-871.87136184290443
 30
0.0
 11
459.92422199028942
 21
-871.37136184290455
 31
0.0
  0
LINE
  5
179CE
  8
1PHANTOM
 10
460.724212683112
 20
-875.37136184290443
 30
0.0
 11
460.82421384650911
 21
-874.87136184290455
 31
0.0
  0
LINE
  5
179CF
  8
1PHANTOM
 10
459.92422199028942
 20
-871.37136184290455
 30
0.0
 11
460.724212683112
 21
-875.37136184290443
 31
0.0
  0
LINE
  5
179D0
  8
1PHANTOM
 10
458.22422082689229
 20
-871.87136184290443
 30
0.0
 11
458.32422199028952
 21
-871.37136184290455
 31
0.0
  0
LINE
  5
179D1
  8
1PHANTOM
 10
458.32422199028952
 20
-871.37136184290455
 30
0.0
 11
459.12421268311198
 21
-875.37136184290443
 31
0.0
  0
LINE
  5
179D2
  8
1PHANTOM
 10
459.12421268311198
 20
-875.37136184290443
 30
0.0
 11
459.2242138465092
 21
-874.87136184290455
 31
0.0
  0
LINE
  5
179D3
  8
1PHANTOM
 10
463.22422082689212
 20
-871.87136184290443
 30
0.0
 11
463.32422199028929
 21
-871.37136184290455
 31
0.0
  0
LINE
  5
179D4
  8
1PHANTOM
 10
464.81145142432911
 20
-872.29227644011314
 30
0.0
 11
464.92422093667909
 21
-871.82417798496317
 31
0.0
  0
LINE
  5
179D5
  8
1PHANTOM
 10
464.1242132099145
 20
-875.14495479070035
 30
0.0
 11
464.25348390754448
 21
-874.60836105542921
 31
0.0
  0
LINE
  5
179D6
  8
1PHANTOM
 10
463.32422199028929
 20
-871.37136184290455
 30
0.0
 11
464.1242132099145
 21
-875.14495479070035
 31
0.0
  0
LINE
  5
179D7
  8
1PHANTOM
 10
455.02422082689208
 20
-871.87136184290443
 30
0.0
 11
455.12422199028953
 21
-871.37136184290455
 31
0.0
  0
LINE
  5
179D8
  8
1PHANTOM
 10
455.92421268311199
 20
-875.37136184290443
 30
0.0
 11
456.02421384650893
 21
-874.87136184290455
 31
0.0
  0
LINE
  5
179D9
  8
1PHANTOM
 10
457.52421268311201
 20
-875.37136184290443
 30
0.0
 11
457.62421384650901
 21
-874.87136184290455
 31
0.0
  0
LINE
  5
179DA
  8
1PHANTOM
 10
456.62422082689221
 20
-871.87136184290443
 30
0.0
 11
456.72422199028932
 21
-871.37136184290455
 31
0.0
  0
LINE
  5
179DB
  8
1PHANTOM
 10
456.72422199028932
 20
-871.37136184290455
 30
0.0
 11
457.52421268311201
 21
-875.37136184290443
 31
0.0
  0
LINE
  5
179DC
  8
1PHANTOM
 10
455.12422199028953
 20
-871.37136184290455
 30
0.0
 11
455.92421268311199
 21
-875.37136184290443
 31
0.0
  0
LINE
  5
179DD
  8
1PHANTOM
 10
454.32421268311191
 20
-875.37136184290443
 30
0.0
 11
454.42421384650919
 21
-874.87136184290455
 31
0.0
  0
LINE
  5
179DE
  8
1PHANTOM
 10
438.92422664409582
 20
-869.37131530700628
 30
0.0
 11
438.92420802973669
 21
-877.3713153070064
 31
0.0
  0
LINE
  5
179DF
  8
1PHANTOM
 10
442.3242219902852
 20
-871.37136184290455
 30
0.0
 11
443.12421268310322
 21
-875.37136184290443
 31
0.0
  0
LINE
  5
179E0
  8
1PHANTOM
 10
443.82422082689158
 20
-871.87136184290443
 30
0.0
 11
443.92422199028942
 21
-871.37136184290455
 31
0.0
  0
LINE
  5
179E1
  8
1PHANTOM
 10
443.12421268310322
 20
-875.37136184290443
 30
0.0
 11
443.22421384650102
 21
-874.87136184290455
 31
0.0
  0
LINE
  5
179E2
  8
1PHANTOM
 10
447.02422082689162
 20
-871.87136184290443
 30
0.0
 11
447.12422199028953
 21
-871.37136184290455
 31
0.0
  0
LINE
  5
179E3
  8
1PHANTOM
 10
445.52422199028928
 20
-871.37136184290455
 30
0.0
 11
446.32421268310748
 21
-875.37136184290443
 31
0.0
  0
LINE
  5
179E4
  8
1PHANTOM
 10
446.32421268310748
 20
-875.37136184290443
 30
0.0
 11
446.4242138465051
 21
-874.87136184290455
 31
0.0
  0
LINE
  5
179E5
  8
1PHANTOM
 10
445.42422082689149
 20
-871.87136184290443
 30
0.0
 11
445.52422199028928
 21
-871.37136184290455
 31
0.0
  0
LINE
  5
179E6
  8
1PHANTOM
 10
444.72421268310768
 20
-875.37136184290443
 30
0.0
 11
444.82421384650519
 21
-874.87136184290455
 31
0.0
  0
LINE
  5
179E7
  8
1PHANTOM
 10
449.52421268311201
 20
-875.37136184290443
 30
0.0
 11
449.62421384650901
 21
-874.87136184290455
 31
0.0
  0
LINE
  5
179E8
  8
1PHANTOM
 10
447.92421268310773
 20
-875.37136184290443
 30
0.0
 11
448.02421384650529
 21
-874.87136184290455
 31
0.0
  0
LINE
  5
179E9
  8
1PHANTOM
 10
448.62422082689147
 20
-871.87136184290443
 30
0.0
 11
448.72422199028938
 21
-871.37136184290455
 31
0.0
  0
LINE
  5
179EA
  8
1PHANTOM
 10
450.22422082689212
 20
-871.87136184290443
 30
0.0
 11
450.32422199028929
 21
-871.37136184290455
 31
0.0
  0
LINE
  5
179EB
  8
1PHANTOM
 10
448.72422199028938
 20
-871.37136184290455
 30
0.0
 11
449.52421268311201
 21
-875.37136184290443
 31
0.0
  0
LINE
  5
179EC
  8
1PHANTOM
 10
447.12422199028953
 20
-871.37136184290455
 30
0.0
 11
447.92421268310773
 21
-875.37136184290443
 31
0.0
  0
LINE
  5
179ED
  8
1PHANTOM
 10
443.92422199028942
 20
-871.37136184290455
 30
0.0
 11
444.72421268310768
 21
-875.37136184290443
 31
0.0
  0
LINE
  5
179EE
  8
1PHANTOM
 10
451.12421268311192
 20
-875.37136184290443
 30
0.0
 11
451.2242138465092
 21
-874.87136184290455
 31
0.0
  0
LINE
  5
179EF
  8
1PHANTOM
 10
452.724212683112
 20
-875.37136184290443
 30
0.0
 11
452.82421384650911
 21
-874.87136184290455
 31
0.0
  0
LINE
  5
179F0
  8
1PHANTOM
 10
451.8242208268922
 20
-871.87136184290443
 30
0.0
 11
451.92422199028942
 21
-871.37136184290455
 31
0.0
  0
LINE
  5
179F1
  8
1PHANTOM
 10
453.42422082689211
 20
-871.87136184290443
 30
0.0
 11
453.52422199028928
 21
-871.37136184290455
 31
0.0
  0
LINE
  5
179F2
  8
1PHANTOM
 10
451.92422199028942
 20
-871.37136184290455
 30
0.0
 11
452.724212683112
 21
-875.37136184290443
 31
0.0
  0
LINE
  5
179F3
  8
1PHANTOM
 10
450.32422199028929
 20
-871.37136184290455
 30
0.0
 11
451.12421268311192
 21
-875.37136184290443
 31
0.0
  0
LINE
  5
179F4
  8
1PHANTOM
 10
442.22422082688729
 20
-871.87136184290443
 30
0.0
 11
442.3242219902852
 21
-871.37136184290455
 31
0.0
  0
LINE
  5
179F5
  8
1PHANTOM
 10
441.52421268310309
 20
-875.37136184290443
 30
0.0
 11
441.62421384650082
 21
-874.87136184290455
 31
0.0
  0
LINE
  5
179F6
  8
1PHANTOM
 10
441.42421384650078
 20
-874.87136184290455
 30
0.0
 11
441.52421268310309
 21
-875.37136184290443
 31
0.0
  0
LINE
  5
179F8
  8
1PHANTOM
 10
463.3242208268918
 20
-871.87136184290443
 30
0.0
 11
441.42426061534519
 21
-871.87136184290443
 31
0.0
  0
LINE
  5
179F9
  8
1PHANTOM
 10
468.62421733675268
 20
-873.37136184290443
 30
0.0
 11
463.3242208268918
 21
-871.87136184290443
 31
0.0
  0
LINE
  5
179FA
  8
1PHANTOM
 10
438.92422664409582
 20
-869.37131530700628
 30
0.0
 11
438.6242266440949
 21
-869.37131530700628
 31
0.0
  0
LINE
  5
179FB
  8
1PHANTOM
 10
468.62421733675268
 20
-873.37136184290443
 30
0.0
 11
463.32421384650752
 21
-874.87136184290455
 31
0.0
  0
LINE
  5
179FC
  8
1PHANTOM
 10
438.6242266440949
 20
-869.37131530700628
 30
0.0
 11
438.6242080297356
 21
-877.3713153070064
 31
0.0
  0
LINE
  5
179FD
  8
1PHANTOM
 10
463.32421384650752
 20
-874.87136184290455
 30
0.0
 11
441.42416754354957
 21
-874.87136184290432
 31
0.0
  0
LINE
  5
179FE
  8
1PHANTOM
 10
438.92420802973669
 20
-877.3713153070064
 30
0.0
 11
438.6242080297356
 21
-877.3713153070064
 31
0.0
  0
ARC
  5
17A00
  8
01
 10
337.52346346478038
 20
-840.10848929696863
 30
0.0
 40
20.0
 50
226.6188966201739
 51
237.987749978507
  0
ARC
  5
17A01
  8
01
 10
329.42421407944721
 20
-858.37131530700663
 30
0.0
 40
8.0
 50
154.62306647484499
 51
205.37693352515501
  0
ARC
  5
17A02
  8
01
 10
323.09965875911053
 20
-855.37131530700663
 30
0.0
 40
1.0
 50
46.618896620173928
 51
154.62306647484499
  0
ARC
  5
17A03
  8
01
 10
323.09965875911053
 20
-861.37131530700651
 30
0.0
 40
1.0
 50
205.37693352515501
 51
270.00000000002598
  0
ARC
  5
17A04
  8
01
 10
327.98165324934939
 20
-855.37131530700663
 30
0.0
 40
2.0
 50
237.987749978507
 51
270.0
  0
ARC
  5
17A05
  8
01
 10
270.42421407944721
 20
-861.37131530700651
 30
0.0
 40
1.0
 50
270.0
 51
0.0
  0
ARC
  5
17A06
  8
01
 10
270.42421407944721
 20
-855.37131530700628
 30
0.0
 40
1.0
 50
0.0
 51
90.0
  0
ARC
  5
17A07
  8
01
 10
270.42421407944721
 20
-889.37131530700651
 30
0.0
 40
1.0
 50
270.0
 51
0.0
  0
ARC
  5
17A08
  8
01
 10
270.42421407944721
 20
-823.3713153070064
 30
0.0
 40
1.0
 50
270.0
 51
0.0
  0
ARC
  5
17A09
  8
01
 10
270.42421407944721
 20
-705.3713153070064
 30
0.0
 40
1.0
 50
0.0
 51
90.0
  0
LINE
  5
17A0A
  8
01
 10
-327.5757859205516
 20
-890.37131530700913
 30
0.0
 11
121.424214079447
 21
-890.3713153070064
 31
0.0
  0
LINE
  5
17A0B
  8
01
 10
-327.57578592055188
 20
-854.37131530700947
 30
0.0
 11
121.4242140794469
 21
-854.37131530700628
 31
0.0
  0
LINE
  5
17A0C
  8
01
 10
-327.57578592055188
 20
-862.3713153070097
 30
0.0
 11
121.4242140794469
 21
-862.37131530700651
 31
0.0
  0
LINE
  5
17A0D
  8
01
 10
-328.57578592055279
 20
-878.37131530700844
 30
0.0
 11
121.424214079447
 21
-878.37131530700628
 31
0.0
  0
LINE
  5
17A0E
  8
01
 10
-328.57578592055279
 20
-868.37131530700844
 30
0.0
 11
121.4242140794469
 21
-868.3713153070064
 31
0.0
  0
LINE
  5
17A10
  8
01
 10
-328.57578592055279
 20
-878.57131530700872
 30
0.0
 11
121.424214079447
 21
-878.57131530700644
 31
0.0
  0
LINE
  5
17A11
  8
01
 10
-328.57578592055279
 20
-868.17131530700988
 30
0.0
 11
121.4242140794469
 21
-868.17131530700647
 31
0.0
  0
CIRCLE
  5
17A17
  8
1PHANTOM
 10
-120.245785920551
 20
-873.37131530700731
 30
0.0
 40
2.2000000000000002
  0
LINE
  5
17A1A
  8
01
 10
121.42421407944769
 20
-824.3713153070064
 30
0.0
 11
-327.57578592055211
 21
-824.37131530700981
 31
0.0
  0
LINE
  5
17A1E
  8
01
 10
121.4242140794472
 20
-704.3713153070064
 30
0.0
 11
-327.57578592055279
 21
-704.37131530700867
 31
0.0
  0
LINE
  5
17A27
  8
01
 10
271.42421407944721
 20
-868.3713153070064
 30
0.0
 11
121.4242140794485
 21
-868.3713153070064
 31
0.0
  0
LINE
  5
17A28
  8
01
 10
271.42421407944721
 20
-878.37131530700628
 30
0.0
 11
121.4242140794485
 21
-878.37131530700628
 31
0.0
  0
LINE
  5
17FB9
  8
1CENTER
 10
471.58513192806112
 20
-873.3713153070064
 30
0.0
 11
434.9539409276062
 21
-873.3713153070064
 31
0.0
  0
LINE
  5
17FF1
  8
01
 10
438.22421407944688
 20
-878.57131530700644
 30
0.0
 11
438.22421407944711
 21
-878.57131530700644
 31
0.0
  0
LINE
  5
17FF2
  8
01
 10
438.22421407944728
 20
-868.17131530700647
 30
0.0
 11
438.22421407944711
 21
-868.17131530700647
 31
0.0
  0
LINE
  5
17FF3
  8
01
 10
438.22421407944711
 20
-868.17131530700647
 30
0.0
 11
438.22421407944711
 21
-878.57131530696381
 31
0.0
  0
ARC
  5
17FF4
  8
01
 10
438.22421407944728
 20
-867.87131530700663
 30
0.0
 40
0.3
 50
179.9999999999967
 51
270.0
  0
ARC
  5
17FF5
  8
01
 10
438.22421407944688
 20
-878.87131530700663
 30
0.0
 40
0.3
 50
89.99999999996092
 51
180.0
  0
LINE
  5
17FF6
  8
01
 10
437.92421407944721
 20
-868.3713153070064
 30
0.0
 11
437.92421407944721
 21
-878.37131530700628
 31
0.0
  0
LINE
  5
17FF7
  8
01
 10
438.22421407944711
 20
-868.3713153070064
 30
0.0
 11
437.92421407944721
 21
-868.3713153070064
 31
0.0
  0
LINE
  5
17FF8
  8
01
 10
437.92421407944693
 20
-878.87131530700663
 30
0.0
 11
437.92421407944721
 21
-888.37131530700674
 31
0.0
  0
LINE
  5
17FFA
  8
01
 10
438.22421407944728
 20
-878.37131530700651
 30
0.0
 11
437.92421407944721
 21
-878.37131530700651
 31
0.0
  0
LINE
  5
17FFD
  8
1CENTER
 10
246.42421407944639
 20
-876.37131530700663
 30
0.0
 11
246.42421407944639
 21
-870.37131530700651
 31
0.0
  0
LINE
  5
17FFE
  8
1CENTER
 10
243.42421407944639
 20
-873.3713153070064
 30
0.0
 11
249.42421407944639
 21
-873.3713153070064
 31
0.0
  0
LINE
  5
17FFF
  8
1CENTER
 10
63.094214079449038
 20
-876.3713153070064
 30
0.0
 11
63.094214079449038
 21
-870.37131530700628
 31
0.0
  0
LINE
  5
18000
  8
1CENTER
 10
60.094214079449053
 20
-873.3713153070064
 30
0.0
 11
66.094214079449046
 21
-873.3713153070064
 31
0.0
  0
LINE
  5
18001
  8
1CENTER
 10
-120.245785920551
 20
-876.37131530700708
 30
0.0
 11
-120.245785920551
 21
-870.37131530700719
 31
0.0
  0
LINE
  5
18002
  8
1CENTER
 10
-123.245785920551
 20
-873.37131530700719
 30
0.0
 11
-117.245785920551
 21
-873.37131530700719
 31
0.0
  0
LINE
  5
18005
  8
1PHANTOM
 10
242.4242140794463
 20
-706.87130274235767
 30
0.0
 11
244.9242606153442
 21
-704.37126877110825
 31
0.0
  0
LINE
  5
18006
  8
1PHANTOM
 10
250.4242140794463
 20
-706.87132135671686
 30
0.0
 11
247.92426061534411
 21
-704.37136184290387
 31
0.0
  0
LINE
  5
18007
  8
1PHANTOM
 10
244.4242606153442
 20
-692.27130739616416
 30
0.0
 11
248.4242606153442
 21
-691.4713167033417
 31
0.0
  0
LINE
  5
18008
  8
1PHANTOM
 10
244.87707675740299
 20
-680.87130844977435
 30
0.0
 11
247.7450394587334
 21
-680.07131512293336
 31
0.0
  0
LINE
  5
18009
  8
1PHANTOM
 10
247.2922253543266
 20
-678.47131406932772
 30
0.0
 11
246.70394877928419
 21
-678.15954421307561
 31
0.0
  0
LINE
  5
1800A
  8
1PHANTOM
 10
245.78706210608229
 20
-679.4227452998191
 30
0.0
 11
245.3298902654513
 21
-679.27130950337869
 31
0.0
  0
LINE
  5
1800B
  8
1PHANTOM
 10
247.7450394587334
 20
-680.07131512293336
 30
0.0
 11
247.19328999493021
 21
-679.88855098030535
 31
0.0
  0
LINE
  5
1800C
  8
1PHANTOM
 10
245.3298902654513
 20
-679.27130950337869
 30
0.0
 11
247.2922253543266
 21
-678.47131406932772
 31
0.0
  0
LINE
  5
1800D
  8
1PHANTOM
 10
244.9242606153442
 20
-684.37130855956104
 30
0.0
 11
244.4242606153442
 21
-684.27130739616405
 31
0.0
  0
LINE
  5
1800E
  8
1PHANTOM
 10
244.4242606153442
 20
-684.27130739616405
 30
0.0
 11
248.4242606153442
 21
-683.47131670334136
 31
0.0
  0
LINE
  5
1800F
  8
1PHANTOM
 10
248.4242606153442
 20
-683.47131670334136
 30
0.0
 11
247.9242606153442
 21
-683.37131553994425
 31
0.0
  0
LINE
  5
18010
  8
1PHANTOM
 10
244.9242606153442
 20
-685.97130855956129
 30
0.0
 11
244.4242606153442
 21
-685.87130739616407
 31
0.0
  0
LINE
  5
18011
  8
1PHANTOM
 10
248.4242606153442
 20
-685.07131670334161
 30
0.0
 11
247.9242606153442
 21
-684.97131553994438
 31
0.0
  0
LINE
  5
18012
  8
1PHANTOM
 10
244.4242606153442
 20
-685.87130739616407
 30
0.0
 11
248.4242606153442
 21
-685.07131670334161
 31
0.0
  0
LINE
  5
18013
  8
1PHANTOM
 10
244.9242606153442
 20
-687.5713085595612
 30
0.0
 11
244.4242606153442
 21
-687.47130739616409
 31
0.0
  0
LINE
  5
18014
  8
1PHANTOM
 10
244.4242606153442
 20
-687.47130739616409
 30
0.0
 11
248.4242606153442
 21
-686.67131670334152
 31
0.0
  0
LINE
  5
18015
  8
1PHANTOM
 10
248.4242606153442
 20
-686.67131670334152
 30
0.0
 11
247.9242606153442
 21
-686.57131553994429
 31
0.0
  0
LINE
  5
18016
  8
1PHANTOM
 10
244.9242606153442
 20
-682.57130855956143
 30
0.0
 11
244.4242606153442
 21
-682.47130739616432
 31
0.0
  0
LINE
  5
18017
  8
1PHANTOM
 10
245.3451752125529
 20
-680.9840779621245
 30
0.0
 11
244.87707675740299
 21
-680.87130844977435
 31
0.0
  0
LINE
  5
18018
  8
1PHANTOM
 10
248.19785356314031
 20
-681.67131617653899
 30
0.0
 11
247.66125982786909
 21
-681.54204547890913
 31
0.0
  0
LINE
  5
18019
  8
1PHANTOM
 10
244.4242606153442
 20
-682.47130739616432
 30
0.0
 11
248.19785356314031
 21
-681.67131617653899
 31
0.0
  0
LINE
  5
1801A
  8
1PHANTOM
 10
244.9242606153442
 20
-690.77130855956148
 30
0.0
 11
244.4242606153442
 21
-690.67130739616414
 31
0.0
  0
LINE
  5
1801B
  8
1PHANTOM
 10
248.4242606153442
 20
-689.87131670334145
 30
0.0
 11
247.9242606153442
 21
-689.77131553994457
 31
0.0
  0
LINE
  5
1801C
  8
1PHANTOM
 10
248.4242606153442
 20
-688.27131670334165
 30
0.0
 11
247.9242606153442
 21
-688.17131553994454
 31
0.0
  0
LINE
  5
1801D
  8
1PHANTOM
 10
244.9242606153442
 20
-689.17130855956134
 30
0.0
 11
244.4242606153442
 21
-689.07130739616423
 31
0.0
  0
LINE
  5
1801E
  8
1PHANTOM
 10
244.4242606153442
 20
-689.07130739616423
 30
0.0
 11
248.4242606153442
 21
-688.27131670334165
 31
0.0
  0
LINE
  5
1801F
  8
1PHANTOM
 10
244.4242606153442
 20
-690.67130739616414
 30
0.0
 11
248.4242606153442
 21
-689.87131670334145
 31
0.0
  0
LINE
  5
18020
  8
1PHANTOM
 10
248.4242606153442
 20
-691.4713167033417
 30
0.0
 11
247.9242606153442
 21
-691.37131553994425
 31
0.0
  0
LINE
  5
18021
  8
1PHANTOM
 10
242.4242140794463
 20
-706.87130274235767
 30
0.0
 11
250.4242140794463
 21
-706.87132135671686
 31
0.0
  0
LINE
  5
18022
  8
1PHANTOM
 10
244.4242606153442
 20
-703.4713073961683
 30
0.0
 11
248.4242606153442
 21
-702.67131670335039
 31
0.0
  0
LINE
  5
18023
  8
1PHANTOM
 10
244.9242606153442
 20
-701.97130855956186
 30
0.0
 11
244.4242606153442
 21
-701.87130739616418
 31
0.0
  0
LINE
  5
18024
  8
1PHANTOM
 10
248.4242606153442
 20
-702.67131670335039
 30
0.0
 11
247.9242606153442
 21
-702.57131553995248
 31
0.0
  0
LINE
  5
18025
  8
1PHANTOM
 10
244.9242606153442
 20
-698.77130855956193
 30
0.0
 11
244.4242606153442
 21
-698.67130739616414
 31
0.0
  0
LINE
  5
18026
  8
1PHANTOM
 10
244.4242606153442
 20
-700.27130739616416
 30
0.0
 11
248.4242606153442
 21
-699.47131670334591
 31
0.0
  0
LINE
  5
18027
  8
1PHANTOM
 10
248.4242606153442
 20
-699.47131670334591
 30
0.0
 11
247.9242606153442
 21
-699.37131553994845
 31
0.0
  0
LINE
  5
18028
  8
1PHANTOM
 10
244.9242606153442
 20
-700.37130855956195
 30
0.0
 11
244.4242606153442
 21
-700.27130739616416
 31
0.0
  0
LINE
  5
18029
  8
1PHANTOM
 10
248.4242606153442
 20
-701.07131670334593
 30
0.0
 11
247.9242606153442
 21
-700.97131553994836
 31
0.0
  0
LINE
  5
1802A
  8
1PHANTOM
 10
248.4242606153442
 20
-696.27131670334165
 30
0.0
 11
247.9242606153442
 21
-696.17131553994454
 31
0.0
  0
LINE
  5
1802B
  8
1PHANTOM
 10
248.4242606153442
 20
-697.87131670334588
 30
0.0
 11
247.9242606153442
 21
-697.77131553994832
 31
0.0
  0
LINE
  5
1802C
  8
1PHANTOM
 10
244.9242606153442
 20
-697.17130855956202
 30
0.0
 11
244.4242606153442
 21
-697.07130739616423
 31
0.0
  0
LINE
  5
1802D
  8
1PHANTOM
 10
244.9242606153442
 20
-695.57130855956143
 30
0.0
 11
244.4242606153442
 21
-695.47130739616421
 31
0.0
  0
LINE
  5
1802E
  8
1PHANTOM
 10
244.4242606153442
 20
-697.07130739616423
 30
0.0
 11
248.4242606153442
 21
-696.27131670334165
 31
0.0
  0
LINE
  5
1802F
  8
1PHANTOM
 10
244.4242606153442
 20
-698.67130739616414
 30
0.0
 11
248.4242606153442
 21
-697.87131670334588
 31
0.0
  0
LINE
  5
18030
  8
1PHANTOM
 10
244.4242606153442
 20
-701.87130739616418
 30
0.0
 11
248.4242606153442
 21
-701.07131670334593
 31
0.0
  0
LINE
  5
18031
  8
1PHANTOM
 10
248.4242606153442
 20
-694.67131670334174
 30
0.0
 11
247.9242606153442
 21
-694.57131553994441
 31
0.0
  0
LINE
  5
18032
  8
1PHANTOM
 10
248.4242606153442
 20
-693.07131670334161
 30
0.0
 11
247.9242606153442
 21
-692.97131553994438
 31
0.0
  0
LINE
  5
18033
  8
1PHANTOM
 10
244.9242606153442
 20
-693.97130855956129
 30
0.0
 11
244.4242606153442
 21
-693.87130739616418
 31
0.0
  0
LINE
  5
18034
  8
1PHANTOM
 10
244.9242606153442
 20
-692.37130855956138
 30
0.0
 11
244.4242606153442
 21
-692.27130739616416
 31
0.0
  0
LINE
  5
18035
  8
1PHANTOM
 10
244.4242606153442
 20
-693.87130739616418
 30
0.0
 11
248.4242606153442
 21
-693.07131670334161
 31
0.0
  0
LINE
  5
18036
  8
1PHANTOM
 10
244.4242606153442
 20
-695.47130739616421
 30
0.0
 11
248.4242606153442
 21
-694.67131670334174
 31
0.0
  0
LINE
  5
18037
  8
1PHANTOM
 10
244.9242606153442
 20
-703.57130855956621
 30
0.0
 11
244.4242606153442
 21
-703.4713073961683
 31
0.0
  0
LINE
  5
18038
  8
1PHANTOM
 10
248.4242606153442
 20
-704.27131670335052
 30
0.0
 11
247.9242606153442
 21
-704.17131553995273
 31
0.0
  0
LINE
  5
18039
  8
1PHANTOM
 10
247.9242606153442
 20
-704.37131553995277
 30
0.0
 11
248.4242606153442
 21
-704.27131670335052
 31
0.0
  0
LINE
  5
1803A
  8
1PHANTOM
 10
244.9242606153442
 20
-682.47130855956175
 30
0.0
 11
244.9242606153442
 21
-704.37126877110825
 31
0.0
  0
LINE
  5
1803B
  8
1PHANTOM
 10
246.4242606153442
 20
-677.17131204970076
 30
0.0
 11
244.9242606153442
 21
-682.47130855956175
 31
0.0
  0
LINE
  5
1803C
  8
1PHANTOM
 10
242.4242140794463
 20
-706.87130274235767
 30
0.0
 11
242.4242140794463
 21
-707.17130274235865
 31
0.0
  0
LINE
  5
1803D
  8
1PHANTOM
 10
246.4242606153442
 20
-677.17131204970076
 30
0.0
 11
247.9242606153442
 21
-682.47131553994609
 31
0.0
  0
LINE
  5
1803E
  8
1PHANTOM
 10
242.4242140794463
 20
-707.17130274235865
 30
0.0
 11
250.4242140794463
 21
-707.17132135671795
 31
0.0
  0
LINE
  5
1803F
  8
1PHANTOM
 10
247.9242606153442
 20
-682.47131553994609
 30
0.0
 11
247.92426061534411
 21
-704.37136184290387
 31
0.0
  0
LINE
  5
18040
  8
1PHANTOM
 10
250.4242140794463
 20
-706.87132135671686
 30
0.0
 11
250.4242140794463
 21
-707.17132135671795
 31
0.0
  0
LINE
  5
18041
  8
1CENTER
 10
246.4242140794463
 20
-674.21039745839244
 30
0.0
 11
246.4242140794463
 21
-710.84158845884735
 31
0.0
  0
LINE
  5
18044
  8
1PHANTOM
 10
59.094214079448818
 20
-706.87130274235824
 30
0.0
 11
61.594260615346741
 21
-704.37126877110882
 31
0.0
  0
LINE
  5
18045
  8
1PHANTOM
 10
67.094214079448818
 20
-706.87132135671732
 30
0.0
 11
64.594260615346627
 21
-704.37136184290443
 31
0.0
  0
LINE
  5
18046
  8
1PHANTOM
 10
61.094260615346741
 20
-692.27130739616473
 30
0.0
 11
65.094260615346741
 21
-691.47131670334215
 31
0.0
  0
LINE
  5
18047
  8
1PHANTOM
 10
61.547076757405478
 20
-680.87130844977492
 30
0.0
 11
64.415039458735976
 21
-680.07131512293381
 31
0.0
  0
LINE
  5
18048
  8
1PHANTOM
 10
63.962225354329178
 20
-678.47131406932806
 30
0.0
 11
63.373948779286771
 21
-678.15954421307595
 31
0.0
  0
LINE
  5
18049
  8
1PHANTOM
 10
62.457062106084827
 20
-679.42274529981955
 30
0.0
 11
61.999890265453757
 21
-679.27130950337914
 31
0.0
  0
LINE
  5
1804A
  8
1PHANTOM
 10
64.415039458735976
 20
-680.07131512293381
 30
0.0
 11
63.8632899949327
 21
-679.88855098030569
 31
0.0
  0
LINE
  5
1804B
  8
1PHANTOM
 10
61.999890265453757
 20
-679.27130950337914
 30
0.0
 11
63.962225354329178
 21
-678.47131406932806
 31
0.0
  0
LINE
  5
1804C
  8
1PHANTOM
 10
61.594260615346741
 20
-684.37130855956161
 30
0.0
 11
61.094260615346741
 21
-684.2713073961645
 31
0.0
  0
LINE
  5
1804D
  8
1PHANTOM
 10
61.094260615346741
 20
-684.2713073961645
 30
0.0
 11
65.094260615346741
 21
-683.47131670334193
 31
0.0
  0
LINE
  5
1804E
  8
1PHANTOM
 10
65.094260615346741
 20
-683.47131670334193
 30
0.0
 11
64.594260615346741
 21
-683.37131553994482
 31
0.0
  0
LINE
  5
1804F
  8
1PHANTOM
 10
61.594260615346741
 20
-685.97130855956175
 30
0.0
 11
61.094260615346741
 21
-685.87130739616464
 31
0.0
  0
LINE
  5
18050
  8
1PHANTOM
 10
65.094260615346741
 20
-685.07131670334195
 30
0.0
 11
64.594260615346741
 21
-684.97131553994495
 31
0.0
  0
LINE
  5
18051
  8
1PHANTOM
 10
61.094260615346741
 20
-685.87130739616464
 30
0.0
 11
65.094260615346741
 21
-685.07131670334195
 31
0.0
  0
LINE
  5
18052
  8
1PHANTOM
 10
61.594260615346741
 20
-687.57130855956166
 30
0.0
 11
61.094260615346741
 21
-687.47130739616455
 31
0.0
  0
LINE
  5
18053
  8
1PHANTOM
 10
61.094260615346741
 20
-687.47130739616455
 30
0.0
 11
65.094260615346741
 21
-686.67131670334186
 31
0.0
  0
LINE
  5
18054
  8
1PHANTOM
 10
65.094260615346741
 20
-686.67131670334186
 30
0.0
 11
64.594260615346741
 21
-686.57131553994475
 31
0.0
  0
LINE
  5
18055
  8
1PHANTOM
 10
61.594260615346741
 20
-682.57130855956177
 30
0.0
 11
61.094260615346741
 21
-682.47130739616466
 31
0.0
  0
LINE
  5
18056
  8
1PHANTOM
 10
62.015175212555448
 20
-680.98407796212496
 30
0.0
 11
61.547076757405478
 21
-680.87130844977492
 31
0.0
  0
LINE
  5
18057
  8
1PHANTOM
 10
64.867853563142774
 20
-681.67131617653945
 30
0.0
 11
64.331259827871634
 21
-681.54204547890947
 31
0.0
  0
LINE
  5
18058
  8
1PHANTOM
 10
61.094260615346741
 20
-682.47130739616466
 30
0.0
 11
64.867853563142774
 21
-681.67131617653945
 31
0.0
  0
LINE
  5
18059
  8
1PHANTOM
 10
61.594260615346741
 20
-690.77130855956193
 30
0.0
 11
61.094260615346741
 21
-690.67130739616459
 31
0.0
  0
LINE
  5
1805A
  8
1PHANTOM
 10
65.094260615346741
 20
-689.87131670334202
 30
0.0
 11
64.594260615346741
 21
-689.77131553994514
 31
0.0
  0
LINE
  5
1805B
  8
1PHANTOM
 10
65.094260615346741
 20
-688.27131670334211
 30
0.0
 11
64.594260615346741
 21
-688.171315539945
 31
0.0
  0
LINE
  5
1805C
  8
1PHANTOM
 10
61.594260615346741
 20
-689.17130855956168
 30
0.0
 11
61.094260615346741
 21
-689.07130739616468
 31
0.0
  0
LINE
  5
1805D
  8
1PHANTOM
 10
61.094260615346741
 20
-689.07130739616468
 30
0.0
 11
65.094260615346741
 21
-688.27131670334211
 31
0.0
  0
LINE
  5
1805E
  8
1PHANTOM
 10
61.094260615346741
 20
-690.67130739616459
 30
0.0
 11
65.094260615346741
 21
-689.87131670334202
 31
0.0
  0
LINE
  5
1805F
  8
1PHANTOM
 10
65.094260615346741
 20
-691.47131670334215
 30
0.0
 11
64.594260615346741
 21
-691.37131553994482
 31
0.0
  0
LINE
  5
18060
  8
1PHANTOM
 10
59.094214079448818
 20
-706.87130274235824
 30
0.0
 11
67.094214079448818
 21
-706.87132135671732
 31
0.0
  0
LINE
  5
18061
  8
1PHANTOM
 10
61.094260615346741
 20
-703.47130739616887
 30
0.0
 11
65.094260615346741
 21
-702.67131670335084
 31
0.0
  0
LINE
  5
18062
  8
1PHANTOM
 10
61.594260615346741
 20
-701.97130855956243
 30
0.0
 11
61.094260615346741
 21
-701.87130739616464
 31
0.0
  0
LINE
  5
18063
  8
1PHANTOM
 10
65.094260615346741
 20
-702.67131670335084
 30
0.0
 11
64.594260615346741
 21
-702.57131553995305
 31
0.0
  0
LINE
  5
18064
  8
1PHANTOM
 10
61.594260615346741
 20
-698.77130855956239
 30
0.0
 11
61.094260615346741
 21
-698.67130739616448
 31
0.0
  0
LINE
  5
18065
  8
1PHANTOM
 10
61.094260615346741
 20
-700.27130739616473
 30
0.0
 11
65.094260615346741
 21
-699.47131670334647
 31
0.0
  0
LINE
  5
18066
  8
1PHANTOM
 10
65.094260615346741
 20
-699.47131670334647
 30
0.0
 11
64.594260615346741
 21
-699.37131553994891
 31
0.0
  0
LINE
  5
18067
  8
1PHANTOM
 10
61.594260615346741
 20
-700.37130855956252
 30
0.0
 11
61.094260615346741
 21
-700.27130739616473
 31
0.0
  0
LINE
  5
18068
  8
1PHANTOM
 10
65.094260615346741
 20
-701.07131670334638
 30
0.0
 11
64.594260615346741
 21
-700.97131553994882
 31
0.0
  0
LINE
  5
18069
  8
1PHANTOM
 10
65.094260615346741
 20
-696.27131670334199
 30
0.0
 11
64.594260615346741
 21
-696.171315539945
 31
0.0
  0
LINE
  5
1806A
  8
1PHANTOM
 10
65.094260615346741
 20
-697.87131670334634
 30
0.0
 11
64.594260615346741
 21
-697.77131553994866
 31
0.0
  0
LINE
  5
1806B
  8
1PHANTOM
 10
61.594260615346741
 20
-697.17130855956248
 30
0.0
 11
61.094260615346741
 21
-697.07130739616468
 31
0.0
  0
LINE
  5
1806C
  8
1PHANTOM
 10
61.594260615346741
 20
-695.57130855956177
 30
0.0
 11
61.094260615346741
 21
-695.47130739616478
 31
0.0
  0
LINE
  5
1806D
  8
1PHANTOM
 10
61.094260615346741
 20
-697.07130739616468
 30
0.0
 11
65.094260615346741
 21
-696.27131670334199
 31
0.0
  0
LINE
  5
1806E
  8
1PHANTOM
 10
61.094260615346741
 20
-698.67130739616448
 30
0.0
 11
65.094260615346741
 21
-697.87131670334634
 31
0.0
  0
LINE
  5
1806F
  8
1PHANTOM
 10
61.094260615346741
 20
-701.87130739616464
 30
0.0
 11
65.094260615346741
 21
-701.07131670334638
 31
0.0
  0
LINE
  5
18070
  8
1PHANTOM
 10
65.094260615346741
 20
-694.6713167033422
 30
0.0
 11
64.594260615346741
 21
-694.57131553994475
 31
0.0
  0
LINE
  5
18071
  8
1PHANTOM
 10
65.094260615346741
 20
-693.07131670334195
 30
0.0
 11
64.594260615346741
 21
-692.97131553994495
 31
0.0
  0
LINE
  5
18072
  8
1PHANTOM
 10
61.594260615346741
 20
-693.97130855956175
 30
0.0
 11
61.094260615346741
 21
-693.87130739616464
 31
0.0
  0
LINE
  5
18073
  8
1PHANTOM
 10
61.594260615346741
 20
-692.37130855956184
 30
0.0
 11
61.094260615346741
 21
-692.27130739616473
 31
0.0
  0
LINE
  5
18074
  8
1PHANTOM
 10
61.094260615346741
 20
-693.87130739616464
 30
0.0
 11
65.094260615346741
 21
-693.07131670334195
 31
0.0
  0
LINE
  5
18075
  8
1PHANTOM
 10
61.094260615346741
 20
-695.47130739616478
 30
0.0
 11
65.094260615346741
 21
-694.6713167033422
 31
0.0
  0
LINE
  5
18076
  8
1PHANTOM
 10
61.594260615346741
 20
-703.57130855956655
 30
0.0
 11
61.094260615346741
 21
-703.47130739616887
 31
0.0
  0
LINE
  5
18077
  8
1PHANTOM
 10
65.094260615346741
 20
-704.27131670335086
 30
0.0
 11
64.594260615346741
 21
-704.17131553995318
 31
0.0
  0
LINE
  5
18078
  8
1PHANTOM
 10
64.594260615346741
 20
-704.37131553995323
 30
0.0
 11
65.094260615346741
 21
-704.27131670335086
 31
0.0
  0
LINE
  5
18079
  8
1PHANTOM
 10
61.594260615346741
 20
-682.4713085595622
 30
0.0
 11
61.594260615346741
 21
-704.37126877110882
 31
0.0
  0
LINE
  5
1807A
  8
1PHANTOM
 10
63.094260615346741
 20
-677.17131204970133
 30
0.0
 11
61.594260615346741
 21
-682.4713085595622
 31
0.0
  0
LINE
  5
1807B
  8
1PHANTOM
 10
59.094214079448818
 20
-706.87130274235824
 30
0.0
 11
59.094214079448818
 21
-707.1713027423591
 31
0.0
  0
LINE
  5
1807C
  8
1PHANTOM
 10
63.094260615346741
 20
-677.17131204970133
 30
0.0
 11
64.594260615346741
 21
-682.47131553994654
 31
0.0
  0
LINE
  5
1807D
  8
1PHANTOM
 10
59.094214079448818
 20
-707.1713027423591
 30
0.0
 11
67.094214079448818
 21
-707.17132135671841
 31
0.0
  0
LINE
  5
1807E
  8
1PHANTOM
 10
64.594260615346741
 20
-682.47131553994654
 30
0.0
 11
64.594260615346627
 21
-704.37136184290443
 31
0.0
  0
LINE
  5
1807F
  8
1PHANTOM
 10
67.094214079448818
 20
-706.87132135671732
 30
0.0
 11
67.094214079448818
 21
-707.17132135671841
 31
0.0
  0
LINE
  5
18080
  8
1CENTER
 10
63.094214079448811
 20
-674.21039745839289
 30
0.0
 11
63.094214079448811
 21
-710.8415884588477
 31
0.0
  0
LINE
  5
18083
  8
1PHANTOM
 10
-124.2457859205519
 20
-706.87130274235835
 30
0.0
 11
-121.745739384654
 21
-704.37126877110904
 31
0.0
  0
LINE
  5
18084
  8
1PHANTOM
 10
-116.2457859205519
 20
-706.87132135671754
 30
0.0
 11
-118.7457393846541
 21
-704.37136184290455
 31
0.0
  0
LINE
  5
18085
  8
1PHANTOM
 10
-122.2457393846539
 20
-692.27130739616496
 30
0.0
 11
-118.2457393846539
 21
-691.47131670334238
 31
0.0
  0
LINE
  5
18086
  8
1PHANTOM
 10
-121.79292324259519
 20
-680.87130844977514
 30
0.0
 11
-118.9249605412647
 21
-680.07131512293404
 31
0.0
  0
LINE
  5
18087
  8
1PHANTOM
 10
-119.37777464567149
 20
-678.4713140693284
 30
0.0
 11
-119.96605122071389
 21
-678.15954421307629
 31
0.0
  0
LINE
  5
18088
  8
1PHANTOM
 10
-120.88293789391589
 20
-679.42274529981978
 30
0.0
 11
-121.3401097345469
 21
-679.27130950337937
 31
0.0
  0
LINE
  5
18089
  8
1PHANTOM
 10
-118.9249605412647
 20
-680.07131512293404
 30
0.0
 11
-119.476710005068
 21
-679.88855098030604
 31
0.0
  0
LINE
  5
1808A
  8
1PHANTOM
 10
-121.3401097345469
 20
-679.27130950337937
 30
0.0
 11
-119.37777464567149
 21
-678.4713140693284
 31
0.0
  0
LINE
  5
1808B
  8
1PHANTOM
 10
-121.745739384654
 20
-684.37130855956184
 30
0.0
 11
-122.2457393846539
 21
-684.27130739616473
 31
0.0
  0
LINE
  5
1808C
  8
1PHANTOM
 10
-122.2457393846539
 20
-684.27130739616473
 30
0.0
 11
-118.2457393846539
 21
-683.47131670334215
 31
0.0
  0
LINE
  5
1808D
  8
1PHANTOM
 10
-118.2457393846539
 20
-683.47131670334215
 30
0.0
 11
-118.745739384654
 21
-683.37131553994504
 31
0.0
  0
LINE
  5
1808E
  8
1PHANTOM
 10
-121.745739384654
 20
-685.97130855956186
 30
0.0
 11
-122.2457393846539
 21
-685.87130739616487
 31
0.0
  0
LINE
  5
1808F
  8
1PHANTOM
 10
-118.2457393846539
 20
-685.07131670334229
 30
0.0
 11
-118.745739384654
 21
-684.97131553994507
 31
0.0
  0
LINE
  5
18090
  8
1PHANTOM
 10
-122.2457393846539
 20
-685.87130739616487
 30
0.0
 11
-118.2457393846539
 21
-685.07131670334229
 31
0.0
  0
LINE
  5
18091
  8
1PHANTOM
 10
-121.745739384654
 20
-687.57130855956177
 30
0.0
 11
-122.2457393846539
 21
-687.47130739616478
 31
0.0
  0
LINE
  5
18092
  8
1PHANTOM
 10
-122.2457393846539
 20
-687.47130739616478
 30
0.0
 11
-118.2457393846539
 21
-686.6713167033422
 31
0.0
  0
LINE
  5
18093
  8
1PHANTOM
 10
-118.2457393846539
 20
-686.6713167033422
 30
0.0
 11
-118.745739384654
 21
-686.57131553994509
 31
0.0
  0
LINE
  5
18094
  8
1PHANTOM
 10
-121.745739384654
 20
-682.57130855956211
 30
0.0
 11
-122.2457393846539
 21
-682.471307396165
 31
0.0
  0
LINE
  5
18095
  8
1PHANTOM
 10
-121.32482478744519
 20
-680.98407796212518
 30
0.0
 11
-121.79292324259519
 21
-680.87130844977514
 31
0.0
  0
LINE
  5
18096
  8
1PHANTOM
 10
-118.4721464368579
 20
-681.67131617653956
 30
0.0
 11
-119.00874017212909
 21
-681.54204547890981
 31
0.0
  0
LINE
  5
18097
  8
1PHANTOM
 10
-122.2457393846539
 20
-682.471307396165
 30
0.0
 11
-118.4721464368579
 21
-681.67131617653956
 31
0.0
  0
LINE
  5
18098
  8
1PHANTOM
 10
-121.745739384654
 20
-690.77130855956204
 30
0.0
 11
-122.2457393846539
 21
-690.67130739616482
 31
0.0
  0
LINE
  5
18099
  8
1PHANTOM
 10
-118.2457393846539
 20
-689.87131670334225
 30
0.0
 11
-118.745739384654
 21
-689.77131553994525
 31
0.0
  0
LINE
  5
1809A
  8
1PHANTOM
 10
-118.2457393846539
 20
-688.27131670334234
 30
0.0
 11
-118.745739384654
 21
-688.17131553994523
 31
0.0
  0
LINE
  5
1809B
  8
1PHANTOM
 10
-121.745739384654
 20
-689.17130855956202
 30
0.0
 11
-122.2457393846539
 21
-689.07130739616491
 31
0.0
  0
LINE
  5
1809C
  8
1PHANTOM
 10
-122.2457393846539
 20
-689.07130739616491
 30
0.0
 11
-118.2457393846539
 21
-688.27131670334234
 31
0.0
  0
LINE
  5
1809D
  8
1PHANTOM
 10
-122.2457393846539
 20
-690.67130739616482
 30
0.0
 11
-118.2457393846539
 21
-689.87131670334225
 31
0.0
  0
LINE
  5
1809E
  8
1PHANTOM
 10
-118.2457393846539
 20
-691.47131670334238
 30
0.0
 11
-118.745739384654
 21
-691.37131553994504
 31
0.0
  0
LINE
  5
1809F
  8
1PHANTOM
 10
-124.2457859205519
 20
-706.87130274235835
 30
0.0
 11
-116.2457859205519
 21
-706.87132135671754
 31
0.0
  0
LINE
  5
180A0
  8
1PHANTOM
 10
-122.2457393846539
 20
-703.47130739616898
 30
0.0
 11
-118.2457393846539
 21
-702.67131670335095
 31
0.0
  0
LINE
  5
180A1
  8
1PHANTOM
 10
-121.745739384654
 20
-701.97130855956254
 30
0.0
 11
-122.2457393846539
 21
-701.87130739616487
 31
0.0
  0
LINE
  5
180A2
  8
1PHANTOM
 10
-118.2457393846539
 20
-702.67131670335095
 30
0.0
 11
-118.745739384654
 21
-702.57131553995316
 31
0.0
  0
LINE
  5
180A3
  8
1PHANTOM
 10
-121.745739384654
 20
-698.7713085595625
 30
0.0
 11
-122.2457393846539
 21
-698.67130739616482
 31
0.0
  0
LINE
  5
180A4
  8
1PHANTOM
 10
-122.2457393846539
 20
-700.27130739616496
 30
0.0
 11
-118.2457393846539
 21
-699.4713167033467
 31
0.0
  0
LINE
  5
180A5
  8
1PHANTOM
 10
-118.2457393846539
 20
-699.4713167033467
 30
0.0
 11
-118.745739384654
 21
-699.37131553994914
 31
0.0
  0
LINE
  5
180A6
  8
1PHANTOM
 10
-121.745739384654
 20
-700.37130855956275
 30
0.0
 11
-122.2457393846539
 21
-700.27130739616496
 31
0.0
  0
LINE
  5
180A7
  8
1PHANTOM
 10
-118.2457393846539
 20
-701.07131670334661
 30
0.0
 11
-118.745739384654
 21
-700.97131553994905
 31
0.0
  0
LINE
  5
180A8
  8
1PHANTOM
 10
-118.2457393846539
 20
-696.27131670334234
 30
0.0
 11
-118.745739384654
 21
-696.17131553994523
 31
0.0
  0
LINE
  5
180A9
  8
1PHANTOM
 10
-118.2457393846539
 20
-697.87131670334657
 30
0.0
 11
-118.745739384654
 21
-697.771315539949
 31
0.0
  0
LINE
  5
180AA
  8
1PHANTOM
 10
-121.745739384654
 20
-697.17130855956259
 30
0.0
 11
-122.2457393846539
 21
-697.07130739616491
 31
0.0
  0
LINE
  5
180AB
  8
1PHANTOM
 10
-121.745739384654
 20
-695.57130855956211
 30
0.0
 11
-122.2457393846539
 21
-695.471307396165
 31
0.0
  0
LINE
  5
180AC
  8
1PHANTOM
 10
-122.2457393846539
 20
-697.07130739616491
 30
0.0
 11
-118.2457393846539
 21
-696.27131670334234
 31
0.0
  0
LINE
  5
180AD
  8
1PHANTOM
 10
-122.2457393846539
 20
-698.67130739616482
 30
0.0
 11
-118.2457393846539
 21
-697.87131670334657
 31
0.0
  0
LINE
  5
180AE
  8
1PHANTOM
 10
-122.2457393846539
 20
-701.87130739616487
 30
0.0
 11
-118.2457393846539
 21
-701.07131670334661
 31
0.0
  0
LINE
  5
180AF
  8
1PHANTOM
 10
-118.2457393846539
 20
-694.67131670334243
 30
0.0
 11
-118.745739384654
 21
-694.57131553994509
 31
0.0
  0
LINE
  5
180B0
  8
1PHANTOM
 10
-118.2457393846539
 20
-693.07131670334229
 30
0.0
 11
-118.745739384654
 21
-692.97131553994507
 31
0.0
  0
LINE
  5
180B1
  8
1PHANTOM
 10
-121.745739384654
 20
-693.97130855956186
 30
0.0
 11
-122.2457393846539
 21
-693.87130739616487
 31
0.0
  0
LINE
  5
180B2
  8
1PHANTOM
 10
-121.745739384654
 20
-692.37130855956195
 30
0.0
 11
-122.2457393846539
 21
-692.27130739616496
 31
0.0
  0
LINE
  5
180B3
  8
1PHANTOM
 10
-122.2457393846539
 20
-693.87130739616487
 30
0.0
 11
-118.2457393846539
 21
-693.07131670334229
 31
0.0
  0
LINE
  5
180B4
  8
1PHANTOM
 10
-122.2457393846539
 20
-695.471307396165
 30
0.0
 11
-118.2457393846539
 21
-694.67131670334243
 31
0.0
  0
LINE
  5
180B5
  8
1PHANTOM
 10
-121.745739384654
 20
-703.57130855956677
 30
0.0
 11
-122.2457393846539
 21
-703.47130739616898
 31
0.0
  0
LINE
  5
180B6
  8
1PHANTOM
 10
-118.2457393846539
 20
-704.2713167033512
 30
0.0
 11
-118.745739384654
 21
-704.17131553995341
 31
0.0
  0
LINE
  5
180B7
  8
1PHANTOM
 10
-118.745739384654
 20
-704.37131553995334
 30
0.0
 11
-118.2457393846539
 21
-704.2713167033512
 31
0.0
  0
LINE
  5
180B8
  8
1PHANTOM
 10
-121.745739384654
 20
-682.47130855956243
 30
0.0
 11
-121.745739384654
 21
-704.37126877110904
 31
0.0
  0
LINE
  5
180B9
  8
1PHANTOM
 10
-120.2457393846539
 20
-677.17131204970156
 30
0.0
 11
-121.745739384654
 21
-682.47130855956243
 31
0.0
  0
LINE
  5
180BA
  8
1PHANTOM
 10
-124.2457859205519
 20
-706.87130274235835
 30
0.0
 11
-124.2457859205519
 21
-707.17130274235933
 31
0.0
  0
LINE
  5
180BB
  8
1PHANTOM
 10
-120.2457393846539
 20
-677.17131204970156
 30
0.0
 11
-118.745739384654
 21
-682.47131553994666
 31
0.0
  0
LINE
  5
180BC
  8
1PHANTOM
 10
-124.2457859205519
 20
-707.17130274235933
 30
0.0
 11
-116.2457859205519
 21
-707.17132135671864
 31
0.0
  0
LINE
  5
180BD
  8
1PHANTOM
 10
-118.745739384654
 20
-682.47131553994666
 30
0.0
 11
-118.7457393846541
 21
-704.37136184290455
 31
0.0
  0
LINE
  5
180BE
  8
1PHANTOM
 10
-116.2457859205519
 20
-706.87132135671754
 30
0.0
 11
-116.2457859205519
 21
-707.17132135671864
 31
0.0
  0
LINE
  5
180BF
  8
1CENTER
 10
-120.245785920552
 20
-674.21039745839335
 30
0.0
 11
-120.245785920552
 21
-710.84158845884804
 31
0.0
  0
LINE
  5
183EC
  8
01
 10
-328.57578592055188
 20
-855.37131530700742
 30
0.0
 11
-328.57578592055171
 21
-889.37131530700731
 31
0.0
  0
ARC
  5
183ED
  8
01
 10
-327.5757859205516
 20
-889.37131530700731
 30
0.0
 40
1.0
 50
180.0
 51
270.0
  0
CIRCLE
  5
183EF
  8
1PHANTOM
 10
-303.57578592055103
 20
-873.37131530700731
 30
0.0
 40
2.2000000000000002
  0
ARC
  5
183F0
  8
01
 10
-327.57578592055188
 20
-855.37131530700742
 30
0.0
 40
1.0
 50
90.0
 51
180.0
  0
ARC
  5
183F1
  8
01
 10
-327.57578592055188
 20
-861.37131530700765
 30
0.0
 40
1.0
 50
180.0
 51
270.0
  0
LINE
  5
183F2
  8
01
 10
-328.57578592055211
 20
-823.37131530700754
 30
0.0
 11
-328.57578592055279
 21
-705.37131530700731
 31
0.0
  0
ARC
  5
183F3
  8
01
 10
-327.57578592055211
 20
-823.37131530700754
 30
0.0
 40
1.0
 50
180.0
 51
270.0
  0
ARC
  5
183F4
  8
01
 10
-327.57578592055279
 20
-705.37131530700731
 30
0.0
 40
1.0
 50
90.0
 51
180.0
  0
LINE
  5
183F5
  8
1CENTER
 10
-303.57578592055103
 20
-876.37131530700708
 30
0.0
 11
-303.57578592055103
 21
-870.37131530700719
 31
0.0
  0
LINE
  5
183F6
  8
1CENTER
 10
-306.57578592055103
 20
-873.37131530700719
 30
0.0
 11
-300.57578592055103
 21
-873.37131530700719
 31
0.0
  0
LINE
  5
183F7
  8
1PHANTOM
 10
-307.57578592055188
 20
-706.87130274235835
 30
0.0
 11
-305.07573938465401
 21
-704.37126877110904
 31
0.0
  0
LINE
  5
183F8
  8
1PHANTOM
 10
-299.57578592055188
 20
-706.87132135671754
 30
0.0
 11
-302.07573938465413
 21
-704.37136184290455
 31
0.0
  0
LINE
  5
183F9
  8
1PHANTOM
 10
-305.57573938465401
 20
-692.27130739616496
 30
0.0
 11
-301.57573938465401
 21
-691.47131670334238
 31
0.0
  0
LINE
  5
183FA
  8
1PHANTOM
 10
-305.12292324259522
 20
-680.87130844977514
 30
0.0
 11
-302.25496054126472
 21
-680.07131512293404
 31
0.0
  0
LINE
  5
183FB
  8
1PHANTOM
 10
-302.70777464567152
 20
-678.4713140693284
 30
0.0
 11
-303.29605122071388
 21
-678.15954421307629
 31
0.0
  0
LINE
  5
183FC
  8
1PHANTOM
 10
-304.21293789391592
 20
-679.42274529981978
 30
0.0
 11
-304.670109734547
 21
-679.27130950337937
 31
0.0
  0
LINE
  5
183FD
  8
1PHANTOM
 10
-302.25496054126472
 20
-680.07131512293404
 30
0.0
 11
-302.806710005068
 21
-679.88855098030604
 31
0.0
  0
LINE
  5
183FE
  8
1PHANTOM
 10
-304.670109734547
 20
-679.27130950337937
 30
0.0
 11
-302.70777464567152
 21
-678.4713140693284
 31
0.0
  0
LINE
  5
183FF
  8
1PHANTOM
 10
-305.07573938465401
 20
-684.37130855956184
 30
0.0
 11
-305.57573938465401
 21
-684.27130739616473
 31
0.0
  0
LINE
  5
18400
  8
1PHANTOM
 10
-305.57573938465401
 20
-684.27130739616473
 30
0.0
 11
-301.57573938465401
 21
-683.47131670334215
 31
0.0
  0
LINE
  5
18401
  8
1PHANTOM
 10
-301.57573938465401
 20
-683.47131670334215
 30
0.0
 11
-302.0757393846539
 21
-683.37131553994504
 31
0.0
  0
LINE
  5
18402
  8
1PHANTOM
 10
-305.07573938465401
 20
-685.97130855956186
 30
0.0
 11
-305.57573938465401
 21
-685.87130739616487
 31
0.0
  0
LINE
  5
18403
  8
1PHANTOM
 10
-301.57573938465401
 20
-685.07131670334229
 30
0.0
 11
-302.0757393846539
 21
-684.97131553994507
 31
0.0
  0
LINE
  5
18404
  8
1PHANTOM
 10
-305.57573938465401
 20
-685.87130739616487
 30
0.0
 11
-301.57573938465401
 21
-685.07131670334229
 31
0.0
  0
LINE
  5
18405
  8
1PHANTOM
 10
-305.07573938465401
 20
-687.57130855956177
 30
0.0
 11
-305.57573938465401
 21
-687.47130739616478
 31
0.0
  0
LINE
  5
18406
  8
1PHANTOM
 10
-305.57573938465401
 20
-687.47130739616478
 30
0.0
 11
-301.57573938465401
 21
-686.6713167033422
 31
0.0
  0
LINE
  5
18407
  8
1PHANTOM
 10
-301.57573938465401
 20
-686.6713167033422
 30
0.0
 11
-302.0757393846539
 21
-686.57131553994509
 31
0.0
  0
LINE
  5
18408
  8
1PHANTOM
 10
-305.07573938465401
 20
-682.57130855956211
 30
0.0
 11
-305.57573938465401
 21
-682.471307396165
 31
0.0
  0
LINE
  5
18409
  8
1PHANTOM
 10
-304.65482478744519
 20
-680.98407796212518
 30
0.0
 11
-305.12292324259522
 21
-680.87130844977514
 31
0.0
  0
LINE
  5
1840A
  8
1PHANTOM
 10
-301.80214643685792
 20
-681.67131617653956
 30
0.0
 11
-302.33874017212901
 21
-681.54204547890981
 31
0.0
  0
LINE
  5
1840B
  8
1PHANTOM
 10
-305.57573938465401
 20
-682.471307396165
 30
0.0
 11
-301.80214643685792
 21
-681.67131617653956
 31
0.0
  0
LINE
  5
1840C
  8
1PHANTOM
 10
-305.07573938465401
 20
-690.77130855956204
 30
0.0
 11
-305.57573938465401
 21
-690.67130739616482
 31
0.0
  0
LINE
  5
1840D
  8
1PHANTOM
 10
-301.57573938465401
 20
-689.87131670334225
 30
0.0
 11
-302.0757393846539
 21
-689.77131553994525
 31
0.0
  0
LINE
  5
1840E
  8
1PHANTOM
 10
-301.57573938465401
 20
-688.27131670334234
 30
0.0
 11
-302.0757393846539
 21
-688.17131553994523
 31
0.0
  0
LINE
  5
1840F
  8
1PHANTOM
 10
-305.07573938465401
 20
-689.17130855956202
 30
0.0
 11
-305.57573938465401
 21
-689.07130739616491
 31
0.0
  0
LINE
  5
18410
  8
1PHANTOM
 10
-305.57573938465401
 20
-689.07130739616491
 30
0.0
 11
-301.57573938465401
 21
-688.27131670334234
 31
0.0
  0
LINE
  5
18411
  8
1PHANTOM
 10
-305.57573938465401
 20
-690.67130739616482
 30
0.0
 11
-301.57573938465401
 21
-689.87131670334225
 31
0.0
  0
LINE
  5
18412
  8
1PHANTOM
 10
-301.57573938465401
 20
-691.47131670334238
 30
0.0
 11
-302.0757393846539
 21
-691.37131553994504
 31
0.0
  0
LINE
  5
18413
  8
1PHANTOM
 10
-307.57578592055188
 20
-706.87130274235835
 30
0.0
 11
-299.57578592055188
 21
-706.87132135671754
 31
0.0
  0
LINE
  5
18414
  8
1PHANTOM
 10
-305.57573938465401
 20
-703.47130739616898
 30
0.0
 11
-301.57573938465401
 21
-702.67131670335095
 31
0.0
  0
LINE
  5
18415
  8
1PHANTOM
 10
-305.07573938465401
 20
-701.97130855956254
 30
0.0
 11
-305.57573938465401
 21
-701.87130739616487
 31
0.0
  0
LINE
  5
18416
  8
1PHANTOM
 10
-301.57573938465401
 20
-702.67131670335095
 30
0.0
 11
-302.0757393846539
 21
-702.57131553995316
 31
0.0
  0
LINE
  5
18417
  8
1PHANTOM
 10
-305.07573938465401
 20
-698.7713085595625
 30
0.0
 11
-305.57573938465401
 21
-698.67130739616482
 31
0.0
  0
LINE
  5
18418
  8
1PHANTOM
 10
-305.57573938465401
 20
-700.27130739616496
 30
0.0
 11
-301.57573938465401
 21
-699.4713167033467
 31
0.0
  0
LINE
  5
18419
  8
1PHANTOM
 10
-301.57573938465401
 20
-699.4713167033467
 30
0.0
 11
-302.0757393846539
 21
-699.37131553994914
 31
0.0
  0
LINE
  5
1841A
  8
1PHANTOM
 10
-305.07573938465401
 20
-700.37130855956275
 30
0.0
 11
-305.57573938465401
 21
-700.27130739616496
 31
0.0
  0
LINE
  5
1841B
  8
1PHANTOM
 10
-301.57573938465401
 20
-701.07131670334661
 30
0.0
 11
-302.0757393846539
 21
-700.97131553994905
 31
0.0
  0
LINE
  5
1841C
  8
1PHANTOM
 10
-301.57573938465401
 20
-696.27131670334234
 30
0.0
 11
-302.0757393846539
 21
-696.17131553994523
 31
0.0
  0
LINE
  5
1841D
  8
1PHANTOM
 10
-301.57573938465401
 20
-697.87131670334657
 30
0.0
 11
-302.0757393846539
 21
-697.771315539949
 31
0.0
  0
LINE
  5
1841E
  8
1PHANTOM
 10
-305.07573938465401
 20
-697.17130855956259
 30
0.0
 11
-305.57573938465401
 21
-697.07130739616491
 31
0.0
  0
LINE
  5
1841F
  8
1PHANTOM
 10
-305.07573938465401
 20
-695.57130855956211
 30
0.0
 11
-305.57573938465401
 21
-695.471307396165
 31
0.0
  0
LINE
  5
18420
  8
1PHANTOM
 10
-305.57573938465401
 20
-697.07130739616491
 30
0.0
 11
-301.57573938465401
 21
-696.27131670334234
 31
0.0
  0
LINE
  5
18421
  8
1PHANTOM
 10
-305.57573938465401
 20
-698.67130739616482
 30
0.0
 11
-301.57573938465401
 21
-697.87131670334657
 31
0.0
  0
LINE
  5
18422
  8
1PHANTOM
 10
-305.57573938465401
 20
-701.87130739616487
 30
0.0
 11
-301.57573938465401
 21
-701.07131670334661
 31
0.0
  0
LINE
  5
18423
  8
1PHANTOM
 10
-301.57573938465401
 20
-694.67131670334243
 30
0.0
 11
-302.0757393846539
 21
-694.57131553994509
 31
0.0
  0
LINE
  5
18424
  8
1PHANTOM
 10
-301.57573938465401
 20
-693.07131670334229
 30
0.0
 11
-302.0757393846539
 21
-692.97131553994507
 31
0.0
  0
LINE
  5
18425
  8
1PHANTOM
 10
-305.07573938465401
 20
-693.97130855956186
 30
0.0
 11
-305.57573938465401
 21
-693.87130739616487
 31
0.0
  0
LINE
  5
18426
  8
1PHANTOM
 10
-305.07573938465401
 20
-692.37130855956195
 30
0.0
 11
-305.57573938465401
 21
-692.27130739616496
 31
0.0
  0
LINE
  5
18427
  8
1PHANTOM
 10
-305.57573938465401
 20
-693.87130739616487
 30
0.0
 11
-301.57573938465401
 21
-693.07131670334229
 31
0.0
  0
LINE
  5
18428
  8
1PHANTOM
 10
-305.57573938465401
 20
-695.471307396165
 30
0.0
 11
-301.57573938465401
 21
-694.67131670334243
 31
0.0
  0
LINE
  5
18429
  8
1PHANTOM
 10
-305.07573938465401
 20
-703.57130855956677
 30
0.0
 11
-305.57573938465401
 21
-703.47130739616898
 31
0.0
  0
LINE
  5
1842A
  8
1PHANTOM
 10
-301.57573938465401
 20
-704.2713167033512
 30
0.0
 11
-302.0757393846539
 21
-704.17131553995341
 31
0.0
  0
LINE
  5
1842B
  8
1PHANTOM
 10
-302.0757393846539
 20
-704.37131553995334
 30
0.0
 11
-301.57573938465401
 21
-704.2713167033512
 31
0.0
  0
LINE
  5
1842C
  8
1PHANTOM
 10
-305.07573938465401
 20
-682.47130855956243
 30
0.0
 11
-305.07573938465401
 21
-704.37126877110904
 31
0.0
  0
LINE
  5
1842D
  8
1PHANTOM
 10
-303.57573938465401
 20
-677.17131204970156
 30
0.0
 11
-305.07573938465401
 21
-682.47130855956243
 31
0.0
  0
LINE
  5
1842E
  8
1PHANTOM
 10
-307.57578592055188
 20
-706.87130274235835
 30
0.0
 11
-307.57578592055188
 21
-707.17130274235933
 31
0.0
  0
LINE
  5
1842F
  8
1PHANTOM
 10
-303.57573938465401
 20
-677.17131204970156
 30
0.0
 11
-302.0757393846539
 21
-682.47131553994666
 31
0.0
  0
LINE
  5
18430
  8
1PHANTOM
 10
-307.57578592055188
 20
-707.17130274235933
 30
0.0
 11
-299.57578592055188
 21
-707.17132135671864
 31
0.0
  0
LINE
  5
18431
  8
1PHANTOM
 10
-302.0757393846539
 20
-682.47131553994666
 30
0.0
 11
-302.07573938465413
 21
-704.37136184290455
 31
0.0
  0
LINE
  5
18432
  8
1PHANTOM
 10
-299.57578592055188
 20
-706.87132135671754
 30
0.0
 11
-299.57578592055188
 21
-707.17132135671864
 31
0.0
  0
LINE
  5
18433
  8
1CENTER
 10
-303.57578592055199
 20
-674.21039745839335
 30
0.0
 11
-303.57578592055199
 21
-710.84158845884804
 31
0.0
  0
TEXT
  5
185CA
  8
1TEXT
 10
361.42421407944721
 20
-825.37131530700685
 30
0.0
 40
8.0
  1
SA584S600
  0
TEXT
  5
185CD
  8
1TEXT
 10
368.17659503182779
 20
-835.87131530700663
 30
0.0
 40
4.0
  1
表面処理：
 72
     1
 11
378.82421407944679
 21
-835.87131530700663
 31
0.0
  0
LINE
  5
185CF
  8
1DIM
 10
361.42421407944721
 20
-830.37131530700663
 30
0.0
 11
431.4242140794471
 21
-830.37131530700663
 31
0.0
  0
LINE
  5
185D0
  8
1DIM
 10
361.42421407944721
 20
-837.37131530700674
 30
0.0
 11
431.4242140794471
 21
-837.37131530700674
 31
0.0
  0
LINE
  5
185D1
  8
1DIM
 10
361.42421407944721
 20
-844.37131530700674
 30
0.0
 11
431.4242140794471
 21
-844.37131530700674
 31
0.0
  0
LINE
  5
185D2
  8
1DIM
 10
361.42421407944721
 20
-844.37131530700674
 30
0.0
 11
431.4242140794471
 21
-844.37131530700674
 31
0.0
  0
LINE
  5
185D3
  8
1DIM
 10
396.42421407944721
 20
-830.37131530700663
 30
0.0
 11
396.42421407944721
 21
-844.37131530700651
 31
0.0
  0
TEXT
  5
185D4
  8
1TEXT
 10
397.15754741278101
 20
-843.08567229065613
 30
0.0
 40
4.0
  1
SA584S600
 72
     1
 11
413.8242140794477
 21
-843.08567229065613
 31
0.0
  0
TEXT
  5
185D5
  8
1TEXT
 10
407.02421407944672
 20
-835.87131530700663
 30
0.0
 40
4.0
  1
コード
 72
     1
 11
413.82421407944668
 21
-835.87131530700663
 31
0.0
  0
LINE
  5
185D6
  8
1DIM
 10
361.42421407944721
 20
-844.37131530700651
 30
0.0
 11
361.42421407944721
 21
-830.37131530700663
 31
0.0
  0
LINE
  5
185D7
  8
1DIM
 10
431.4242140794471
 20
-844.37131530700651
 30
0.0
 11
431.4242140794471
 21
-830.37131530700663
 31
0.0
  0
TEXT
  5
19149
  8
1TEXT
 10
362.45813086373408
 20
-843.03399688275533
 30
0.0
 40
4.0
  1
ブラストアルマイト
 41
0.8
 72
     1
 11
379.20479753040081
 21
-843.03399688275533
 31
0.0
  0
TEXT
  5
1917E
  8
1DIM
 10
349.23542470028121
 20
-897.69870822323094
 30
0.0
 40
3.5
  1
材質：PET樹脂シール（シルバー色）
  0
SOLID
  5
1917F
  8
1DIM
 10
436.87194635308902
 20
-873.67909059942883
 30
0.0
 11
438.1880075227258
 21
-872.13665936631503
 31
0.0
 12
437.44333276218731
 22
-874.02254658779145
 32
0.0
 13
437.44333276218731
 23
-874.02254658779145
 33
0.0
  0
LINE
  5
19181
  8
1DIM
 10
434.96863762838859
 20
-857.37131530700685
 30
0.0
 11
483.62421733691502
 21
-857.37131530700685
 31
0.0
  0
LINE
  5
19182
  8
1DIM
 10
471.58513192806112
 20
-873.3713153070064
 30
0.0
 11
483.62421733691502
 21
-873.3713153070064
 31
0.0
  0
LINE
  5
19183
  8
1DIM
 10
482.62421733691502
 20
-859.37131530700674
 30
0.0
 11
482.62421733691502
 21
-871.37131530700628
 31
0.0
  0
LINE
  5
19187
  8
1DIM1
 10
-303.57578592055103
 20
-876.37131530700708
 30
0.0
 11
-303.57578592055103
 21
-923.37131530700628
 31
0.0
  0
LINE
  5
19188
  8
1DIM1
 10
-120.245785920551
 20
-876.37131530700708
 30
0.0
 11
-120.245785920551
 21
-923.37131530700628
 31
0.0
  0
LINE
  5
19189
  8
1DIM1
 10
-297.57578592055103
 20
-920.37131530700628
 30
0.0
 11
-126.245785920551
 21
-920.37131530700628
 31
0.0
  0
LINE
  5
1918D
  8
1DIM1
 10
-120.245785920551
 20
-876.37131530700708
 30
0.0
 11
-120.245785920551
 21
-923.3713153070064
 31
0.0
  0
LINE
  5
1918E
  8
1DIM1
 10
63.094214079449038
 20
-876.3713153070064
 30
0.0
 11
63.094214079449038
 21
-923.3713153070064
 31
0.0
  0
LINE
  5
1918F
  8
1DIM1
 10
-114.245785920551
 20
-920.37131530700628
 30
0.0
 11
57.094214079449053
 21
-920.37131530700628
 31
0.0
  0
TEXT
  5
19193
  8
1DIM
 10
445.07931532183812
 20
-813.07947250034238
 30
0.0
 40
3.5
  1
PB
  0
SOLID
  5
19194
  8
1DIM
 10
445.98384543348112
 20
-832.23223350403225
 30
0.0
 11
446.00418270152522
 21
-834.2597190173318
 31
0.0
 12
445.32738187608891
 22
-832.34842318627886
 32
0.0
 13
445.32738187608891
 23
-832.34842318627886
 33
0.0
  0
SOLID
  5
19196
  8
1DIM
 10
454.04736624601179
 20
-832.23662003413131
 30
0.0
 11
454.50216491546638
 21
-834.21254242161865
 31
0.0
 12
453.43111026463498
 22
-832.4909289208457
 32
0.0
 13
453.43111026463498
 23
-832.4909289208457
 33
0.0
  0
TEXT
  5
19198
  8
1DIM
 10
451.24665981637679
 20
-819.08081851746635
 30
0.0
 40
3.5
  1
合板9mm以上
  0
LINE
  5
19199
  8
1DIM
 10
323.09965875911053
 20
-854.37131530700674
 30
0.0
 11
300.42421407944721
 21
-854.37131530700674
 31
0.0
  0
LINE
  5
1919A
  8
1DIM
 10
439.92421407944721
 20
-890.37131530700663
 30
0.0
 11
300.42421407944721
 21
-890.37131530700663
 31
0.0
  0
LINE
  5
1919B
  8
1DIM
 10
301.42421407944721
 20
-856.37131530700663
 30
0.0
 11
301.42421407944721
 21
-888.37131530700674
 31
0.0
  0
LINE
  5
1919F
  8
1DIM
 10
270.42421407944721
 20
-824.3713153070064
 30
0.0
 11
292.42421407944721
 21
-824.3713153070064
 31
0.0
  0
LINE
  5
191A0
  8
1DIM
 10
270.42421407944721
 20
-704.3713153070064
 30
0.0
 11
292.42421407944721
 21
-704.3713153070064
 31
0.0
  0
LINE
  5
191A1
  8
1DIM
 10
291.42421407944721
 20
-822.37131530700651
 30
0.0
 11
291.42421407944721
 21
-706.3713153070064
 31
0.0
  0
LINE
  5
191A5
  8
1DIM
 10
323.09965875911098
 20
-862.37131530700674
 30
0.0
 11
310.42421407944721
 21
-862.37131530700674
 31
0.0
  0
LINE
  5
191A6
  8
1DIM
 10
323.09965875911053
 20
-854.37131530700674
 30
0.0
 11
310.42421407944721
 21
-854.37131530700674
 31
0.0
  0
LINE
  5
191A7
  8
1DIM
 10
311.42421407944721
 20
-860.37131530700651
 30
0.0
 11
311.42421407944721
 21
-856.37131530700663
 31
0.0
  0
LINE
  5
191AB
  8
1DIM
 10
441.4242140794471
 20
-889.37131530700663
 30
0.0
 11
441.4242140794471
 21
-901.3713153070064
 31
0.0
  0
LINE
  5
191AC
  8
1DIM
 10
437.92421407944721
 20
-888.37131530700674
 30
0.0
 11
437.92421407944721
 21
-901.3713153070064
 31
0.0
  0
LINE
  5
191AD
  8
1DIM
 10
443.42421407944721
 20
-900.3713153070064
 30
0.0
 11
445.4242140794471
 21
-900.3713153070064
 31
0.0
  0
LINE
  5
191AE
  8
1DIM
 10
435.92421407944721
 20
-900.3713153070064
 30
0.0
 11
425.19088074611392
 21
-900.3713153070064
 31
0.0
  0
LINE
  5
191AF
  8
1DIM
 10
441.4242140794471
 20
-900.3713153070064
 30
0.0
 11
437.92421407944721
 21
-900.3713153070064
 31
0.0
  0
LINE
  5
191B3
  8
1DIM
 10
321.42421407944721
 20
-858.37131530700663
 30
0.0
 11
321.42421407944721
 21
-911.37131530700628
 31
0.0
  0
LINE
  5
191B4
  8
1DIM
 10
441.4242140794471
 20
-889.37131530700663
 30
0.0
 11
441.4242140794471
 21
-911.37131530700628
 31
0.0
  0
LINE
  5
191B5
  8
1DIM
 10
323.42421407944721
 20
-910.3713153070064
 30
0.0
 11
439.42421407944721
 21
-910.3713153070064
 31
0.0
  0
LINE
  5
191B9
  8
1DIM1
 10
-328.57578592055279
 20
-889.37131530700731
 30
0.0
 11
-328.57578592055279
 21
-953.37131530700628
 31
0.0
  0
LINE
  5
191BA
  8
1DIM1
 10
271.4242140794471
 20
-872.37131530700628
 30
0.0
 11
271.4242140794471
 21
-953.37131530700628
 31
0.0
  0
LINE
  5
191BB
  8
1DIM1
 10
-322.57578592055279
 20
-950.3713153070064
 30
0.0
 11
265.4242140794471
 21
-950.3713153070064
 31
0.0
  0
LINE
  5
191BF
  8
1DIM1
 10
63.094214079449038
 20
-876.3713153070064
 30
0.0
 11
63.094214079449038
 21
-923.3713153070064
 31
0.0
  0
LINE
  5
191C0
  8
1DIM1
 10
246.42421407944639
 20
-876.37131530700663
 30
0.0
 11
246.42421407944639
 21
-923.3713153070064
 31
0.0
  0
LINE
  5
191C1
  8
1DIM1
 10
69.094214079449046
 20
-920.37131530700628
 30
0.0
 11
240.42421407944639
 21
-920.37131530700628
 31
0.0
  0
TEXT
  5
191C5
  8
1DIM
 10
369.27486397597897
 20
-878.97958693579562
 30
0.0
 40
3.5
  1
材質：アルミ
  0
TEXT
  5
191C6
  8
1DIM
 10
339.64153064264571
 20
-884.81292026912888
 30
0.0
 40
3.5
  1
仕上げ：ブラストアルマイト
  0
SOLID
  5
191C7
  8
1DIM
 10
409.04848864721311
 20
-860.81037686104776
 30
0.0
 11
410.33058960090602
 21
-859.23960372158717
 31
0.0
 12
409.62723133858913
 22
-861.1412867303826
 32
0.0
 13
409.62723133858913
 23
-861.1412867303826
 33
0.0
  0
LINE
  5
191C9
  8
1DIM
 10
409.33785999290109
 20
-860.97583179571507
 30
0.0
 11
395.30819730931239
 21
-885.51292026912893
 31
0.0
  0
LINE
  5
191CA
  8
1DIM
 10
395.30819730931239
 20
-885.51292026912893
 30
0.0
 11
338.94153064264572
 21
-885.51292026912893
 31
0.0
  0
TEXT
  5
191CB
  8
1DIM1
 10
130.2592140794477
 20
-918.27131530700638
 30
0.0
 40
10.5
  1
P183.3 
  0
LINE
  5
191CC
  8
0
  6
BYBLOCK
 10
240.42421407944639
 20
-918.76362016700625
 30
0.0
 11
246.42421407944639
 21
-920.37131530700628
 31
0.0
  0
LINE
  5
191CD
  8
0
  6
BYBLOCK
 10
246.42421407944639
 20
-920.37131530700628
 30
0.0
 11
240.42421407944639
 21
-921.97901044700643
 31
0.0
  0
LINE
  5
191CE
  8
0
  6
BYBLOCK
 10
246.42421407944639
 20
-920.37131530700628
 30
0.0
 11
240.42421407944639
 21
-920.37131530700628
 31
0.0
  0
LINE
  5
191CF
  8
0
  6
BYBLOCK
 10
69.094214079449046
 20
-921.97901044700643
 30
0.0
 11
63.094214079449038
 21
-920.37131530700628
 31
0.0
  0
LINE
  5
191D0
  8
0
  6
BYBLOCK
 10
63.094214079449038
 20
-920.37131530700628
 30
0.0
 11
69.094214079449046
 21
-918.76362016700625
 31
0.0
  0
LINE
  5
191D1
  8
0
  6
BYBLOCK
 10
63.094214079449038
 20
-920.37131530700628
 30
0.0
 11
69.094214079449046
 21
-920.37131530700628
 31
0.0
  0
TEXT
  5
191D2
  8
1DIM1
 10
-40.825785920552839
 20
-948.27131530700626
 30
0.0
 40
10.5
  1
600 
  0
LINE
  5
191D3
  8
0
  6
BYBLOCK
 10
265.4242140794471
 20
-948.76362016700625
 30
0.0
 11
271.4242140794471
 21
-950.3713153070064
 31
0.0
  0
LINE
  5
191D4
  8
0
  6
BYBLOCK
 10
271.4242140794471
 20
-950.3713153070064
 30
0.0
 11
265.4242140794471
 21
-951.97901044700654
 31
0.0
  0
LINE
  5
191D5
  8
0
  6
BYBLOCK
 10
271.4242140794471
 20
-950.3713153070064
 30
0.0
 11
265.4242140794471
 21
-950.3713153070064
 31
0.0
  0
LINE
  5
191D6
  8
0
  6
BYBLOCK
 10
-322.57578592055279
 20
-951.97901044700654
 30
0.0
 11
-328.57578592055279
 21
-950.3713153070064
 31
0.0
  0
LINE
  5
191D7
  8
0
  6
BYBLOCK
 10
-328.57578592055279
 20
-950.3713153070064
 30
0.0
 11
-322.57578592055279
 21
-948.76362016700625
 31
0.0
  0
LINE
  5
191D8
  8
0
  6
BYBLOCK
 10
-328.57578592055279
 20
-950.3713153070064
 30
0.0
 11
-322.57578592055279
 21
-950.3713153070064
 31
0.0
  0
TEXT
  5
191D9
  8
1DIM
 10
377.63254741278053
 20
-909.67131530700635
 30
0.0
 40
3.5
  1
120 
  0
LINE
  5
191DA
  8
0
  6
BYBLOCK
 10
439.42421407944721
 20
-909.83541692700635
 30
0.0
 11
441.4242140794471
 21
-910.3713153070064
 31
0.0
  0
LINE
  5
191DB
  8
0
  6
BYBLOCK
 10
441.4242140794471
 20
-910.3713153070064
 30
0.0
 11
439.42421407944721
 21
-910.90721368700645
 31
0.0
  0
LINE
  5
191DC
  8
0
  6
BYBLOCK
 10
441.4242140794471
 20
-910.3713153070064
 30
0.0
 11
439.42421407944721
 21
-910.3713153070064
 31
0.0
  0
LINE
  5
191DD
  8
0
  6
BYBLOCK
 10
323.42421407944721
 20
-910.90721368700645
 30
0.0
 11
321.42421407944721
 21
-910.3713153070064
 31
0.0
  0
LINE
  5
191DE
  8
0
  6
BYBLOCK
 10
321.42421407944721
 20
-910.3713153070064
 30
0.0
 11
323.42421407944721
 21
-909.83541692700635
 31
0.0
  0
LINE
  5
191DF
  8
0
  6
BYBLOCK
 10
321.42421407944721
 20
-910.3713153070064
 30
0.0
 11
323.42421407944721
 21
-910.3713153070064
 31
0.0
  0
TEXT
  5
191E0
  8
1DIM
 10
426.05754741278048
 20
-899.67131530700635
 30
0.0
 40
3.5
  1
3.5 
  0
LINE
  5
191E1
  8
0
  6
BYBLOCK
 10
435.92421407944721
 20
-899.83541692700635
 30
0.0
 11
437.92421407944721
 21
-900.3713153070064
 31
0.0
  0
LINE
  5
191E2
  8
0
  6
BYBLOCK
 10
437.92421407944721
 20
-900.3713153070064
 30
0.0
 11
435.92421407944721
 21
-900.90721368700645
 31
0.0
  0
LINE
  5
191E3
  8
0
  6
BYBLOCK
 10
437.92421407944721
 20
-900.3713153070064
 30
0.0
 11
435.92421407944721
 21
-900.3713153070064
 31
0.0
  0
LINE
  5
191E4
  8
0
  6
BYBLOCK
 10
443.42421407944721
 20
-900.90721368700645
 30
0.0
 11
441.4242140794471
 21
-900.3713153070064
 31
0.0
  0
LINE
  5
191E5
  8
0
  6
BYBLOCK
 10
441.4242140794471
 20
-900.3713153070064
 30
0.0
 11
443.42421407944721
 21
-899.83541692700635
 31
0.0
  0
LINE
  5
191E6
  8
0
  6
BYBLOCK
 10
441.4242140794471
 20
-900.3713153070064
 30
0.0
 11
443.42421407944721
 21
-900.3713153070064
 31
0.0
  0
TEXT
  5
191E7
  8
1DIM
 10
310.72421407944728
 20
-859.53798197367314
 30
0.0
 40
3.5
  1
8 
 50
90.0
  0
LINE
  5
191E8
  8
0
  6
BYBLOCK
 10
310.88831569944722
 20
-856.37131530700663
 30
0.0
 11
311.42421407944721
 21
-854.37131530700674
 31
0.0
  0
LINE
  5
191E9
  8
0
  6
BYBLOCK
 10
311.42421407944721
 20
-854.37131530700674
 30
0.0
 11
311.9601124594472
 21
-856.37131530700663
 31
0.0
  0
LINE
  5
191EA
  8
0
  6
BYBLOCK
 10
311.42421407944721
 20
-854.37131530700674
 30
0.0
 11
311.42421407944721
 21
-856.37131530700663
 31
0.0
  0
LINE
  5
191EB
  8
0
  6
BYBLOCK
 10
311.9601124594472
 20
-860.37131530700651
 30
0.0
 11
311.42421407944721
 21
-862.37131530700674
 31
0.0
  0
LINE
  5
191EC
  8
0
  6
BYBLOCK
 10
311.42421407944721
 20
-862.37131530700674
 30
0.0
 11
310.88831569944722
 21
-860.37131530700651
 31
0.0
  0
LINE
  5
191ED
  8
0
  6
BYBLOCK
 10
311.42421407944721
 20
-862.37131530700674
 30
0.0
 11
311.42421407944721
 21
-860.37131530700651
 31
0.0
  0
TEXT
  5
191EE
  8
1DIM
 10
290.72421407944728
 20
-768.16298197367303
 30
0.0
 40
3.5
  1
120 
 50
90.0
  0
LINE
  5
191EF
  8
0
  6
BYBLOCK
 10
290.88831569944722
 20
-706.3713153070064
 30
0.0
 11
291.42421407944721
 21
-704.3713153070064
 31
0.0
  0
LINE
  5
191F0
  8
0
  6
BYBLOCK
 10
291.42421407944721
 20
-704.3713153070064
 30
0.0
 11
291.9601124594472
 21
-706.3713153070064
 31
0.0
  0
LINE
  5
191F1
  8
0
  6
BYBLOCK
 10
291.42421407944721
 20
-704.3713153070064
 30
0.0
 11
291.42421407944721
 21
-706.3713153070064
 31
0.0
  0
LINE
  5
191F2
  8
0
  6
BYBLOCK
 10
291.9601124594472
 20
-822.37131530700651
 30
0.0
 11
291.42421407944721
 21
-824.3713153070064
 31
0.0
  0
LINE
  5
191F3
  8
0
  6
BYBLOCK
 10
291.42421407944721
 20
-824.3713153070064
 30
0.0
 11
290.88831569944722
 21
-822.37131530700651
 31
0.0
  0
LINE
  5
191F4
  8
0
  6
BYBLOCK
 10
291.42421407944721
 20
-824.3713153070064
 30
0.0
 11
291.42421407944721
 21
-822.37131530700651
 31
0.0
  0
TEXT
  5
191F5
  8
1DIM
 10
300.72421407944739
 20
-875.28798197367314
 30
0.0
 40
3.5
  1
36 
 50
90.0
  0
LINE
  5
191F6
  8
0
  6
BYBLOCK
 10
301.9601124594472
 20
-888.37131530700674
 30
0.0
 11
301.42421407944721
 21
-890.37131530700663
 31
0.0
  0
LINE
  5
191F7
  8
0
  6
BYBLOCK
 10
301.42421407944721
 20
-890.37131530700663
 30
0.0
 11
300.88831569944722
 21
-888.37131530700674
 31
0.0
  0
LINE
  5
191F8
  8
0
  6
BYBLOCK
 10
301.42421407944721
 20
-890.37131530700663
 30
0.0
 11
301.42421407944721
 21
-888.37131530700674
 31
0.0
  0
LINE
  5
191F9
  8
0
  6
BYBLOCK
 10
300.88831569944722
 20
-856.37131530700663
 30
0.0
 11
301.42421407944721
 21
-854.37131530700674
 31
0.0
  0
LINE
  5
191FA
  8
0
  6
BYBLOCK
 10
301.42421407944721
 20
-854.37131530700674
 30
0.0
 11
301.9601124594472
 21
-856.37131530700663
 31
0.0
  0
LINE
  5
191FB
  8
0
  6
BYBLOCK
 10
301.42421407944721
 20
-854.37131530700674
 30
0.0
 11
301.42421407944721
 21
-856.37131530700663
 31
0.0
  0
LINE
  5
191FC
  8
1DIM
 10
453.73923825532341
 20
-832.3637744774885
 30
0.0
 11
448.5466598163768
 21
-819.78081851746629
 31
0.0
  0
LINE
  5
191FD
  8
1DIM
 10
448.5466598163768
 20
-819.78081851746629
 30
0.0
 11
480.44665981637672
 21
-819.78081851746629
 31
0.0
  0
LINE
  5
191FE
  8
1DIM
 10
445.65561365478499
 20
-832.29032834515544
 30
0.0
 11
442.37931532183808
 21
-813.77947250034231
 31
0.0
  0
LINE
  5
191FF
  8
1DIM
 10
442.37931532183808
 20
-813.77947250034231
 30
0.0
 11
450.91264865517149
 21
-813.77947250034231
 31
0.0
  0
TEXT
  5
19200
  8
1DIM1
 10
-53.07578592055097
 20
-918.27131530700638
 30
0.0
 40
10.5
  1
P183.3 
  0
LINE
  5
19201
  8
0
  6
BYBLOCK
 10
57.094214079449053
 20
-918.76362016700625
 30
0.0
 11
63.094214079449038
 21
-920.37131530700628
 31
0.0
  0
LINE
  5
19202
  8
0
  6
BYBLOCK
 10
63.094214079449038
 20
-920.37131530700628
 30
0.0
 11
57.094214079449053
 21
-921.97901044700643
 31
0.0
  0
LINE
  5
19203
  8
0
  6
BYBLOCK
 10
63.094214079449038
 20
-920.37131530700628
 30
0.0
 11
57.094214079449053
 21
-920.37131530700628
 31
0.0
  0
LINE
  5
19204
  8
0
  6
BYBLOCK
 10
-114.245785920551
 20
-921.97901044700643
 30
0.0
 11
-120.245785920551
 21
-920.37131530700628
 31
0.0
  0
LINE
  5
19205
  8
0
  6
BYBLOCK
 10
-120.245785920551
 20
-920.37131530700628
 30
0.0
 11
-114.245785920551
 21
-918.76362016700625
 31
0.0
  0
LINE
  5
19206
  8
0
  6
BYBLOCK
 10
-120.245785920551
 20
-920.37131530700628
 30
0.0
 11
-114.245785920551
 21
-920.37131530700628
 31
0.0
  0
TEXT
  5
19207
  8
1DIM1
 10
-236.41078592055101
 20
-918.27131530700615
 30
0.0
 40
10.5
  1
P183.3 
  0
LINE
  5
19208
  8
0
  6
BYBLOCK
 10
-126.245785920551
 20
-918.76362016700625
 30
0.0
 11
-120.245785920551
 21
-920.37131530700628
 31
0.0
  0
LINE
  5
19209
  8
0
  6
BYBLOCK
 10
-120.245785920551
 20
-920.37131530700628
 30
0.0
 11
-126.245785920551
 21
-921.9790104470062
 31
0.0
  0
LINE
  5
1920A
  8
0
  6
BYBLOCK
 10
-120.245785920551
 20
-920.37131530700628
 30
0.0
 11
-126.245785920551
 21
-920.37131530700628
 31
0.0
  0
LINE
  5
1920B
  8
0
  6
BYBLOCK
 10
-297.57578592055103
 20
-921.9790104470062
 30
0.0
 11
-303.57578592055103
 21
-920.37131530700628
 31
0.0
  0
LINE
  5
1920C
  8
0
  6
BYBLOCK
 10
-303.57578592055103
 20
-920.37131530700628
 30
0.0
 11
-297.57578592055103
 21
-918.76362016700625
 31
0.0
  0
LINE
  5
1920D
  8
0
  6
BYBLOCK
 10
-303.57578592055103
 20
-920.37131530700628
 30
0.0
 11
-297.57578592055103
 21
-920.37131530700628
 31
0.0
  0
TEXT
  5
1920E
  8
1DIM
 10
481.92421733691509
 20
-867.70464864033977
 30
0.0
 40
3.5
  1
16 
 50
90.0
  0
LINE
  5
1920F
  8
0
  6
BYBLOCK
 10
483.16011571691502
 20
-871.37131530700628
 30
0.0
 11
482.62421733691502
 21
-873.3713153070064
 31
0.0
  0
LINE
  5
19210
  8
0
  6
BYBLOCK
 10
482.62421733691502
 20
-873.3713153070064
 30
0.0
 11
482.08831895691497
 21
-871.37131530700628
 31
0.0
  0
LINE
  5
19211
  8
0
  6
BYBLOCK
 10
482.62421733691502
 20
-873.3713153070064
 30
0.0
 11
482.62421733691502
 21
-871.37131530700628
 31
0.0
  0
LINE
  5
19212
  8
0
  6
BYBLOCK
 10
482.08831895691497
 20
-859.37131530700674
 30
0.0
 11
482.62421733691502
 21
-857.37131530700685
 31
0.0
  0
LINE
  5
19213
  8
0
  6
BYBLOCK
 10
482.62421733691502
 20
-857.37131530700685
 30
0.0
 11
483.16011571691502
 21
-859.37131530700674
 31
0.0
  0
LINE
  5
19214
  8
0
  6
BYBLOCK
 10
482.62421733691502
 20
-857.37131530700685
 30
0.0
 11
482.62421733691502
 21
-859.37131530700674
 31
0.0
  0
LINE
  5
19215
  8
1DIM
 10
437.15763955763822
 20
-873.85081859361014
 30
0.0
 11
422.40209136694779
 21
-898.39870822323076
 31
0.0
  0
LINE
  5
19216
  8
1DIM
 10
422.40209136694779
 20
-898.39870822323076
 30
0.0
 11
347.40209136694779
 21
-898.39870822323076
 31
0.0
  0
VIEWPORT
  5
57
 67
     1
  8
0
 10
-12.71992488646128
 20
10.089164235928759
 30
0.0
 40
426.47731267369983
 41
282.79371403385642
 68
     1
 69
     1
1001
ACAD
1000
MVIEW
1002
{
1070
    16
1010
0.0
1020
0.0
1030
0.0
1010
0.0
1020
0.0
1030
1.0
1040
0.0
1040
282.79371403385642
1040
-12.71992488646128
1040
10.089164235928759
1040
50.0
1040
0.0
1040
0.0
1070
     0
1070
   100
1070
     1
1070
     1
1070
     0
1070
     0
1070
     0
1070
     0
1040
0.0
1040
0.0
1040
0.0
1040
10.0
1040
10.0
1040
10.0
1040
10.0
1070
     0
1002
{
1002
}
1002
}
  0
ENDSEC
  0
EOF
