  0
SECTION
  2
HEADER
  9
$ACADVER
  1
AC1009
  9
$INSBASE
 10
0.0
 20
0.0
 30
0.0
  9
$EXTMIN
 10
72.888680173517656
 20
-950.62131530700651
 30
0.0
  9
$EXTMAX
 10
482.44665981637809
 20
-665.56650836394795
 30
0.0
  9
$LIMMIN
 10
0.0
 20
0.0
  9
$LIMMAX
 10
420.0
 20
297.0
  9
$ORTHOMODE
 70
     0
  9
$REGENMODE
 70
     1
  9
$FILLMODE
 70
     1
  9
$QTEXTMODE
 70
     0
  9
$MIRRTEXT
 70
     0
  9
$DRAGMODE
 70
     2
  9
$LTSCALE
 40
0.5
  9
$OSMODE
 70
  2173
  9
$ATTMODE
 70
     1
  9
$TEXTSIZE
 40
4.0
  9
$TRACEWID
 40
1.0
  9
$TEXTSTYLE
  7
STANDARD
  9
$CLAYER
  8
1TEXT
  9
$CELTYPE
  6
BYLAYER
  9
$CECOLOR
 62
   256
  9
$DIMSCALE
 40
1.0
  9
$DIMASZ
 40
2.0
  9
$DIMEXO
 40
0.0
  9
$DIMDLI
 40
7.0
  9
$DIMRND
 40
0.0
  9
$DIMDLE
 40
0.0
  9
$DIMEXE
 40
1.0
  9
$DIMTP
 40
0.0
  9
$DIMTM
 40
0.0
  9
$DIMTXT
 40
3.5
  9
$DIMCEN
 40
0.0
  9
$DIMTSZ
 40
0.0
  9
$DIMTOL
 70
     0
  9
$DIMLIM
 70
     0
  9
$DIMTIH
 70
     0
  9
$DIMTOH
 70
     0
  9
$DIMSE1
 70
     0
  9
$DIMSE2
 70
     0
  9
$DIMTAD
 70
     1
  9
$DIMZIN
 70
     8
  9
$DIMBLK
  1

  9
$DIMASO
 70
     1
  9
$DIMSHO
 70
     1
  9
$DIMPOST
  1
 
  9
$DIMAPOST
  1

  9
$DIMALT
 70
     0
  9
$DIMALTD
 70
     2
  9
$DIMALTF
 40
25.399999999999999
  9
$DIMLFAC
 40
1.0
  9
$DIMTOFL
 70
     1
  9
$DIMTVP
 40
0.0
  9
$DIMTIX
 70
     0
  9
$DIMSOXD
 70
     0
  9
$DIMSAH
 70
     1
  9
$DIMBLK1
  1
OPEN30
  9
$DIMBLK2
  1
OPEN30
  9
$DIMSTYLE
  2
NEWX10
  9
$DIMCLRD
 70
   256
  9
$DIMCLRE
 70
   256
  9
$DIMCLRT
 70
   201
  9
$DIMTFAC
 40
0.7
  9
$DIMGAP
 40
0.7
  9
$LUNITS
 70
     2
  9
$LUPREC
 70
     4
  9
$SKETCHINC
 40
1.0
  9
$FILLETRAD
 40
0.0
  9
$AUNITS
 70
     0
  9
$AUPREC
 70
     2
  9
$MENU
  1
acad
  9
$ELEVATION
 40
0.0
  9
$PELEVATION
 40
0.0
  9
$THICKNESS
 40
0.0
  9
$LIMCHECK
 70
     0
  9
$BLIPMODE
 70
     0
  9
$CHAMFERA
 40
10.0
  9
$CHAMFERB
 40
10.0
  9
$SKPOLY
 70
     0
  9
$TDCREATE
 40
2453033.7326634838
  9
$TDUPDATE
 40
2453605.741429931
  9
$TDINDWG
 40
1.7100066897999999
  9
$TDUSRTIMER
 40
1.7100066897999999
  9
$USRTIMER
 70
     1
  9
$ANGBASE
 50
0.0
  9
$ANGDIR
 70
     0
  9
$PDMODE
 70
     0
  9
$PDSIZE
 40
0.0
  9
$PLINEWID
 40
0.0
  9
$COORDS
 70
     2
  9
$SPLFRAME
 70
     0
  9
$SPLINETYPE
 70
     6
  9
$SPLINESEGS
 70
     8
  9
$ATTDIA
 70
     0
  9
$ATTREQ
 70
     1
  9
$HANDLING
 70
     1
  9
$HANDSEED
  5
1874D
  9
$SURFTAB1
 70
     6
  9
$SURFTAB2
 70
     6
  9
$SURFTYPE
 70
     6
  9
$SURFU
 70
     6
  9
$SURFV
 70
     6
  9
$UCSNAME
  2

  9
$UCSORG
 10
0.0
 20
0.0
 30
0.0
  9
$UCSXDIR
 10
1.0
 20
0.0
 30
0.0
  9
$UCSYDIR
 10
0.0
 20
1.0
 30
0.0
  9
$PUCSNAME
  2

  9
$PUCSORG
 10
0.0
 20
0.0
 30
0.0
  9
$PUCSXDIR
 10
1.0
 20
0.0
 30
0.0
  9
$PUCSYDIR
 10
0.0
 20
1.0
 30
0.0
  9
$USERI1
 70
     0
  9
$USERI2
 70
     0
  9
$USERI3
 70
     0
  9
$USERI4
 70
     0
  9
$USERI5
 70
     0
  9
$USERR1
 40
0.0
  9
$USERR2
 40
0.0
  9
$USERR3
 40
0.0
  9
$USERR4
 40
0.0
  9
$USERR5
 40
0.0
  9
$WORLDVIEW
 70
     1
  9
$SHADEDGE
 70
     3
  9
$SHADEDIF
 70
    70
  9
$TILEMODE
 70
     1
  9
$MAXACTVP
 70
    48
  9
$PLIMCHECK
 70
     0
  9
$PEXTMIN
 10
1.0000000000000000E+020
 20
1.0000000000000000E+020
 30
1.0000000000000000E+020
  9
$PEXTMAX
 10
-1.0000000000000000E+020
 20
-1.0000000000000000E+020
 30
-1.0000000000000000E+020
  9
$PLIMMIN
 10
0.0
 20
0.0
  9
$PLIMMAX
 10
420.0
 20
297.0
  9
$UNITMODE
 70
     0
  9
$VISRETAIN
 70
     1
  9
$PLINEGEN
 70
     0
  9
$PSLTSCALE
 70
     1
  0
ENDSEC
  0
SECTION
  2
TABLES
  0
TABLE
  2
VPORT
 70
     4
  0
VPORT
  2
*ACTIVE
 70
     0
 10
0.0
 20
0.0
 11
1.0
 21
1.0
 12
277.66301256332088
 22
-808.07083064707126
 13
0.0
 23
0.0
 14
10.0
 24
10.0
 15
10.0
 25
10.0
 16
0.0
 26
0.0
 36
1.0
 17
0.0
 27
0.0
 37
0.0
 40
302.61055053038302
 41
1.508086253369272
 42
50.0
 43
0.0
 44
0.0
 50
0.0
 51
0.0
 71
     0
 72
   100
 73
     1
 74
     1
 75
     0
 76
     0
 77
     0
 78
     0
  0
ENDTAB
  0
TABLE
  2
LTYPE
 70
    15
  0
LTYPE
  2
CONTINUOUS
 70
     0
  3
Solid line
 72
    65
 73
     0
 40
0.0
  0
LTYPE
  2
CENTER2
 70
     0
  3
Center (.5x) ___ _ ___ _ ___ _ ___ _ ___ _ ___
 72
    65
 73
     4
 40
28.574999999999999
 49
19.050000000000001
 49
-3.1749999999999989
 49
3.1749999999999989
 49
-3.1749999999999989
  0
LTYPE
  2
XREF1|CENTER2
 70
    48
  3
Center (.5x) ___ _ ___ _ ___ _ ___ _ ___ _ ___
 72
    65
 73
     4
 40
28.574999999999999
 49
19.050000000000001
 49
-3.1749999999999989
 49
3.1749999999999989
 49
-3.1749999999999989
  0
LTYPE
  2
PHANTOM2
 70
     0
  3
Phantom (.5x) ___ _ _ ___ _ _ ___ _ _ ___ _ _
 72
    65
 73
     6
 40
31.75
 49
15.875
 49
-3.1749999999999989
 49
3.1749999999999989
 49
-3.1749999999999989
 49
3.1749999999999989
 49
-3.1749999999999989
  0
LTYPE
  2
A3WAKUDAKE|CENTER2
 70
    48
  3
Center (.5x) ___ _ ___ _ ___ _ ___ _ ___ _ ___
 72
    65
 73
     4
 40
28.574999999999999
 49
19.050000000000001
 49
-3.1749999999999989
 49
3.1749999999999989
 49
-3.1749999999999989
  0
ENDTAB
  0
TABLE
  2
LAYER
 70
    44
  0
LAYER
  2
0
 70
     0
 62
     7
  6
CONTINUOUS
  0
LAYER
  2
1CENTER
 70
     0
 62
     7
  6
CENTER2
  0
LAYER
  2
1TEXT
 70
     0
 62
     7
  6
CONTINUOUS
  0
LAYER
  2
1DIM
 70
     0
 62
     7
  6
CONTINUOUS
  0
LAYER
  2
1PHANTOM
 70
     0
 62
     7
  6
PHANTOM2
  0
LAYER
  2
01
 70
     0
 62
     1
  6
CONTINUOUS
  0
LAYER
  2
1DIM1
 70
     0
 62
     7
  6
CONTINUOUS
  0
LAYER
  2
1HATCH
 70
     0
 62
     7
  6
CONTINUOUS
  0
LAYER
  2
XREF1|1CENTER
 70
    48
 62
     7
  6
XREF1|CENTER2
  0
LAYER
  2
A3WAKUDAKE|THICK
 70
    48
 62
     7
  6
CONTINUOUS
  0
LAYER
  2
A3WAKUDAKE|POINT
 70
    48
 62
     7
  6
CONTINUOUS
  0
LAYER
  2
A3WAKUDAKE|1CENTER
 70
    48
 62
     7
  6
A3WAKUDAKE|CENTER2
  0
LAYER
  2
A3WAKUDAKE|0-6
 70
    48
 62
     7
  6
CONTINUOUS
  0
LAYER
  2
A3WAKUDAKE|1DIM
 70
    48
 62
     7
  6
CONTINUOUS
  0
ENDTAB
  0
TABLE
  2
STYLE
 70
    22
  0
STYLE
  2
STANDARD
 70
     0
 40
0.0
 41
1.0
 50
0.0
 71
     0
 42
4.0
  3
txt.shx
  4
extfont.shx
  0
ENDTAB
  0
TABLE
  2
VIEW
 70
     0
  0
ENDTAB
  0
TABLE
  2
UCS
 70
     0
  0
ENDTAB
  0
TABLE
  2
APPID
 70
     9
  0
APPID
  2
ACAD
 70
     0
  0
APPID
  2
DRAWINGVARIABLESXDATA
 70
     0
  0
APPID
  2
CONTENTTABDATA
 70
     0
  0
APPID
  2
CONTENTCURRENTTAB
 70
     0
  0
APPID
  2
CONTENTBLOCKDESCRIPTION
 70
     0
  0
APPID
  2
CONTENTBLOCKICON
 70
     0
  0
APPID
  2
CONTENTLONGBLOCKNAME
 70
     0
  0
APPID
  2
ACAD_PSEXT
 70
     0
  0
APPID
  2
ACAD_DSTYLE_DIMTEXT_FILL
 70
     0
  0
ENDTAB
  0
TABLE
  2
DIMSTYLE
 70
     9
  0
DIMSTYLE
  2
NEWX10
 70
     0
  3
 
  4

  5

  6
OPEN30
  7
OPEN30
 40
1.0
 41
2.0
 42
0.0
 43
7.0
 44
1.0
 45
0.0
 46
0.0
 47
0.0
 48
0.0
140
3.5
141
0.0
142
0.0
143
25.399999999999999
144
1.0
145
0.0
146
0.7
147
0.7
 71
     0
 72
     0
 73
     0
 74
     0
 75
     0
 76
     0
 77
     1
 78
     8
170
     0
171
     2
172
     1
173
     1
174
     0
175
     0
176
   256
177
   256
178
   201
  0
ENDTAB
  0
ENDSEC
  0
SECTION
  2
BLOCKS
  0
BLOCK
  8
0
  2
$MODEL_SPACE
 70
     0
 10
0.0
 20
0.0
 30
0.0
  3
$MODEL_SPACE
  1

  0
ENDBLK
  5
1A
  8
0
  0
BLOCK
 67
     1
  8
0
  2
$PAPER_SPACE
 70
     0
 10
0.0
 20
0.0
 30
0.0
  3
$PAPER_SPACE
  1

  0
ENDBLK
  5
17
 67
     1
  8
0
  0
BLOCK
  8
0
  2
_OPEN30
 70
     0
 10
0.0
 20
0.0
 30
0.0
  3
_OPEN30
  1

  0
LINE
  5
44
  8
0
  6
BYBLOCK
 62
     0
 10
-1.0
 20
0.26794919
 30
0.0
 11
0.0
 21
0.0
 31
0.0
  0
LINE
  5
45
  8
0
  6
BYBLOCK
 62
     0
 10
0.0
 20
0.0
 30
0.0
 11
-1.0
 21
-0.26794919
 31
0.0
  0
LINE
  5
46
  8
0
  6
BYBLOCK
 62
     0
 10
0.0
 20
0.0
 30
0.0
 11
-1.0
 21
0.0
 31
0.0
  0
ENDBLK
  5
47
  8
0
  0
BLOCK
  8
0
  2
XREF1
 70
    36
 10
0.0
 20
0.0
 30
0.0
  3
XREF1
  1
D:\ACLT\FORMAT\KAWAJUN(9)図面用.dwg
  0
ENDBLK
  5
5D
  8
0
  0
BLOCK
  8
0
  2
A3WAKUDAKE
 70
    36
 10
0.0
 20
0.0
 30
0.0
  3
A3WAKUDAKE
  1
D:\ACLT\FORMAT\A3WAKUdake.dwg
  0
ENDBLK
  5
6DC
  8
0
  0
BLOCK
  8
0
  2
*U23
 70
     1
 10
0.0
 20
0.0
 30
0.0
  3
*U23
  1

  0
TEXT
  5
1870E
  8
1DIM1
 62
   201
 10
160.79921407945039
 20
-915.52131530700638
 30
0.0
 40
10.5
  1
P90 
  0
ENDBLK
  5
18710
  8
0
  0
BLOCK
  8
0
  2
*U24
 70
     1
 10
0.0
 20
0.0
 30
0.0
  3
*U24
  1

  0
TEXT
  5
18712
  8
1DIM1
 62
   201
 10
161.67421407944951
 20
-945.52131530700649
 30
0.0
 40
10.5
  1
200 
  0
ENDBLK
  5
18714
  8
0
  0
BLOCK
  8
0
  2
*U25
 70
     1
 10
0.0
 20
0.0
 30
0.0
  3
*U25
  1

  0
TEXT
  5
18716
  8
1DIM
 62
   201
 10
376.84088074611458
 20
-916.92131530700635
 30
0.0
 40
3.5
  1
117.5 
  0
ENDBLK
  5
18718
  8
0
  0
BLOCK
  8
0
  2
*U26
 70
     1
 10
0.0
 20
0.0
 30
0.0
  3
*U26
  1

  0
TEXT
  5
1871A
  8
1DIM
 62
   201
 10
421.42421407944829
 20
-906.92131530700635
 30
0.0
 40
3.5
  1
29.5 
  0
ENDBLK
  5
1871C
  8
0
  0
BLOCK
  8
0
  2
*U27
 70
     1
 10
0.0
 20
0.0
 30
0.0
  3
*U27
  1

  0
TEXT
  5
1871E
  8
1DIM
 62
   201
 10
480.72421407944728
 20
-869.91298197366928
 30
0.0
 40
3.5
  1
9 
 50
90.0
  0
ENDBLK
  5
18720
  8
0
  0
BLOCK
  8
0
  2
*U28
 70
     1
 10
0.0
 20
0.0
 30
0.0
  3
*U28
  1

  0
TEXT
  5
18722
  8
1DIM
 62
   201
 10
293.2242140794487
 20
-713.75464864033734
 30
0.0
 40
3.5
  1
7.5 
 50
90.0
  0
ENDBLK
  5
18724
  8
0
  0
BLOCK
  8
0
  2
*U29
 70
     1
 10
0.0
 20
0.0
 30
0.0
  3
*U29
  1

  0
TEXT
  5
18726
  8
1DIM
 62
   201
 10
293.2242140794487
 20
-782.32964864033784
 30
0.0
 40
3.5
  1
110 
 50
90.0
  0
ENDBLK
  5
18728
  8
0
  0
BLOCK
  8
0
  2
*U30
 70
     1
 10
0.0
 20
0.0
 30
0.0
  3
*U30
  1

  0
TEXT
  5
1872A
  8
1DIM
 62
   201
 10
303.22421407944881
 20
-781.20464864033738
 30
0.0
 40
3.5
  1
117.5 
 50
90.0
  0
ENDBLK
  5
1872C
  8
0
  0
BLOCK
  8
0
  2
*U31
 70
     1
 10
0.0
 20
0.0
 30
0.0
  3
*U31
  1

  0
TEXT
  5
1872E
  8
1DIM
 62
   201
 10
303.22421407944881
 20
-881.12131530700628
 30
0.0
 40
3.5
  1
23.5 
 50
90.0
  0
ENDBLK
  5
18730
  8
0
  0
BLOCK
  8
0
  2
*U32
 70
     1
 10
0.0
 20
0.0
 30
0.0
  3
*U32
  1

  0
TEXT
  5
18732
  8
1DIM
 62
   201
 10
313.22421407944881
 20
-859.42131530700635
 30
0.0
 40
3.5
  1
5 
 50
90.0
  0
ENDBLK
  5
18734
  8
0
  0
BLOCK
  8
0
  2
*U33
 70
     1
 10
0.0
 20
0.0
 30
0.0
  3
*U33
  1

  0
TEXT
  5
18736
  8
1DIM
 62
   201
 10
313.22421407944881
 20
-874.28798197367303
 30
0.0
 40
3.5
  1
8 
 50
90.0
  0
ENDBLK
  5
18738
  8
0
  0
BLOCK
  8
0
  2
*U34
 70
     1
 10
0.0
 20
0.0
 30
0.0
  3
*U34
  1

  0
TEXT
  5
1873A
  8
1DIM
 62
   201
 10
426.00754741277638
 20
-896.92131530700635
 30
0.0
 40
3.5
  1
21.5 
  0
ENDBLK
  5
1873C
  8
0
  0
BLOCK
  8
0
  2
*U35
 70
     1
 10
0.0
 20
0.0
 30
0.0
  3
*U35
  1

  0
TEXT
  5
1873E
  8
1DIM1
 62
   201
 10
162.7274500023959
 20
-676.06650836394795
 30
0.0
 40
10.5
  1
120 
  0
ENDBLK
  5
18740
  8
0
  0
BLOCK
  8
0
  2
*U36
 70
     1
 10
0.0
 20
0.0
 30
0.0
  3
*U36
  1

  0
TEXT
  5
18742
  8
1DIM1
 62
   201
 10
86.049214079449484
 20
-676.06650836394795
 30
0.0
 40
10.5
  1
40 
  0
ENDBLK
  5
18744
  8
0
  0
BLOCK
  8
0
  2
*U37
 70
     1
 10
0.0
 20
0.0
 30
0.0
  3
*U37
  1

  0
TEXT
  5
18746
  8
1DIM1
 62
   201
 10
246.05495489969221
 20
-676.07749969720498
 30
0.0
 40
10.5
  1
40 
 50
359.94808179966668
  0
ENDBLK
  5
18748
  8
0
  0
BLOCK
  8
0
  2
*U38
 70
     1
 10
0.0
 20
0.0
 30
0.0
  3
*U38
  1

  0
TEXT
  5
1874A
  8
1DIM1
 62
   201
 10
246.04921407944769
 20
-676.06650836394795
 30
0.0
 40
10.5
  1
40 
  0
ENDBLK
  5
1874C
  8
0
  0
ENDSEC
  0
SECTION
  2
ENTITIES
  0
LINE
  5
18093
  8
1CENTER
 10
128.9242140794513
 20
-876.37131530700503
 30
0.0
 11
128.9242140794513
 21
-870.37131530700515
 31
0.0
  0
LINE
  5
18094
  8
1CENTER
 10
125.9242140794513
 20
-873.37131530700503
 30
0.0
 11
131.9242140794513
 21
-873.37131530700503
 31
0.0
  0
LINE
  5
18098
  8
1CENTER
 10
218.92421407944951
 20
-686.66040071585098
 30
0.0
 11
218.92421407944951
 21
-723.29159171630602
 31
0.0
  0
LINE
  5
18099
  8
1PHANTOM
 10
217.8298902654544
 20
-691.72131276083735
 30
0.0
 11
219.79222535432979
 21
-690.92131732678638
 31
0.0
  0
LINE
  5
1809A
  8
1PHANTOM
 10
219.79222535432979
 20
-690.92131732678638
 30
0.0
 11
219.2039487792874
 21
-690.60954747053427
 31
0.0
  0
LINE
  5
1809B
  8
1PHANTOM
 10
216.92426061534741
 20
-714.12131065362735
 30
0.0
 11
220.92426061534741
 21
-713.32131996080909
 31
0.0
  0
LINE
  5
1809C
  8
1PHANTOM
 10
216.92426061534741
 20
-702.92131065362287
 30
0.0
 11
220.92426061534741
 21
-702.12131996080041
 31
0.0
  0
LINE
  5
1809D
  8
1PHANTOM
 10
216.92426061534741
 20
-699.72131065362294
 30
0.0
 11
220.92426061534741
 21
-698.92131996080025
 31
0.0
  0
LINE
  5
1809E
  8
1PHANTOM
 10
220.92426061534741
 20
-698.92131996080025
 30
0.0
 11
220.42426061534741
 21
-698.82131879740314
 31
0.0
  0
LINE
  5
1809F
  8
1PHANTOM
 10
217.42426061534741
 20
-698.22131181702014
 30
0.0
 11
216.92426061534741
 21
-698.12131065362291
 31
0.0
  0
LINE
  5
180A0
  8
1PHANTOM
 10
220.92426061534741
 20
-702.12131996080041
 30
0.0
 11
220.42426061534741
 21
-702.02131879740307
 31
0.0
  0
LINE
  5
180A1
  8
1PHANTOM
 10
220.92426061534741
 20
-700.52131996080016
 30
0.0
 11
220.42426061534741
 21
-700.42131879740305
 31
0.0
  0
LINE
  5
180A2
  8
1PHANTOM
 10
217.42426061534741
 20
-699.82131181702005
 30
0.0
 11
216.92426061534741
 21
-699.72131065362294
 31
0.0
  0
LINE
  5
180A3
  8
1PHANTOM
 10
217.42426061534741
 20
-701.42131181701996
 30
0.0
 11
216.92426061534741
 21
-701.32131065362285
 31
0.0
  0
LINE
  5
180A4
  8
1PHANTOM
 10
216.92426061534741
 20
-701.32131065362285
 30
0.0
 11
220.92426061534741
 21
-700.52131996080016
 31
0.0
  0
LINE
  5
180A5
  8
1PHANTOM
 10
220.2450394587367
 20
-692.5213183803919
 30
0.0
 11
219.69328999493339
 21
-692.33855423776401
 31
0.0
  0
LINE
  5
180A6
  8
1PHANTOM
 10
220.92426061534741
 20
-695.72131996080032
 30
0.0
 11
220.42426061534741
 21
-695.62131879740309
 31
0.0
  0
LINE
  5
180A7
  8
1PHANTOM
 10
220.92426061534741
 20
-697.32131996080034
 30
0.0
 11
220.42426061534741
 21
-697.22131879740334
 31
0.0
  0
LINE
  5
180A8
  8
1PHANTOM
 10
220.6978535631435
 20
-694.12131943399766
 30
0.0
 11
220.1612598278723
 21
-693.99204873636779
 31
0.0
  0
LINE
  5
180A9
  8
1PHANTOM
 10
217.84517521255609
 20
-693.43408121958316
 30
0.0
 11
217.37707675740609
 21
-693.32131170723312
 31
0.0
  0
LINE
  5
180AA
  8
1PHANTOM
 10
217.42426061534741
 20
-696.62131181702
 30
0.0
 11
216.92426061534741
 21
-696.52131065362289
 31
0.0
  0
LINE
  5
180AB
  8
1PHANTOM
 10
217.42426061534741
 20
-695.02131181702009
 30
0.0
 11
216.92426061534741
 21
-694.92131065362287
 31
0.0
  0
LINE
  5
180AC
  8
1PHANTOM
 10
218.2870621060855
 20
-691.87274855727776
 30
0.0
 11
217.8298902654544
 21
-691.72131276083735
 31
0.0
  0
LINE
  5
180AD
  8
1PHANTOM
 10
217.37707675740609
 20
-693.32131170723312
 30
0.0
 11
220.2450394587367
 21
-692.5213183803919
 31
0.0
  0
LINE
  5
180AE
  8
1PHANTOM
 10
216.92426061534741
 20
-696.52131065362289
 30
0.0
 11
220.92426061534741
 21
-695.72131996080032
 31
0.0
  0
LINE
  5
180AF
  8
1PHANTOM
 10
216.92426061534741
 20
-694.92131065362287
 30
0.0
 11
220.6978535631435
 21
-694.12131943399766
 31
0.0
  0
LINE
  5
180B0
  8
1PHANTOM
 10
216.92426061534741
 20
-698.12131065362291
 30
0.0
 11
220.92426061534741
 21
-697.32131996080034
 31
0.0
  0
LINE
  5
180B1
  8
1PHANTOM
 10
216.92426061534741
 20
-710.9213106536273
 30
0.0
 11
220.92426061534741
 21
-710.12131996080905
 31
0.0
  0
LINE
  5
180B2
  8
1PHANTOM
 10
220.92426061534741
 20
-710.12131996080905
 30
0.0
 11
220.42426061534741
 21
-710.02131879741125
 31
0.0
  0
LINE
  5
180B3
  8
1PHANTOM
 10
217.42426061534741
 20
-709.42131181702064
 30
0.0
 11
216.92426061534741
 21
-709.32131065362296
 31
0.0
  0
LINE
  5
180B4
  8
1PHANTOM
 10
220.92426061534741
 20
-711.72131996080918
 30
0.0
 11
220.42426061534741
 21
-711.6213187974115
 31
0.0
  0
LINE
  5
180B5
  8
1PHANTOM
 10
220.92426061534741
 20
-713.32131996080909
 30
0.0
 11
220.42426061534741
 21
-713.22131879741141
 31
0.0
  0
LINE
  5
180B6
  8
1PHANTOM
 10
217.42426061534741
 20
-711.02131181702498
 30
0.0
 11
216.92426061534741
 21
-710.9213106536273
 31
0.0
  0
LINE
  5
180B7
  8
1PHANTOM
 10
217.42426061534741
 20
-712.62131181702512
 30
0.0
 11
216.92426061534741
 21
-712.52131065362744
 31
0.0
  0
LINE
  5
180B8
  8
1PHANTOM
 10
216.92426061534741
 20
-712.52131065362744
 30
0.0
 11
220.92426061534741
 21
-711.72131996080918
 31
0.0
  0
LINE
  5
180B9
  8
1PHANTOM
 10
220.92426061534741
 20
-705.32131996080454
 30
0.0
 11
220.42426061534741
 21
-705.22131879740698
 31
0.0
  0
LINE
  5
180BA
  8
1PHANTOM
 10
220.92426061534741
 20
-703.72131996080032
 30
0.0
 11
220.42426061534741
 21
-703.62131879740309
 31
0.0
  0
LINE
  5
180BB
  8
1PHANTOM
 10
220.92426061534741
 20
-708.52131996080459
 30
0.0
 11
220.42426061534741
 21
-708.42131879740703
 31
0.0
  0
LINE
  5
180BC
  8
1PHANTOM
 10
220.92426061534741
 20
-706.92131996080468
 30
0.0
 11
220.42426061534741
 21
-706.82131879740712
 31
0.0
  0
LINE
  5
180BD
  8
1PHANTOM
 10
217.42426061534741
 20
-703.02131181702009
 30
0.0
 11
216.92426061534741
 21
-702.92131065362287
 31
0.0
  0
LINE
  5
180BE
  8
1PHANTOM
 10
217.42426061534741
 20
-704.62131181702057
 30
0.0
 11
216.92426061534741
 21
-704.52131065362289
 31
0.0
  0
LINE
  5
180BF
  8
1PHANTOM
 10
217.42426061534741
 20
-707.82131181702073
 30
0.0
 11
216.92426061534741
 21
-707.72131065362305
 31
0.0
  0
LINE
  5
180C0
  8
1PHANTOM
 10
217.42426061534741
 20
-706.22131181702048
 30
0.0
 11
216.92426061534741
 21
-706.12131065362291
 31
0.0
  0
LINE
  5
180C1
  8
1PHANTOM
 10
216.92426061534741
 20
-706.12131065362291
 30
0.0
 11
220.92426061534741
 21
-705.32131996080454
 31
0.0
  0
LINE
  5
180C2
  8
1PHANTOM
 10
216.92426061534741
 20
-704.52131065362289
 30
0.0
 11
220.92426061534741
 21
-703.72131996080032
 31
0.0
  0
LINE
  5
180C3
  8
1PHANTOM
 10
216.92426061534741
 20
-707.72131065362305
 30
0.0
 11
220.92426061534741
 21
-706.92131996080468
 31
0.0
  0
LINE
  5
180C4
  8
1PHANTOM
 10
216.92426061534741
 20
-709.32131065362296
 30
0.0
 11
220.92426061534741
 21
-708.52131996080459
 31
0.0
  0
LINE
  5
180C5
  8
1PHANTOM
 10
220.42426061534741
 20
-719.62131879729782
 30
0.0
 11
217.42426061534761
 21
-719.62131181691313
 31
0.0
  0
LINE
  5
180C6
  8
1PHANTOM
 10
217.42426061534741
 20
-719.02131181702919
 30
0.0
 11
216.92426061534741
 21
-718.92131065363151
 31
0.0
  0
LINE
  5
180C7
  8
1PHANTOM
 10
216.92426061534741
 20
-718.92131065363151
 30
0.0
 11
220.92426061534741
 21
-718.12131996081325
 31
0.0
  0
LINE
  5
180C8
  8
1PHANTOM
 10
220.92426061534741
 20
-718.12131996081325
 30
0.0
 11
220.42426061534741
 21
-718.02131879741546
 31
0.0
  0
LINE
  5
180C9
  8
1PHANTOM
 10
217.42426061534741
 20
-717.42131181702928
 30
0.0
 11
216.92426061534741
 21
-717.3213106536316
 31
0.0
  0
LINE
  5
180CA
  8
1PHANTOM
 10
217.42426061534741
 20
-715.82131181702925
 30
0.0
 11
216.92426061534741
 21
-715.72131065363169
 31
0.0
  0
LINE
  5
180CB
  8
1PHANTOM
 10
216.92426061534741
 20
-715.72131065363169
 30
0.0
 11
220.92426061534741
 21
-714.92131996081343
 31
0.0
  0
LINE
  5
180CC
  8
1PHANTOM
 10
220.92426061534741
 20
-716.52131996081334
 30
0.0
 11
220.42426061534741
 21
-716.42131879741555
 31
0.0
  0
LINE
  5
180CD
  8
1PHANTOM
 10
220.92426061534741
 20
-714.92131996081343
 30
0.0
 11
220.42426061534741
 21
-714.82131879741576
 31
0.0
  0
LINE
  5
180CE
  8
1PHANTOM
 10
216.92426061534741
 20
-717.3213106536316
 30
0.0
 11
220.92426061534741
 21
-716.52131996081334
 31
0.0
  0
LINE
  5
180CF
  8
1PHANTOM
 10
217.42426061534741
 20
-714.22131181702503
 30
0.0
 11
216.92426061534741
 21
-714.12131065362735
 31
0.0
  0
LINE
  5
180D0
  8
1PHANTOM
 10
215.1242140794495
 20
-719.62131530699719
 30
0.0
 11
215.1242140794495
 21
-718.62131530699719
 31
0.0
  0
LINE
  5
180D1
  8
1PHANTOM
 10
222.72421407944941
 20
-719.62131530699719
 30
0.0
 11
222.72421407944941
 21
-718.62131530699719
 31
0.0
  0
LINE
  5
180D2
  8
1PHANTOM
 10
219.42421392944951
 20
-719.62131530699719
 30
0.0
 11
218.42421422944949
 21
-718.62131530699719
 31
0.0
  0
LINE
  5
180D3
  8
1PHANTOM
 10
222.72421407944941
 20
-719.62131530699719
 30
0.0
 11
215.1242140794495
 21
-719.62131530699719
 31
0.0
  0
LINE
  5
180D4
  8
1PHANTOM
 10
222.72421407944941
 20
-718.62131530699719
 30
0.0
 11
215.1242140794495
 21
-718.62131530699719
 31
0.0
  0
LINE
  5
180D8
  8
1DIM
 10
361.42421407944721
 20
-847.12131530700435
 30
0.0
 11
431.42421407944721
 21
-847.12131530700435
 31
0.0
  0
TEXT
  5
180D9
  8
1TEXT
 10
368.17659503182779
 20
-845.62131530700447
 30
0.0
 40
4.0
  1
表面処理：
 72
     1
 11
378.82421407944679
 21
-845.62131530700447
 31
0.0
  0
LINE
  5
180DA
  8
1DIM
 10
361.42421407944721
 20
-840.12131530700435
 30
0.0
 11
431.42421407944721
 21
-840.12131530700435
 31
0.0
  0
LINE
  5
180DB
  8
1DIM
 10
361.42421407944721
 20
-840.12131530700435
 30
0.0
 11
431.42421407944721
 21
-840.12131530700435
 31
0.0
  0
LINE
  5
180DC
  8
1DIM
 10
396.42421407944721
 20
-840.12131530700435
 30
0.0
 11
396.42421407944721
 21
-854.12131530700435
 31
0.0
  0
TEXT
  5
180DD
  8
1TEXT
 10
407.02421407944672
 20
-845.62131530700447
 30
0.0
 40
4.0
  1
コード
 72
     1
 11
413.82421407944679
 21
-845.62131530700447
 31
0.0
  0
LINE
  5
180DE
  8
1DIM
 10
361.42421407944721
 20
-854.12131530700435
 30
0.0
 11
431.42421407944721
 21
-854.12131530700435
 31
0.0
  0
TEXT
  5
180DF
  8
1TEXT
 10
362.07754741278018
 20
-852.43222891857545
 30
0.0
 40
4.0
  1
ブラストアルマイト
 41
0.8
 72
     1
 11
378.82421407944679
 21
-852.43222891857545
 31
0.0
  0
TEXT
  5
180E0
  8
1TEXT
 10
399.15754741278113
 20
-852.83567229065375
 30
0.0
 40
4.0
  1
SA804S20
 72
     1
 11
413.8242140794477
 21
-852.83567229065375
 31
0.0
  0
LINE
  5
180E1
  8
1DIM
 10
361.42421407944721
 20
-854.12131530700435
 30
0.0
 11
361.42421407944721
 21
-840.12131530700435
 31
0.0
  0
LINE
  5
180E2
  8
1DIM
 10
431.42421407944721
 20
-854.12131530700435
 30
0.0
 11
431.4242140794471
 21
-840.12131530700435
 31
0.0
  0
TEXT
  5
180E3
  8
1TEXT
 10
361.42421407944721
 20
-835.12131530700447
 30
0.0
 40
8.0
  1
SA804S20
  0
LINE
  5
180E4
  8
01
 10
450.42421407944721
 20
-830.62131530699821
 30
0.0
 11
450.42421407944721
 21
-910.62131530699776
 31
0.0
  0
LINE
  5
180E5
  8
01
 10
459.42421407944721
 20
-830.62131530699821
 30
0.0
 11
459.42421407944721
 21
-910.62131530699776
 31
0.0
  0
LINE
  5
180E6
  8
01
 10
441.42421407944721
 20
-830.62131530699821
 30
0.0
 11
441.42421407944721
 21
-910.62131530699776
 31
0.0
  0
LINE
  5
180E7
  8
1CENTER
 10
443.42421407944852
 20
-873.37131530700663
 30
0.0
 11
461.42421407944857
 21
-873.37131530700663
 31
0.0
  0
LINE
  5
180E8
  8
01
 10
432.92421407944943
 20
-877.1213153070064
 30
0.0
 11
324.92421407944857
 21
-877.1213153070064
 31
0.0
  0
LINE
  5
180E9
  8
01
 10
432.92421407944943
 20
-869.1213153070064
 30
0.0
 11
324.92421407944948
 21
-869.1213153070064
 31
0.0
  0
LINE
  5
180EA
  8
01
 10
273.92421407945039
 20
-725.12131530700469
 30
0.0
 11
273.92421407945039
 21
-829.12131530700435
 31
0.0
  0
LINE
  5
180EB
  8
01
 10
73.924214079450394
 20
-829.12131530700435
 30
0.0
 11
73.924214079450394
 21
-725.12131530700401
 31
0.0
  0
LINE
  5
180EC
  8
01
 10
173.92421407944951
 20
-877.12131530700481
 30
0.0
 11
74.924214079450394
 21
-877.12131530700481
 31
0.0
  0
LINE
  5
180ED
  8
01
 10
268.92421407945039
 20
-834.12131530700447
 30
0.0
 11
78.924214079450394
 21
-834.12131530700447
 31
0.0
  0
LINE
  5
180EE
  8
01
 10
173.92421407944951
 20
-869.12131530700503
 30
0.0
 11
74.924214079450394
 21
-869.12131530700503
 31
0.0
  0
LINE
  5
180EF
  8
01
 10
114.92421407944759
 20
-887.62131530700469
 30
0.0
 11
173.92421407944951
 21
-887.62131530700469
 31
0.0
  0
LINE
  5
180F0
  8
01
 10
113.92421407944759
 20
-877.62131530700469
 30
0.0
 11
173.92421407944951
 21
-877.62131530700469
 31
0.0
  0
LINE
  5
180F1
  8
01
 10
113.92421407944759
 20
-869.12131530700503
 30
0.0
 11
173.92421407944951
 21
-869.12131530700458
 31
0.0
  0
LINE
  5
180F2
  8
01
 10
114.9242140794495
 20
-864.12131530700469
 30
0.0
 11
173.92421407944951
 21
-864.12131530700469
 31
0.0
  0
LINE
  5
180F3
  8
01
 10
73.924214079450394
 20
-870.12131530700503
 30
0.0
 11
73.924214079450394
 21
-876.12131530700481
 31
0.0
  0
LINE
  5
180F4
  8
01
 10
73.924214079450394
 20
-876.12131530700481
 30
0.0
 11
74.924214079450394
 21
-877.12131530700481
 31
0.0
  0
LINE
  5
180F5
  8
01
 10
74.924214079450394
 20
-869.12131530700503
 30
0.0
 11
73.924214079450394
 21
-870.12131530700503
 31
0.0
  0
LINE
  5
180F6
  8
01
 10
113.92421407944759
 20
-886.62131530700469
 30
0.0
 11
113.9242140794488
 21
-877.12131530700481
 31
0.0
  0
LINE
  5
180F7
  8
01
 10
113.9242140794495
 20
-869.12131530700503
 30
0.0
 11
113.9242140794495
 21
-865.12131530700469
 31
0.0
  0
CIRCLE
  5
180F9
  8
01
 10
128.9242140794513
 20
-873.37131530700515
 30
0.0
 40
2.5
  0
ARC
  5
180FA
  8
01
 10
114.92421407944759
 20
-886.62131530700469
 30
0.0
 40
1.0
 50
179.9999999999967
 51
270.0
  0
ARC
  5
180FB
  8
01
 10
114.9242140794495
 20
-865.12131530700469
 30
0.0
 40
1.0
 50
90.0
 51
179.9999999999967
  0
ARC
  5
180FC
  8
01
 10
78.924214079450394
 20
-829.12131530700435
 30
0.0
 40
5.0
 50
180.0
 51
270.0
  0
LINE
  5
180FD
  8
01
 10
173.92421407944951
 20
-877.12131530700481
 30
0.0
 11
272.92421407944857
 21
-877.12131530700481
 31
0.0
  0
LINE
  5
180FE
  8
01
 10
173.92421407944951
 20
-869.12131530700503
 30
0.0
 11
272.92421407944857
 21
-869.12131530700503
 31
0.0
  0
LINE
  5
180FF
  8
01
 10
233.92421407945309
 20
-886.62131530700469
 30
0.0
 11
233.9242140794515
 21
-877.12131530700503
 31
0.0
  0
LINE
  5
18100
  8
01
 10
233.92421407945019
 20
-869.12131530700503
 30
0.0
 11
233.92421407944951
 21
-865.12131530700435
 31
0.0
  0
LINE
  5
18101
  8
01
 10
232.92421407945309
 20
-887.62131530700481
 30
0.0
 11
173.92421407944951
 21
-887.62131530700469
 31
0.0
  0
LINE
  5
18102
  8
01
 10
233.9242140794513
 20
-877.62131530700469
 30
0.0
 11
173.92421407944951
 21
-877.62131530700469
 31
0.0
  0
LINE
  5
18103
  8
01
 10
233.9242140794513
 20
-869.12131530700503
 30
0.0
 11
173.92421407944951
 21
-869.12131530700458
 31
0.0
  0
CIRCLE
  5
18105
  8
01
 10
218.92421407944951
 20
-873.37131530700515
 30
0.0
 40
2.5
  0
ARC
  5
18106
  8
01
 10
232.92421407945309
 20
-886.62131530700492
 30
0.0
 40
1.0
 50
270.0
 51
0.0000000000065138
  0
LINE
  5
18107
  8
01
 10
232.92421407944951
 20
-864.12131530700435
 30
0.0
 11
173.92421407944951
 21
-864.12131530700469
 31
0.0
  0
ARC
  5
18108
  8
01
 10
232.92421407944951
 20
-865.12131530700435
 30
0.0
 40
1.0
 50
0.0000000000032569
 51
90.0
  0
LINE
  5
18109
  8
01
 10
273.92421407944857
 20
-870.12131530700503
 30
0.0
 11
273.92421407944857
 21
-876.12131530700481
 31
0.0
  0
LINE
  5
1810A
  8
01
 10
273.92421407944857
 20
-876.12131530700481
 30
0.0
 11
272.92421407944857
 21
-877.12131530700481
 31
0.0
  0
LINE
  5
1810B
  8
01
 10
272.92421407944857
 20
-869.12131530700503
 30
0.0
 11
273.92421407944857
 21
-870.12131530700503
 31
0.0
  0
LINE
  5
1810C
  8
01
 10
323.92421407944857
 20
-870.12131530700663
 30
0.0
 11
323.92421407944857
 21
-876.12131530700731
 31
0.0
  0
LINE
  5
1810D
  8
01
 10
323.92421407944857
 20
-876.1213153070064
 30
0.0
 11
324.92421407944857
 21
-877.1213153070064
 31
0.0
  0
LINE
  5
1810E
  8
01
 10
324.92421407944857
 20
-869.1213153070064
 30
0.0
 11
323.92421407944857
 21
-870.12131530700663
 31
0.0
  0
ARC
  5
1810F
  8
01
 10
268.92421407945039
 20
-829.12131530700435
 30
0.0
 40
5.0
 50
270.0
 51
0.0
  0
LINE
  5
18110
  8
01
 10
232.9242140794486
 20
-746.12131530700469
 30
0.0
 11
114.9242140794485
 21
-746.12131530700469
 31
0.0
  0
LINE
  5
18111
  8
01
 10
233.9242140794486
 20
-716.62131530700401
 30
0.0
 11
113.9242140794485
 21
-716.62131530700469
 31
0.0
  0
LINE
  5
18112
  8
01
 10
74.924214079450394
 20
-724.12131530700469
 30
0.0
 11
113.9242140794495
 21
-724.12131530700469
 31
0.0
  0
LINE
  5
18113
  8
01
 10
73.924214079450394
 20
-725.12131530700469
 30
0.0
 11
74.924214079450394
 21
-724.12131530700469
 31
0.0
  0
LINE
  5
18114
  8
01
 10
113.9242140794485
 20
-745.12131530700469
 30
0.0
 11
113.9242140794495
 21
-716.62131530700435
 31
0.0
  0
LINE
  5
18115
  8
1PHANTOM
 10
128.92421407944951
 20
-717.64385867753742
 30
0.0
 11
128.92421407944951
 21
-720.27296520348762
 31
0.0
  0
ARC
  5
18116
  8
01
 10
114.9242140794485
 20
-745.12131530700469
 30
0.0
 40
1.0
 50
180.0
 51
270.0
  0
LINE
  5
18117
  8
01
 10
233.92421407944951
 20
-724.12131530700492
 30
0.0
 11
272.92421407945039
 21
-724.12131530700469
 31
0.0
  0
LINE
  5
18118
  8
01
 10
233.9242140794486
 20
-745.12131530700469
 30
0.0
 11
233.92421407944951
 21
-716.62131530700401
 31
0.0
  0
ARC
  5
1811A
  8
01
 10
232.9242140794486
 20
-745.12131530700469
 30
0.0
 40
1.0
 50
270.0
 51
359.99999999999682
  0
LINE
  5
1811C
  8
01
 10
272.92421407945039
 20
-724.12131530700469
 30
0.0
 11
273.92421407945039
 21
-725.12131530700469
 31
0.0
  0
LINE
  5
1811D
  8
01
 10
412.92421407944943
 20
-864.12131530700651
 30
0.0
 11
440.92421407945119
 21
-864.12131530699924
 31
0.0
  0
LINE
  5
1811E
  8
1PHANTOM
 10
440.62421756942422
 20
-871.87136184290455
 30
0.0
 11
440.72421873282201
 21
-871.37136184290455
 31
0.0
  0
LINE
  5
1811F
  8
1CENTER
 10
471.38512867060211
 20
-873.3713153070064
 30
0.0
 11
434.75393767014788
 21
-873.3713153070064
 31
0.0
  0
LINE
  5
18120
  8
1PHANTOM
 10
463.12421058904869
 20
-874.87136184290455
 30
0.0
 11
438.42421058915619
 21
-874.87136184290455
 31
0.0
  0
LINE
  5
18121
  8
1PHANTOM
 10
463.1242175694324
 20
-871.87136184290455
 30
0.0
 11
438.4242175695407
 21
-871.87136184290455
 31
0.0
  0
LINE
  5
18122
  8
01
 10
440.92421407943681
 20
-887.6213153070064
 30
0.0
 11
412.92421407944943
 21
-887.6213153070064
 31
0.0
  0
LINE
  5
18123
  8
01
 10
411.92421407944948
 20
-865.12131530700651
 30
0.0
 11
411.92421407944948
 21
-868.62131530700651
 31
0.0
  0
LINE
  5
18124
  8
01
 10
434.92421407944943
 20
-870.12131530700663
 30
0.0
 11
434.92421407944943
 21
-876.62131530700651
 31
0.0
  0
LINE
  5
18125
  8
1PHANTOM
 10
438.4242222232387
 20
-869.8713153070064
 30
0.0
 11
438.4242175695407
 21
-871.87136184290455
 31
0.0
  0
ARC
  5
18126
  8
1PHANTOM
 10
437.32421873304338
 20
-871.37131530700651
 30
0.0
 40
1.5
 50
90.0
 51
179.99986668447161
  0
LINE
  5
18127
  8
1PHANTOM
 10
439.4242140794567
 20
-869.5713153070036
 30
0.0
 11
439.4242140794567
 21
-870.8713153070064
 31
0.0
  0
LINE
  5
18128
  8
1PHANTOM
 10
439.4242140794567
 20
-877.17131530700658
 30
0.0
 11
439.4242140794567
 21
-869.57131530700622
 31
0.0
  0
LINE
  5
18129
  8
1PHANTOM
 10
438.4242140794567
 20
-877.17131530700658
 30
0.0
 11
438.4242140794567
 21
-869.57131530700622
 31
0.0
  0
LINE
  5
1812B
  8
01
 10
433.92421407944943
 20
-877.62131530700651
 30
0.0
 11
412.42421407944943
 21
-877.62131530700651
 31
0.0
  0
ARC
  5
1812C
  8
01
 10
412.42421407944943
 20
-878.12131530700663
 30
0.0
 40
0.5
 50
90.0
 51
180.0
  0
LINE
  5
1812D
  8
1PHANTOM
 10
439.4242140794567
 20
-871.32131530700622
 30
0.0
 11
438.4242140794567
 21
-871.32131530700622
 31
0.0
  0
LINE
  5
1812E
  8
1PHANTOM
 10
440.22972989739901
 20
-873.3713153070064
 30
0.0
 11
437.60062337144791
 21
-873.3713153070064
 31
0.0
  0
LINE
  5
1812F
  8
1PHANTOM
 10
439.02421756942471
 20
-871.87136184290455
 30
0.0
 11
439.1242187328225
 21
-871.37136184290455
 31
0.0
  0
LINE
  5
18130
  8
1PHANTOM
 10
439.4242140794567
 20
-875.42131530700658
 30
0.0
 11
438.42421407945579
 21
-875.42131530700658
 31
0.0
  0
LINE
  5
18131
  8
1PHANTOM
 10
439.4242140794567
 20
-877.17131530700658
 30
0.0
 11
438.4242140794567
 21
-877.17131530700658
 31
0.0
  0
LINE
  5
18132
  8
1PHANTOM
 10
439.92420942564058
 20
-875.37136184290455
 30
0.0
 11
440.02421058903838
 21
-874.87136184290455
 31
0.0
  0
LINE
  5
18133
  8
1PHANTOM
 10
438.42421058915619
 20
-874.87136184290455
 30
0.0
 11
438.42420593567471
 21
-876.87131530700651
 31
0.0
  0
LINE
  5
18134
  8
1PHANTOM
 10
438.42420593567471
 20
-876.87131530700651
 30
0.0
 11
437.3242094258639
 21
-876.87131530700651
 31
0.0
  0
ARC
  5
18135
  8
1PHANTOM
 10
437.3242094258639
 20
-875.3713153070064
 30
0.0
 40
1.5
 50
179.99986668447161
 51
270.0
  0
ARC
  5
18136
  8
01
 10
433.92421407944943
 20
-876.62131530700651
 30
0.0
 40
1.0
 50
270.0
 51
0.0
  0
LINE
  5
18137
  8
1PHANTOM
 10
439.4242140794567
 20
-875.87131530700651
 30
0.0
 11
439.4242140794567
 21
-877.17131530700215
 31
0.0
  0
LINE
  5
18138
  8
01
 10
433.92421407944943
 20
-876.1213153070064
 30
0.0
 11
432.92421407944943
 21
-877.1213153070064
 31
0.0
  0
LINE
  5
18139
  8
1PHANTOM
 10
438.42421058915619
 20
-874.87136184290455
 30
0.0
 11
438.4242175695407
 21
-871.87136184290455
 31
0.0
  0
LINE
  5
1813A
  8
1PHANTOM
 10
439.1242187328225
 20
-871.37136184290455
 30
0.0
 11
439.92420942564058
 21
-875.37136184290455
 31
0.0
  0
LINE
  5
1813B
  8
1PHANTOM
 10
435.82421873304691
 20
-871.37131181681423
 30
0.0
 11
435.82420942586759
 21
-875.37131181681434
 31
0.0
  0
LINE
  5
1813C
  8
01
 10
433.92421407944943
 20
-869.1213153070064
 30
0.0
 11
412.42421407944943
 21
-869.1213153070064
 31
0.0
  0
ARC
  5
1813D
  8
01
 10
412.42421407944943
 20
-868.62131530700651
 30
0.0
 40
0.5
 50
180.0
 51
270.0
  0
LINE
  5
1813E
  8
1PHANTOM
 10
439.4242140794567
 20
-869.57131530700622
 30
0.0
 11
438.4242140794567
 21
-869.57131530700622
 31
0.0
  0
LINE
  5
1813F
  8
1PHANTOM
 10
438.4242222232387
 20
-869.8713153070064
 30
0.0
 11
437.32421873304338
 21
-869.8713153070064
 31
0.0
  0
ARC
  5
18140
  8
01
 10
433.92421407944943
 20
-870.12131530700663
 30
0.0
 40
1.0
 50
0.0
 51
90.0
  0
LINE
  5
18141
  8
01
 10
433.92421407944943
 20
-870.12131530700663
 30
0.0
 11
432.92421407944943
 21
-869.1213153070064
 31
0.0
  0
ARC
  5
18142
  8
01
 10
412.92421407944943
 20
-886.62131530700651
 30
0.0
 40
1.0
 50
180.0
 51
270.0
  0
LINE
  5
18143
  8
01
 10
411.92421407944948
 20
-878.12131530700663
 30
0.0
 11
411.92421407944948
 21
-886.62131530700651
 31
0.0
  0
ARC
  5
18144
  8
01
 10
412.92421407944943
 20
-865.12131530700651
 30
0.0
 40
1.0
 50
90.0
 51
180.0
  0
LINE
  5
18145
  8
01
 10
441.42421407945119
 20
-864.62131530699912
 30
0.0
 11
441.42421407943669
 21
-887.12131530700651
 31
0.0
  0
LINE
  5
18146
  8
1PHANTOM
 10
464.7242176792206
 20
-871.82417798496306
 30
0.0
 11
465.52421100606159
 21
-874.69214068629378
 31
0.0
  0
LINE
  5
18147
  8
1PHANTOM
 10
468.4242140792939
 20
-873.37136184290455
 30
0.0
 11
463.1242175694324
 21
-871.87136184290455
 31
0.0
  0
LINE
  5
18148
  8
1PHANTOM
 10
468.4242140792939
 20
-873.37136184290455
 30
0.0
 11
463.12421058904869
 21
-874.87136184290455
 31
0.0
  0
LINE
  5
18149
  8
1PHANTOM
 10
451.92421873283092
 20
-871.37136184290455
 30
0.0
 11
452.72420942564889
 21
-875.37136184290455
 31
0.0
  0
LINE
  5
1814A
  8
1PHANTOM
 10
448.62421756943331
 20
-871.87136184290455
 30
0.0
 11
448.7242187328311
 21
-871.37136184290455
 31
0.0
  0
LINE
  5
1814B
  8
1PHANTOM
 10
450.22421756943271
 20
-871.87136184290455
 30
0.0
 11
450.3242187328305
 21
-871.37136184290455
 31
0.0
  0
LINE
  5
1814C
  8
1PHANTOM
 10
451.82421756943307
 20
-871.87136184290455
 30
0.0
 11
451.92421873283092
 21
-871.37136184290455
 31
0.0
  0
LINE
  5
1814D
  8
1PHANTOM
 10
447.92420942564411
 20
-875.37136184290455
 30
0.0
 11
448.02421058904201
 21
-874.87136184290455
 31
0.0
  0
LINE
  5
1814E
  8
1PHANTOM
 10
449.52420942564908
 20
-875.37136184290455
 30
0.0
 11
449.62421058904692
 21
-874.87136184290455
 31
0.0
  0
LINE
  5
1814F
  8
1PHANTOM
 10
451.12420942564859
 20
-875.37136184290455
 30
0.0
 11
451.22421058904638
 21
-874.87136184290455
 31
0.0
  0
LINE
  5
18150
  8
1PHANTOM
 10
450.3242187328305
 20
-871.37136184290455
 30
0.0
 11
451.12420942564859
 21
-875.37136184290455
 31
0.0
  0
LINE
  5
18151
  8
1PHANTOM
 10
448.7242187328311
 20
-871.37136184290455
 30
0.0
 11
449.52420942564908
 21
-875.37136184290455
 31
0.0
  0
LINE
  5
18152
  8
1PHANTOM
 10
447.02421756942829
 20
-871.87136184290455
 30
0.0
 11
447.12421873282619
 21
-871.37136184290455
 31
0.0
  0
LINE
  5
18153
  8
1PHANTOM
 10
445.42421756942889
 20
-871.87136184290455
 30
0.0
 11
445.52421873282577
 21
-871.37136184290455
 31
0.0
  0
LINE
  5
18154
  8
1PHANTOM
 10
446.32420942564482
 20
-875.37136184290455
 30
0.0
 11
446.4242105890425
 21
-874.87136184290455
 31
0.0
  0
LINE
  5
18155
  8
1PHANTOM
 10
444.7242094256444
 20
-875.37136184290455
 30
0.0
 11
444.8242105890422
 21
-874.87136184290455
 31
0.0
  0
LINE
  5
18156
  8
1PHANTOM
 10
443.92421873282638
 20
-871.37136184290455
 30
0.0
 11
444.7242094256444
 21
-875.37136184290455
 31
0.0
  0
LINE
  5
18157
  8
1PHANTOM
 10
445.52421873282577
 20
-871.37136184290455
 30
0.0
 11
446.32420942564482
 21
-875.37136184290455
 31
0.0
  0
LINE
  5
18158
  8
1PHANTOM
 10
447.12421873282619
 20
-871.37136184290455
 30
0.0
 11
447.92420942564411
 21
-875.37136184290455
 31
0.0
  0
LINE
  5
18159
  8
1PHANTOM
 10
453.42421756943253
 20
-871.87136184290455
 30
0.0
 11
453.52421873283038
 21
-871.37136184290455
 31
0.0
  0
LINE
  5
1815A
  8
1PHANTOM
 10
458.22421756943368
 20
-871.87136184290455
 30
0.0
 11
458.32421873283062
 21
-871.37136184290455
 31
0.0
  0
LINE
  5
1815B
  8
1PHANTOM
 10
456.62421756943331
 20
-871.87136184290455
 30
0.0
 11
456.7242187328311
 21
-871.37136184290455
 31
0.0
  0
LINE
  5
1815C
  8
1PHANTOM
 10
455.0242175694338
 20
-871.87136184290455
 30
0.0
 11
455.12421873283068
 21
-871.37136184290455
 31
0.0
  0
LINE
  5
1815D
  8
1PHANTOM
 10
452.72420942564889
 20
-875.37136184290455
 30
0.0
 11
452.82421058904669
 21
-874.87136184290455
 31
0.0
  0
LINE
  5
1815E
  8
1PHANTOM
 10
454.3242094256529
 20
-875.37136184290455
 30
0.0
 11
454.42421058905069
 21
-874.87136184290455
 31
0.0
  0
LINE
  5
1815F
  8
1PHANTOM
 10
455.92420942565332
 20
-875.37136184290455
 30
0.0
 11
456.0242105890502
 21
-874.87136184290455
 31
0.0
  0
LINE
  5
18160
  8
1PHANTOM
 10
457.52420942565368
 20
-875.37136184290455
 30
0.0
 11
457.62421058905051
 21
-874.87136184290455
 31
0.0
  0
LINE
  5
18161
  8
1PHANTOM
 10
453.52421873283038
 20
-871.37136184290455
 30
0.0
 11
454.3242094256529
 21
-875.37136184290455
 31
0.0
  0
LINE
  5
18162
  8
1PHANTOM
 10
455.12421873283068
 20
-871.37136184290455
 30
0.0
 11
455.92420942565332
 21
-875.37136184290455
 31
0.0
  0
LINE
  5
18163
  8
1PHANTOM
 10
458.32421873283062
 20
-871.37136184290455
 30
0.0
 11
459.12420942565308
 21
-875.37136184290455
 31
0.0
  0
LINE
  5
18164
  8
1PHANTOM
 10
456.7242187328311
 20
-871.37136184290455
 30
0.0
 11
457.52420942565368
 21
-875.37136184290455
 31
0.0
  0
LINE
  5
18165
  8
1PHANTOM
 10
459.12420942565308
 20
-875.37136184290455
 30
0.0
 11
459.22421058905093
 21
-874.87136184290455
 31
0.0
  0
LINE
  5
18166
  8
1PHANTOM
 10
459.82421756943307
 20
-871.87136184290455
 30
0.0
 11
459.92421873283092
 21
-871.37136184290455
 31
0.0
  0
LINE
  5
18167
  8
1PHANTOM
 10
462.3242094256529
 20
-875.37136184290455
 30
0.0
 11
462.42421058905069
 21
-874.87136184290455
 31
0.0
  0
LINE
  5
18168
  8
1PHANTOM
 10
460.7242094256535
 20
-875.37136184290455
 30
0.0
 11
460.82421058905038
 21
-874.87136184290455
 31
0.0
  0
LINE
  5
18169
  8
1PHANTOM
 10
463.92420995245629
 20
-875.14495479070035
 30
0.0
 11
464.05348065008548
 21
-874.60836105542955
 31
0.0
  0
LINE
  5
1816A
  8
1PHANTOM
 10
464.6114481668701
 20
-872.29227644011269
 30
0.0
 11
464.7242176792206
 21
-871.82417798496306
 31
0.0
  0
LINE
  5
1816B
  8
1PHANTOM
 10
461.42421756943349
 20
-871.87136184290455
 30
0.0
 11
461.52421873283038
 21
-871.37136184290455
 31
0.0
  0
LINE
  5
1816C
  8
1PHANTOM
 10
463.02421756943392
 20
-871.87136184290455
 30
0.0
 11
463.12421873283068
 21
-871.37136184290455
 31
0.0
  0
LINE
  5
1816D
  8
1PHANTOM
 10
461.52421873283038
 20
-871.37136184290455
 30
0.0
 11
462.3242094256529
 21
-875.37136184290455
 31
0.0
  0
LINE
  5
1816E
  8
1PHANTOM
 10
463.12421873283068
 20
-871.37136184290455
 30
0.0
 11
463.92420995245629
 21
-875.14495479070035
 31
0.0
  0
LINE
  5
1816F
  8
1PHANTOM
 10
459.92421873283092
 20
-871.37136184290455
 30
0.0
 11
460.7242094256535
 21
-875.37136184290455
 31
0.0
  0
LINE
  5
18170
  8
1PHANTOM
 10
467.12421205966712
 20
-874.2393265818863
 30
0.0
 11
467.435981915919
 21
-873.65105000684423
 31
0.0
  0
LINE
  5
18171
  8
1PHANTOM
 10
465.52421100606159
 20
-874.69214068629378
 30
0.0
 11
465.70697514868971
 21
-874.14039122249028
 31
0.0
  0
LINE
  5
18172
  8
1PHANTOM
 10
466.17278082917619
 20
-872.73416333364253
 30
0.0
 11
466.32421662561592
 21
-872.27699149301111
 31
0.0
  0
LINE
  5
18173
  8
1PHANTOM
 10
466.32421662561592
 20
-872.27699149301111
 30
0.0
 11
467.12421205966712
 21
-874.2393265818863
 31
0.0
  0
LINE
  5
18174
  8
1PHANTOM
 10
443.12420942564029
 20
-875.37136184290455
 30
0.0
 11
443.22421058903819
 21
-874.87136184290455
 31
0.0
  0
LINE
  5
18175
  8
1PHANTOM
 10
442.22421756942452
 20
-871.87136184290455
 30
0.0
 11
442.32421873282237
 21
-871.37136184290455
 31
0.0
  0
LINE
  5
18176
  8
1PHANTOM
 10
441.52420942563998
 20
-875.37136184290455
 30
0.0
 11
441.62421058903777
 21
-874.87136184290455
 31
0.0
  0
LINE
  5
18177
  8
1PHANTOM
 10
440.72421873282201
 20
-871.37136184290455
 30
0.0
 11
441.52420942563998
 21
-875.37136184290455
 31
0.0
  0
LINE
  5
18178
  8
1PHANTOM
 10
442.32421873282237
 20
-871.37136184290455
 30
0.0
 11
443.12420942564029
 21
-875.37136184290455
 31
0.0
  0
ARC
  5
18179
  8
01
 10
440.92421407943681
 20
-887.12131530700651
 30
0.0
 40
0.5
 50
270.0
 51
359.99999999996419
  0
ARC
  5
1817B
  8
01
 10
440.92421407945119
 20
-864.62131530699912
 30
0.0
 40
0.5
 50
359.99999999996419
 51
90.000000000026048
  0
LINE
  5
1817C
  8
01
 10
233.9242140794486
 20
-716.62131530700401
 30
0.0
 11
113.9242140794485
 21
-716.62131530700469
 31
0.0
  0
LINE
  5
18183
  8
1CENTER
 10
218.92421407944951
 20
-876.37131530700503
 30
0.0
 11
218.92421407944951
 21
-870.37131530700515
 31
0.0
  0
LINE
  5
18184
  8
1CENTER
 10
215.92421407944951
 20
-873.37131530700503
 30
0.0
 11
221.92421407944951
 21
-873.37131530700503
 31
0.0
  0
LINE
  5
18185
  8
01
 10
433.92421407944943
 20
-876.1213153070064
 30
0.0
 11
433.92421407944943
 21
-870.12131530700663
 31
0.0
  0
LINE
  5
18188
  8
1CENTER
 10
128.92421407944951
 20
-686.66040071585098
 30
0.0
 11
128.92421407944951
 21
-723.29159171630602
 31
0.0
  0
LINE
  5
18189
  8
1PHANTOM
 10
127.8298902654544
 20
-691.72131276083735
 30
0.0
 11
129.79222535432979
 21
-690.92131732678638
 31
0.0
  0
LINE
  5
1818A
  8
1PHANTOM
 10
129.79222535432979
 20
-690.92131732678638
 30
0.0
 11
129.2039487792874
 21
-690.60954747053427
 31
0.0
  0
LINE
  5
1818B
  8
1PHANTOM
 10
126.92426061534739
 20
-714.12131065362735
 30
0.0
 11
130.92426061534741
 21
-713.32131996080909
 31
0.0
  0
LINE
  5
1818C
  8
1PHANTOM
 10
126.92426061534739
 20
-702.92131065362287
 30
0.0
 11
130.92426061534741
 21
-702.12131996080041
 31
0.0
  0
LINE
  5
1818D
  8
1PHANTOM
 10
126.92426061534739
 20
-699.72131065362294
 30
0.0
 11
130.92426061534741
 21
-698.92131996080025
 31
0.0
  0
LINE
  5
1818E
  8
1PHANTOM
 10
130.92426061534741
 20
-698.92131996080025
 30
0.0
 11
130.42426061534741
 21
-698.82131879740314
 31
0.0
  0
LINE
  5
1818F
  8
1PHANTOM
 10
127.42426061534739
 20
-698.22131181702014
 30
0.0
 11
126.92426061534739
 21
-698.12131065362291
 31
0.0
  0
LINE
  5
18190
  8
1PHANTOM
 10
130.92426061534741
 20
-702.12131996080041
 30
0.0
 11
130.42426061534741
 21
-702.02131879740307
 31
0.0
  0
LINE
  5
18191
  8
1PHANTOM
 10
130.92426061534741
 20
-700.52131996080016
 30
0.0
 11
130.42426061534741
 21
-700.42131879740305
 31
0.0
  0
LINE
  5
18192
  8
1PHANTOM
 10
127.42426061534739
 20
-699.82131181702005
 30
0.0
 11
126.92426061534739
 21
-699.72131065362294
 31
0.0
  0
LINE
  5
18193
  8
1PHANTOM
 10
127.42426061534739
 20
-701.42131181701996
 30
0.0
 11
126.92426061534739
 21
-701.32131065362285
 31
0.0
  0
LINE
  5
18194
  8
1PHANTOM
 10
126.92426061534739
 20
-701.32131065362285
 30
0.0
 11
130.92426061534741
 21
-700.52131996080016
 31
0.0
  0
LINE
  5
18195
  8
1PHANTOM
 10
130.24503945873661
 20
-692.5213183803919
 30
0.0
 11
129.69328999493331
 21
-692.33855423776401
 31
0.0
  0
LINE
  5
18196
  8
1PHANTOM
 10
130.92426061534741
 20
-695.72131996080032
 30
0.0
 11
130.42426061534741
 21
-695.62131879740309
 31
0.0
  0
LINE
  5
18197
  8
1PHANTOM
 10
130.92426061534741
 20
-697.32131996080034
 30
0.0
 11
130.42426061534741
 21
-697.22131879740334
 31
0.0
  0
LINE
  5
18198
  8
1PHANTOM
 10
130.69785356314341
 20
-694.12131943399766
 30
0.0
 11
130.1612598278723
 21
-693.99204873636779
 31
0.0
  0
LINE
  5
18199
  8
1PHANTOM
 10
127.8451752125561
 20
-693.43408121958316
 30
0.0
 11
127.3770767574061
 21
-693.32131170723312
 31
0.0
  0
LINE
  5
1819A
  8
1PHANTOM
 10
127.42426061534739
 20
-696.62131181702
 30
0.0
 11
126.92426061534739
 21
-696.52131065362289
 31
0.0
  0
LINE
  5
1819B
  8
1PHANTOM
 10
127.42426061534739
 20
-695.02131181702009
 30
0.0
 11
126.92426061534739
 21
-694.92131065362287
 31
0.0
  0
LINE
  5
1819C
  8
1PHANTOM
 10
128.2870621060855
 20
-691.87274855727776
 30
0.0
 11
127.8298902654544
 21
-691.72131276083735
 31
0.0
  0
LINE
  5
1819D
  8
1PHANTOM
 10
127.3770767574061
 20
-693.32131170723312
 30
0.0
 11
130.24503945873661
 21
-692.5213183803919
 31
0.0
  0
LINE
  5
1819E
  8
1PHANTOM
 10
126.92426061534739
 20
-696.52131065362289
 30
0.0
 11
130.92426061534741
 21
-695.72131996080032
 31
0.0
  0
LINE
  5
1819F
  8
1PHANTOM
 10
126.92426061534739
 20
-694.92131065362287
 30
0.0
 11
130.69785356314341
 21
-694.12131943399766
 31
0.0
  0
LINE
  5
181A0
  8
1PHANTOM
 10
126.92426061534739
 20
-698.12131065362291
 30
0.0
 11
130.92426061534741
 21
-697.32131996080034
 31
0.0
  0
LINE
  5
181A1
  8
1PHANTOM
 10
126.92426061534739
 20
-710.9213106536273
 30
0.0
 11
130.92426061534741
 21
-710.12131996080905
 31
0.0
  0
LINE
  5
181A2
  8
1PHANTOM
 10
130.92426061534741
 20
-710.12131996080905
 30
0.0
 11
130.42426061534741
 21
-710.02131879741125
 31
0.0
  0
LINE
  5
181A3
  8
1PHANTOM
 10
127.42426061534739
 20
-709.42131181702064
 30
0.0
 11
126.92426061534739
 21
-709.32131065362296
 31
0.0
  0
LINE
  5
181A4
  8
1PHANTOM
 10
130.92426061534741
 20
-711.72131996080918
 30
0.0
 11
130.42426061534741
 21
-711.6213187974115
 31
0.0
  0
LINE
  5
181A5
  8
1PHANTOM
 10
130.92426061534741
 20
-713.32131996080909
 30
0.0
 11
130.42426061534741
 21
-713.22131879741141
 31
0.0
  0
LINE
  5
181A6
  8
1PHANTOM
 10
127.42426061534739
 20
-711.02131181702498
 30
0.0
 11
126.92426061534739
 21
-710.9213106536273
 31
0.0
  0
LINE
  5
181A7
  8
1PHANTOM
 10
127.42426061534739
 20
-712.62131181702512
 30
0.0
 11
126.92426061534739
 21
-712.52131065362744
 31
0.0
  0
LINE
  5
181A8
  8
1PHANTOM
 10
126.92426061534739
 20
-712.52131065362744
 30
0.0
 11
130.92426061534741
 21
-711.72131996080918
 31
0.0
  0
LINE
  5
181A9
  8
1PHANTOM
 10
130.92426061534741
 20
-705.32131996080454
 30
0.0
 11
130.42426061534741
 21
-705.22131879740698
 31
0.0
  0
LINE
  5
181AA
  8
1PHANTOM
 10
130.92426061534741
 20
-703.72131996080032
 30
0.0
 11
130.42426061534741
 21
-703.62131879740309
 31
0.0
  0
LINE
  5
181AB
  8
1PHANTOM
 10
130.92426061534741
 20
-708.52131996080459
 30
0.0
 11
130.42426061534741
 21
-708.42131879740703
 31
0.0
  0
LINE
  5
181AC
  8
1PHANTOM
 10
130.92426061534741
 20
-706.92131996080468
 30
0.0
 11
130.42426061534741
 21
-706.82131879740712
 31
0.0
  0
LINE
  5
181AD
  8
1PHANTOM
 10
127.42426061534739
 20
-703.02131181702009
 30
0.0
 11
126.92426061534739
 21
-702.92131065362287
 31
0.0
  0
LINE
  5
181AE
  8
1PHANTOM
 10
127.42426061534739
 20
-704.62131181702057
 30
0.0
 11
126.92426061534739
 21
-704.52131065362289
 31
0.0
  0
LINE
  5
181AF
  8
1PHANTOM
 10
127.42426061534739
 20
-707.82131181702073
 30
0.0
 11
126.92426061534739
 21
-707.72131065362305
 31
0.0
  0
LINE
  5
181B0
  8
1PHANTOM
 10
127.42426061534739
 20
-706.22131181702048
 30
0.0
 11
126.92426061534739
 21
-706.12131065362291
 31
0.0
  0
LINE
  5
181B1
  8
1PHANTOM
 10
126.92426061534739
 20
-706.12131065362291
 30
0.0
 11
130.92426061534741
 21
-705.32131996080454
 31
0.0
  0
LINE
  5
181B2
  8
1PHANTOM
 10
126.92426061534739
 20
-704.52131065362289
 30
0.0
 11
130.92426061534741
 21
-703.72131996080032
 31
0.0
  0
LINE
  5
181B3
  8
1PHANTOM
 10
126.92426061534739
 20
-707.72131065362305
 30
0.0
 11
130.92426061534741
 21
-706.92131996080468
 31
0.0
  0
LINE
  5
181B4
  8
1PHANTOM
 10
126.92426061534739
 20
-709.32131065362296
 30
0.0
 11
130.92426061534741
 21
-708.52131996080459
 31
0.0
  0
LINE
  5
181B5
  8
1PHANTOM
 10
130.42426061534741
 20
-719.62131879729782
 30
0.0
 11
127.42426061534761
 21
-719.62131181691313
 31
0.0
  0
LINE
  5
181B6
  8
1PHANTOM
 10
127.42426061534739
 20
-719.02131181702919
 30
0.0
 11
126.92426061534739
 21
-718.92131065363151
 31
0.0
  0
LINE
  5
181B7
  8
1PHANTOM
 10
126.92426061534739
 20
-718.92131065363151
 30
0.0
 11
130.92426061534741
 21
-718.12131996081325
 31
0.0
  0
LINE
  5
181B8
  8
1PHANTOM
 10
130.92426061534741
 20
-718.12131996081325
 30
0.0
 11
130.42426061534741
 21
-718.02131879741546
 31
0.0
  0
LINE
  5
181B9
  8
1PHANTOM
 10
127.42426061534739
 20
-717.42131181702928
 30
0.0
 11
126.92426061534739
 21
-717.3213106536316
 31
0.0
  0
LINE
  5
181BA
  8
1PHANTOM
 10
127.42426061534739
 20
-715.82131181702925
 30
0.0
 11
126.92426061534739
 21
-715.72131065363169
 31
0.0
  0
LINE
  5
181BB
  8
1PHANTOM
 10
126.92426061534739
 20
-715.72131065363169
 30
0.0
 11
130.92426061534741
 21
-714.92131996081343
 31
0.0
  0
LINE
  5
181BC
  8
1PHANTOM
 10
130.92426061534741
 20
-716.52131996081334
 30
0.0
 11
130.42426061534741
 21
-716.42131879741555
 31
0.0
  0
LINE
  5
181BD
  8
1PHANTOM
 10
130.92426061534741
 20
-714.92131996081343
 30
0.0
 11
130.42426061534741
 21
-714.82131879741576
 31
0.0
  0
LINE
  5
181BE
  8
1PHANTOM
 10
126.92426061534739
 20
-717.3213106536316
 30
0.0
 11
130.92426061534741
 21
-716.52131996081334
 31
0.0
  0
LINE
  5
181BF
  8
1PHANTOM
 10
127.42426061534739
 20
-714.22131181702503
 30
0.0
 11
126.92426061534739
 21
-714.12131065362735
 31
0.0
  0
LINE
  5
181C0
  8
1PHANTOM
 10
125.1242140794495
 20
-719.62131530699719
 30
0.0
 11
125.1242140794495
 21
-718.62131530699719
 31
0.0
  0
LINE
  5
181C1
  8
1PHANTOM
 10
132.72421407944941
 20
-719.62131530699719
 30
0.0
 11
132.72421407944941
 21
-718.62131530699719
 31
0.0
  0
LINE
  5
181C2
  8
1PHANTOM
 10
129.42421392944939
 20
-719.62131530699719
 30
0.0
 11
128.42421422944949
 21
-718.62131530699719
 31
0.0
  0
LINE
  5
181C3
  8
1PHANTOM
 10
132.72421407944941
 20
-719.62131530699719
 30
0.0
 11
125.1242140794495
 21
-719.62131530699719
 31
0.0
  0
LINE
  5
181C4
  8
1PHANTOM
 10
125.1242140794495
 20
-718.62131530699719
 30
0.0
 11
132.72421407944941
 21
-718.62131530699719
 31
0.0
  0
LINE
  5
1836E
  8
1PHANTOM
 10
416.72421407944961
 20
-877.12131530700685
 30
0.0
 11
423.1242140794493
 21
-877.12131530700594
 31
0.0
  0
LINE
  5
1836F
  8
1PHANTOM
 10
416.55421407944959
 20
-879.12131530700685
 30
0.0
 11
423.29421407944932
 21
-879.12131530700685
 31
0.0
  0
LINE
  5
18371
  8
1PHANTOM
 10
416.72421407944961
 20
-877.12131530700685
 30
0.0
 11
416.72421407944961
 21
-879.12131530700685
 31
0.0
  0
LINE
  5
18372
  8
1PHANTOM
 10
423.1242140794493
 20
-877.12131530700685
 30
0.0
 11
423.1242140794493
 21
-879.12131530700685
 31
0.0
  0
LINE
  5
1838C
  8
1PHANTOM
 10
415.92421407944948
 20
-879.75131530700696
 30
0.0
 11
423.92421407944948
 21
-879.75131530700696
 31
0.0
  0
LINE
  5
1838D
  8
1PHANTOM
 10
416.55421407944959
 20
-887.12131530700685
 30
0.0
 11
423.29421407944932
 21
-887.12131530700685
 31
0.0
  0
LINE
  5
1838E
  8
1PHANTOM
 10
415.92421407944948
 20
-886.49131530700674
 30
0.0
 11
423.92421407944948
 21
-886.49131530700674
 31
0.0
  0
LINE
  5
18390
  8
1PHANTOM
 10
416.55421407944959
 20
-887.12131530700685
 30
0.0
 11
415.92421407944948
 21
-886.49131530700674
 31
0.0
  0
LINE
  5
18391
  8
1PHANTOM
 10
415.92421407944948
 20
-879.75131530700696
 30
0.0
 11
415.92421407944948
 21
-886.49131530700504
 31
0.0
  0
LINE
  5
18392
  8
1PHANTOM
 10
415.92421407944948
 20
-879.75131530700696
 30
0.0
 11
415.92421407944948
 21
-886.49131530700674
 31
0.0
  0
LINE
  5
18393
  8
1PHANTOM
 10
423.29421407944932
 20
-887.12131530700685
 30
0.0
 11
423.92421407944948
 21
-886.49131530700674
 31
0.0
  0
LINE
  5
18394
  8
1PHANTOM
 10
423.92421407944948
 20
-879.75131530700696
 30
0.0
 11
423.92421407944948
 21
-886.49131530700504
 31
0.0
  0
LINE
  5
18395
  8
1PHANTOM
 10
423.92421407944948
 20
-879.75131530700696
 30
0.0
 11
423.92421407944948
 21
-886.49131530700674
 31
0.0
  0
LINE
  5
18397
  8
1PHANTOM
 10
416.55421407944959
 20
-879.12131530700685
 30
0.0
 11
415.92421407944948
 21
-879.75131530700696
 31
0.0
  0
LINE
  5
1839B
  8
1PHANTOM
 10
416.55421407944959
 20
-879.12131530700685
 30
0.0
 11
416.55421407944959
 21
-887.12131530700685
 31
0.0
  0
LINE
  5
1839D
  8
1PHANTOM
 10
423.92421407944948
 20
-879.75131530700696
 30
0.0
 11
423.29421407944932
 21
-879.12131530700685
 31
0.0
  0
LINE
  5
183A0
  8
1CENTER
 10
419.92421407944948
 20
-876.35676465013182
 30
0.0
 11
419.92421407944948
 21
-887.90926038573275
 31
0.0
  0
LINE
  5
183A1
  8
1PHANTOM
 10
423.29421407944932
 20
-879.12131530700685
 30
0.0
 11
423.29421407944932
 21
-887.12131530700685
 31
0.0
  0
LINE
  5
1860B
  8
1DIM1
 10
273.92421407944681
 20
-725.12131530700469
 30
0.0
 11
273.92421407944681
 21
-675.16650836394797
 31
0.0
  0
LINE
  5
1860C
  8
1DIM1
 10
233.9242140794486
 20
-716.62131530700469
 30
0.0
 11
233.9242140794486
 21
-675.16650836394797
 31
0.0
  0
LINE
  5
1860D
  8
1DIM1
 10
267.9242140794467
 20
-678.16650836394786
 30
0.0
 11
239.9242140794486
 21
-678.16650836394786
 31
0.0
  0
LINE
  5
18611
  8
1DIM1
 10
73.924214079450394
 20
-725.12131530700469
 30
0.0
 11
73.924214079450394
 21
-675.16650836394797
 31
0.0
  0
LINE
  5
18612
  8
1DIM1
 10
113.9242140794485
 20
-716.62131530700469
 30
0.0
 11
113.9242140794485
 21
-675.16650836394797
 31
0.0
  0
LINE
  5
18613
  8
1DIM1
 10
79.924214079450394
 20
-678.16650836394786
 30
0.0
 11
107.9242140794486
 21
-678.16650836394786
 31
0.0
  0
LINE
  5
18617
  8
1DIM1
 10
113.9242140794485
 20
-716.62131530700469
 30
0.0
 11
113.9242140794485
 21
-675.16650836394797
 31
0.0
  0
LINE
  5
18618
  8
1DIM1
 10
233.9242140794486
 20
-716.62131530700435
 30
0.0
 11
233.9242140794486
 21
-675.16650836394797
 31
0.0
  0
LINE
  5
18619
  8
1DIM1
 10
119.9242140794485
 20
-678.16650836394786
 30
0.0
 11
227.9242140794486
 21
-678.16650836394786
 31
0.0
  0
LINE
  5
1861D
  8
1DIM
 10
441.42421407943669
 20
-887.12131530700651
 30
0.0
 11
441.42421407943669
 21
-898.62131530700663
 31
0.0
  0
LINE
  5
1861E
  8
1DIM
 10
419.92421407944948
 20
-887.90926038573275
 30
0.0
 11
419.92421407944948
 21
-898.62131530700663
 31
0.0
  0
LINE
  5
1861F
  8
1DIM
 10
439.42421407943669
 20
-897.6213153070064
 30
0.0
 11
421.92421407944943
 21
-897.6213153070064
 31
0.0
  0
LINE
  5
18623
  8
1DIM
 10
324.92421407944857
 20
-869.1213153070064
 30
0.0
 11
312.92421407944869
 21
-869.1213153070064
 31
0.0
  0
LINE
  5
18624
  8
1DIM
 10
324.92421407944857
 20
-877.1213153070064
 30
0.0
 11
312.92421407944869
 21
-877.1213153070064
 31
0.0
  0
LINE
  5
18625
  8
1DIM
 10
313.92421407944869
 20
-871.12131530700651
 30
0.0
 11
313.92421407944869
 21
-875.1213153070064
 31
0.0
  0
LINE
  5
18629
  8
1DIM
 10
324.92421407944857
 20
-869.1213153070064
 30
0.0
 11
312.92421407944869
 21
-869.1213153070064
 31
0.0
  0
LINE
  5
1862A
  8
1DIM
 10
412.9242140794492
 20
-864.12131530700651
 30
0.0
 11
312.92421407944869
 21
-864.12131530700651
 31
0.0
  0
LINE
  5
1862B
  8
1DIM
 10
313.92421407944869
 20
-871.12131530700651
 30
0.0
 11
313.92421407944869
 21
-873.12131530700651
 31
0.0
  0
LINE
  5
1862C
  8
1DIM
 10
313.92421407944869
 20
-862.12131530700651
 30
0.0
 11
313.92421407944869
 21
-856.38798197367305
 31
0.0
  0
LINE
  5
1862D
  8
1DIM
 10
313.92421407944869
 20
-869.1213153070064
 30
0.0
 11
313.92421407944869
 21
-864.12131530700651
 31
0.0
  0
LINE
  5
18631
  8
1DIM
 10
412.92421407944943
 20
-887.6213153070064
 30
0.0
 11
302.92421407944869
 21
-887.6213153070064
 31
0.0
  0
LINE
  5
18632
  8
1DIM
 10
412.9242140794492
 20
-864.12131530700651
 30
0.0
 11
302.92421407944869
 21
-864.12131530700651
 31
0.0
  0
LINE
  5
18633
  8
1DIM
 10
303.92421407944869
 20
-885.62131530700651
 30
0.0
 11
303.92421407944869
 21
-866.12131530700651
 31
0.0
  0
LINE
  5
18637
  8
1DIM
 10
268.92421407945039
 20
-834.12131530700447
 30
0.0
 11
304.92421407944869
 21
-834.12131530700447
 31
0.0
  0
LINE
  5
18638
  8
1DIM
 10
233.92421407944951
 20
-716.62131530700401
 30
0.0
 11
304.92421407944869
 21
-716.62131530700412
 31
0.0
  0
LINE
  5
18639
  8
1DIM
 10
303.92421407944869
 20
-832.12131530700435
 30
0.0
 11
303.92421407944869
 21
-718.62131530700412
 31
0.0
  0
LINE
  5
1863D
  8
1DIM
 10
272.92421407945039
 20
-724.12131530700469
 30
0.0
 11
294.92421407944857
 21
-724.12131530700469
 31
0.0
  0
LINE
  5
1863E
  8
1DIM
 10
268.92421407945039
 20
-834.12131530700447
 30
0.0
 11
294.92421407944857
 21
-834.12131530700447
 31
0.0
  0
LINE
  5
1863F
  8
1DIM
 10
293.92421407944857
 20
-726.12131530700458
 30
0.0
 11
293.92421407944857
 21
-832.12131530700435
 31
0.0
  0
LINE
  5
18643
  8
1DIM
 10
272.92421407945039
 20
-724.12131530700469
 30
0.0
 11
294.92421407944857
 21
-724.12131530700469
 31
0.0
  0
LINE
  5
18644
  8
1DIM
 10
233.92421407944951
 20
-716.62131530700401
 30
0.0
 11
294.92421407944857
 21
-716.62131530700412
 31
0.0
  0
LINE
  5
18645
  8
1DIM
 10
293.92421407944857
 20
-722.12131530700458
 30
0.0
 11
293.92421407944857
 21
-718.62131530700412
 31
0.0
  0
LINE
  5
18646
  8
1DIM
 10
293.92421407944857
 20
-716.62131530700412
 30
0.0
 11
293.92421407944857
 21
-705.88798197367066
 31
0.0
  0
LINE
  5
1864A
  8
1DIM
 10
471.38512867060211
 20
-873.3713153070064
 30
0.0
 11
482.42421407944721
 21
-873.3713153070064
 31
0.0
  0
LINE
  5
1864B
  8
1DIM
 10
440.92421407945108
 20
-864.12131530699924
 30
0.0
 11
482.42421407944721
 21
-864.12131530699924
 31
0.0
  0
LINE
  5
1864C
  8
1DIM
 10
481.42421407944721
 20
-871.37131530700651
 30
0.0
 11
481.42421407944721
 21
-866.12131530699924
 31
0.0
  0
LINE
  5
18650
  8
1PHANTOM
 10
128.92426061534741
 20
-689.62131530715953
 30
0.0
 11
127.42426061534739
 21
-694.92131181702121
 31
0.0
  0
LINE
  5
18651
  8
1PHANTOM
 10
127.42426061534739
 20
-694.92131181702121
 30
0.0
 11
127.42426061534761
 21
-719.62131181691313
 31
0.0
  0
LINE
  5
18652
  8
1PHANTOM
 10
128.92426061534741
 20
-689.62131530715953
 30
0.0
 11
130.42426061534749
 21
-694.92131879740487
 31
0.0
  0
LINE
  5
18653
  8
1PHANTOM
 10
125.4242140794496
 20
-719.62130716321508
 30
0.0
 11
127.42426061534761
 21
-719.62131181691313
 31
0.0
  0
LINE
  5
18654
  8
1PHANTOM
 10
130.42426061534749
 20
-694.92131879740487
 30
0.0
 11
130.42426061534741
 21
-719.62131879729782
 31
0.0
  0
LINE
  5
18655
  8
1PHANTOM
 10
125.4242140794496
 20
-719.62130716321508
 30
0.0
 11
125.4242140794495
 21
-720.72131065341034
 31
0.0
  0
LINE
  5
18656
  8
1PHANTOM
 10
130.42426061534741
 20
-719.62131879729782
 30
0.0
 11
132.42421407944951
 21
-719.62132345077919
 31
0.0
  0
ARC
  5
18657
  8
1PHANTOM
 10
126.9242140794495
 20
-720.72131065341034
 30
0.0
 40
1.5
 50
180.0
 51
269.99986668447059
  0
LINE
  5
18658
  8
1PHANTOM
 10
132.42421407944951
 20
-719.62132345077919
 30
0.0
 11
132.42421407944951
 21
-720.72131996058999
 31
0.0
  0
LINE
  5
18659
  8
1PHANTOM
 10
126.9242105892571
 20
-722.22131065340625
 30
0.0
 11
130.92421058925709
 21
-722.22131996058579
 31
0.0
  0
ARC
  5
1865A
  8
1PHANTOM
 10
130.92421407944951
 20
-720.72131996058999
 30
0.0
 40
1.5
 50
269.99986668447059
 51
0.0
  0
LINE
  5
1865B
  8
1DIM
 10
441.42421407944721
 20
-910.62131530699776
 30
0.0
 11
441.42421407944721
 21
-906.6213153070064
 31
0.0
  0
LINE
  5
1865C
  8
1DIM
 10
411.92421407944948
 20
-886.62131530700651
 30
0.0
 11
411.92421407944948
 21
-908.62131530700651
 31
0.0
  0
LINE
  5
1865D
  8
1DIM
 10
439.42421407944732
 20
-907.62131530700663
 30
0.0
 11
413.92421407944943
 21
-907.62131530700663
 31
0.0
  0
TEXT
  5
18661
  8
1DIM
 10
333.95993073835001
 20
-900.815939557761
 30
0.0
 40
3.5
  1
材質：ガラス
  0
SOLID
  5
18662
  8
1DIM
 10
376.3308137821208
 20
-878.56933413560512
 30
0.0
 11
377.75993073835002
 21
-877.13102407288227
 31
0.0
 12
376.8745422865839
 22
-878.95508503693759
 32
0.0
 13
376.8745422865839
 23
-878.95508503693759
 33
0.0
  0
TEXT
  5
18664
  8
1DIM
 10
447.07931532183949
 20
-808.08440749893271
 30
0.0
 40
3.5
  1
PB
  0
SOLID
  5
18665
  8
1DIM
 10
447.98384543348237
 20
-827.23716850262247
 30
0.0
 11
448.00418270152659
 21
-829.26465401592213
 31
0.0
 12
447.32738187609039
 22
-827.35335818486919
 32
0.0
 13
447.32738187609039
 23
-827.35335818486919
 33
0.0
  0
SOLID
  5
18667
  8
1DIM
 10
456.04736624601321
 20
-827.24155503272175
 30
0.0
 11
456.50216491546792
 21
-829.21747742020898
 31
0.0
 12
455.43111026463652
 22
-827.49586391943615
 32
0.0
 13
455.43111026463652
 23
-827.49586391943615
 33
0.0
  0
TEXT
  5
18669
  8
1DIM
 10
453.2466598163781
 20
-814.08575351605657
 30
0.0
 40
3.5
  1
合板9mm以上
  0
LINE
  5
1866A
  8
1HATCH
 10
443.34353816848329
 20
-873.72494120225474
 30
0.0
 11
443.34353816848329
 21
-873.72494120225474
 31
0.0
  0
LINE
  5
1866B
  8
1HATCH
 10
439.70014160372352
 20
-885.91573554055935
 30
0.0
 11
439.70014160372352
 21
-885.91573554055935
 31
0.0
  0
LINE
  5
1866C
  8
1DIM
 10
323.92421407944857
 20
-876.1213153070064
 30
0.0
 11
323.92421407944857
 21
-918.62131530700651
 31
0.0
  0
LINE
  5
1866D
  8
1DIM
 10
441.42421407944721
 20
-887.12131530700651
 30
0.0
 11
441.42421407944721
 21
-918.62131530700651
 31
0.0
  0
LINE
  5
1866E
  8
1DIM
 10
325.92421407944857
 20
-917.62131530700651
 30
0.0
 11
439.42421407944732
 21
-917.62131530700651
 31
0.0
  0
LINE
  5
18672
  8
1DIM1
 10
73.924214079450394
 20
-876.12131530700481
 30
0.0
 11
73.924214079450394
 21
-950.62131530700651
 31
0.0
  0
LINE
  5
18673
  8
1DIM1
 10
273.92421407944857
 20
-876.12131530700481
 30
0.0
 11
273.92421407944857
 21
-950.62131530700651
 31
0.0
  0
LINE
  5
18674
  8
1DIM1
 10
79.924214079450394
 20
-947.6213153070064
 30
0.0
 11
267.92421407944857
 21
-947.6213153070064
 31
0.0
  0
LINE
  5
18678
  8
1DIM1
 10
128.9242140794513
 20
-876.37131530700503
 30
0.0
 11
128.9242140794513
 21
-920.62131530700651
 31
0.0
  0
LINE
  5
18679
  8
1DIM1
 10
218.92421407944951
 20
-876.37131530700503
 30
0.0
 11
218.92421407944951
 21
-920.62131530700651
 31
0.0
  0
LINE
  5
1867A
  8
1DIM1
 10
134.9242140794513
 20
-917.62131530700651
 30
0.0
 11
212.92421407944951
 21
-917.62131530700651
 31
0.0
  0
LINE
  5
1867E
  8
1PHANTOM
 10
218.92426061534741
 20
-689.62131530715953
 30
0.0
 11
217.42426061534741
 21
-694.92131181702121
 31
0.0
  0
LINE
  5
1867F
  8
1PHANTOM
 10
217.42426061534741
 20
-694.92131181702121
 30
0.0
 11
217.42426061534761
 21
-719.62131181691313
 31
0.0
  0
LINE
  5
18680
  8
1PHANTOM
 10
218.92426061534741
 20
-689.62131530715953
 30
0.0
 11
220.42426061534749
 21
-694.92131879740487
 31
0.0
  0
LINE
  5
18681
  8
1PHANTOM
 10
215.4242140794496
 20
-719.62130716321508
 30
0.0
 11
217.42426061534761
 21
-719.62131181691313
 31
0.0
  0
LINE
  5
18682
  8
1PHANTOM
 10
220.42426061534749
 20
-694.92131879740487
 30
0.0
 11
220.42426061534741
 21
-719.62131879729782
 31
0.0
  0
LINE
  5
18683
  8
1PHANTOM
 10
215.4242140794496
 20
-719.62130716321508
 30
0.0
 11
215.42421407944951
 21
-720.72131065341034
 31
0.0
  0
LINE
  5
18684
  8
1PHANTOM
 10
220.42426061534741
 20
-719.62131879729782
 30
0.0
 11
222.42421407944951
 21
-719.62132345077919
 31
0.0
  0
ARC
  5
18685
  8
1PHANTOM
 10
216.92421407944951
 20
-720.72131065341034
 30
0.0
 40
1.5
 50
180.0
 51
269.99986668447059
  0
LINE
  5
18686
  8
1PHANTOM
 10
222.42421407944951
 20
-719.62132345077919
 30
0.0
 11
222.42421407944951
 21
-720.72131996058999
 31
0.0
  0
LINE
  5
18687
  8
1PHANTOM
 10
216.92421058925709
 20
-722.22131065340625
 30
0.0
 11
220.92421058925709
 21
-722.22131996058579
 31
0.0
  0
ARC
  5
18688
  8
1PHANTOM
 10
220.92421407944951
 20
-720.72131996058999
 30
0.0
 40
1.5
 50
269.99986668447059
 51
0.0
  0
TEXT
  5
18689
  8
1DIM
 10
378.49199683398689
 20
-925.86338169281578
 30
0.0
 40
3.5
  1
材質：アルミ
  0
TEXT
  5
1868A
  8
1DIM
 10
348.85866350065362
 20
-931.69671502614915
 30
0.0
 40
3.5
  1
仕上げ：ブラストアルマイト
  0
SOLID
  5
1868B
  8
1DIM
 10
420.77999507870942
 20
-890.37748125612154
 30
0.0
 11
421.82533016732032
 21
-888.6401310716077
 31
0.0
 12
421.39996460280088
 22
-890.62259803164307
 32
0.0
 13
421.39996460280088
 23
-890.62259803164307
 33
0.0
  0
LINE
  5
1868D
  8
1DIM
 10
421.08997984075512
 20
-890.50003964388225
 30
0.0
 11
404.52533016732031
 21
-932.39671502614931
 31
0.0
  0
LINE
  5
1868E
  8
1DIM
 10
404.52533016732031
 20
-932.39671502614931
 30
0.0
 11
348.15866350065357
 21
-932.39671502614931
 31
0.0
  0
TEXT
  5
1868F
  8
1DIM1
 10
160.79921407945039
 20
-915.52131530700638
 30
0.0
 40
10.5
  1
P90 
  0
LINE
  5
18690
  8
0
  6
BYBLOCK
 10
212.92421407944951
 20
-916.01362016700648
 30
0.0
 11
218.92421407944951
 21
-917.62131530700651
 31
0.0
  0
LINE
  5
18691
  8
0
  6
BYBLOCK
 10
218.92421407944951
 20
-917.62131530700651
 30
0.0
 11
212.92421407944951
 21
-919.22901044700654
 31
0.0
  0
LINE
  5
18692
  8
0
  6
BYBLOCK
 10
218.92421407944951
 20
-917.62131530700651
 30
0.0
 11
212.92421407944951
 21
-917.62131530700651
 31
0.0
  0
LINE
  5
18693
  8
0
  6
BYBLOCK
 10
134.9242140794513
 20
-919.22901044700654
 30
0.0
 11
128.9242140794513
 21
-917.62131530700651
 31
0.0
  0
LINE
  5
18694
  8
0
  6
BYBLOCK
 10
128.9242140794513
 20
-917.62131530700651
 30
0.0
 11
134.9242140794513
 21
-916.01362016700648
 31
0.0
  0
LINE
  5
18695
  8
0
  6
BYBLOCK
 10
128.9242140794513
 20
-917.62131530700651
 30
0.0
 11
134.9242140794513
 21
-917.62131530700651
 31
0.0
  0
TEXT
  5
18696
  8
1DIM1
 10
161.67421407944951
 20
-945.52131530700649
 30
0.0
 40
10.5
  1
200 
  0
LINE
  5
18697
  8
0
  6
BYBLOCK
 10
267.92421407944857
 20
-946.01362016700648
 30
0.0
 11
273.92421407944857
 21
-947.6213153070064
 31
0.0
  0
LINE
  5
18698
  8
0
  6
BYBLOCK
 10
273.92421407944857
 20
-947.6213153070064
 30
0.0
 11
267.92421407944857
 21
-949.22901044700654
 31
0.0
  0
LINE
  5
18699
  8
0
  6
BYBLOCK
 10
273.92421407944857
 20
-947.6213153070064
 30
0.0
 11
267.92421407944857
 21
-947.6213153070064
 31
0.0
  0
LINE
  5
1869A
  8
0
  6
BYBLOCK
 10
79.924214079450394
 20
-949.22901044700654
 30
0.0
 11
73.924214079450394
 21
-947.6213153070064
 31
0.0
  0
LINE
  5
1869B
  8
0
  6
BYBLOCK
 10
73.924214079450394
 20
-947.6213153070064
 30
0.0
 11
79.924214079450394
 21
-946.01362016700648
 31
0.0
  0
LINE
  5
1869C
  8
0
  6
BYBLOCK
 10
73.924214079450394
 20
-947.6213153070064
 30
0.0
 11
79.924214079450394
 21
-947.6213153070064
 31
0.0
  0
TEXT
  5
1869D
  8
1DIM
 10
376.84088074611458
 20
-916.92131530700635
 30
0.0
 40
3.5
  1
117.5 
  0
LINE
  5
1869E
  8
0
  6
BYBLOCK
 10
439.42421407944732
 20
-917.08541692700635
 30
0.0
 11
441.42421407944721
 21
-917.62131530700651
 31
0.0
  0
LINE
  5
1869F
  8
0
  6
BYBLOCK
 10
441.42421407944721
 20
-917.62131530700651
 30
0.0
 11
439.42421407944732
 21
-918.15721368700656
 31
0.0
  0
LINE
  5
186A0
  8
0
  6
BYBLOCK
 10
441.42421407944721
 20
-917.62131530700651
 30
0.0
 11
439.42421407944732
 21
-917.62131530700651
 31
0.0
  0
LINE
  5
186A1
  8
0
  6
BYBLOCK
 10
325.92421407944857
 20
-918.15721368700656
 30
0.0
 11
323.92421407944857
 21
-917.62131530700651
 31
0.0
  0
LINE
  5
186A2
  8
0
  6
BYBLOCK
 10
323.92421407944857
 20
-917.62131530700651
 30
0.0
 11
325.92421407944857
 21
-917.08541692700635
 31
0.0
  0
LINE
  5
186A3
  8
0
  6
BYBLOCK
 10
323.92421407944857
 20
-917.62131530700651
 30
0.0
 11
325.92421407944857
 21
-917.62131530700651
 31
0.0
  0
LINE
  5
186A4
  8
1DIM
 10
455.73923825532478
 20
-827.36870947607883
 30
0.0
 11
450.54665981637822
 21
-814.78575351605662
 31
0.0
  0
LINE
  5
186A5
  8
1DIM
 10
450.54665981637822
 20
-814.78575351605662
 30
0.0
 11
482.44665981637809
 21
-814.78575351605662
 31
0.0
  0
LINE
  5
186A6
  8
1DIM
 10
447.65561365478641
 20
-827.29526334374589
 30
0.0
 11
444.37931532183961
 21
-808.78440749893275
 31
0.0
  0
LINE
  5
186A7
  8
1DIM
 10
444.37931532183961
 20
-808.78440749893275
 30
0.0
 11
452.91264865517297
 21
-808.78440749893275
 31
0.0
  0
LINE
  5
186A8
  8
1DIM
 10
376.60267803435238
 20
-878.76220958627141
 30
0.0
 11
360.45993073835001
 21
-901.51593955776116
 31
0.0
  0
LINE
  5
186A9
  8
1DIM
 10
360.45993073835001
 20
-901.51593955776116
 30
0.0
 11
333.49326407168343
 21
-901.51593955776116
 31
0.0
  0
TEXT
  5
186AA
  8
1DIM
 10
421.42421407944829
 20
-906.92131530700635
 30
0.0
 40
3.5
  1
29.5 
  0
LINE
  5
186AB
  8
0
  6
BYBLOCK
 10
413.92421407944943
 20
-908.15721368700645
 30
0.0
 11
411.92421407944948
 21
-907.62131530700663
 31
0.0
  0
LINE
  5
186AC
  8
0
  6
BYBLOCK
 10
411.92421407944948
 20
-907.62131530700663
 30
0.0
 11
413.92421407944943
 21
-907.08541692700646
 31
0.0
  0
LINE
  5
186AD
  8
0
  6
BYBLOCK
 10
411.92421407944948
 20
-907.62131530700663
 30
0.0
 11
413.92421407944943
 21
-907.62131530700663
 31
0.0
  0
LINE
  5
186AE
  8
0
  6
BYBLOCK
 10
439.42421407944732
 20
-907.08541692700646
 30
0.0
 11
441.42421407944721
 21
-907.62131530700663
 31
0.0
  0
LINE
  5
186AF
  8
0
  6
BYBLOCK
 10
441.42421407944721
 20
-907.62131530700663
 30
0.0
 11
439.42421407944732
 21
-908.15721368700645
 31
0.0
  0
LINE
  5
186B0
  8
0
  6
BYBLOCK
 10
441.42421407944721
 20
-907.62131530700663
 30
0.0
 11
439.42421407944732
 21
-907.62131530700663
 31
0.0
  0
TEXT
  5
186B1
  8
1DIM
 10
480.72421407944728
 20
-869.91298197366928
 30
0.0
 40
3.5
  1
9 
 50
90.0
  0
LINE
  5
186B2
  8
0
  6
BYBLOCK
 10
480.88831569944722
 20
-866.12131530699924
 30
0.0
 11
481.42421407944721
 21
-864.12131530699924
 31
0.0
  0
LINE
  5
186B3
  8
0
  6
BYBLOCK
 10
481.42421407944721
 20
-864.12131530699924
 30
0.0
 11
481.9601124594472
 21
-866.12131530699924
 31
0.0
  0
LINE
  5
186B4
  8
0
  6
BYBLOCK
 10
481.42421407944721
 20
-864.12131530699924
 30
0.0
 11
481.42421407944721
 21
-866.12131530699924
 31
0.0
  0
LINE
  5
186B5
  8
0
  6
BYBLOCK
 10
481.9601124594472
 20
-871.37131530700651
 30
0.0
 11
481.42421407944721
 21
-873.3713153070064
 31
0.0
  0
LINE
  5
186B6
  8
0
  6
BYBLOCK
 10
481.42421407944721
 20
-873.3713153070064
 30
0.0
 11
480.88831569944722
 21
-871.37131530700651
 31
0.0
  0
LINE
  5
186B7
  8
0
  6
BYBLOCK
 10
481.42421407944721
 20
-873.3713153070064
 30
0.0
 11
481.42421407944721
 21
-871.37131530700651
 31
0.0
  0
TEXT
  5
186B8
  8
1DIM
 10
293.2242140794487
 20
-713.75464864033734
 30
0.0
 40
3.5
  1
7.5 
 50
90.0
  0
LINE
  5
186B9
  8
0
  6
BYBLOCK
 10
293.38831569944858
 20
-718.62131530700412
 30
0.0
 11
293.92421407944857
 21
-716.62131530700412
 31
0.0
  0
LINE
  5
186BA
  8
0
  6
BYBLOCK
 10
293.92421407944857
 20
-716.62131530700412
 30
0.0
 11
294.46011245944862
 21
-718.62131530700412
 31
0.0
  0
LINE
  5
186BB
  8
0
  6
BYBLOCK
 10
293.92421407944857
 20
-716.62131530700412
 30
0.0
 11
293.92421407944857
 21
-718.62131530700412
 31
0.0
  0
LINE
  5
186BC
  8
0
  6
BYBLOCK
 10
294.46011245944862
 20
-722.12131530700458
 30
0.0
 11
293.92421407944857
 21
-724.12131530700469
 31
0.0
  0
LINE
  5
186BD
  8
0
  6
BYBLOCK
 10
293.92421407944857
 20
-724.12131530700469
 30
0.0
 11
293.38831569944858
 21
-722.12131530700458
 31
0.0
  0
LINE
  5
186BE
  8
0
  6
BYBLOCK
 10
293.92421407944857
 20
-724.12131530700469
 30
0.0
 11
293.92421407944857
 21
-722.12131530700458
 31
0.0
  0
TEXT
  5
186BF
  8
1DIM
 10
293.2242140794487
 20
-782.32964864033784
 30
0.0
 40
3.5
  1
110 
 50
90.0
  0
LINE
  5
186C0
  8
0
  6
BYBLOCK
 10
294.46011245944862
 20
-832.12131530700435
 30
0.0
 11
293.92421407944857
 21
-834.12131530700447
 31
0.0
  0
LINE
  5
186C1
  8
0
  6
BYBLOCK
 10
293.92421407944857
 20
-834.12131530700447
 30
0.0
 11
293.38831569944858
 21
-832.12131530700435
 31
0.0
  0
LINE
  5
186C2
  8
0
  6
BYBLOCK
 10
293.92421407944857
 20
-834.12131530700447
 30
0.0
 11
293.92421407944857
 21
-832.12131530700435
 31
0.0
  0
LINE
  5
186C3
  8
0
  6
BYBLOCK
 10
293.38831569944858
 20
-726.12131530700458
 30
0.0
 11
293.92421407944857
 21
-724.12131530700469
 31
0.0
  0
LINE
  5
186C4
  8
0
  6
BYBLOCK
 10
293.92421407944857
 20
-724.12131530700469
 30
0.0
 11
294.46011245944862
 21
-726.12131530700458
 31
0.0
  0
LINE
  5
186C5
  8
0
  6
BYBLOCK
 10
293.92421407944857
 20
-724.12131530700469
 30
0.0
 11
293.92421407944857
 21
-726.12131530700458
 31
0.0
  0
TEXT
  5
186C6
  8
1DIM
 10
303.22421407944881
 20
-781.20464864033738
 30
0.0
 40
3.5
  1
117.5 
 50
90.0
  0
LINE
  5
186C7
  8
0
  6
BYBLOCK
 10
303.3883156994487
 20
-718.62131530700412
 30
0.0
 11
303.92421407944869
 21
-716.62131530700412
 31
0.0
  0
LINE
  5
186C8
  8
0
  6
BYBLOCK
 10
303.92421407944869
 20
-716.62131530700412
 30
0.0
 11
304.46011245944868
 21
-718.62131530700412
 31
0.0
  0
LINE
  5
186C9
  8
0
  6
BYBLOCK
 10
303.92421407944869
 20
-716.62131530700412
 30
0.0
 11
303.92421407944869
 21
-718.62131530700412
 31
0.0
  0
LINE
  5
186CA
  8
0
  6
BYBLOCK
 10
304.46011245944868
 20
-832.12131530700435
 30
0.0
 11
303.92421407944869
 21
-834.12131530700447
 31
0.0
  0
LINE
  5
186CB
  8
0
  6
BYBLOCK
 10
303.92421407944869
 20
-834.12131530700447
 30
0.0
 11
303.3883156994487
 21
-832.12131530700435
 31
0.0
  0
LINE
  5
186CC
  8
0
  6
BYBLOCK
 10
303.92421407944869
 20
-834.12131530700447
 30
0.0
 11
303.92421407944869
 21
-832.12131530700435
 31
0.0
  0
TEXT
  5
186CD
  8
1DIM
 10
303.22421407944881
 20
-881.12131530700628
 30
0.0
 40
3.5
  1
23.5 
 50
90.0
  0
LINE
  5
186CE
  8
0
  6
BYBLOCK
 10
303.3883156994487
 20
-866.12131530700651
 30
0.0
 11
303.92421407944869
 21
-864.12131530700651
 31
0.0
  0
LINE
  5
186CF
  8
0
  6
BYBLOCK
 10
303.92421407944869
 20
-864.12131530700651
 30
0.0
 11
304.46011245944868
 21
-866.12131530700651
 31
0.0
  0
LINE
  5
186D0
  8
0
  6
BYBLOCK
 10
303.92421407944869
 20
-864.12131530700651
 30
0.0
 11
303.92421407944869
 21
-866.12131530700651
 31
0.0
  0
LINE
  5
186D1
  8
0
  6
BYBLOCK
 10
304.46011245944868
 20
-885.62131530700651
 30
0.0
 11
303.92421407944869
 21
-887.6213153070064
 31
0.0
  0
LINE
  5
186D2
  8
0
  6
BYBLOCK
 10
303.92421407944869
 20
-887.6213153070064
 30
0.0
 11
303.3883156994487
 21
-885.62131530700651
 31
0.0
  0
LINE
  5
186D3
  8
0
  6
BYBLOCK
 10
303.92421407944869
 20
-887.6213153070064
 30
0.0
 11
303.92421407944869
 21
-885.62131530700651
 31
0.0
  0
TEXT
  5
186D4
  8
1DIM
 10
313.22421407944881
 20
-859.42131530700635
 30
0.0
 40
3.5
  1
5 
 50
90.0
  0
LINE
  5
186D5
  8
0
  6
BYBLOCK
 10
314.46011245944868
 20
-862.12131530700651
 30
0.0
 11
313.92421407944869
 21
-864.12131530700651
 31
0.0
  0
LINE
  5
186D6
  8
0
  6
BYBLOCK
 10
313.92421407944869
 20
-864.12131530700651
 30
0.0
 11
313.3883156994487
 21
-862.12131530700651
 31
0.0
  0
LINE
  5
186D7
  8
0
  6
BYBLOCK
 10
313.92421407944869
 20
-864.12131530700651
 30
0.0
 11
313.92421407944869
 21
-862.12131530700651
 31
0.0
  0
LINE
  5
186D8
  8
0
  6
BYBLOCK
 10
313.3883156994487
 20
-871.12131530700651
 30
0.0
 11
313.92421407944869
 21
-869.1213153070064
 31
0.0
  0
LINE
  5
186D9
  8
0
  6
BYBLOCK
 10
313.92421407944869
 20
-869.1213153070064
 30
0.0
 11
314.46011245944868
 21
-871.12131530700651
 31
0.0
  0
LINE
  5
186DA
  8
0
  6
BYBLOCK
 10
313.92421407944869
 20
-869.1213153070064
 30
0.0
 11
313.92421407944869
 21
-871.12131530700651
 31
0.0
  0
TEXT
  5
186DB
  8
1DIM
 10
313.22421407944881
 20
-874.28798197367303
 30
0.0
 40
3.5
  1
8 
 50
90.0
  0
LINE
  5
186DC
  8
0
  6
BYBLOCK
 10
314.46011245944868
 20
-875.1213153070064
 30
0.0
 11
313.92421407944869
 21
-877.1213153070064
 31
0.0
  0
LINE
  5
186DD
  8
0
  6
BYBLOCK
 10
313.92421407944869
 20
-877.1213153070064
 30
0.0
 11
313.3883156994487
 21
-875.1213153070064
 31
0.0
  0
LINE
  5
186DE
  8
0
  6
BYBLOCK
 10
313.92421407944869
 20
-877.1213153070064
 30
0.0
 11
313.92421407944869
 21
-875.1213153070064
 31
0.0
  0
LINE
  5
186DF
  8
0
  6
BYBLOCK
 10
313.3883156994487
 20
-871.12131530700651
 30
0.0
 11
313.92421407944869
 21
-869.1213153070064
 31
0.0
  0
LINE
  5
186E0
  8
0
  6
BYBLOCK
 10
313.92421407944869
 20
-869.1213153070064
 30
0.0
 11
314.46011245944868
 21
-871.12131530700651
 31
0.0
  0
LINE
  5
186E1
  8
0
  6
BYBLOCK
 10
313.92421407944869
 20
-869.1213153070064
 30
0.0
 11
313.92421407944869
 21
-871.12131530700651
 31
0.0
  0
TEXT
  5
186E2
  8
1DIM
 10
426.00754741277638
 20
-896.92131530700635
 30
0.0
 40
3.5
  1
21.5 
  0
LINE
  5
186E3
  8
0
  6
BYBLOCK
 10
421.92421407944943
 20
-898.15721368700645
 30
0.0
 11
419.92421407944948
 21
-897.6213153070064
 31
0.0
  0
LINE
  5
186E4
  8
0
  6
BYBLOCK
 10
419.92421407944948
 20
-897.6213153070064
 30
0.0
 11
421.92421407944943
 21
-897.08541692700646
 31
0.0
  0
LINE
  5
186E5
  8
0
  6
BYBLOCK
 10
419.92421407944948
 20
-897.6213153070064
 30
0.0
 11
421.92421407944943
 21
-897.6213153070064
 31
0.0
  0
LINE
  5
186E6
  8
0
  6
BYBLOCK
 10
439.42421407943669
 20
-897.08541692700646
 30
0.0
 11
441.42421407943669
 21
-897.6213153070064
 31
0.0
  0
LINE
  5
186E7
  8
0
  6
BYBLOCK
 10
441.42421407943669
 20
-897.6213153070064
 30
0.0
 11
439.42421407943669
 21
-898.15721368700645
 31
0.0
  0
LINE
  5
186E8
  8
0
  6
BYBLOCK
 10
441.42421407943669
 20
-897.6213153070064
 30
0.0
 11
439.42421407943669
 21
-897.6213153070064
 31
0.0
  0
TEXT
  5
186E9
  8
1DIM1
 10
162.7274500023959
 20
-676.06650836394795
 30
0.0
 40
10.5
  1
120 
  0
LINE
  5
186EA
  8
0
  6
BYBLOCK
 10
227.9242140794486
 20
-676.55881322394794
 30
0.0
 11
233.9242140794486
 21
-678.16650836394786
 31
0.0
  0
LINE
  5
186EB
  8
0
  6
BYBLOCK
 10
233.9242140794486
 20
-678.16650836394786
 30
0.0
 11
227.9242140794486
 21
-679.774203503948
 31
0.0
  0
LINE
  5
186EC
  8
0
  6
BYBLOCK
 10
233.9242140794486
 20
-678.16650836394786
 30
0.0
 11
227.9242140794486
 21
-678.16650836394786
 31
0.0
  0
LINE
  5
186ED
  8
0
  6
BYBLOCK
 10
119.9242140794485
 20
-679.774203503948
 30
0.0
 11
113.9242140794485
 21
-678.16650836394786
 31
0.0
  0
LINE
  5
186EE
  8
0
  6
BYBLOCK
 10
113.9242140794485
 20
-678.16650836394786
 30
0.0
 11
119.9242140794485
 21
-676.55881322394794
 31
0.0
  0
LINE
  5
186EF
  8
0
  6
BYBLOCK
 10
113.9242140794485
 20
-678.16650836394786
 30
0.0
 11
119.9242140794485
 21
-678.16650836394786
 31
0.0
  0
TEXT
  5
186F0
  8
1DIM1
 10
86.049214079449484
 20
-676.06650836394795
 30
0.0
 40
10.5
  1
40 
  0
LINE
  5
186F1
  8
0
  6
BYBLOCK
 10
107.9242140794486
 20
-676.55881322394794
 30
0.0
 11
113.9242140794485
 21
-678.16650836394786
 31
0.0
  0
LINE
  5
186F2
  8
0
  6
BYBLOCK
 10
113.9242140794485
 20
-678.16650836394786
 30
0.0
 11
107.9242140794486
 21
-679.774203503948
 31
0.0
  0
LINE
  5
186F3
  8
0
  6
BYBLOCK
 10
113.9242140794485
 20
-678.16650836394786
 30
0.0
 11
107.9242140794486
 21
-678.16650836394786
 31
0.0
  0
LINE
  5
186F4
  8
0
  6
BYBLOCK
 10
79.924214079450394
 20
-679.774203503948
 30
0.0
 11
73.924214079450394
 21
-678.16650836394786
 31
0.0
  0
LINE
  5
186F5
  8
0
  6
BYBLOCK
 10
73.924214079450394
 20
-678.16650836394786
 30
0.0
 11
79.924214079450394
 21
-676.55881322394794
 31
0.0
  0
LINE
  5
186F6
  8
0
  6
BYBLOCK
 10
73.924214079450394
 20
-678.16650836394786
 30
0.0
 11
79.924214079450394
 21
-678.16650836394786
 31
0.0
  0
TEXT
  5
186F7
  8
1DIM1
 10
246.04921407944769
 20
-676.06650836394795
 30
0.0
 40
10.5
  1
40 
  0
LINE
  5
186F8
  8
0
  6
BYBLOCK
 10
239.9242140794486
 20
-679.774203503948
 30
0.0
 11
233.9242140794486
 21
-678.16650836394786
 31
0.0
  0
LINE
  5
186F9
  8
0
  6
BYBLOCK
 10
233.9242140794486
 20
-678.16650836394786
 30
0.0
 11
239.9242140794486
 21
-676.55881322394794
 31
0.0
  0
LINE
  5
186FA
  8
0
  6
BYBLOCK
 10
233.9242140794486
 20
-678.16650836394786
 30
0.0
 11
239.9242140794486
 21
-678.16650836394786
 31
0.0
  0
LINE
  5
186FB
  8
0
  6
BYBLOCK
 10
267.9242140794467
 20
-676.55881322394794
 30
0.0
 11
273.92421407944681
 21
-678.16650836394786
 31
0.0
  0
LINE
  5
186FC
  8
0
  6
BYBLOCK
 10
273.92421407944681
 20
-678.16650836394786
 30
0.0
 11
267.9242140794467
 21
-679.774203503948
 31
0.0
  0
LINE
  5
186FD
  8
0
  6
BYBLOCK
 10
273.92421407944681
 20
-678.16650836394786
 30
0.0
 11
267.9242140794467
 21
-678.16650836394786
 31
0.0
  0
VIEWPORT
  5
57
 67
     1
  8
0
 10
-12.73141056964354
 20
10.083731670551
 30
0.0
 40
426.49732989047362
 41
282.80698729109162
 68
     1
 69
     1
1001
ACAD
1000
MVIEW
1002
{
1070
    16
1010
0.0
1020
0.0
1030
0.0
1010
0.0
1020
0.0
1030
1.0
1040
0.0
1040
282.80698729109162
1040
-12.73141056964354
1040
10.083731670551
1040
50.0
1040
0.0
1040
0.0
1070
     0
1070
   100
1070
     1
1070
     1
1070
     0
1070
     0
1070
     0
1070
     0
1040
0.0
1040
0.0
1040
0.0
1040
10.0
1040
10.0
1040
10.0
1040
10.0
1070
     0
1002
{
1002
}
1002
}
  0
ENDSEC
  0
EOF
