  0
SECTION
  2
HEADER
  9
$ACADVER
  1
AC1009
  9
$INSBASE
 10
0.0
 20
0.0
 30
0.0
  9
$EXTMIN
 10
-27.111319826482351
 20
-950.62131530700651
 30
0.0
  9
$EXTMAX
 10
482.44665981637797
 20
-664.02131530700399
 30
0.0
  9
$LIMMIN
 10
0.0
 20
0.0
  9
$LIMMAX
 10
420.0
 20
297.0
  9
$ORTHOMODE
 70
     0
  9
$REGENMODE
 70
     1
  9
$FILLMODE
 70
     1
  9
$QTEXTMODE
 70
     0
  9
$MIRRTEXT
 70
     0
  9
$DRAGMODE
 70
     2
  9
$LTSCALE
 40
0.5
  9
$OSMODE
 70
  2173
  9
$ATTMODE
 70
     1
  9
$TEXTSIZE
 40
4.0
  9
$TRACEWID
 40
1.0
  9
$TEXTSTYLE
  7
STANDARD
  9
$CLAYER
  8
1TEXT
  9
$CELTYPE
  6
BYLAYER
  9
$CECOLOR
 62
   256
  9
$DIMSCALE
 40
1.0
  9
$DIMASZ
 40
2.0
  9
$DIMEXO
 40
0.0
  9
$DIMDLI
 40
7.0
  9
$DIMRND
 40
0.0
  9
$DIMDLE
 40
0.0
  9
$DIMEXE
 40
1.0
  9
$DIMTP
 40
0.0
  9
$DIMTM
 40
0.0
  9
$DIMTXT
 40
3.5
  9
$DIMCEN
 40
0.0
  9
$DIMTSZ
 40
0.0
  9
$DIMTOL
 70
     0
  9
$DIMLIM
 70
     0
  9
$DIMTIH
 70
     0
  9
$DIMTOH
 70
     0
  9
$DIMSE1
 70
     0
  9
$DIMSE2
 70
     0
  9
$DIMTAD
 70
     1
  9
$DIMZIN
 70
     8
  9
$DIMBLK
  1

  9
$DIMASO
 70
     1
  9
$DIMSHO
 70
     1
  9
$DIMPOST
  1
 
  9
$DIMAPOST
  1

  9
$DIMALT
 70
     0
  9
$DIMALTD
 70
     2
  9
$DIMALTF
 40
25.399999999999999
  9
$DIMLFAC
 40
1.0
  9
$DIMTOFL
 70
     1
  9
$DIMTVP
 40
0.0
  9
$DIMTIX
 70
     0
  9
$DIMSOXD
 70
     0
  9
$DIMSAH
 70
     1
  9
$DIMBLK1
  1
OPEN30
  9
$DIMBLK2
  1
OPEN30
  9
$DIMSTYLE
  2
NEWX10
  9
$DIMCLRD
 70
   256
  9
$DIMCLRE
 70
   256
  9
$DIMCLRT
 70
   201
  9
$DIMTFAC
 40
0.7
  9
$DIMGAP
 40
0.7
  9
$LUNITS
 70
     2
  9
$LUPREC
 70
     4
  9
$SKETCHINC
 40
1.0
  9
$FILLETRAD
 40
0.0
  9
$AUNITS
 70
     0
  9
$AUPREC
 70
     2
  9
$MENU
  1
acad
  9
$ELEVATION
 40
0.0
  9
$PELEVATION
 40
0.0
  9
$THICKNESS
 40
0.0
  9
$LIMCHECK
 70
     0
  9
$BLIPMODE
 70
     0
  9
$CHAMFERA
 40
10.0
  9
$CHAMFERB
 40
10.0
  9
$SKPOLY
 70
     0
  9
$TDCREATE
 40
2453033.7326634838
  9
$TDUPDATE
 40
2453605.741216898
  9
$TDINDWG
 40
1.7140091435
  9
$TDUSRTIMER
 40
1.7140091435
  9
$USRTIMER
 70
     1
  9
$ANGBASE
 50
0.0
  9
$ANGDIR
 70
     0
  9
$PDMODE
 70
     0
  9
$PDSIZE
 40
0.0
  9
$PLINEWID
 40
0.0
  9
$COORDS
 70
     2
  9
$SPLFRAME
 70
     0
  9
$SPLINETYPE
 70
     6
  9
$SPLINESEGS
 70
     8
  9
$ATTDIA
 70
     0
  9
$ATTREQ
 70
     1
  9
$HANDLING
 70
     1
  9
$HANDSEED
  5
18BAC
  9
$SURFTAB1
 70
     6
  9
$SURFTAB2
 70
     6
  9
$SURFTYPE
 70
     6
  9
$SURFU
 70
     6
  9
$SURFV
 70
     6
  9
$UCSNAME
  2

  9
$UCSORG
 10
0.0
 20
0.0
 30
0.0
  9
$UCSXDIR
 10
1.0
 20
0.0
 30
0.0
  9
$UCSYDIR
 10
0.0
 20
1.0
 30
0.0
  9
$PUCSNAME
  2

  9
$PUCSORG
 10
0.0
 20
0.0
 30
0.0
  9
$PUCSXDIR
 10
1.0
 20
0.0
 30
0.0
  9
$PUCSYDIR
 10
0.0
 20
1.0
 30
0.0
  9
$USERI1
 70
     0
  9
$USERI2
 70
     0
  9
$USERI3
 70
     0
  9
$USERI4
 70
     0
  9
$USERI5
 70
     0
  9
$USERR1
 40
0.0
  9
$USERR2
 40
0.0
  9
$USERR3
 40
0.0
  9
$USERR4
 40
0.0
  9
$USERR5
 40
0.0
  9
$WORLDVIEW
 70
     1
  9
$SHADEDGE
 70
     3
  9
$SHADEDIF
 70
    70
  9
$TILEMODE
 70
     1
  9
$MAXACTVP
 70
    48
  9
$PLIMCHECK
 70
     0
  9
$PEXTMIN
 10
1.0000000000000000E+020
 20
1.0000000000000000E+020
 30
1.0000000000000000E+020
  9
$PEXTMAX
 10
-1.0000000000000000E+020
 20
-1.0000000000000000E+020
 30
-1.0000000000000000E+020
  9
$PLIMMIN
 10
0.0
 20
0.0
  9
$PLIMMAX
 10
420.0
 20
297.0
  9
$UNITMODE
 70
     0
  9
$VISRETAIN
 70
     1
  9
$PLINEGEN
 70
     0
  9
$PSLTSCALE
 70
     1
  0
ENDSEC
  0
SECTION
  2
TABLES
  0
TABLE
  2
VPORT
 70
     4
  0
VPORT
  2
*ACTIVE
 70
     0
 10
0.0
 20
0.0
 11
1.0
 21
1.0
 12
227.66767118135519
 22
-807.30934302697869
 13
0.0
 23
0.0
 14
10.0
 24
10.0
 15
10.0
 25
10.0
 16
0.0
 26
0.0
 36
1.0
 17
0.0
 27
0.0
 37
0.0
 40
357.59352419437369
 41
1.508086253369272
 42
50.0
 43
0.0
 44
0.0
 50
0.0
 51
0.0
 71
     0
 72
   100
 73
     1
 74
     1
 75
     0
 76
     0
 77
     0
 78
     0
  0
ENDTAB
  0
TABLE
  2
LTYPE
 70
    15
  0
LTYPE
  2
CONTINUOUS
 70
     0
  3
Solid line
 72
    65
 73
     0
 40
0.0
  0
LTYPE
  2
CENTER2
 70
     0
  3
Center (.5x) ___ _ ___ _ ___ _ ___ _ ___ _ ___
 72
    65
 73
     4
 40
28.574999999999999
 49
19.050000000000001
 49
-3.1749999999999989
 49
3.1749999999999989
 49
-3.1749999999999989
  0
LTYPE
  2
XREF1|CENTER2
 70
    48
  3
Center (.5x) ___ _ ___ _ ___ _ ___ _ ___ _ ___
 72
    65
 73
     4
 40
28.574999999999999
 49
19.050000000000001
 49
-3.1749999999999989
 49
3.1749999999999989
 49
-3.1749999999999989
  0
LTYPE
  2
PHANTOM2
 70
     0
  3
Phantom (.5x) ___ _ _ ___ _ _ ___ _ _ ___ _ _
 72
    65
 73
     6
 40
31.75
 49
15.875
 49
-3.1749999999999989
 49
3.1749999999999989
 49
-3.1749999999999989
 49
3.1749999999999989
 49
-3.1749999999999989
  0
LTYPE
  2
A3WAKUDAKE|CENTER2
 70
    48
  3
Center (.5x) ___ _ ___ _ ___ _ ___ _ ___ _ ___
 72
    65
 73
     4
 40
28.574999999999999
 49
19.050000000000001
 49
-3.1749999999999989
 49
3.1749999999999989
 49
-3.1749999999999989
  0
ENDTAB
  0
TABLE
  2
LAYER
 70
    44
  0
LAYER
  2
0
 70
     0
 62
     7
  6
CONTINUOUS
  0
LAYER
  2
1CENTER
 70
     0
 62
     7
  6
CENTER2
  0
LAYER
  2
1TEXT
 70
     0
 62
     7
  6
CONTINUOUS
  0
LAYER
  2
1DIM
 70
     0
 62
     7
  6
CONTINUOUS
  0
LAYER
  2
1PHANTOM
 70
     0
 62
     7
  6
PHANTOM2
  0
LAYER
  2
01
 70
     0
 62
     1
  6
CONTINUOUS
  0
LAYER
  2
1DIM1
 70
     0
 62
     7
  6
CONTINUOUS
  0
LAYER
  2
1HATCH
 70
     0
 62
     7
  6
CONTINUOUS
  0
LAYER
  2
XREF1|1CENTER
 70
    48
 62
     7
  6
XREF1|CENTER2
  0
LAYER
  2
A3WAKUDAKE|THICK
 70
    48
 62
     7
  6
CONTINUOUS
  0
LAYER
  2
A3WAKUDAKE|POINT
 70
    48
 62
     7
  6
CONTINUOUS
  0
LAYER
  2
A3WAKUDAKE|1CENTER
 70
    48
 62
     7
  6
A3WAKUDAKE|CENTER2
  0
LAYER
  2
A3WAKUDAKE|0-6
 70
    48
 62
     7
  6
CONTINUOUS
  0
LAYER
  2
A3WAKUDAKE|1DIM
 70
    48
 62
     7
  6
CONTINUOUS
  0
ENDTAB
  0
TABLE
  2
STYLE
 70
    22
  0
STYLE
  2
STANDARD
 70
     0
 40
0.0
 41
1.0
 50
0.0
 71
     0
 42
4.0
  3
txt.shx
  4
extfont.shx
  0
ENDTAB
  0
TABLE
  2
VIEW
 70
     0
  0
ENDTAB
  0
TABLE
  2
UCS
 70
     0
  0
ENDTAB
  0
TABLE
  2
APPID
 70
     9
  0
APPID
  2
ACAD
 70
     0
  0
APPID
  2
DRAWINGVARIABLESXDATA
 70
     0
  0
APPID
  2
CONTENTTABDATA
 70
     0
  0
APPID
  2
CONTENTCURRENTTAB
 70
     0
  0
APPID
  2
CONTENTBLOCKDESCRIPTION
 70
     0
  0
APPID
  2
CONTENTBLOCKICON
 70
     0
  0
APPID
  2
CONTENTLONGBLOCKNAME
 70
     0
  0
APPID
  2
ACAD_PSEXT
 70
     0
  0
APPID
  2
ACAD_DSTYLE_DIMTEXT_FILL
 70
     0
  0
ENDTAB
  0
TABLE
  2
DIMSTYLE
 70
     9
  0
DIMSTYLE
  2
NEWX10
 70
     0
  3
 
  4

  5

  6
OPEN30
  7
OPEN30
 40
1.0
 41
2.0
 42
0.0
 43
7.0
 44
1.0
 45
0.0
 46
0.0
 47
0.0
 48
0.0
140
3.5
141
0.0
142
0.0
143
25.399999999999999
144
1.0
145
0.0
146
0.7
147
0.7
 71
     0
 72
     0
 73
     0
 74
     0
 75
     0
 76
     0
 77
     1
 78
     8
170
     0
171
     2
172
     1
173
     1
174
     0
175
     0
176
   256
177
   256
178
   201
  0
ENDTAB
  0
ENDSEC
  0
SECTION
  2
BLOCKS
  0
BLOCK
  8
0
  2
$MODEL_SPACE
 70
     0
 10
0.0
 20
0.0
 30
0.0
  3
$MODEL_SPACE
  1

  0
ENDBLK
  5
1A
  8
0
  0
BLOCK
 67
     1
  8
0
  2
$PAPER_SPACE
 70
     0
 10
0.0
 20
0.0
 30
0.0
  3
$PAPER_SPACE
  1

  0
ENDBLK
  5
17
 67
     1
  8
0
  0
BLOCK
  8
0
  2
_OPEN30
 70
     0
 10
0.0
 20
0.0
 30
0.0
  3
_OPEN30
  1

  0
LINE
  5
44
  8
0
  6
BYBLOCK
 62
     0
 10
-1.0
 20
0.26794919
 30
0.0
 11
0.0
 21
0.0
 31
0.0
  0
LINE
  5
45
  8
0
  6
BYBLOCK
 62
     0
 10
0.0
 20
0.0
 30
0.0
 11
-1.0
 21
-0.26794919
 31
0.0
  0
LINE
  5
46
  8
0
  6
BYBLOCK
 62
     0
 10
0.0
 20
0.0
 30
0.0
 11
-1.0
 21
0.0
 31
0.0
  0
ENDBLK
  5
47
  8
0
  0
BLOCK
  8
0
  2
XREF1
 70
    36
 10
0.0
 20
0.0
 30
0.0
  3
XREF1
  1
D:\ACLT\FORMAT\KAWAJUN(9)図面用.dwg
  0
ENDBLK
  5
5D
  8
0
  0
BLOCK
  8
0
  2
A3WAKUDAKE
 70
    36
 10
0.0
 20
0.0
 30
0.0
  3
A3WAKUDAKE
  1
D:\ACLT\FORMAT\A3WAKUdake.dwg
  0
ENDBLK
  5
6DC
  8
0
  0
BLOCK
  8
0
  2
*U22
 70
     1
 10
0.0
 20
0.0
 30
0.0
  3
*U22
  1

  0
TEXT
  5
18B71
  8
1DIM1
 62
   201
 10
107.2992140794495
 20
-915.52131530700638
 30
0.0
 40
10.5
  1
P140 
  0
ENDBLK
  5
18B73
  8
0
  0
BLOCK
  8
0
  2
*U23
 70
     1
 10
0.0
 20
0.0
 30
0.0
  3
*U23
  1

  0
TEXT
  5
18B75
  8
1DIM1
 62
   201
 10
111.6742140794495
 20
-945.52131530700649
 30
0.0
 40
10.5
  1
300 
  0
ENDBLK
  5
18B77
  8
0
  0
BLOCK
  8
0
  2
*U24
 70
     1
 10
0.0
 20
0.0
 30
0.0
  3
*U24
  1

  0
TEXT
  5
18B79
  8
1DIM
 62
   201
 10
293.2242140794487
 20
-713.75464864033734
 30
0.0
 40
3.5
  1
7.5 
 50
90.0
  0
ENDBLK
  5
18B7B
  8
0
  0
BLOCK
  8
0
  2
*U25
 70
     1
 10
0.0
 20
0.0
 30
0.0
  3
*U25
  1

  0
TEXT
  5
18B7D
  8
1DIM
 62
   201
 10
293.2242140794487
 20
-782.32964864033784
 30
0.0
 40
3.5
  1
110 
 50
90.0
  0
ENDBLK
  5
18B7F
  8
0
  0
BLOCK
  8
0
  2
*U26
 70
     1
 10
0.0
 20
0.0
 30
0.0
  3
*U26
  1

  0
TEXT
  5
18B81
  8
1DIM
 62
   201
 10
303.22421407944881
 20
-781.20464864033738
 30
0.0
 40
3.5
  1
117.5 
 50
90.0
  0
ENDBLK
  5
18B83
  8
0
  0
BLOCK
  8
0
  2
*U27
 70
     1
 10
0.0
 20
0.0
 30
0.0
  3
*U27
  1

  0
TEXT
  5
18B85
  8
1DIM
 62
   201
 10
376.84088074611458
 20
-916.92131530700635
 30
0.0
 40
3.5
  1
117.5 
  0
ENDBLK
  5
18B87
  8
0
  0
BLOCK
  8
0
  2
*U28
 70
     1
 10
0.0
 20
0.0
 30
0.0
  3
*U28
  1

  0
TEXT
  5
18B89
  8
1DIM
 62
   201
 10
421.42421407944829
 20
-906.92131530700635
 30
0.0
 40
3.5
  1
29.5 
  0
ENDBLK
  5
18B8B
  8
0
  0
BLOCK
  8
0
  2
*U29
 70
     1
 10
0.0
 20
0.0
 30
0.0
  3
*U29
  1

  0
TEXT
  5
18B8D
  8
1DIM
 62
   201
 10
480.72421407944722
 20
-869.91298197366928
 30
0.0
 40
3.5
  1
9 
 50
90.0
  0
ENDBLK
  5
18B8F
  8
0
  0
BLOCK
  8
0
  2
*U30
 70
     1
 10
0.0
 20
0.0
 30
0.0
  3
*U30
  1

  0
TEXT
  5
18B91
  8
1DIM
 62
   201
 10
303.22421407944881
 20
-881.12131530700628
 30
0.0
 40
3.5
  1
23.5 
 50
90.0
  0
ENDBLK
  5
18B93
  8
0
  0
BLOCK
  8
0
  2
*U31
 70
     1
 10
0.0
 20
0.0
 30
0.0
  3
*U31
  1

  0
TEXT
  5
18B95
  8
1DIM
 62
   201
 10
313.22421407944881
 20
-859.42131530700635
 30
0.0
 40
3.5
  1
5 
 50
90.0
  0
ENDBLK
  5
18B97
  8
0
  0
BLOCK
  8
0
  2
*U32
 70
     1
 10
0.0
 20
0.0
 30
0.0
  3
*U32
  1

  0
TEXT
  5
18B99
  8
1DIM
 62
   201
 10
313.22421407944881
 20
-874.28798197367303
 30
0.0
 40
3.5
  1
8 
 50
90.0
  0
ENDBLK
  5
18B9B
  8
0
  0
BLOCK
  8
0
  2
*U33
 70
     1
 10
0.0
 20
0.0
 30
0.0
  3
*U33
  1

  0
TEXT
  5
18B9D
  8
1DIM
 62
   201
 10
426.00754741277638
 20
-896.92131530700635
 30
0.0
 40
3.5
  1
21.5 
  0
ENDBLK
  5
18B9F
  8
0
  0
BLOCK
  8
0
  2
*U34
 70
     1
 10
0.0
 20
0.0
 30
0.0
  3
*U34
  1

  0
TEXT
  5
18BA1
  8
1DIM1
 62
   201
 10
111.6742140794495
 20
-674.52131530700387
 30
0.0
 40
10.5
  1
200 
  0
ENDBLK
  5
18BA3
  8
0
  0
BLOCK
  8
0
  2
*U35
 70
     1
 10
0.0
 20
0.0
 30
0.0
  3
*U35
  1

  0
TEXT
  5
18BA5
  8
1DIM1
 62
   201
 10
-8.9507859205500591
 20
-674.52131530700387
 30
0.0
 40
10.5
  1
50 
  0
ENDBLK
  5
18BA7
  8
0
  0
BLOCK
  8
0
  2
*U36
 70
     1
 10
0.0
 20
0.0
 30
0.0
  3
*U36
  1

  0
TEXT
  5
18BA9
  8
1DIM1
 62
   201
 10
241.04921407945091
 20
-674.52131530700387
 30
0.0
 40
10.5
  1
50 
  0
ENDBLK
  5
18BAB
  8
0
  0
ENDSEC
  0
SECTION
  2
ENTITIES
  0
LINE
  5
180D8
  8
1DIM
 10
361.42421407944721
 20
-847.12131530700435
 30
0.0
 11
431.42421407944721
 21
-847.12131530700435
 31
0.0
  0
TEXT
  5
180D9
  8
1TEXT
 10
368.17659503182779
 20
-845.62131530700447
 30
0.0
 40
4.0
  1
表面処理：
 72
     1
 11
378.82421407944679
 21
-845.62131530700447
 31
0.0
  0
LINE
  5
180DA
  8
1DIM
 10
361.42421407944721
 20
-840.12131530700435
 30
0.0
 11
431.42421407944721
 21
-840.12131530700435
 31
0.0
  0
LINE
  5
180DB
  8
1DIM
 10
361.42421407944721
 20
-840.12131530700435
 30
0.0
 11
431.42421407944721
 21
-840.12131530700435
 31
0.0
  0
LINE
  5
180DC
  8
1DIM
 10
396.42421407944721
 20
-840.12131530700435
 30
0.0
 11
396.42421407944721
 21
-854.12131530700435
 31
0.0
  0
TEXT
  5
180DD
  8
1TEXT
 10
407.02421407944672
 20
-845.62131530700447
 30
0.0
 40
4.0
  1
コード
 72
     1
 11
413.82421407944679
 21
-845.62131530700447
 31
0.0
  0
LINE
  5
180DE
  8
1DIM
 10
361.42421407944721
 20
-854.12131530700435
 30
0.0
 11
431.42421407944721
 21
-854.12131530700435
 31
0.0
  0
TEXT
  5
180DF
  8
1TEXT
 10
362.07754741278018
 20
-852.43222891857545
 30
0.0
 40
4.0
  1
ブラストアルマイト
 41
0.8
 72
     1
 11
378.82421407944679
 21
-852.43222891857545
 31
0.0
  0
TEXT
  5
180E0
  8
1TEXT
 10
399.15754741278113
 20
-852.83567229065375
 30
0.0
 40
4.0
  1
SA804S30
 72
     1
 11
413.8242140794477
 21
-852.83567229065375
 31
0.0
  0
LINE
  5
180E1
  8
1DIM
 10
361.42421407944721
 20
-854.12131530700435
 30
0.0
 11
361.42421407944721
 21
-840.12131530700435
 31
0.0
  0
LINE
  5
180E2
  8
1DIM
 10
431.42421407944721
 20
-854.12131530700435
 30
0.0
 11
431.4242140794471
 21
-840.12131530700435
 31
0.0
  0
TEXT
  5
180E3
  8
1TEXT
 10
361.42421407944721
 20
-835.12131530700447
 30
0.0
 40
8.0
  1
SA804S30
  0
LINE
  5
180E5
  8
01
 10
459.42421407944721
 20
-830.62131530699821
 30
0.0
 11
459.42421407944721
 21
-910.62131530699776
 31
0.0
  0
LINE
  5
18524
  8
1CENTER
 10
193.92421407944951
 20
-686.66040071585098
 30
0.0
 11
193.92421407944951
 21
-723.29159171630602
 31
0.0
  0
LINE
  5
18525
  8
1PHANTOM
 10
192.8298902654544
 20
-691.72131276083735
 30
0.0
 11
194.79222535432979
 21
-690.92131732678638
 31
0.0
  0
LINE
  5
18526
  8
1PHANTOM
 10
194.79222535432979
 20
-690.92131732678638
 30
0.0
 11
194.2039487792874
 21
-690.60954747053427
 31
0.0
  0
LINE
  5
18527
  8
1PHANTOM
 10
191.92426061534741
 20
-714.12131065362735
 30
0.0
 11
195.92426061534741
 21
-713.32131996080909
 31
0.0
  0
LINE
  5
18528
  8
1PHANTOM
 10
191.92426061534741
 20
-702.92131065362287
 30
0.0
 11
195.92426061534741
 21
-702.12131996080041
 31
0.0
  0
LINE
  5
18529
  8
1PHANTOM
 10
191.92426061534741
 20
-699.72131065362294
 30
0.0
 11
195.92426061534741
 21
-698.92131996080025
 31
0.0
  0
LINE
  5
1852A
  8
1PHANTOM
 10
195.92426061534741
 20
-698.92131996080025
 30
0.0
 11
195.42426061534741
 21
-698.82131879740314
 31
0.0
  0
LINE
  5
1852B
  8
1PHANTOM
 10
192.42426061534741
 20
-698.22131181702014
 30
0.0
 11
191.92426061534741
 21
-698.12131065362291
 31
0.0
  0
LINE
  5
1852C
  8
1PHANTOM
 10
195.92426061534741
 20
-702.12131996080041
 30
0.0
 11
195.42426061534741
 21
-702.02131879740307
 31
0.0
  0
LINE
  5
1852D
  8
1PHANTOM
 10
195.92426061534741
 20
-700.52131996080016
 30
0.0
 11
195.42426061534741
 21
-700.42131879740305
 31
0.0
  0
LINE
  5
1852E
  8
1PHANTOM
 10
192.42426061534741
 20
-699.82131181702005
 30
0.0
 11
191.92426061534741
 21
-699.72131065362294
 31
0.0
  0
LINE
  5
1852F
  8
1PHANTOM
 10
192.42426061534741
 20
-701.42131181701996
 30
0.0
 11
191.92426061534741
 21
-701.32131065362285
 31
0.0
  0
LINE
  5
18530
  8
1PHANTOM
 10
191.92426061534741
 20
-701.32131065362285
 30
0.0
 11
195.92426061534741
 21
-700.52131996080016
 31
0.0
  0
LINE
  5
18531
  8
1PHANTOM
 10
195.24503945873661
 20
-692.5213183803919
 30
0.0
 11
194.69328999493331
 21
-692.33855423776401
 31
0.0
  0
LINE
  5
18532
  8
1PHANTOM
 10
195.92426061534741
 20
-695.72131996080032
 30
0.0
 11
195.42426061534741
 21
-695.62131879740309
 31
0.0
  0
LINE
  5
18533
  8
1PHANTOM
 10
195.92426061534741
 20
-697.32131996080034
 30
0.0
 11
195.42426061534741
 21
-697.22131879740334
 31
0.0
  0
LINE
  5
18534
  8
1PHANTOM
 10
195.69785356314341
 20
-694.12131943399766
 30
0.0
 11
195.1612598278723
 21
-693.99204873636779
 31
0.0
  0
LINE
  5
18535
  8
1PHANTOM
 10
192.84517521255609
 20
-693.43408121958316
 30
0.0
 11
192.37707675740609
 21
-693.32131170723312
 31
0.0
  0
LINE
  5
18536
  8
1PHANTOM
 10
192.42426061534741
 20
-696.62131181702
 30
0.0
 11
191.92426061534741
 21
-696.52131065362289
 31
0.0
  0
LINE
  5
18537
  8
1PHANTOM
 10
192.42426061534741
 20
-695.02131181702009
 30
0.0
 11
191.92426061534741
 21
-694.92131065362287
 31
0.0
  0
LINE
  5
18538
  8
1PHANTOM
 10
193.2870621060855
 20
-691.87274855727776
 30
0.0
 11
192.8298902654544
 21
-691.72131276083735
 31
0.0
  0
LINE
  5
18539
  8
1PHANTOM
 10
192.37707675740609
 20
-693.32131170723312
 30
0.0
 11
195.24503945873661
 21
-692.5213183803919
 31
0.0
  0
LINE
  5
1853A
  8
1PHANTOM
 10
191.92426061534741
 20
-696.52131065362289
 30
0.0
 11
195.92426061534741
 21
-695.72131996080032
 31
0.0
  0
LINE
  5
1853B
  8
1PHANTOM
 10
191.92426061534741
 20
-694.92131065362287
 30
0.0
 11
195.69785356314341
 21
-694.12131943399766
 31
0.0
  0
LINE
  5
1853C
  8
1PHANTOM
 10
191.92426061534741
 20
-698.12131065362291
 30
0.0
 11
195.92426061534741
 21
-697.32131996080034
 31
0.0
  0
LINE
  5
1853D
  8
1PHANTOM
 10
191.92426061534741
 20
-710.9213106536273
 30
0.0
 11
195.92426061534741
 21
-710.12131996080905
 31
0.0
  0
LINE
  5
1853E
  8
1PHANTOM
 10
195.92426061534741
 20
-710.12131996080905
 30
0.0
 11
195.42426061534741
 21
-710.02131879741125
 31
0.0
  0
LINE
  5
1853F
  8
1PHANTOM
 10
192.42426061534741
 20
-709.42131181702064
 30
0.0
 11
191.92426061534741
 21
-709.32131065362296
 31
0.0
  0
LINE
  5
18540
  8
1PHANTOM
 10
195.92426061534741
 20
-711.72131996080918
 30
0.0
 11
195.42426061534741
 21
-711.6213187974115
 31
0.0
  0
LINE
  5
18541
  8
1PHANTOM
 10
195.92426061534741
 20
-713.32131996080909
 30
0.0
 11
195.42426061534741
 21
-713.22131879741141
 31
0.0
  0
LINE
  5
18542
  8
1PHANTOM
 10
192.42426061534741
 20
-711.02131181702498
 30
0.0
 11
191.92426061534741
 21
-710.9213106536273
 31
0.0
  0
LINE
  5
18543
  8
1PHANTOM
 10
192.42426061534741
 20
-712.62131181702512
 30
0.0
 11
191.92426061534741
 21
-712.52131065362744
 31
0.0
  0
LINE
  5
18544
  8
1PHANTOM
 10
191.92426061534741
 20
-712.52131065362744
 30
0.0
 11
195.92426061534741
 21
-711.72131996080918
 31
0.0
  0
LINE
  5
18545
  8
1PHANTOM
 10
195.92426061534741
 20
-705.32131996080454
 30
0.0
 11
195.42426061534741
 21
-705.22131879740698
 31
0.0
  0
LINE
  5
18546
  8
1PHANTOM
 10
195.92426061534741
 20
-703.72131996080032
 30
0.0
 11
195.42426061534741
 21
-703.62131879740309
 31
0.0
  0
LINE
  5
18547
  8
1PHANTOM
 10
195.92426061534741
 20
-708.52131996080459
 30
0.0
 11
195.42426061534741
 21
-708.42131879740703
 31
0.0
  0
LINE
  5
18548
  8
1PHANTOM
 10
195.92426061534741
 20
-706.92131996080468
 30
0.0
 11
195.42426061534741
 21
-706.82131879740712
 31
0.0
  0
LINE
  5
18549
  8
1PHANTOM
 10
192.42426061534741
 20
-703.02131181702009
 30
0.0
 11
191.92426061534741
 21
-702.92131065362287
 31
0.0
  0
LINE
  5
1854A
  8
1PHANTOM
 10
192.42426061534741
 20
-704.62131181702057
 30
0.0
 11
191.92426061534741
 21
-704.52131065362289
 31
0.0
  0
LINE
  5
1854B
  8
1PHANTOM
 10
192.42426061534741
 20
-707.82131181702073
 30
0.0
 11
191.92426061534741
 21
-707.72131065362305
 31
0.0
  0
LINE
  5
1854C
  8
1PHANTOM
 10
192.42426061534741
 20
-706.22131181702048
 30
0.0
 11
191.92426061534741
 21
-706.12131065362291
 31
0.0
  0
LINE
  5
1854D
  8
1PHANTOM
 10
191.92426061534741
 20
-706.12131065362291
 30
0.0
 11
195.92426061534741
 21
-705.32131996080454
 31
0.0
  0
LINE
  5
1854E
  8
1PHANTOM
 10
191.92426061534741
 20
-704.52131065362289
 30
0.0
 11
195.92426061534741
 21
-703.72131996080032
 31
0.0
  0
LINE
  5
1854F
  8
1PHANTOM
 10
191.92426061534741
 20
-707.72131065362305
 30
0.0
 11
195.92426061534741
 21
-706.92131996080468
 31
0.0
  0
LINE
  5
18550
  8
1PHANTOM
 10
191.92426061534741
 20
-709.32131065362296
 30
0.0
 11
195.92426061534741
 21
-708.52131996080459
 31
0.0
  0
LINE
  5
18551
  8
1PHANTOM
 10
195.42426061534741
 20
-719.62131879729782
 30
0.0
 11
192.42426061534761
 21
-719.62131181691313
 31
0.0
  0
LINE
  5
18552
  8
1PHANTOM
 10
192.42426061534741
 20
-719.02131181702919
 30
0.0
 11
191.92426061534741
 21
-718.92131065363151
 31
0.0
  0
LINE
  5
18553
  8
1PHANTOM
 10
191.92426061534741
 20
-718.92131065363151
 30
0.0
 11
195.92426061534741
 21
-718.12131996081325
 31
0.0
  0
LINE
  5
18554
  8
1PHANTOM
 10
195.92426061534741
 20
-718.12131996081325
 30
0.0
 11
195.42426061534741
 21
-718.02131879741546
 31
0.0
  0
LINE
  5
18555
  8
1PHANTOM
 10
192.42426061534741
 20
-717.42131181702928
 30
0.0
 11
191.92426061534741
 21
-717.3213106536316
 31
0.0
  0
LINE
  5
18556
  8
1PHANTOM
 10
192.42426061534741
 20
-715.82131181702925
 30
0.0
 11
191.92426061534741
 21
-715.72131065363169
 31
0.0
  0
LINE
  5
18557
  8
1PHANTOM
 10
191.92426061534741
 20
-715.72131065363169
 30
0.0
 11
195.92426061534741
 21
-714.92131996081343
 31
0.0
  0
LINE
  5
18558
  8
1PHANTOM
 10
195.92426061534741
 20
-716.52131996081334
 30
0.0
 11
195.42426061534741
 21
-716.42131879741555
 31
0.0
  0
LINE
  5
18559
  8
1PHANTOM
 10
195.92426061534741
 20
-714.92131996081343
 30
0.0
 11
195.42426061534741
 21
-714.82131879741576
 31
0.0
  0
LINE
  5
1855A
  8
1PHANTOM
 10
191.92426061534741
 20
-717.3213106536316
 30
0.0
 11
195.92426061534741
 21
-716.52131996081334
 31
0.0
  0
LINE
  5
1855B
  8
1PHANTOM
 10
192.42426061534741
 20
-714.22131181702503
 30
0.0
 11
191.92426061534741
 21
-714.12131065362735
 31
0.0
  0
LINE
  5
1855C
  8
1PHANTOM
 10
190.1242140794495
 20
-719.62131530699719
 30
0.0
 11
190.1242140794495
 21
-718.62131530699719
 31
0.0
  0
LINE
  5
1855D
  8
1PHANTOM
 10
197.72421407944941
 20
-719.62131530699719
 30
0.0
 11
197.72421407944941
 21
-718.62131530699719
 31
0.0
  0
LINE
  5
1855E
  8
1PHANTOM
 10
194.42421392944951
 20
-719.62131530699719
 30
0.0
 11
193.42421422944949
 21
-718.62131530699719
 31
0.0
  0
LINE
  5
1855F
  8
1PHANTOM
 10
197.72421407944941
 20
-719.62131530699719
 30
0.0
 11
190.1242140794495
 21
-719.62131530699719
 31
0.0
  0
LINE
  5
18560
  8
1PHANTOM
 10
197.72421407944941
 20
-718.62131530699719
 30
0.0
 11
190.1242140794495
 21
-718.62131530699719
 31
0.0
  0
LINE
  5
18563
  8
01
 10
273.92421407945039
 20
-725.12131530700469
 30
0.0
 11
273.92421407945039
 21
-829.12131530700435
 31
0.0
  0
LINE
  5
18564
  8
01
 10
-26.07578592054961
 20
-829.12131530700435
 30
0.0
 11
-26.07578592054961
 21
-725.12131530700401
 31
0.0
  0
LINE
  5
18565
  8
01
 10
173.92421407944951
 20
-877.12131530700481
 30
0.0
 11
-25.075785920549379
 21
-877.12131530700503
 31
0.0
  0
LINE
  5
18566
  8
01
 10
268.92421407945039
 20
-834.12131530700447
 30
0.0
 11
-21.07578592054961
 21
-834.12131530700447
 31
0.0
  0
LINE
  5
18567
  8
01
 10
173.92421407944951
 20
-869.12131530700503
 30
0.0
 11
-25.0757859205495
 21
-869.12131530700503
 31
0.0
  0
LINE
  5
18568
  8
01
 10
24.924214079447669
 20
-887.62131530700481
 30
0.0
 11
163.92421407944951
 21
-887.62131530700469
 31
0.0
  0
LINE
  5
18569
  8
01
 10
23.924214079448799
 20
-877.62131530700469
 30
0.0
 11
163.92421407944951
 21
-877.62131530700469
 31
0.0
  0
LINE
  5
1856A
  8
01
 10
103.92421407944759
 20
-869.12131530700503
 30
0.0
 11
163.92421407944951
 21
-869.12131530700458
 31
0.0
  0
LINE
  5
1856B
  8
01
 10
24.924214079449492
 20
-864.12131530700469
 30
0.0
 11
163.92421407944951
 21
-864.12131530700469
 31
0.0
  0
LINE
  5
1856C
  8
01
 10
-26.07578592054961
 20
-870.12131530700503
 30
0.0
 11
-26.07578592054961
 21
-876.12131530700481
 31
0.0
  0
LINE
  5
1856D
  8
01
 10
-26.07578592054961
 20
-876.12131530700481
 30
0.0
 11
-25.07578592054961
 21
-877.12131530700481
 31
0.0
  0
LINE
  5
1856E
  8
01
 10
-25.07578592054961
 20
-869.12131530700503
 30
0.0
 11
-26.07578592054961
 21
-870.12131530700503
 31
0.0
  0
LINE
  5
1856F
  8
01
 10
23.924214079447658
 20
-886.62131530700469
 30
0.0
 11
23.924214079448799
 21
-877.12131530700481
 31
0.0
  0
LINE
  5
18570
  8
01
 10
23.924214079449492
 20
-869.12131530700503
 30
0.0
 11
23.924214079449492
 21
-865.12131530700469
 31
0.0
  0
ARC
  5
18571
  8
01
 10
24.924214079447669
 20
-886.62131530700469
 30
0.0
 40
1.0
 50
179.9999999999967
 51
270.0
  0
ARC
  5
18572
  8
01
 10
24.924214079449492
 20
-865.12131530700469
 30
0.0
 40
1.0
 50
90.0
 51
179.9999999999967
  0
ARC
  5
18573
  8
01
 10
-21.07578592054961
 20
-829.12131530700435
 30
0.0
 40
5.0
 50
180.0
 51
270.0
  0
LINE
  5
18574
  8
01
 10
173.92421407944951
 20
-877.12131530700481
 30
0.0
 11
272.92421407944857
 21
-877.12131530700481
 31
0.0
  0
LINE
  5
18575
  8
01
 10
173.92421407944951
 20
-869.12131530700503
 30
0.0
 11
272.92421407944857
 21
-869.12131530700503
 31
0.0
  0
LINE
  5
18576
  8
01
 10
223.92421407945309
 20
-886.62131530700469
 30
0.0
 11
223.92421407945159
 21
-877.12131530700503
 31
0.0
  0
LINE
  5
18577
  8
01
 10
223.92421407945019
 20
-869.12131530700503
 30
0.0
 11
223.92421407944951
 21
-865.12131530700435
 31
0.0
  0
LINE
  5
18578
  8
01
 10
222.92421407945309
 20
-887.62131530700481
 30
0.0
 11
163.92421407944951
 21
-887.62131530700469
 31
0.0
  0
LINE
  5
18579
  8
01
 10
223.9242140794513
 20
-877.62131530700469
 30
0.0
 11
163.92421407944951
 21
-877.62131530700469
 31
0.0
  0
LINE
  5
1857A
  8
01
 10
223.9242140794513
 20
-869.12131530700503
 30
0.0
 11
163.92421407944951
 21
-869.12131530700458
 31
0.0
  0
CIRCLE
  5
1857C
  8
01
 10
193.92421407944951
 20
-873.37131530700515
 30
0.0
 40
2.5
  0
ARC
  5
1857D
  8
01
 10
222.92421407945309
 20
-886.62131530700492
 30
0.0
 40
1.0
 50
270.0
 51
0.0000000000065138
  0
LINE
  5
1857E
  8
01
 10
222.92421407944951
 20
-864.12131530700435
 30
0.0
 11
163.92421407944951
 21
-864.12131530700469
 31
0.0
  0
ARC
  5
1857F
  8
01
 10
222.92421407944951
 20
-865.12131530700435
 30
0.0
 40
1.0
 50
0.0000000000032569
 51
90.0
  0
LINE
  5
18580
  8
01
 10
273.92421407944857
 20
-870.12131530700503
 30
0.0
 11
273.92421407944857
 21
-876.12131530700481
 31
0.0
  0
LINE
  5
18581
  8
01
 10
273.92421407944857
 20
-876.12131530700481
 30
0.0
 11
272.92421407944857
 21
-877.12131530700481
 31
0.0
  0
LINE
  5
18582
  8
01
 10
272.92421407944857
 20
-869.12131530700503
 30
0.0
 11
273.92421407944857
 21
-870.12131530700503
 31
0.0
  0
ARC
  5
18583
  8
01
 10
268.92421407945039
 20
-829.12131530700435
 30
0.0
 40
5.0
 50
270.0
 51
0.0
  0
LINE
  5
18584
  8
01
 10
222.9242140794486
 20
-746.12131530700469
 30
0.0
 11
24.924214079448578
 21
-746.12131530700469
 31
0.0
  0
LINE
  5
18585
  8
01
 10
163.92421407944951
 20
-716.62131530700469
 30
0.0
 11
103.9242140794486
 21
-716.62131530700469
 31
0.0
  0
LINE
  5
18586
  8
01
 10
-25.07578592054972
 20
-724.12131530700469
 30
0.0
 11
23.924214079449261
 21
-724.12131530700469
 31
0.0
  0
LINE
  5
18587
  8
01
 10
-26.07578592054961
 20
-725.12131530700469
 30
0.0
 11
-25.07578592054961
 21
-724.12131530700469
 31
0.0
  0
ARC
  5
18588
  8
01
 10
24.924214079448578
 20
-745.12131530700469
 30
0.0
 40
1.0
 50
180.0
 51
270.0
  0
LINE
  5
18589
  8
01
 10
223.9242140794492
 20
-724.12131530700503
 30
0.0
 11
272.92421407945039
 21
-724.12131530700469
 31
0.0
  0
LINE
  5
1858A
  8
01
 10
223.9242140794486
 20
-745.12131530700469
 30
0.0
 11
223.92421407944951
 21
-716.62131530700401
 31
0.0
  0
LINE
  5
1858B
  8
01
 10
23.924214079448578
 20
-745.12131530699833
 30
0.0
 11
23.924214079449492
 21
-716.62131530699764
 31
0.0
  0
ARC
  5
1858D
  8
01
 10
222.9242140794486
 20
-745.12131530700469
 30
0.0
 40
1.0
 50
270.0
 51
359.99999999999682
  0
LINE
  5
1858F
  8
01
 10
272.92421407945039
 20
-724.12131530700469
 30
0.0
 11
273.92421407945039
 21
-725.12131530700469
 31
0.0
  0
LINE
  5
18590
  8
01
 10
223.9242140794513
 20
-716.62131530699764
 30
0.0
 11
23.924214079449492
 21
-716.62131530700458
 31
0.0
  0
LINE
  5
18591
  8
1CENTER
 10
193.92421407944951
 20
-876.37131530700503
 30
0.0
 11
193.92421407944951
 21
-870.37131530700515
 31
0.0
  0
LINE
  5
18592
  8
1CENTER
 10
190.92421407944951
 20
-873.37131530700503
 30
0.0
 11
196.92421407944951
 21
-873.37131530700503
 31
0.0
  0
LINE
  5
18597
  8
1CENTER
 10
53.924214079449477
 20
-686.66040071585098
 30
0.0
 11
53.924214079449477
 21
-723.29159171630602
 31
0.0
  0
LINE
  5
18598
  8
1PHANTOM
 10
52.829890265454416
 20
-691.72131276083735
 30
0.0
 11
54.792225354329851
 21
-690.92131732678638
 31
0.0
  0
LINE
  5
18599
  8
1PHANTOM
 10
54.792225354329851
 20
-690.92131732678638
 30
0.0
 11
54.203948779287423
 21
-690.60954747053427
 31
0.0
  0
LINE
  5
1859A
  8
1PHANTOM
 10
51.924260615347407
 20
-714.12131065362735
 30
0.0
 11
55.924260615347407
 21
-713.32131996080909
 31
0.0
  0
LINE
  5
1859B
  8
1PHANTOM
 10
51.924260615347407
 20
-702.92131065362287
 30
0.0
 11
55.924260615347407
 21
-702.12131996080041
 31
0.0
  0
LINE
  5
1859C
  8
1PHANTOM
 10
51.924260615347407
 20
-699.72131065362294
 30
0.0
 11
55.924260615347407
 21
-698.92131996080025
 31
0.0
  0
LINE
  5
1859D
  8
1PHANTOM
 10
55.924260615347407
 20
-698.92131996080025
 30
0.0
 11
55.4242606153474
 21
-698.82131879740314
 31
0.0
  0
LINE
  5
1859E
  8
1PHANTOM
 10
52.4242606153474
 20
-698.22131181702014
 30
0.0
 11
51.924260615347407
 21
-698.12131065362291
 31
0.0
  0
LINE
  5
1859F
  8
1PHANTOM
 10
55.924260615347407
 20
-702.12131996080041
 30
0.0
 11
55.4242606153474
 21
-702.02131879740307
 31
0.0
  0
LINE
  5
185A0
  8
1PHANTOM
 10
55.924260615347407
 20
-700.52131996080016
 30
0.0
 11
55.4242606153474
 21
-700.42131879740305
 31
0.0
  0
LINE
  5
185A1
  8
1PHANTOM
 10
52.4242606153474
 20
-699.82131181702005
 30
0.0
 11
51.924260615347407
 21
-699.72131065362294
 31
0.0
  0
LINE
  5
185A2
  8
1PHANTOM
 10
52.4242606153474
 20
-701.42131181701996
 30
0.0
 11
51.924260615347407
 21
-701.32131065362285
 31
0.0
  0
LINE
  5
185A3
  8
1PHANTOM
 10
51.924260615347407
 20
-701.32131065362285
 30
0.0
 11
55.924260615347407
 21
-700.52131996080016
 31
0.0
  0
LINE
  5
185A4
  8
1PHANTOM
 10
55.245039458736642
 20
-692.5213183803919
 30
0.0
 11
54.693289994933359
 21
-692.33855423776401
 31
0.0
  0
LINE
  5
185A5
  8
1PHANTOM
 10
55.924260615347407
 20
-695.72131996080032
 30
0.0
 11
55.4242606153474
 21
-695.62131879740309
 31
0.0
  0
LINE
  5
185A6
  8
1PHANTOM
 10
55.924260615347407
 20
-697.32131996080034
 30
0.0
 11
55.4242606153474
 21
-697.22131879740334
 31
0.0
  0
LINE
  5
185A7
  8
1PHANTOM
 10
55.69785356314344
 20
-694.12131943399766
 30
0.0
 11
55.161259827872293
 21
-693.99204873636779
 31
0.0
  0
LINE
  5
185A8
  8
1PHANTOM
 10
52.845175212556121
 20
-693.43408121958316
 30
0.0
 11
52.377076757406137
 21
-693.32131170723312
 31
0.0
  0
LINE
  5
185A9
  8
1PHANTOM
 10
52.4242606153474
 20
-696.62131181702
 30
0.0
 11
51.924260615347407
 21
-696.52131065362289
 31
0.0
  0
LINE
  5
185AA
  8
1PHANTOM
 10
52.4242606153474
 20
-695.02131181702009
 30
0.0
 11
51.924260615347407
 21
-694.92131065362287
 31
0.0
  0
LINE
  5
185AB
  8
1PHANTOM
 10
53.2870621060855
 20
-691.87274855727776
 30
0.0
 11
52.829890265454416
 21
-691.72131276083735
 31
0.0
  0
LINE
  5
185AC
  8
1PHANTOM
 10
52.377076757406137
 20
-693.32131170723312
 30
0.0
 11
55.245039458736642
 21
-692.5213183803919
 31
0.0
  0
LINE
  5
185AD
  8
1PHANTOM
 10
51.924260615347407
 20
-696.52131065362289
 30
0.0
 11
55.924260615347407
 21
-695.72131996080032
 31
0.0
  0
LINE
  5
185AE
  8
1PHANTOM
 10
51.924260615347407
 20
-694.92131065362287
 30
0.0
 11
55.69785356314344
 21
-694.12131943399766
 31
0.0
  0
LINE
  5
185AF
  8
1PHANTOM
 10
51.924260615347407
 20
-698.12131065362291
 30
0.0
 11
55.924260615347407
 21
-697.32131996080034
 31
0.0
  0
LINE
  5
185B0
  8
1PHANTOM
 10
51.924260615347407
 20
-710.9213106536273
 30
0.0
 11
55.924260615347407
 21
-710.12131996080905
 31
0.0
  0
LINE
  5
185B1
  8
1PHANTOM
 10
55.924260615347407
 20
-710.12131996080905
 30
0.0
 11
55.4242606153474
 21
-710.02131879741125
 31
0.0
  0
LINE
  5
185B2
  8
1PHANTOM
 10
52.4242606153474
 20
-709.42131181702064
 30
0.0
 11
51.924260615347407
 21
-709.32131065362296
 31
0.0
  0
LINE
  5
185B3
  8
1PHANTOM
 10
55.924260615347407
 20
-711.72131996080918
 30
0.0
 11
55.4242606153474
 21
-711.6213187974115
 31
0.0
  0
LINE
  5
185B4
  8
1PHANTOM
 10
55.924260615347407
 20
-713.32131996080909
 30
0.0
 11
55.4242606153474
 21
-713.22131879741141
 31
0.0
  0
LINE
  5
185B5
  8
1PHANTOM
 10
52.4242606153474
 20
-711.02131181702498
 30
0.0
 11
51.924260615347407
 21
-710.9213106536273
 31
0.0
  0
LINE
  5
185B6
  8
1PHANTOM
 10
52.4242606153474
 20
-712.62131181702512
 30
0.0
 11
51.924260615347407
 21
-712.52131065362744
 31
0.0
  0
LINE
  5
185B7
  8
1PHANTOM
 10
51.924260615347407
 20
-712.52131065362744
 30
0.0
 11
55.924260615347407
 21
-711.72131996080918
 31
0.0
  0
LINE
  5
185B8
  8
1PHANTOM
 10
55.924260615347407
 20
-705.32131996080454
 30
0.0
 11
55.4242606153474
 21
-705.22131879740698
 31
0.0
  0
LINE
  5
185B9
  8
1PHANTOM
 10
55.924260615347407
 20
-703.72131996080032
 30
0.0
 11
55.4242606153474
 21
-703.62131879740309
 31
0.0
  0
LINE
  5
185BA
  8
1PHANTOM
 10
55.924260615347407
 20
-708.52131996080459
 30
0.0
 11
55.4242606153474
 21
-708.42131879740703
 31
0.0
  0
LINE
  5
185BB
  8
1PHANTOM
 10
55.924260615347407
 20
-706.92131996080468
 30
0.0
 11
55.4242606153474
 21
-706.82131879740712
 31
0.0
  0
LINE
  5
185BC
  8
1PHANTOM
 10
52.4242606153474
 20
-703.02131181702009
 30
0.0
 11
51.924260615347407
 21
-702.92131065362287
 31
0.0
  0
LINE
  5
185BD
  8
1PHANTOM
 10
52.4242606153474
 20
-704.62131181702057
 30
0.0
 11
51.924260615347407
 21
-704.52131065362289
 31
0.0
  0
LINE
  5
185BE
  8
1PHANTOM
 10
52.4242606153474
 20
-707.82131181702073
 30
0.0
 11
51.924260615347407
 21
-707.72131065362305
 31
0.0
  0
LINE
  5
185BF
  8
1PHANTOM
 10
52.4242606153474
 20
-706.22131181702048
 30
0.0
 11
51.924260615347407
 21
-706.12131065362291
 31
0.0
  0
LINE
  5
185C0
  8
1PHANTOM
 10
51.924260615347407
 20
-706.12131065362291
 30
0.0
 11
55.924260615347407
 21
-705.32131996080454
 31
0.0
  0
LINE
  5
185C1
  8
1PHANTOM
 10
51.924260615347407
 20
-704.52131065362289
 30
0.0
 11
55.924260615347407
 21
-703.72131996080032
 31
0.0
  0
LINE
  5
185C2
  8
1PHANTOM
 10
51.924260615347407
 20
-707.72131065362305
 30
0.0
 11
55.924260615347407
 21
-706.92131996080468
 31
0.0
  0
LINE
  5
185C3
  8
1PHANTOM
 10
51.924260615347407
 20
-709.32131065362296
 30
0.0
 11
55.924260615347407
 21
-708.52131996080459
 31
0.0
  0
LINE
  5
185C4
  8
1PHANTOM
 10
55.4242606153474
 20
-719.62131879729782
 30
0.0
 11
52.424260615347627
 21
-719.62131181691313
 31
0.0
  0
LINE
  5
185C5
  8
1PHANTOM
 10
52.4242606153474
 20
-719.02131181702919
 30
0.0
 11
51.924260615347407
 21
-718.92131065363151
 31
0.0
  0
LINE
  5
185C6
  8
1PHANTOM
 10
51.924260615347407
 20
-718.92131065363151
 30
0.0
 11
55.924260615347407
 21
-718.12131996081325
 31
0.0
  0
LINE
  5
185C7
  8
1PHANTOM
 10
55.924260615347407
 20
-718.12131996081325
 30
0.0
 11
55.4242606153474
 21
-718.02131879741546
 31
0.0
  0
LINE
  5
185C8
  8
1PHANTOM
 10
52.4242606153474
 20
-717.42131181702928
 30
0.0
 11
51.924260615347407
 21
-717.3213106536316
 31
0.0
  0
LINE
  5
185C9
  8
1PHANTOM
 10
52.4242606153474
 20
-715.82131181702925
 30
0.0
 11
51.924260615347407
 21
-715.72131065363169
 31
0.0
  0
LINE
  5
185CA
  8
1PHANTOM
 10
51.924260615347407
 20
-715.72131065363169
 30
0.0
 11
55.924260615347407
 21
-714.92131996081343
 31
0.0
  0
LINE
  5
185CB
  8
1PHANTOM
 10
55.924260615347407
 20
-716.52131996081334
 30
0.0
 11
55.4242606153474
 21
-716.42131879741555
 31
0.0
  0
LINE
  5
185CC
  8
1PHANTOM
 10
55.924260615347407
 20
-714.92131996081343
 30
0.0
 11
55.4242606153474
 21
-714.82131879741576
 31
0.0
  0
LINE
  5
185CD
  8
1PHANTOM
 10
51.924260615347407
 20
-717.3213106536316
 30
0.0
 11
55.924260615347407
 21
-716.52131996081334
 31
0.0
  0
LINE
  5
185CE
  8
1PHANTOM
 10
52.4242606153474
 20
-714.22131181702503
 30
0.0
 11
51.924260615347407
 21
-714.12131065362735
 31
0.0
  0
LINE
  5
185CF
  8
1PHANTOM
 10
50.12421407944953
 20
-719.62131530699719
 30
0.0
 11
50.12421407944953
 21
-718.62131530699719
 31
0.0
  0
LINE
  5
185D0
  8
1PHANTOM
 10
57.724214079449439
 20
-719.62131530699719
 30
0.0
 11
57.724214079449439
 21
-718.62131530699719
 31
0.0
  0
LINE
  5
185D1
  8
1PHANTOM
 10
54.424213929449479
 20
-719.62131530699719
 30
0.0
 11
53.42421422944949
 21
-718.62131530699719
 31
0.0
  0
LINE
  5
185D2
  8
1PHANTOM
 10
57.724214079449439
 20
-719.62131530699719
 30
0.0
 11
50.12421407944953
 21
-719.62131530699719
 31
0.0
  0
LINE
  5
185D3
  8
1PHANTOM
 10
57.724214079449439
 20
-718.62131530699719
 30
0.0
 11
50.12421407944953
 21
-718.62131530699719
 31
0.0
  0
CIRCLE
  5
185D5
  8
01
 10
53.924214079449477
 20
-873.37131530700515
 30
0.0
 40
2.5
  0
LINE
  5
185D6
  8
1CENTER
 10
53.924214079449477
 20
-876.37131530700503
 30
0.0
 11
53.924214079449477
 21
-870.37131530700515
 31
0.0
  0
LINE
  5
185D7
  8
1CENTER
 10
50.924214079449477
 20
-873.37131530700503
 30
0.0
 11
56.924214079449477
 21
-873.37131530700503
 31
0.0
  0
LINE
  5
18786
  8
01
 10
450.42421407944721
 20
-830.62131530699821
 30
0.0
 11
450.42421407944721
 21
-910.62131530699776
 31
0.0
  0
LINE
  5
18788
  8
01
 10
441.42421407944721
 20
-830.62131530699821
 30
0.0
 11
441.42421407944721
 21
-910.62131530699776
 31
0.0
  0
LINE
  5
18789
  8
1CENTER
 10
443.42421407944852
 20
-873.37131530700663
 30
0.0
 11
461.42421407944852
 21
-873.37131530700663
 31
0.0
  0
LINE
  5
1878A
  8
01
 10
432.92421407944943
 20
-877.1213153070064
 30
0.0
 11
324.92421407944852
 21
-877.1213153070064
 31
0.0
  0
LINE
  5
1878B
  8
01
 10
432.92421407944943
 20
-869.1213153070064
 30
0.0
 11
324.92421407944943
 21
-869.1213153070064
 31
0.0
  0
LINE
  5
1878C
  8
01
 10
323.92421407944852
 20
-870.12131530700663
 30
0.0
 11
323.92421407944852
 21
-876.12131530700731
 31
0.0
  0
LINE
  5
1878D
  8
01
 10
323.92421407944852
 20
-876.1213153070064
 30
0.0
 11
324.92421407944852
 21
-877.1213153070064
 31
0.0
  0
LINE
  5
1878E
  8
01
 10
324.92421407944852
 20
-869.1213153070064
 30
0.0
 11
323.92421407944852
 21
-870.12131530700663
 31
0.0
  0
LINE
  5
1878F
  8
01
 10
412.92421407944931
 20
-864.12131530700651
 30
0.0
 11
440.92421407945119
 21
-864.12131530699924
 31
0.0
  0
LINE
  5
18790
  8
1PHANTOM
 10
440.62421756942422
 20
-871.87136184290455
 30
0.0
 11
440.7242187328219
 21
-871.37136184290455
 31
0.0
  0
LINE
  5
18791
  8
1CENTER
 10
471.38512867060211
 20
-873.3713153070064
 30
0.0
 11
434.75393767014788
 21
-873.3713153070064
 31
0.0
  0
LINE
  5
18792
  8
1PHANTOM
 10
463.12421058904857
 20
-874.87136184290455
 30
0.0
 11
438.42421058915608
 21
-874.87136184290455
 31
0.0
  0
LINE
  5
18793
  8
1PHANTOM
 10
463.12421756943229
 20
-871.87136184290455
 30
0.0
 11
438.4242175695407
 21
-871.87136184290455
 31
0.0
  0
LINE
  5
18794
  8
01
 10
440.92421407943669
 20
-887.6213153070064
 30
0.0
 11
412.92421407944931
 21
-887.6213153070064
 31
0.0
  0
LINE
  5
18795
  8
01
 10
411.92421407944943
 20
-865.12131530700651
 30
0.0
 11
411.92421407944943
 21
-868.62131530700651
 31
0.0
  0
LINE
  5
18796
  8
01
 10
434.92421407944943
 20
-870.12131530700663
 30
0.0
 11
434.92421407944943
 21
-876.62131530700651
 31
0.0
  0
LINE
  5
18797
  8
1PHANTOM
 10
438.42422222323859
 20
-869.8713153070064
 30
0.0
 11
438.4242175695407
 21
-871.87136184290455
 31
0.0
  0
ARC
  5
18798
  8
1PHANTOM
 10
437.32421873304332
 20
-871.37131530700651
 30
0.0
 40
1.5
 50
90.0
 51
179.99986668446189
  0
LINE
  5
18799
  8
1PHANTOM
 10
439.4242140794567
 20
-869.5713153070036
 30
0.0
 11
439.4242140794567
 21
-870.8713153070064
 31
0.0
  0
LINE
  5
1879A
  8
1PHANTOM
 10
439.4242140794567
 20
-877.17131530700658
 30
0.0
 11
439.4242140794567
 21
-869.57131530700622
 31
0.0
  0
LINE
  5
1879B
  8
1PHANTOM
 10
438.4242140794567
 20
-877.17131530700658
 30
0.0
 11
438.4242140794567
 21
-869.57131530700622
 31
0.0
  0
LINE
  5
1879C
  8
01
 10
433.92421407944943
 20
-877.62131530700651
 30
0.0
 11
412.42421407944943
 21
-877.62131530700651
 31
0.0
  0
ARC
  5
1879D
  8
01
 10
412.42421407944943
 20
-878.12131530700663
 30
0.0
 40
0.5
 50
90.0
 51
180.0
  0
LINE
  5
1879E
  8
1PHANTOM
 10
439.4242140794567
 20
-871.32131530700622
 30
0.0
 11
438.4242140794567
 21
-871.32131530700622
 31
0.0
  0
LINE
  5
1879F
  8
1PHANTOM
 10
440.2297298973989
 20
-873.3713153070064
 30
0.0
 11
437.6006233714478
 21
-873.3713153070064
 31
0.0
  0
LINE
  5
187A0
  8
1PHANTOM
 10
439.02421756942471
 20
-871.87136184290455
 30
0.0
 11
439.1242187328225
 21
-871.37136184290455
 31
0.0
  0
LINE
  5
187A1
  8
1PHANTOM
 10
439.4242140794567
 20
-875.42131530700658
 30
0.0
 11
438.42421407945568
 21
-875.42131530700658
 31
0.0
  0
LINE
  5
187A2
  8
1PHANTOM
 10
439.4242140794567
 20
-877.17131530700658
 30
0.0
 11
438.4242140794567
 21
-877.17131530700658
 31
0.0
  0
LINE
  5
187A3
  8
1PHANTOM
 10
439.92420942564053
 20
-875.37136184290455
 30
0.0
 11
440.02421058903832
 21
-874.87136184290455
 31
0.0
  0
LINE
  5
187A4
  8
1PHANTOM
 10
438.42421058915608
 20
-874.87136184290455
 30
0.0
 11
438.42420593567471
 21
-876.87131530700651
 31
0.0
  0
LINE
  5
187A5
  8
1PHANTOM
 10
438.42420593567471
 20
-876.87131530700651
 30
0.0
 11
437.3242094258639
 21
-876.87131530700651
 31
0.0
  0
ARC
  5
187A6
  8
1PHANTOM
 10
437.3242094258639
 20
-875.3713153070064
 30
0.0
 40
1.5
 50
179.99986668446189
 51
270.0
  0
ARC
  5
187A7
  8
01
 10
433.92421407944943
 20
-876.62131530700651
 30
0.0
 40
1.0
 50
270.0
 51
0.0
  0
LINE
  5
187A8
  8
1PHANTOM
 10
439.4242140794567
 20
-875.87131530700651
 30
0.0
 11
439.4242140794567
 21
-877.17131530700215
 31
0.0
  0
LINE
  5
187A9
  8
01
 10
433.92421407944943
 20
-876.1213153070064
 30
0.0
 11
432.92421407944943
 21
-877.1213153070064
 31
0.0
  0
LINE
  5
187AA
  8
1PHANTOM
 10
438.42421058915608
 20
-874.87136184290455
 30
0.0
 11
438.4242175695407
 21
-871.87136184290455
 31
0.0
  0
LINE
  5
187AB
  8
1PHANTOM
 10
439.1242187328225
 20
-871.37136184290455
 30
0.0
 11
439.92420942564053
 21
-875.37136184290455
 31
0.0
  0
LINE
  5
187AC
  8
1PHANTOM
 10
435.82421873304691
 20
-871.37131181681423
 30
0.0
 11
435.82420942586748
 21
-875.37131181681434
 31
0.0
  0
LINE
  5
187AD
  8
01
 10
433.92421407944943
 20
-869.1213153070064
 30
0.0
 11
412.42421407944943
 21
-869.1213153070064
 31
0.0
  0
ARC
  5
187AE
  8
01
 10
412.42421407944943
 20
-868.62131530700651
 30
0.0
 40
0.5
 50
180.0
 51
270.0
  0
LINE
  5
187AF
  8
1PHANTOM
 10
439.4242140794567
 20
-869.57131530700622
 30
0.0
 11
438.4242140794567
 21
-869.57131530700622
 31
0.0
  0
LINE
  5
187B0
  8
1PHANTOM
 10
438.42422222323859
 20
-869.8713153070064
 30
0.0
 11
437.32421873304332
 21
-869.8713153070064
 31
0.0
  0
ARC
  5
187B1
  8
01
 10
433.92421407944943
 20
-870.12131530700663
 30
0.0
 40
1.0
 50
0.0
 51
90.0
  0
LINE
  5
187B2
  8
01
 10
433.92421407944943
 20
-870.12131530700663
 30
0.0
 11
432.92421407944943
 21
-869.1213153070064
 31
0.0
  0
ARC
  5
187B3
  8
01
 10
412.92421407944931
 20
-886.62131530700651
 30
0.0
 40
1.0
 50
180.0
 51
270.0
  0
LINE
  5
187B4
  8
01
 10
411.92421407944943
 20
-878.12131530700663
 30
0.0
 11
411.92421407944943
 21
-886.62131530700651
 31
0.0
  0
ARC
  5
187B5
  8
01
 10
412.92421407944931
 20
-865.12131530700651
 30
0.0
 40
1.0
 50
90.0
 51
180.0
  0
LINE
  5
187B6
  8
01
 10
441.42421407945119
 20
-864.62131530699912
 30
0.0
 11
441.42421407943669
 21
-887.12131530700651
 31
0.0
  0
LINE
  5
187B7
  8
1PHANTOM
 10
464.72421767922049
 20
-871.82417798496306
 30
0.0
 11
465.52421100606159
 21
-874.69214068629378
 31
0.0
  0
LINE
  5
187B8
  8
1PHANTOM
 10
468.4242140792939
 20
-873.37136184290455
 30
0.0
 11
463.12421756943229
 21
-871.87136184290455
 31
0.0
  0
LINE
  5
187B9
  8
1PHANTOM
 10
468.4242140792939
 20
-873.37136184290455
 30
0.0
 11
463.12421058904857
 21
-874.87136184290455
 31
0.0
  0
LINE
  5
187BA
  8
1PHANTOM
 10
451.92421873283081
 20
-871.37136184290455
 30
0.0
 11
452.72420942564889
 21
-875.37136184290455
 31
0.0
  0
LINE
  5
187BB
  8
1PHANTOM
 10
448.6242175694332
 20
-871.87136184290455
 30
0.0
 11
448.72421873283099
 21
-871.37136184290455
 31
0.0
  0
LINE
  5
187BC
  8
1PHANTOM
 10
450.22421756943271
 20
-871.87136184290455
 30
0.0
 11
450.3242187328305
 21
-871.37136184290455
 31
0.0
  0
LINE
  5
187BD
  8
1PHANTOM
 10
451.82421756943302
 20
-871.87136184290455
 30
0.0
 11
451.92421873283081
 21
-871.37136184290455
 31
0.0
  0
LINE
  5
187BE
  8
1PHANTOM
 10
447.92420942564411
 20
-875.37136184290455
 30
0.0
 11
448.0242105890419
 21
-874.87136184290455
 31
0.0
  0
LINE
  5
187BF
  8
1PHANTOM
 10
449.52420942564902
 20
-875.37136184290455
 30
0.0
 11
449.62421058904681
 21
-874.87136184290455
 31
0.0
  0
LINE
  5
187C0
  8
1PHANTOM
 10
451.12420942564847
 20
-875.37136184290455
 30
0.0
 11
451.22421058904632
 21
-874.87136184290455
 31
0.0
  0
LINE
  5
187C1
  8
1PHANTOM
 10
450.3242187328305
 20
-871.37136184290455
 30
0.0
 11
451.12420942564847
 21
-875.37136184290455
 31
0.0
  0
LINE
  5
187C2
  8
1PHANTOM
 10
448.72421873283099
 20
-871.37136184290455
 30
0.0
 11
449.52420942564902
 21
-875.37136184290455
 31
0.0
  0
LINE
  5
187C3
  8
1PHANTOM
 10
447.02421756942829
 20
-871.87136184290455
 30
0.0
 11
447.12421873282608
 21
-871.37136184290455
 31
0.0
  0
LINE
  5
187C4
  8
1PHANTOM
 10
445.42421756942889
 20
-871.87136184290455
 30
0.0
 11
445.52421873282572
 21
-871.37136184290455
 31
0.0
  0
LINE
  5
187C5
  8
1PHANTOM
 10
446.32420942564471
 20
-875.37136184290455
 30
0.0
 11
446.42421058904239
 21
-874.87136184290455
 31
0.0
  0
LINE
  5
187C6
  8
1PHANTOM
 10
444.72420942564429
 20
-875.37136184290455
 30
0.0
 11
444.82421058904208
 21
-874.87136184290455
 31
0.0
  0
LINE
  5
187C7
  8
1PHANTOM
 10
443.92421873282632
 20
-871.37136184290455
 30
0.0
 11
444.72420942564429
 21
-875.37136184290455
 31
0.0
  0
LINE
  5
187C8
  8
1PHANTOM
 10
445.52421873282572
 20
-871.37136184290455
 30
0.0
 11
446.32420942564471
 21
-875.37136184290455
 31
0.0
  0
LINE
  5
187C9
  8
1PHANTOM
 10
447.12421873282608
 20
-871.37136184290455
 30
0.0
 11
447.92420942564411
 21
-875.37136184290455
 31
0.0
  0
LINE
  5
187CA
  8
1PHANTOM
 10
453.42421756943253
 20
-871.87136184290455
 30
0.0
 11
453.52421873283032
 21
-871.37136184290455
 31
0.0
  0
LINE
  5
187CB
  8
1PHANTOM
 10
458.22421756943362
 20
-871.87136184290455
 30
0.0
 11
458.3242187328305
 21
-871.37136184290455
 31
0.0
  0
LINE
  5
187CC
  8
1PHANTOM
 10
456.6242175694332
 20
-871.87136184290455
 30
0.0
 11
456.72421873283099
 21
-871.37136184290455
 31
0.0
  0
LINE
  5
187CD
  8
1PHANTOM
 10
455.0242175694338
 20
-871.87136184290455
 30
0.0
 11
455.12421873283063
 21
-871.37136184290455
 31
0.0
  0
LINE
  5
187CE
  8
1PHANTOM
 10
452.72420942564889
 20
-875.37136184290455
 30
0.0
 11
452.82421058904657
 21
-874.87136184290455
 31
0.0
  0
LINE
  5
187CF
  8
1PHANTOM
 10
454.3242094256529
 20
-875.37136184290455
 30
0.0
 11
454.42421058905057
 21
-874.87136184290455
 31
0.0
  0
LINE
  5
187D0
  8
1PHANTOM
 10
455.9242094256532
 20
-875.37136184290455
 30
0.0
 11
456.02421058905009
 21
-874.87136184290455
 31
0.0
  0
LINE
  5
187D1
  8
1PHANTOM
 10
457.52420942565362
 20
-875.37136184290455
 30
0.0
 11
457.62421058905039
 21
-874.87136184290455
 31
0.0
  0
LINE
  5
187D2
  8
1PHANTOM
 10
453.52421873283032
 20
-871.37136184290455
 30
0.0
 11
454.3242094256529
 21
-875.37136184290455
 31
0.0
  0
LINE
  5
187D3
  8
1PHANTOM
 10
455.12421873283063
 20
-871.37136184290455
 30
0.0
 11
455.9242094256532
 21
-875.37136184290455
 31
0.0
  0
LINE
  5
187D4
  8
1PHANTOM
 10
458.3242187328305
 20
-871.37136184290455
 30
0.0
 11
459.12420942565302
 21
-875.37136184290455
 31
0.0
  0
LINE
  5
187D5
  8
1PHANTOM
 10
456.72421873283099
 20
-871.37136184290455
 30
0.0
 11
457.52420942565362
 21
-875.37136184290455
 31
0.0
  0
LINE
  5
187D6
  8
1PHANTOM
 10
459.12420942565302
 20
-875.37136184290455
 30
0.0
 11
459.22421058905081
 21
-874.87136184290455
 31
0.0
  0
LINE
  5
187D7
  8
1PHANTOM
 10
459.82421756943307
 20
-871.87136184290455
 30
0.0
 11
459.92421873283081
 21
-871.37136184290455
 31
0.0
  0
LINE
  5
187D8
  8
1PHANTOM
 10
462.3242094256529
 20
-875.37136184290455
 30
0.0
 11
462.42421058905057
 21
-874.87136184290455
 31
0.0
  0
LINE
  5
187D9
  8
1PHANTOM
 10
460.72420942565338
 20
-875.37136184290455
 30
0.0
 11
460.82421058905032
 21
-874.87136184290455
 31
0.0
  0
LINE
  5
187DA
  8
1PHANTOM
 10
463.92420995245618
 20
-875.14495479070035
 30
0.0
 11
464.05348065008542
 21
-874.60836105542955
 31
0.0
  0
LINE
  5
187DB
  8
1PHANTOM
 10
464.61144816686999
 20
-872.29227644011269
 30
0.0
 11
464.72421767922049
 21
-871.82417798496306
 31
0.0
  0
LINE
  5
187DC
  8
1PHANTOM
 10
461.42421756943338
 20
-871.87136184290455
 30
0.0
 11
461.52421873283032
 21
-871.37136184290455
 31
0.0
  0
LINE
  5
187DD
  8
1PHANTOM
 10
463.0242175694338
 20
-871.87136184290455
 30
0.0
 11
463.12421873283063
 21
-871.37136184290455
 31
0.0
  0
LINE
  5
187DE
  8
1PHANTOM
 10
461.52421873283032
 20
-871.37136184290455
 30
0.0
 11
462.3242094256529
 21
-875.37136184290455
 31
0.0
  0
LINE
  5
187DF
  8
1PHANTOM
 10
463.12421873283063
 20
-871.37136184290455
 30
0.0
 11
463.92420995245618
 21
-875.14495479070035
 31
0.0
  0
LINE
  5
187E0
  8
1PHANTOM
 10
459.92421873283081
 20
-871.37136184290455
 30
0.0
 11
460.72420942565338
 21
-875.37136184290455
 31
0.0
  0
LINE
  5
187E1
  8
1PHANTOM
 10
467.124212059667
 20
-874.2393265818863
 30
0.0
 11
467.43598191591889
 21
-873.65105000684423
 31
0.0
  0
LINE
  5
187E2
  8
1PHANTOM
 10
465.52421100606159
 20
-874.69214068629378
 30
0.0
 11
465.70697514868959
 21
-874.14039122249028
 31
0.0
  0
LINE
  5
187E3
  8
1PHANTOM
 10
466.17278082917608
 20
-872.73416333364253
 30
0.0
 11
466.3242166256158
 21
-872.27699149301111
 31
0.0
  0
LINE
  5
187E4
  8
1PHANTOM
 10
466.3242166256158
 20
-872.27699149301111
 30
0.0
 11
467.124212059667
 21
-874.2393265818863
 31
0.0
  0
LINE
  5
187E5
  8
1PHANTOM
 10
443.12420942564029
 20
-875.37136184290455
 30
0.0
 11
443.22421058903808
 21
-874.87136184290455
 31
0.0
  0
LINE
  5
187E6
  8
1PHANTOM
 10
442.22421756942452
 20
-871.87136184290455
 30
0.0
 11
442.32421873282232
 21
-871.37136184290455
 31
0.0
  0
LINE
  5
187E7
  8
1PHANTOM
 10
441.52420942563998
 20
-875.37136184290455
 30
0.0
 11
441.62421058903772
 21
-874.87136184290455
 31
0.0
  0
LINE
  5
187E8
  8
1PHANTOM
 10
440.7242187328219
 20
-871.37136184290455
 30
0.0
 11
441.52420942563998
 21
-875.37136184290455
 31
0.0
  0
LINE
  5
187E9
  8
1PHANTOM
 10
442.32421873282232
 20
-871.37136184290455
 30
0.0
 11
443.12420942564029
 21
-875.37136184290455
 31
0.0
  0
ARC
  5
187EA
  8
01
 10
440.92421407943669
 20
-887.12131530700651
 30
0.0
 40
0.5
 50
270.0
 51
359.99999999996089
  0
ARC
  5
187EC
  8
01
 10
440.92421407945119
 20
-864.62131530699912
 30
0.0
 40
0.5
 50
359.99999999996089
 51
90.000000000026048
  0
LINE
  5
187F3
  8
01
 10
433.92421407944943
 20
-876.1213153070064
 30
0.0
 11
433.92421407944943
 21
-870.12131530700663
 31
0.0
  0
LINE
  5
187F9
  8
1PHANTOM
 10
416.7242140794495
 20
-877.12131530700685
 30
0.0
 11
423.12421407944919
 21
-877.12131530700594
 31
0.0
  0
LINE
  5
187FA
  8
1PHANTOM
 10
416.55421407944948
 20
-879.12131530700685
 30
0.0
 11
423.2942140794492
 21
-879.12131530700685
 31
0.0
  0
LINE
  5
187FB
  8
1PHANTOM
 10
416.7242140794495
 20
-877.12131530700685
 30
0.0
 11
416.7242140794495
 21
-879.12131530700685
 31
0.0
  0
LINE
  5
187FC
  8
1PHANTOM
 10
423.12421407944919
 20
-877.12131530700685
 30
0.0
 11
423.12421407944919
 21
-879.12131530700685
 31
0.0
  0
LINE
  5
187FD
  8
1PHANTOM
 10
415.92421407944943
 20
-879.75131530700696
 30
0.0
 11
423.92421407944943
 21
-879.75131530700696
 31
0.0
  0
LINE
  5
187FE
  8
1PHANTOM
 10
416.55421407944948
 20
-887.12131530700685
 30
0.0
 11
423.2942140794492
 21
-887.12131530700685
 31
0.0
  0
LINE
  5
187FF
  8
1PHANTOM
 10
415.92421407944943
 20
-886.49131530700674
 30
0.0
 11
423.92421407944943
 21
-886.49131530700674
 31
0.0
  0
LINE
  5
18800
  8
1PHANTOM
 10
416.55421407944948
 20
-887.12131530700685
 30
0.0
 11
415.92421407944943
 21
-886.49131530700674
 31
0.0
  0
LINE
  5
18801
  8
1PHANTOM
 10
415.92421407944943
 20
-879.75131530700696
 30
0.0
 11
415.92421407944943
 21
-886.49131530700504
 31
0.0
  0
LINE
  5
18802
  8
1PHANTOM
 10
415.92421407944943
 20
-879.75131530700696
 30
0.0
 11
415.92421407944943
 21
-886.49131530700674
 31
0.0
  0
LINE
  5
18803
  8
1PHANTOM
 10
423.2942140794492
 20
-887.12131530700685
 30
0.0
 11
423.92421407944943
 21
-886.49131530700674
 31
0.0
  0
LINE
  5
18804
  8
1PHANTOM
 10
423.92421407944943
 20
-879.75131530700696
 30
0.0
 11
423.92421407944943
 21
-886.49131530700504
 31
0.0
  0
LINE
  5
18805
  8
1PHANTOM
 10
423.92421407944943
 20
-879.75131530700696
 30
0.0
 11
423.92421407944943
 21
-886.49131530700674
 31
0.0
  0
LINE
  5
18806
  8
1PHANTOM
 10
416.55421407944948
 20
-879.12131530700685
 30
0.0
 11
415.92421407944943
 21
-879.75131530700696
 31
0.0
  0
LINE
  5
18807
  8
1PHANTOM
 10
416.55421407944948
 20
-879.12131530700685
 30
0.0
 11
416.55421407944948
 21
-887.12131530700685
 31
0.0
  0
LINE
  5
18808
  8
1PHANTOM
 10
423.92421407944943
 20
-879.75131530700696
 30
0.0
 11
423.2942140794492
 21
-879.12131530700685
 31
0.0
  0
LINE
  5
18809
  8
1CENTER
 10
419.92421407944943
 20
-876.35676465013182
 30
0.0
 11
419.92421407944943
 21
-887.90926038573275
 31
0.0
  0
LINE
  5
1880A
  8
1PHANTOM
 10
423.2942140794492
 20
-879.12131530700685
 30
0.0
 11
423.2942140794492
 21
-887.12131530700685
 31
0.0
  0
LINE
  5
18A6E
  8
1DIM1
 10
273.92421407945039
 20
-725.12131530700401
 30
0.0
 11
273.92421407945039
 21
-673.62131530700401
 31
0.0
  0
LINE
  5
18A6F
  8
1DIM1
 10
223.9242140794513
 20
-716.62131530699764
 30
0.0
 11
223.9242140794513
 21
-673.62131530700401
 31
0.0
  0
LINE
  5
18A70
  8
1DIM1
 10
267.92421407945039
 20
-676.62131530700401
 30
0.0
 11
229.9242140794513
 21
-676.62131530700401
 31
0.0
  0
LINE
  5
18A74
  8
1DIM1
 10
-26.07578592054961
 20
-725.12131530700401
 30
0.0
 11
-26.075785920549599
 21
-673.62131530700401
 31
0.0
  0
LINE
  5
18A75
  8
1DIM1
 10
23.924214079449492
 20
-716.62131530699764
 30
0.0
 11
23.924214079449492
 21
-673.62131530700401
 31
0.0
  0
LINE
  5
18A76
  8
1DIM1
 10
-20.075785920549599
 20
-676.62131530700401
 30
0.0
 11
17.924214079449492
 21
-676.62131530700401
 31
0.0
  0
LINE
  5
18A7A
  8
1DIM1
 10
23.924214079449492
 20
-716.62131530699764
 30
0.0
 11
23.924214079449492
 21
-673.62131530700401
 31
0.0
  0
LINE
  5
18A7B
  8
1DIM1
 10
223.92421407944951
 20
-716.62131530700401
 30
0.0
 11
223.92421407944951
 21
-673.62131530700401
 31
0.0
  0
LINE
  5
18A7C
  8
1DIM1
 10
29.924214079449492
 20
-676.62131530700401
 30
0.0
 11
217.92421407944951
 21
-676.62131530700401
 31
0.0
  0
LINE
  5
18A80
  8
1DIM
 10
441.42421407943669
 20
-887.12131530700651
 30
0.0
 11
441.42421407943669
 21
-898.62131530700663
 31
0.0
  0
LINE
  5
18A81
  8
1DIM
 10
419.92421407944943
 20
-887.90926038573275
 30
0.0
 11
419.92421407944943
 21
-898.62131530700663
 31
0.0
  0
LINE
  5
18A82
  8
1DIM
 10
439.42421407943669
 20
-897.6213153070064
 30
0.0
 11
421.92421407944943
 21
-897.6213153070064
 31
0.0
  0
LINE
  5
18A86
  8
1DIM
 10
324.92421407944852
 20
-869.1213153070064
 30
0.0
 11
312.92421407944857
 21
-869.1213153070064
 31
0.0
  0
LINE
  5
18A87
  8
1DIM
 10
324.92421407944852
 20
-877.1213153070064
 30
0.0
 11
312.92421407944857
 21
-877.1213153070064
 31
0.0
  0
LINE
  5
18A88
  8
1DIM
 10
313.92421407944869
 20
-871.12131530700651
 30
0.0
 11
313.92421407944869
 21
-875.1213153070064
 31
0.0
  0
LINE
  5
18A8C
  8
1DIM
 10
324.92421407944852
 20
-869.1213153070064
 30
0.0
 11
312.92421407944857
 21
-869.1213153070064
 31
0.0
  0
LINE
  5
18A8D
  8
1DIM
 10
412.92421407944909
 20
-864.12131530700651
 30
0.0
 11
312.92421407944857
 21
-864.12131530700651
 31
0.0
  0
LINE
  5
18A8E
  8
1DIM
 10
313.92421407944869
 20
-871.12131530700651
 30
0.0
 11
313.92421407944869
 21
-873.12131530700651
 31
0.0
  0
LINE
  5
18A8F
  8
1DIM
 10
313.92421407944869
 20
-862.12131530700651
 30
0.0
 11
313.92421407944869
 21
-856.38798197367305
 31
0.0
  0
LINE
  5
18A90
  8
1DIM
 10
313.92421407944869
 20
-869.1213153070064
 30
0.0
 11
313.92421407944869
 21
-864.12131530700651
 31
0.0
  0
LINE
  5
18A94
  8
1DIM
 10
412.92421407944931
 20
-887.6213153070064
 30
0.0
 11
302.92421407944857
 21
-887.6213153070064
 31
0.0
  0
LINE
  5
18A95
  8
1DIM
 10
412.92421407944909
 20
-864.12131530700651
 30
0.0
 11
302.92421407944857
 21
-864.12131530700651
 31
0.0
  0
LINE
  5
18A96
  8
1DIM
 10
303.92421407944857
 20
-885.62131530700651
 30
0.0
 11
303.92421407944857
 21
-866.12131530700651
 31
0.0
  0
LINE
  5
18A9A
  8
1DIM
 10
471.38512867060211
 20
-873.3713153070064
 30
0.0
 11
482.42421407944721
 21
-873.3713153070064
 31
0.0
  0
LINE
  5
18A9B
  8
1DIM
 10
440.92421407945102
 20
-864.12131530699924
 30
0.0
 11
482.42421407944721
 21
-864.12131530699924
 31
0.0
  0
LINE
  5
18A9C
  8
1DIM
 10
481.4242140794471
 20
-871.37131530700651
 30
0.0
 11
481.4242140794471
 21
-866.12131530699924
 31
0.0
  0
LINE
  5
18AA0
  8
1DIM
 10
441.42421407944721
 20
-910.62131530699776
 30
0.0
 11
441.42421407944721
 21
-906.6213153070064
 31
0.0
  0
LINE
  5
18AA1
  8
1DIM
 10
411.92421407944943
 20
-886.62131530700651
 30
0.0
 11
411.92421407944943
 21
-908.62131530700651
 31
0.0
  0
LINE
  5
18AA2
  8
1DIM
 10
439.42421407944732
 20
-907.62131530700663
 30
0.0
 11
413.92421407944943
 21
-907.62131530700663
 31
0.0
  0
TEXT
  5
18AA6
  8
1DIM
 10
333.95993073835001
 20
-900.815939557761
 30
0.0
 40
3.5
  1
材質：ガラス
  0
SOLID
  5
18AA7
  8
1DIM
 10
376.3308137821208
 20
-878.56933413560512
 30
0.0
 11
377.75993073835002
 21
-877.13102407288227
 31
0.0
 12
376.87454228658379
 22
-878.95508503693759
 32
0.0
 13
376.87454228658379
 23
-878.95508503693759
 33
0.0
  0
TEXT
  5
18AA9
  8
1DIM
 10
447.07931532183937
 20
-808.08440749893271
 30
0.0
 40
3.5
  1
PB
  0
SOLID
  5
18AAA
  8
1DIM
 10
447.98384543348237
 20
-827.23716850262247
 30
0.0
 11
448.00418270152659
 21
-829.26465401592213
 31
0.0
 12
447.32738187609039
 22
-827.35335818486919
 32
0.0
 13
447.32738187609039
 23
-827.35335818486919
 33
0.0
  0
SOLID
  5
18AAC
  8
1DIM
 10
456.04736624601321
 20
-827.24155503272175
 30
0.0
 11
456.50216491546792
 21
-829.21747742020898
 31
0.0
 12
455.43111026463652
 22
-827.49586391943615
 32
0.0
 13
455.43111026463652
 23
-827.49586391943615
 33
0.0
  0
TEXT
  5
18AAE
  8
1DIM
 10
453.2466598163781
 20
-814.08575351605657
 30
0.0
 40
3.5
  1
合板9mm以上
  0
LINE
  5
18AAF
  8
1HATCH
 10
443.34353816848301
 20
-873.72494120225474
 30
0.0
 11
443.34353816848301
 21
-873.72494120225474
 31
0.0
  0
LINE
  5
18AB0
  8
1HATCH
 10
439.7001416037229
 20
-885.91573554055981
 30
0.0
 11
439.7001416037229
 21
-885.91573554055981
 31
0.0
  0
LINE
  5
18AB1
  8
1DIM
 10
323.92421407944852
 20
-876.1213153070064
 30
0.0
 11
323.92421407944852
 21
-918.62131530700651
 31
0.0
  0
LINE
  5
18AB2
  8
1DIM
 10
441.42421407944721
 20
-887.12131530700651
 30
0.0
 11
441.42421407944721
 21
-918.62131530700651
 31
0.0
  0
LINE
  5
18AB3
  8
1DIM
 10
325.92421407944852
 20
-917.62131530700651
 30
0.0
 11
439.42421407944732
 21
-917.62131530700651
 31
0.0
  0
TEXT
  5
18AB7
  8
1DIM
 10
378.49199683398689
 20
-925.86338169281601
 30
0.0
 40
3.5
  1
材質：アルミ
  0
TEXT
  5
18AB8
  8
1DIM
 10
348.85866350065351
 20
-931.69671502614926
 30
0.0
 40
3.5
  1
仕上げ：ブラストアルマイト
  0
SOLID
  5
18AB9
  8
1DIM
 10
420.77999507870931
 20
-890.37748125612154
 30
0.0
 11
421.8253301673202
 21
-888.6401310716077
 31
0.0
 12
421.39996460280082
 22
-890.62259803164307
 32
0.0
 13
421.39996460280082
 23
-890.62259803164307
 33
0.0
  0
LINE
  5
18ABB
  8
1PHANTOM
 10
53.924260615347407
 20
-689.62131530715953
 30
0.0
 11
52.4242606153474
 21
-694.92131181702121
 31
0.0
  0
LINE
  5
18ABC
  8
1PHANTOM
 10
52.4242606153474
 20
-694.92131181702121
 30
0.0
 11
52.424260615347627
 21
-719.62131181691313
 31
0.0
  0
LINE
  5
18ABD
  8
1PHANTOM
 10
53.924260615347407
 20
-689.62131530715953
 30
0.0
 11
55.424260615347521
 21
-694.92131879740487
 31
0.0
  0
LINE
  5
18ABE
  8
1PHANTOM
 10
50.424214079449598
 20
-719.62130716321508
 30
0.0
 11
52.424260615347627
 21
-719.62131181691313
 31
0.0
  0
LINE
  5
18ABF
  8
1PHANTOM
 10
55.424260615347521
 20
-694.92131879740487
 30
0.0
 11
55.4242606153474
 21
-719.62131879729782
 31
0.0
  0
LINE
  5
18AC0
  8
1PHANTOM
 10
50.424214079449598
 20
-719.62130716321508
 30
0.0
 11
50.424214079449477
 21
-720.72131065341034
 31
0.0
  0
LINE
  5
18AC1
  8
1PHANTOM
 10
55.4242606153474
 20
-719.62131879729782
 30
0.0
 11
57.424214079449492
 21
-719.62132345077919
 31
0.0
  0
ARC
  5
18AC2
  8
1PHANTOM
 10
51.924214079449477
 20
-720.72131065341034
 30
0.0
 40
1.5
 50
180.0
 51
269.99986668447059
  0
LINE
  5
18AC3
  8
1PHANTOM
 10
57.424214079449492
 20
-719.62132345077919
 30
0.0
 11
57.424214079449492
 21
-720.72131996058999
 31
0.0
  0
LINE
  5
18AC4
  8
1PHANTOM
 10
51.924210589257093
 20
-722.22131065340625
 30
0.0
 11
55.924210589257079
 21
-722.22131996058579
 31
0.0
  0
ARC
  5
18AC5
  8
1PHANTOM
 10
55.924214079449477
 20
-720.72131996058999
 30
0.0
 40
1.5
 50
269.99986668447059
 51
0.0
  0
LINE
  5
18AC6
  8
1DIM
 10
268.92421407945039
 20
-834.12131530700447
 30
0.0
 11
304.92421407944869
 21
-834.12131530700447
 31
0.0
  0
LINE
  5
18AC7
  8
1DIM
 10
223.92421407945039
 20
-716.62131530700401
 30
0.0
 11
304.92421407944869
 21
-716.62131530700412
 31
0.0
  0
LINE
  5
18AC8
  8
1DIM
 10
303.92421407944869
 20
-832.12131530700435
 30
0.0
 11
303.92421407944869
 21
-718.62131530700412
 31
0.0
  0
LINE
  5
18ACC
  8
1DIM
 10
272.92421407945039
 20
-724.12131530700469
 30
0.0
 11
294.92421407944857
 21
-724.12131530700469
 31
0.0
  0
LINE
  5
18ACD
  8
1DIM
 10
268.92421407945039
 20
-834.12131530700447
 30
0.0
 11
294.92421407944857
 21
-834.12131530700447
 31
0.0
  0
LINE
  5
18ACE
  8
1DIM
 10
293.92421407944857
 20
-726.12131530700458
 30
0.0
 11
293.92421407944857
 21
-832.12131530700435
 31
0.0
  0
LINE
  5
18AD2
  8
1DIM
 10
272.92421407945039
 20
-724.12131530700469
 30
0.0
 11
294.92421407944857
 21
-724.12131530700469
 31
0.0
  0
LINE
  5
18AD3
  8
1DIM
 10
223.92421407945039
 20
-716.62131530700401
 30
0.0
 11
294.92421407944857
 21
-716.62131530700412
 31
0.0
  0
LINE
  5
18AD4
  8
1DIM
 10
293.92421407944857
 20
-722.12131530700458
 30
0.0
 11
293.92421407944857
 21
-718.62131530700412
 31
0.0
  0
LINE
  5
18AD5
  8
1DIM
 10
293.92421407944857
 20
-716.62131530700412
 30
0.0
 11
293.92421407944857
 21
-705.88798197367066
 31
0.0
  0
LINE
  5
18AD9
  8
1DIM1
 10
-26.07578592054961
 20
-876.12131530700481
 30
0.0
 11
-26.07578592054961
 21
-950.62131530700651
 31
0.0
  0
LINE
  5
18ADA
  8
1DIM1
 10
273.92421407944857
 20
-876.12131530700481
 30
0.0
 11
273.92421407944857
 21
-950.62131530700651
 31
0.0
  0
LINE
  5
18ADB
  8
1DIM1
 10
-20.07578592054961
 20
-947.6213153070064
 30
0.0
 11
267.92421407944857
 21
-947.6213153070064
 31
0.0
  0
LINE
  5
18ADF
  8
1DIM1
 10
53.924214079449477
 20
-876.37131530700503
 30
0.0
 11
53.924214079449477
 21
-920.62131530700651
 31
0.0
  0
LINE
  5
18AE0
  8
1DIM1
 10
193.92421407944951
 20
-876.37131530700503
 30
0.0
 11
193.92421407944951
 21
-920.62131530700651
 31
0.0
  0
LINE
  5
18AE1
  8
1DIM1
 10
59.924214079449492
 20
-917.62131530700651
 30
0.0
 11
187.9242140794494
 21
-917.62131530700651
 31
0.0
  0
LINE
  5
18AE5
  8
1PHANTOM
 10
193.92426061534741
 20
-689.62131530715953
 30
0.0
 11
192.42426061534741
 21
-694.92131181702121
 31
0.0
  0
LINE
  5
18AE6
  8
1PHANTOM
 10
192.42426061534741
 20
-694.92131181702121
 30
0.0
 11
192.42426061534761
 21
-719.62131181691313
 31
0.0
  0
LINE
  5
18AE7
  8
1PHANTOM
 10
193.92426061534741
 20
-689.62131530715953
 30
0.0
 11
195.42426061534749
 21
-694.92131879740487
 31
0.0
  0
LINE
  5
18AE8
  8
1PHANTOM
 10
190.4242140794496
 20
-719.62130716321508
 30
0.0
 11
192.42426061534761
 21
-719.62131181691313
 31
0.0
  0
LINE
  5
18AE9
  8
1PHANTOM
 10
195.42426061534749
 20
-694.92131879740487
 30
0.0
 11
195.42426061534741
 21
-719.62131879729782
 31
0.0
  0
LINE
  5
18AEA
  8
1PHANTOM
 10
190.4242140794496
 20
-719.62130716321508
 30
0.0
 11
190.42421407944951
 21
-720.72131065341034
 31
0.0
  0
LINE
  5
18AEB
  8
1PHANTOM
 10
195.42426061534741
 20
-719.62131879729782
 30
0.0
 11
197.4242140794494
 21
-719.62132345077919
 31
0.0
  0
ARC
  5
18AEC
  8
1PHANTOM
 10
191.92421407944951
 20
-720.72131065341034
 30
0.0
 40
1.5
 50
180.0
 51
269.99986668447059
  0
LINE
  5
18AED
  8
1PHANTOM
 10
197.4242140794494
 20
-719.62132345077919
 30
0.0
 11
197.4242140794494
 21
-720.72131996058999
 31
0.0
  0
LINE
  5
18AEE
  8
1PHANTOM
 10
191.92421058925709
 20
-722.22131065340625
 30
0.0
 11
195.92421058925709
 21
-722.22131996058579
 31
0.0
  0
ARC
  5
18AEF
  8
1PHANTOM
 10
195.92421407944951
 20
-720.72131996058999
 30
0.0
 40
1.5
 50
269.99986668447059
 51
0.0
  0
TEXT
  5
18AF0
  8
1DIM1
 10
107.2992140794495
 20
-915.52131530700638
 30
0.0
 40
10.5
  1
P140 
  0
LINE
  5
18AF1
  8
0
  6
BYBLOCK
 10
187.9242140794494
 20
-916.01362016700648
 30
0.0
 11
193.92421407944951
 21
-917.62131530700651
 31
0.0
  0
LINE
  5
18AF2
  8
0
  6
BYBLOCK
 10
193.92421407944951
 20
-917.62131530700651
 30
0.0
 11
187.9242140794494
 21
-919.22901044700654
 31
0.0
  0
LINE
  5
18AF3
  8
0
  6
BYBLOCK
 10
193.92421407944951
 20
-917.62131530700651
 30
0.0
 11
187.9242140794494
 21
-917.62131530700651
 31
0.0
  0
LINE
  5
18AF4
  8
0
  6
BYBLOCK
 10
59.924214079449492
 20
-919.22901044700654
 30
0.0
 11
53.924214079449477
 21
-917.62131530700651
 31
0.0
  0
LINE
  5
18AF5
  8
0
  6
BYBLOCK
 10
53.924214079449477
 20
-917.62131530700651
 30
0.0
 11
59.924214079449492
 21
-916.01362016700648
 31
0.0
  0
LINE
  5
18AF6
  8
0
  6
BYBLOCK
 10
53.924214079449477
 20
-917.62131530700651
 30
0.0
 11
59.924214079449492
 21
-917.62131530700651
 31
0.0
  0
TEXT
  5
18AF7
  8
1DIM1
 10
111.6742140794495
 20
-945.52131530700649
 30
0.0
 40
10.5
  1
300 
  0
LINE
  5
18AF8
  8
0
  6
BYBLOCK
 10
267.92421407944857
 20
-946.01362016700648
 30
0.0
 11
273.92421407944857
 21
-947.6213153070064
 31
0.0
  0
LINE
  5
18AF9
  8
0
  6
BYBLOCK
 10
273.92421407944857
 20
-947.6213153070064
 30
0.0
 11
267.92421407944857
 21
-949.22901044700654
 31
0.0
  0
LINE
  5
18AFA
  8
0
  6
BYBLOCK
 10
273.92421407944857
 20
-947.6213153070064
 30
0.0
 11
267.92421407944857
 21
-947.6213153070064
 31
0.0
  0
LINE
  5
18AFB
  8
0
  6
BYBLOCK
 10
-20.07578592054961
 20
-949.22901044700654
 30
0.0
 11
-26.07578592054961
 21
-947.6213153070064
 31
0.0
  0
LINE
  5
18AFC
  8
0
  6
BYBLOCK
 10
-26.07578592054961
 20
-947.6213153070064
 30
0.0
 11
-20.07578592054961
 21
-946.01362016700648
 31
0.0
  0
LINE
  5
18AFD
  8
0
  6
BYBLOCK
 10
-26.07578592054961
 20
-947.6213153070064
 30
0.0
 11
-20.07578592054961
 21
-947.6213153070064
 31
0.0
  0
TEXT
  5
18AFE
  8
1DIM
 10
293.2242140794487
 20
-713.75464864033734
 30
0.0
 40
3.5
  1
7.5 
 50
90.0
  0
LINE
  5
18AFF
  8
0
  6
BYBLOCK
 10
293.38831569944858
 20
-718.62131530700412
 30
0.0
 11
293.92421407944857
 21
-716.62131530700412
 31
0.0
  0
LINE
  5
18B00
  8
0
  6
BYBLOCK
 10
293.92421407944857
 20
-716.62131530700412
 30
0.0
 11
294.46011245944862
 21
-718.62131530700412
 31
0.0
  0
LINE
  5
18B01
  8
0
  6
BYBLOCK
 10
293.92421407944857
 20
-716.62131530700412
 30
0.0
 11
293.92421407944857
 21
-718.62131530700412
 31
0.0
  0
LINE
  5
18B02
  8
0
  6
BYBLOCK
 10
294.46011245944862
 20
-722.12131530700458
 30
0.0
 11
293.92421407944857
 21
-724.12131530700469
 31
0.0
  0
LINE
  5
18B03
  8
0
  6
BYBLOCK
 10
293.92421407944857
 20
-724.12131530700469
 30
0.0
 11
293.38831569944858
 21
-722.12131530700458
 31
0.0
  0
LINE
  5
18B04
  8
0
  6
BYBLOCK
 10
293.92421407944857
 20
-724.12131530700469
 30
0.0
 11
293.92421407944857
 21
-722.12131530700458
 31
0.0
  0
TEXT
  5
18B05
  8
1DIM
 10
293.2242140794487
 20
-782.32964864033784
 30
0.0
 40
3.5
  1
110 
 50
90.0
  0
LINE
  5
18B06
  8
0
  6
BYBLOCK
 10
294.46011245944862
 20
-832.12131530700435
 30
0.0
 11
293.92421407944857
 21
-834.12131530700447
 31
0.0
  0
LINE
  5
18B07
  8
0
  6
BYBLOCK
 10
293.92421407944857
 20
-834.12131530700447
 30
0.0
 11
293.38831569944858
 21
-832.12131530700435
 31
0.0
  0
LINE
  5
18B08
  8
0
  6
BYBLOCK
 10
293.92421407944857
 20
-834.12131530700447
 30
0.0
 11
293.92421407944857
 21
-832.12131530700435
 31
0.0
  0
LINE
  5
18B09
  8
0
  6
BYBLOCK
 10
293.38831569944858
 20
-726.12131530700458
 30
0.0
 11
293.92421407944857
 21
-724.12131530700469
 31
0.0
  0
LINE
  5
18B0A
  8
0
  6
BYBLOCK
 10
293.92421407944857
 20
-724.12131530700469
 30
0.0
 11
294.46011245944862
 21
-726.12131530700458
 31
0.0
  0
LINE
  5
18B0B
  8
0
  6
BYBLOCK
 10
293.92421407944857
 20
-724.12131530700469
 30
0.0
 11
293.92421407944857
 21
-726.12131530700458
 31
0.0
  0
TEXT
  5
18B0C
  8
1DIM
 10
303.22421407944881
 20
-781.20464864033738
 30
0.0
 40
3.5
  1
117.5 
 50
90.0
  0
LINE
  5
18B0D
  8
0
  6
BYBLOCK
 10
303.3883156994487
 20
-718.62131530700412
 30
0.0
 11
303.92421407944869
 21
-716.62131530700412
 31
0.0
  0
LINE
  5
18B0E
  8
0
  6
BYBLOCK
 10
303.92421407944869
 20
-716.62131530700412
 30
0.0
 11
304.46011245944868
 21
-718.62131530700412
 31
0.0
  0
LINE
  5
18B0F
  8
0
  6
BYBLOCK
 10
303.92421407944869
 20
-716.62131530700412
 30
0.0
 11
303.92421407944869
 21
-718.62131530700412
 31
0.0
  0
LINE
  5
18B10
  8
0
  6
BYBLOCK
 10
304.46011245944868
 20
-832.12131530700435
 30
0.0
 11
303.92421407944869
 21
-834.12131530700447
 31
0.0
  0
LINE
  5
18B11
  8
0
  6
BYBLOCK
 10
303.92421407944869
 20
-834.12131530700447
 30
0.0
 11
303.3883156994487
 21
-832.12131530700435
 31
0.0
  0
LINE
  5
18B12
  8
0
  6
BYBLOCK
 10
303.92421407944869
 20
-834.12131530700447
 30
0.0
 11
303.92421407944869
 21
-832.12131530700435
 31
0.0
  0
LINE
  5
18B13
  8
1DIM
 10
421.08997984075512
 20
-890.50003964388225
 30
0.0
 11
404.52533016732019
 21
-932.39671502614931
 31
0.0
  0
LINE
  5
18B14
  8
1DIM
 10
404.52533016732019
 20
-932.39671502614931
 30
0.0
 11
348.15866350065357
 21
-932.39671502614931
 31
0.0
  0
TEXT
  5
18B15
  8
1DIM
 10
376.84088074611458
 20
-916.92131530700635
 30
0.0
 40
3.5
  1
117.5 
  0
LINE
  5
18B16
  8
0
  6
BYBLOCK
 10
439.42421407944732
 20
-917.08541692700635
 30
0.0
 11
441.42421407944721
 21
-917.62131530700651
 31
0.0
  0
LINE
  5
18B17
  8
0
  6
BYBLOCK
 10
441.42421407944721
 20
-917.62131530700651
 30
0.0
 11
439.42421407944732
 21
-918.15721368700656
 31
0.0
  0
LINE
  5
18B18
  8
0
  6
BYBLOCK
 10
441.42421407944721
 20
-917.62131530700651
 30
0.0
 11
439.42421407944732
 21
-917.62131530700651
 31
0.0
  0
LINE
  5
18B19
  8
0
  6
BYBLOCK
 10
325.92421407944852
 20
-918.15721368700656
 30
0.0
 11
323.92421407944852
 21
-917.62131530700651
 31
0.0
  0
LINE
  5
18B1A
  8
0
  6
BYBLOCK
 10
323.92421407944852
 20
-917.62131530700651
 30
0.0
 11
325.92421407944852
 21
-917.08541692700635
 31
0.0
  0
LINE
  5
18B1B
  8
0
  6
BYBLOCK
 10
323.92421407944852
 20
-917.62131530700651
 30
0.0
 11
325.92421407944852
 21
-917.62131530700651
 31
0.0
  0
LINE
  5
18B1C
  8
1DIM
 10
455.73923825532478
 20
-827.36870947607883
 30
0.0
 11
450.546659816378
 21
-814.78575351605662
 31
0.0
  0
LINE
  5
18B1D
  8
1DIM
 10
450.546659816378
 20
-814.78575351605662
 30
0.0
 11
482.44665981637797
 21
-814.78575351605662
 31
0.0
  0
LINE
  5
18B1E
  8
1DIM
 10
447.65561365478641
 20
-827.29526334374589
 30
0.0
 11
444.37931532183939
 21
-808.78440749893275
 31
0.0
  0
LINE
  5
18B1F
  8
1DIM
 10
444.37931532183939
 20
-808.78440749893275
 30
0.0
 11
452.9126486551728
 21
-808.78440749893275
 31
0.0
  0
LINE
  5
18B20
  8
1DIM
 10
376.60267803435232
 20
-878.76220958627141
 30
0.0
 11
360.4599307383499
 21
-901.51593955776104
 31
0.0
  0
LINE
  5
18B21
  8
1DIM
 10
360.4599307383499
 20
-901.51593955776104
 30
0.0
 11
333.49326407168331
 21
-901.51593955776104
 31
0.0
  0
TEXT
  5
18B22
  8
1DIM
 10
421.42421407944829
 20
-906.92131530700635
 30
0.0
 40
3.5
  1
29.5 
  0
LINE
  5
18B23
  8
0
  6
BYBLOCK
 10
413.92421407944943
 20
-908.15721368700645
 30
0.0
 11
411.92421407944943
 21
-907.62131530700663
 31
0.0
  0
LINE
  5
18B24
  8
0
  6
BYBLOCK
 10
411.92421407944943
 20
-907.62131530700663
 30
0.0
 11
413.92421407944943
 21
-907.08541692700646
 31
0.0
  0
LINE
  5
18B25
  8
0
  6
BYBLOCK
 10
411.92421407944943
 20
-907.62131530700663
 30
0.0
 11
413.92421407944943
 21
-907.62131530700663
 31
0.0
  0
LINE
  5
18B26
  8
0
  6
BYBLOCK
 10
439.42421407944732
 20
-907.08541692700646
 30
0.0
 11
441.42421407944721
 21
-907.62131530700663
 31
0.0
  0
LINE
  5
18B27
  8
0
  6
BYBLOCK
 10
441.42421407944721
 20
-907.62131530700663
 30
0.0
 11
439.42421407944732
 21
-908.15721368700645
 31
0.0
  0
LINE
  5
18B28
  8
0
  6
BYBLOCK
 10
441.42421407944721
 20
-907.62131530700663
 30
0.0
 11
439.42421407944732
 21
-907.62131530700663
 31
0.0
  0
TEXT
  5
18B29
  8
1DIM
 10
480.72421407944722
 20
-869.91298197366928
 30
0.0
 40
3.5
  1
9 
 50
90.0
  0
LINE
  5
18B2A
  8
0
  6
BYBLOCK
 10
480.88831569944711
 20
-866.12131530699924
 30
0.0
 11
481.4242140794471
 21
-864.12131530699924
 31
0.0
  0
LINE
  5
18B2B
  8
0
  6
BYBLOCK
 10
481.4242140794471
 20
-864.12131530699924
 30
0.0
 11
481.96011245944709
 21
-866.12131530699924
 31
0.0
  0
LINE
  5
18B2C
  8
0
  6
BYBLOCK
 10
481.4242140794471
 20
-864.12131530699924
 30
0.0
 11
481.4242140794471
 21
-866.12131530699924
 31
0.0
  0
LINE
  5
18B2D
  8
0
  6
BYBLOCK
 10
481.96011245944709
 20
-871.37131530700651
 30
0.0
 11
481.4242140794471
 21
-873.3713153070064
 31
0.0
  0
LINE
  5
18B2E
  8
0
  6
BYBLOCK
 10
481.4242140794471
 20
-873.3713153070064
 30
0.0
 11
480.88831569944711
 21
-871.37131530700651
 31
0.0
  0
LINE
  5
18B2F
  8
0
  6
BYBLOCK
 10
481.4242140794471
 20
-873.3713153070064
 30
0.0
 11
481.4242140794471
 21
-871.37131530700651
 31
0.0
  0
TEXT
  5
18B30
  8
1DIM
 10
303.22421407944881
 20
-881.12131530700628
 30
0.0
 40
3.5
  1
23.5 
 50
90.0
  0
LINE
  5
18B31
  8
0
  6
BYBLOCK
 10
303.3883156994487
 20
-866.12131530700651
 30
0.0
 11
303.92421407944857
 21
-864.12131530700651
 31
0.0
  0
LINE
  5
18B32
  8
0
  6
BYBLOCK
 10
303.92421407944857
 20
-864.12131530700651
 30
0.0
 11
304.46011245944862
 21
-866.12131530700651
 31
0.0
  0
LINE
  5
18B33
  8
0
  6
BYBLOCK
 10
303.92421407944857
 20
-864.12131530700651
 30
0.0
 11
303.92421407944857
 21
-866.12131530700651
 31
0.0
  0
LINE
  5
18B34
  8
0
  6
BYBLOCK
 10
304.46011245944862
 20
-885.62131530700651
 30
0.0
 11
303.92421407944857
 21
-887.6213153070064
 31
0.0
  0
LINE
  5
18B35
  8
0
  6
BYBLOCK
 10
303.92421407944857
 20
-887.6213153070064
 30
0.0
 11
303.3883156994487
 21
-885.62131530700651
 31
0.0
  0
LINE
  5
18B36
  8
0
  6
BYBLOCK
 10
303.92421407944857
 20
-887.6213153070064
 30
0.0
 11
303.92421407944857
 21
-885.62131530700651
 31
0.0
  0
TEXT
  5
18B37
  8
1DIM
 10
313.22421407944881
 20
-859.42131530700635
 30
0.0
 40
3.5
  1
5 
 50
90.0
  0
LINE
  5
18B38
  8
0
  6
BYBLOCK
 10
314.46011245944862
 20
-862.12131530700651
 30
0.0
 11
313.92421407944869
 21
-864.12131530700651
 31
0.0
  0
LINE
  5
18B39
  8
0
  6
BYBLOCK
 10
313.92421407944869
 20
-864.12131530700651
 30
0.0
 11
313.38831569944858
 21
-862.12131530700651
 31
0.0
  0
LINE
  5
18B3A
  8
0
  6
BYBLOCK
 10
313.92421407944869
 20
-864.12131530700651
 30
0.0
 11
313.92421407944869
 21
-862.12131530700651
 31
0.0
  0
LINE
  5
18B3B
  8
0
  6
BYBLOCK
 10
313.38831569944858
 20
-871.12131530700651
 30
0.0
 11
313.92421407944869
 21
-869.1213153070064
 31
0.0
  0
LINE
  5
18B3C
  8
0
  6
BYBLOCK
 10
313.92421407944869
 20
-869.1213153070064
 30
0.0
 11
314.46011245944862
 21
-871.12131530700651
 31
0.0
  0
LINE
  5
18B3D
  8
0
  6
BYBLOCK
 10
313.92421407944869
 20
-869.1213153070064
 30
0.0
 11
313.92421407944869
 21
-871.12131530700651
 31
0.0
  0
TEXT
  5
18B3E
  8
1DIM
 10
313.22421407944881
 20
-874.28798197367303
 30
0.0
 40
3.5
  1
8 
 50
90.0
  0
LINE
  5
18B3F
  8
0
  6
BYBLOCK
 10
314.46011245944862
 20
-875.1213153070064
 30
0.0
 11
313.92421407944869
 21
-877.1213153070064
 31
0.0
  0
LINE
  5
18B40
  8
0
  6
BYBLOCK
 10
313.92421407944869
 20
-877.1213153070064
 30
0.0
 11
313.38831569944858
 21
-875.1213153070064
 31
0.0
  0
LINE
  5
18B41
  8
0
  6
BYBLOCK
 10
313.92421407944869
 20
-877.1213153070064
 30
0.0
 11
313.92421407944869
 21
-875.1213153070064
 31
0.0
  0
LINE
  5
18B42
  8
0
  6
BYBLOCK
 10
313.38831569944858
 20
-871.12131530700651
 30
0.0
 11
313.92421407944869
 21
-869.1213153070064
 31
0.0
  0
LINE
  5
18B43
  8
0
  6
BYBLOCK
 10
313.92421407944869
 20
-869.1213153070064
 30
0.0
 11
314.46011245944862
 21
-871.12131530700651
 31
0.0
  0
LINE
  5
18B44
  8
0
  6
BYBLOCK
 10
313.92421407944869
 20
-869.1213153070064
 30
0.0
 11
313.92421407944869
 21
-871.12131530700651
 31
0.0
  0
TEXT
  5
18B45
  8
1DIM
 10
426.00754741277638
 20
-896.92131530700635
 30
0.0
 40
3.5
  1
21.5 
  0
LINE
  5
18B46
  8
0
  6
BYBLOCK
 10
421.92421407944943
 20
-898.15721368700645
 30
0.0
 11
419.92421407944943
 21
-897.6213153070064
 31
0.0
  0
LINE
  5
18B47
  8
0
  6
BYBLOCK
 10
419.92421407944943
 20
-897.6213153070064
 30
0.0
 11
421.92421407944943
 21
-897.08541692700646
 31
0.0
  0
LINE
  5
18B48
  8
0
  6
BYBLOCK
 10
419.92421407944943
 20
-897.6213153070064
 30
0.0
 11
421.92421407944943
 21
-897.6213153070064
 31
0.0
  0
LINE
  5
18B49
  8
0
  6
BYBLOCK
 10
439.42421407943669
 20
-897.08541692700646
 30
0.0
 11
441.42421407943669
 21
-897.6213153070064
 31
0.0
  0
LINE
  5
18B4A
  8
0
  6
BYBLOCK
 10
441.42421407943669
 20
-897.6213153070064
 30
0.0
 11
439.42421407943669
 21
-898.15721368700645
 31
0.0
  0
LINE
  5
18B4B
  8
0
  6
BYBLOCK
 10
441.42421407943669
 20
-897.6213153070064
 30
0.0
 11
439.42421407943669
 21
-897.6213153070064
 31
0.0
  0
TEXT
  5
18B4C
  8
1DIM1
 10
111.6742140794495
 20
-674.52131530700387
 30
0.0
 40
10.5
  1
200 
  0
LINE
  5
18B4D
  8
0
  6
BYBLOCK
 10
217.92421407944951
 20
-675.01362016700398
 30
0.0
 11
223.92421407944951
 21
-676.62131530700401
 31
0.0
  0
LINE
  5
18B4E
  8
0
  6
BYBLOCK
 10
223.92421407944951
 20
-676.62131530700401
 30
0.0
 11
217.92421407944951
 21
-678.22901044700404
 31
0.0
  0
LINE
  5
18B4F
  8
0
  6
BYBLOCK
 10
223.92421407944951
 20
-676.62131530700401
 30
0.0
 11
217.92421407944951
 21
-676.62131530700401
 31
0.0
  0
LINE
  5
18B50
  8
0
  6
BYBLOCK
 10
29.924214079449492
 20
-678.22901044700404
 30
0.0
 11
23.924214079449492
 21
-676.62131530700401
 31
0.0
  0
LINE
  5
18B51
  8
0
  6
BYBLOCK
 10
23.924214079449492
 20
-676.62131530700401
 30
0.0
 11
29.924214079449492
 21
-675.01362016700398
 31
0.0
  0
LINE
  5
18B52
  8
0
  6
BYBLOCK
 10
23.924214079449492
 20
-676.62131530700401
 30
0.0
 11
29.924214079449492
 21
-676.62131530700401
 31
0.0
  0
TEXT
  5
18B53
  8
1DIM1
 10
-8.9507859205500591
 20
-674.52131530700387
 30
0.0
 40
10.5
  1
50 
  0
LINE
  5
18B54
  8
0
  6
BYBLOCK
 10
17.924214079449492
 20
-675.01362016700398
 30
0.0
 11
23.924214079449492
 21
-676.62131530700401
 31
0.0
  0
LINE
  5
18B55
  8
0
  6
BYBLOCK
 10
23.924214079449492
 20
-676.62131530700401
 30
0.0
 11
17.924214079449492
 21
-678.22901044700404
 31
0.0
  0
LINE
  5
18B56
  8
0
  6
BYBLOCK
 10
23.924214079449492
 20
-676.62131530700401
 30
0.0
 11
17.924214079449492
 21
-676.62131530700401
 31
0.0
  0
LINE
  5
18B57
  8
0
  6
BYBLOCK
 10
-20.075785920549599
 20
-678.22901044700404
 30
0.0
 11
-26.075785920549599
 21
-676.62131530700401
 31
0.0
  0
LINE
  5
18B58
  8
0
  6
BYBLOCK
 10
-26.075785920549599
 20
-676.62131530700401
 30
0.0
 11
-20.075785920549599
 21
-675.01362016700398
 31
0.0
  0
LINE
  5
18B59
  8
0
  6
BYBLOCK
 10
-26.075785920549599
 20
-676.62131530700401
 30
0.0
 11
-20.075785920549599
 21
-676.62131530700401
 31
0.0
  0
TEXT
  5
18B5A
  8
1DIM1
 10
241.04921407945091
 20
-674.52131530700387
 30
0.0
 40
10.5
  1
50 
  0
LINE
  5
18B5B
  8
0
  6
BYBLOCK
 10
229.9242140794513
 20
-678.22901044700404
 30
0.0
 11
223.9242140794513
 21
-676.62131530700401
 31
0.0
  0
LINE
  5
18B5C
  8
0
  6
BYBLOCK
 10
223.9242140794513
 20
-676.62131530700401
 30
0.0
 11
229.9242140794513
 21
-675.01362016700398
 31
0.0
  0
LINE
  5
18B5D
  8
0
  6
BYBLOCK
 10
223.9242140794513
 20
-676.62131530700401
 30
0.0
 11
229.9242140794513
 21
-676.62131530700401
 31
0.0
  0
LINE
  5
18B5E
  8
0
  6
BYBLOCK
 10
267.92421407945039
 20
-675.01362016700398
 30
0.0
 11
273.92421407945039
 21
-676.62131530700401
 31
0.0
  0
LINE
  5
18B5F
  8
0
  6
BYBLOCK
 10
273.92421407945039
 20
-676.62131530700401
 30
0.0
 11
267.92421407945039
 21
-678.22901044700404
 31
0.0
  0
LINE
  5
18B60
  8
0
  6
BYBLOCK
 10
273.92421407945039
 20
-676.62131530700401
 30
0.0
 11
267.92421407945039
 21
-676.62131530700401
 31
0.0
  0
VIEWPORT
  5
57
 67
     1
  8
0
 10
-12.71820606546882
 20
10.09248672500371
 30
0.0
 40
426.48431561502389
 41
282.79835762855021
 68
     1
 69
     1
1001
ACAD
1000
MVIEW
1002
{
1070
    16
1010
0.0
1020
0.0
1030
0.0
1010
0.0
1020
0.0
1030
1.0
1040
0.0
1040
282.79835762855021
1040
-12.71820606546882
1040
10.09248672500371
1040
50.0
1040
0.0
1040
0.0
1070
     0
1070
   100
1070
     1
1070
     1
1070
     0
1070
     0
1070
     0
1070
     0
1040
0.0
1040
0.0
1040
0.0
1040
10.0
1040
10.0
1040
10.0
1040
10.0
1070
     0
1002
{
1002
}
1002
}
  0
ENDSEC
  0
EOF
