  0
SECTION
  2
HEADER
  9
$ACADVER
  1
AC1009
  9
$INSBASE
 10
0.0
 20
0.0
 30
0.0
  9
$EXTMIN
 10
-127.1113198264823
 20
-950.62131530700742
 30
0.0
  9
$EXTMAX
 10
482.44665981637809
 20
-664.02131530700558
 30
0.0
  9
$LIMMIN
 10
0.0
 20
0.0
  9
$LIMMAX
 10
420.0
 20
297.0
  9
$ORTHOMODE
 70
     0
  9
$REGENMODE
 70
     1
  9
$FILLMODE
 70
     1
  9
$QTEXTMODE
 70
     0
  9
$MIRRTEXT
 70
     0
  9
$DRAGMODE
 70
     2
  9
$LTSCALE
 40
0.5
  9
$OSMODE
 70
  2173
  9
$ATTMODE
 70
     1
  9
$TEXTSIZE
 40
4.0
  9
$TRACEWID
 40
1.0
  9
$TEXTSTYLE
  7
STANDARD
  9
$CLAYER
  8
1TEXT
  9
$CELTYPE
  6
BYLAYER
  9
$CECOLOR
 62
   256
  9
$DIMSCALE
 40
1.0
  9
$DIMASZ
 40
2.0
  9
$DIMEXO
 40
0.0
  9
$DIMDLI
 40
7.0
  9
$DIMRND
 40
0.0
  9
$DIMDLE
 40
0.0
  9
$DIMEXE
 40
1.0
  9
$DIMTP
 40
0.0
  9
$DIMTM
 40
0.0
  9
$DIMTXT
 40
3.5
  9
$DIMCEN
 40
0.0
  9
$DIMTSZ
 40
0.0
  9
$DIMTOL
 70
     0
  9
$DIMLIM
 70
     0
  9
$DIMTIH
 70
     0
  9
$DIMTOH
 70
     0
  9
$DIMSE1
 70
     0
  9
$DIMSE2
 70
     0
  9
$DIMTAD
 70
     1
  9
$DIMZIN
 70
     8
  9
$DIMBLK
  1

  9
$DIMASO
 70
     1
  9
$DIMSHO
 70
     1
  9
$DIMPOST
  1
 
  9
$DIMAPOST
  1

  9
$DIMALT
 70
     0
  9
$DIMALTD
 70
     2
  9
$DIMALTF
 40
25.399999999999999
  9
$DIMLFAC
 40
1.0
  9
$DIMTOFL
 70
     1
  9
$DIMTVP
 40
0.0
  9
$DIMTIX
 70
     0
  9
$DIMSOXD
 70
     0
  9
$DIMSAH
 70
     1
  9
$DIMBLK1
  1
OPEN30
  9
$DIMBLK2
  1
OPEN30
  9
$DIMSTYLE
  2
NEWX10
  9
$DIMCLRD
 70
   256
  9
$DIMCLRE
 70
   256
  9
$DIMCLRT
 70
   201
  9
$DIMTFAC
 40
0.7
  9
$DIMGAP
 40
0.7
  9
$LUNITS
 70
     2
  9
$LUPREC
 70
     4
  9
$SKETCHINC
 40
1.0
  9
$FILLETRAD
 40
0.0
  9
$AUNITS
 70
     0
  9
$AUPREC
 70
     2
  9
$MENU
  1
acad
  9
$ELEVATION
 40
0.0
  9
$PELEVATION
 40
0.0
  9
$THICKNESS
 40
0.0
  9
$LIMCHECK
 70
     0
  9
$BLIPMODE
 70
     0
  9
$CHAMFERA
 40
10.0
  9
$CHAMFERB
 40
10.0
  9
$SKPOLY
 70
     0
  9
$TDCREATE
 40
2453033.7326634838
  9
$TDUPDATE
 40
2453605.7410467239
  9
$TDINDWG
 40
1.7150108565
  9
$TDUSRTIMER
 40
1.7150108565
  9
$USRTIMER
 70
     1
  9
$ANGBASE
 50
0.0
  9
$ANGDIR
 70
     0
  9
$PDMODE
 70
     0
  9
$PDSIZE
 40
0.0
  9
$PLINEWID
 40
0.0
  9
$COORDS
 70
     2
  9
$SPLFRAME
 70
     0
  9
$SPLINETYPE
 70
     6
  9
$SPLINESEGS
 70
     8
  9
$ATTDIA
 70
     0
  9
$ATTREQ
 70
     1
  9
$HANDLING
 70
     1
  9
$HANDSEED
  5
18CFE
  9
$SURFTAB1
 70
     6
  9
$SURFTAB2
 70
     6
  9
$SURFTYPE
 70
     6
  9
$SURFU
 70
     6
  9
$SURFV
 70
     6
  9
$UCSNAME
  2

  9
$UCSORG
 10
0.0
 20
0.0
 30
0.0
  9
$UCSXDIR
 10
1.0
 20
0.0
 30
0.0
  9
$UCSYDIR
 10
0.0
 20
1.0
 30
0.0
  9
$PUCSNAME
  2

  9
$PUCSORG
 10
0.0
 20
0.0
 30
0.0
  9
$PUCSXDIR
 10
1.0
 20
0.0
 30
0.0
  9
$PUCSYDIR
 10
0.0
 20
1.0
 30
0.0
  9
$USERI1
 70
     0
  9
$USERI2
 70
     0
  9
$USERI3
 70
     0
  9
$USERI4
 70
     0
  9
$USERI5
 70
     0
  9
$USERR1
 40
0.0
  9
$USERR2
 40
0.0
  9
$USERR3
 40
0.0
  9
$USERR4
 40
0.0
  9
$USERR5
 40
0.0
  9
$WORLDVIEW
 70
     1
  9
$SHADEDGE
 70
     3
  9
$SHADEDIF
 70
    70
  9
$TILEMODE
 70
     1
  9
$MAXACTVP
 70
    48
  9
$PLIMCHECK
 70
     0
  9
$PEXTMIN
 10
1.0000000000000000E+020
 20
1.0000000000000000E+020
 30
1.0000000000000000E+020
  9
$PEXTMAX
 10
-1.0000000000000000E+020
 20
-1.0000000000000000E+020
 30
-1.0000000000000000E+020
  9
$PLIMMIN
 10
0.0
 20
0.0
  9
$PLIMMAX
 10
420.0
 20
297.0
  9
$UNITMODE
 70
     0
  9
$VISRETAIN
 70
     1
  9
$PLINEGEN
 70
     0
  9
$PSLTSCALE
 70
     1
  0
ENDSEC
  0
SECTION
  2
TABLES
  0
TABLE
  2
VPORT
 70
     4
  0
VPORT
  2
*ACTIVE
 70
     0
 10
0.0
 20
0.0
 11
1.0
 21
1.0
 12
177.6676714141858
 22
-807.3093430269796
 13
0.0
 23
0.0
 14
10.0
 24
10.0
 15
10.0
 25
10.0
 16
0.0
 26
0.0
 36
1.0
 17
0.0
 27
0.0
 37
0.0
 40
427.7707245288683
 41
1.508086253369272
 42
50.0
 43
0.0
 44
0.0
 50
0.0
 51
0.0
 71
     0
 72
   100
 73
     1
 74
     1
 75
     0
 76
     0
 77
     0
 78
     0
  0
ENDTAB
  0
TABLE
  2
LTYPE
 70
    15
  0
LTYPE
  2
CONTINUOUS
 70
     0
  3
Solid line
 72
    65
 73
     0
 40
0.0
  0
LTYPE
  2
CENTER2
 70
     0
  3
Center (.5x) ___ _ ___ _ ___ _ ___ _ ___ _ ___
 72
    65
 73
     4
 40
28.574999999999999
 49
19.050000000000001
 49
-3.1749999999999989
 49
3.1749999999999989
 49
-3.1749999999999989
  0
LTYPE
  2
XREF1|CENTER2
 70
    48
  3
Center (.5x) ___ _ ___ _ ___ _ ___ _ ___ _ ___
 72
    65
 73
     4
 40
28.574999999999999
 49
19.050000000000001
 49
-3.1749999999999989
 49
3.1749999999999989
 49
-3.1749999999999989
  0
LTYPE
  2
PHANTOM2
 70
     0
  3
Phantom (.5x) ___ _ _ ___ _ _ ___ _ _ ___ _ _
 72
    65
 73
     6
 40
31.75
 49
15.875
 49
-3.1749999999999989
 49
3.1749999999999989
 49
-3.1749999999999989
 49
3.1749999999999989
 49
-3.1749999999999989
  0
LTYPE
  2
A3WAKUDAKE|CENTER2
 70
    48
  3
Center (.5x) ___ _ ___ _ ___ _ ___ _ ___ _ ___
 72
    65
 73
     4
 40
28.574999999999999
 49
19.050000000000001
 49
-3.1749999999999989
 49
3.1749999999999989
 49
-3.1749999999999989
  0
ENDTAB
  0
TABLE
  2
LAYER
 70
    44
  0
LAYER
  2
0
 70
     0
 62
     7
  6
CONTINUOUS
  0
LAYER
  2
1CENTER
 70
     0
 62
     7
  6
CENTER2
  0
LAYER
  2
1TEXT
 70
     0
 62
     7
  6
CONTINUOUS
  0
LAYER
  2
1DIM
 70
     0
 62
     7
  6
CONTINUOUS
  0
LAYER
  2
1PHANTOM
 70
     0
 62
     7
  6
PHANTOM2
  0
LAYER
  2
01
 70
     0
 62
     1
  6
CONTINUOUS
  0
LAYER
  2
1DIM1
 70
     0
 62
     7
  6
CONTINUOUS
  0
LAYER
  2
1HATCH
 70
     0
 62
     7
  6
CONTINUOUS
  0
LAYER
  2
XREF1|1CENTER
 70
    48
 62
     7
  6
XREF1|CENTER2
  0
LAYER
  2
A3WAKUDAKE|THICK
 70
    48
 62
     7
  6
CONTINUOUS
  0
LAYER
  2
A3WAKUDAKE|POINT
 70
    48
 62
     7
  6
CONTINUOUS
  0
LAYER
  2
A3WAKUDAKE|1CENTER
 70
    48
 62
     7
  6
A3WAKUDAKE|CENTER2
  0
LAYER
  2
A3WAKUDAKE|0-6
 70
    48
 62
     7
  6
CONTINUOUS
  0
LAYER
  2
A3WAKUDAKE|1DIM
 70
    48
 62
     7
  6
CONTINUOUS
  0
ENDTAB
  0
TABLE
  2
STYLE
 70
    22
  0
STYLE
  2
STANDARD
 70
     0
 40
0.0
 41
1.0
 50
0.0
 71
     0
 42
4.0
  3
txt.shx
  4
extfont.shx
  0
ENDTAB
  0
TABLE
  2
VIEW
 70
     0
  0
ENDTAB
  0
TABLE
  2
UCS
 70
     0
  0
ENDTAB
  0
TABLE
  2
APPID
 70
     9
  0
APPID
  2
ACAD
 70
     0
  0
APPID
  2
DRAWINGVARIABLESXDATA
 70
     0
  0
APPID
  2
CONTENTTABDATA
 70
     0
  0
APPID
  2
CONTENTCURRENTTAB
 70
     0
  0
APPID
  2
CONTENTBLOCKDESCRIPTION
 70
     0
  0
APPID
  2
CONTENTBLOCKICON
 70
     0
  0
APPID
  2
CONTENTLONGBLOCKNAME
 70
     0
  0
APPID
  2
ACAD_PSEXT
 70
     0
  0
APPID
  2
ACAD_DSTYLE_DIMTEXT_FILL
 70
     0
  0
ENDTAB
  0
TABLE
  2
DIMSTYLE
 70
     9
  0
DIMSTYLE
  2
NEWX10
 70
     0
  3
 
  4

  5

  6
OPEN30
  7
OPEN30
 40
1.0
 41
2.0
 42
0.0
 43
7.0
 44
1.0
 45
0.0
 46
0.0
 47
0.0
 48
0.0
140
3.5
141
0.0
142
0.0
143
25.399999999999999
144
1.0
145
0.0
146
0.7
147
0.7
 71
     0
 72
     0
 73
     0
 74
     0
 75
     0
 76
     0
 77
     1
 78
     8
170
     0
171
     2
172
     1
173
     1
174
     0
175
     0
176
   256
177
   256
178
   201
  0
ENDTAB
  0
ENDSEC
  0
SECTION
  2
BLOCKS
  0
BLOCK
  8
0
  2
$MODEL_SPACE
 70
     0
 10
0.0
 20
0.0
 30
0.0
  3
$MODEL_SPACE
  1

  0
ENDBLK
  5
1A
  8
0
  0
BLOCK
 67
     1
  8
0
  2
$PAPER_SPACE
 70
     0
 10
0.0
 20
0.0
 30
0.0
  3
$PAPER_SPACE
  1

  0
ENDBLK
  5
17
 67
     1
  8
0
  0
BLOCK
  8
0
  2
_OPEN30
 70
     0
 10
0.0
 20
0.0
 30
0.0
  3
_OPEN30
  1

  0
LINE
  5
44
  8
0
  6
BYBLOCK
 62
     0
 10
-1.0
 20
0.26794919
 30
0.0
 11
0.0
 21
0.0
 31
0.0
  0
LINE
  5
45
  8
0
  6
BYBLOCK
 62
     0
 10
0.0
 20
0.0
 30
0.0
 11
-1.0
 21
-0.26794919
 31
0.0
  0
LINE
  5
46
  8
0
  6
BYBLOCK
 62
     0
 10
0.0
 20
0.0
 30
0.0
 11
-1.0
 21
0.0
 31
0.0
  0
ENDBLK
  5
47
  8
0
  0
BLOCK
  8
0
  2
XREF1
 70
    36
 10
0.0
 20
0.0
 30
0.0
  3
XREF1
  1
D:\ACLT\FORMAT\KAWAJUN(9)図面用.dwg
  0
ENDBLK
  5
5D
  8
0
  0
BLOCK
  8
0
  2
A3WAKUDAKE
 70
    36
 10
0.0
 20
0.0
 30
0.0
  3
A3WAKUDAKE
  1
D:\ACLT\FORMAT\A3WAKUdake.dwg
  0
ENDBLK
  5
6DC
  8
0
  0
BLOCK
  8
0
  2
*U22
 70
     1
 10
0.0
 20
0.0
 30
0.0
  3
*U22
  1

  0
TEXT
  5
18CC3
  8
1DIM1
 62
   201
 10
55.549214079449492
 20
-915.52131530700728
 30
0.0
 40
10.5
  1
P240 
  0
ENDBLK
  5
18CC5
  8
0
  0
BLOCK
  8
0
  2
*U23
 70
     1
 10
0.0
 20
0.0
 30
0.0
  3
*U23
  1

  0
TEXT
  5
18CC7
  8
1DIM1
 62
   201
 10
61.674214079449477
 20
-945.5213153070074
 30
0.0
 40
10.5
  1
400 
  0
ENDBLK
  5
18CC9
  8
0
  0
BLOCK
  8
0
  2
*U24
 70
     1
 10
0.0
 20
0.0
 30
0.0
  3
*U24
  1

  0
TEXT
  5
18CCB
  8
1DIM
 62
   201
 10
293.2242140794487
 20
-713.75464864033825
 30
0.0
 40
3.5
  1
7.5 
 50
90.0
  0
ENDBLK
  5
18CCD
  8
0
  0
BLOCK
  8
0
  2
*U25
 70
     1
 10
0.0
 20
0.0
 30
0.0
  3
*U25
  1

  0
TEXT
  5
18CCF
  8
1DIM
 62
   201
 10
293.2242140794487
 20
-782.32964864033875
 30
0.0
 40
3.5
  1
110 
 50
90.0
  0
ENDBLK
  5
18CD1
  8
0
  0
BLOCK
  8
0
  2
*U26
 70
     1
 10
0.0
 20
0.0
 30
0.0
  3
*U26
  1

  0
TEXT
  5
18CD3
  8
1DIM
 62
   201
 10
303.22421407944881
 20
-781.20464864033829
 30
0.0
 40
3.5
  1
117.5 
 50
90.0
  0
ENDBLK
  5
18CD5
  8
0
  0
BLOCK
  8
0
  2
*U27
 70
     1
 10
0.0
 20
0.0
 30
0.0
  3
*U27
  1

  0
TEXT
  5
18CD7
  8
1DIM
 62
   201
 10
376.84088074611458
 20
-916.92131530700635
 30
0.0
 40
3.5
  1
117.5 
  0
ENDBLK
  5
18CD9
  8
0
  0
BLOCK
  8
0
  2
*U28
 70
     1
 10
0.0
 20
0.0
 30
0.0
  3
*U28
  1

  0
TEXT
  5
18CDB
  8
1DIM
 62
   201
 10
421.42421407944829
 20
-906.92131530700635
 30
0.0
 40
3.5
  1
29.5 
  0
ENDBLK
  5
18CDD
  8
0
  0
BLOCK
  8
0
  2
*U29
 70
     1
 10
0.0
 20
0.0
 30
0.0
  3
*U29
  1

  0
TEXT
  5
18CDF
  8
1DIM
 62
   201
 10
480.72421407944728
 20
-869.91298197366928
 30
0.0
 40
3.5
  1
9 
 50
90.0
  0
ENDBLK
  5
18CE1
  8
0
  0
BLOCK
  8
0
  2
*U30
 70
     1
 10
0.0
 20
0.0
 30
0.0
  3
*U30
  1

  0
TEXT
  5
18CE3
  8
1DIM
 62
   201
 10
303.22421407944881
 20
-881.12131530700628
 30
0.0
 40
3.5
  1
23.5 
 50
90.0
  0
ENDBLK
  5
18CE5
  8
0
  0
BLOCK
  8
0
  2
*U31
 70
     1
 10
0.0
 20
0.0
 30
0.0
  3
*U31
  1

  0
TEXT
  5
18CE7
  8
1DIM
 62
   201
 10
313.22421407944881
 20
-859.42131530700635
 30
0.0
 40
3.5
  1
5 
 50
90.0
  0
ENDBLK
  5
18CE9
  8
0
  0
BLOCK
  8
0
  2
*U32
 70
     1
 10
0.0
 20
0.0
 30
0.0
  3
*U32
  1

  0
TEXT
  5
18CEB
  8
1DIM
 62
   201
 10
313.22421407944881
 20
-874.28798197367303
 30
0.0
 40
3.5
  1
8 
 50
90.0
  0
ENDBLK
  5
18CED
  8
0
  0
BLOCK
  8
0
  2
*U33
 70
     1
 10
0.0
 20
0.0
 30
0.0
  3
*U33
  1

  0
TEXT
  5
18CEF
  8
1DIM
 62
   201
 10
426.00754741277638
 20
-896.92131530700635
 30
0.0
 40
3.5
  1
21.5 
  0
ENDBLK
  5
18CF1
  8
0
  0
BLOCK
  8
0
  2
*U34
 70
     1
 10
0.0
 20
0.0
 30
0.0
  3
*U34
  1

  0
TEXT
  5
18CF3
  8
1DIM1
 62
   201
 10
61.674214079449477
 20
-674.52131530700547
 30
0.0
 40
10.5
  1
300 
  0
ENDBLK
  5
18CF5
  8
0
  0
BLOCK
  8
0
  2
*U35
 70
     1
 10
0.0
 20
0.0
 30
0.0
  3
*U35
  1

  0
TEXT
  5
18CF7
  8
1DIM1
 62
   201
 10
-108.95078592055
 20
-674.52131530700547
 30
0.0
 40
10.5
  1
50 
  0
ENDBLK
  5
18CF9
  8
0
  0
BLOCK
  8
0
  2
*U36
 70
     1
 10
0.0
 20
0.0
 30
0.0
  3
*U36
  1

  0
TEXT
  5
18CFB
  8
1DIM1
 62
   201
 10
241.049214079449
 20
-674.52131530700547
 30
0.0
 40
10.5
  1
50 
  0
ENDBLK
  5
18CFD
  8
0
  0
ENDSEC
  0
SECTION
  2
ENTITIES
  0
LINE
  5
180D8
  8
1DIM
 10
361.42421407944721
 20
-847.12131530700435
 30
0.0
 11
431.42421407944721
 21
-847.12131530700435
 31
0.0
  0
TEXT
  5
180D9
  8
1TEXT
 10
368.17659503182779
 20
-845.62131530700447
 30
0.0
 40
4.0
  1
表面処理：
 72
     1
 11
378.82421407944679
 21
-845.62131530700447
 31
0.0
  0
LINE
  5
180DA
  8
1DIM
 10
361.42421407944721
 20
-840.12131530700435
 30
0.0
 11
431.42421407944721
 21
-840.12131530700435
 31
0.0
  0
LINE
  5
180DB
  8
1DIM
 10
361.42421407944721
 20
-840.12131530700435
 30
0.0
 11
431.42421407944721
 21
-840.12131530700435
 31
0.0
  0
LINE
  5
180DC
  8
1DIM
 10
396.42421407944721
 20
-840.12131530700435
 30
0.0
 11
396.42421407944721
 21
-854.12131530700435
 31
0.0
  0
TEXT
  5
180DD
  8
1TEXT
 10
407.02421407944672
 20
-845.62131530700447
 30
0.0
 40
4.0
  1
コード
 72
     1
 11
413.82421407944679
 21
-845.62131530700447
 31
0.0
  0
LINE
  5
180DE
  8
1DIM
 10
361.42421407944721
 20
-854.12131530700435
 30
0.0
 11
431.42421407944721
 21
-854.12131530700435
 31
0.0
  0
TEXT
  5
180DF
  8
1TEXT
 10
362.07754741278018
 20
-852.43222891857545
 30
0.0
 40
4.0
  1
ブラストアルマイト
 41
0.8
 72
     1
 11
378.82421407944679
 21
-852.43222891857545
 31
0.0
  0
TEXT
  5
180E0
  8
1TEXT
 10
399.15754741278113
 20
-852.83567229065375
 30
0.0
 40
4.0
  1
SA804S40
 72
     1
 11
413.8242140794477
 21
-852.83567229065375
 31
0.0
  0
LINE
  5
180E1
  8
1DIM
 10
361.42421407944721
 20
-854.12131530700435
 30
0.0
 11
361.42421407944721
 21
-840.12131530700435
 31
0.0
  0
LINE
  5
180E2
  8
1DIM
 10
431.42421407944721
 20
-854.12131530700435
 30
0.0
 11
431.4242140794471
 21
-840.12131530700435
 31
0.0
  0
TEXT
  5
180E3
  8
1TEXT
 10
361.42421407944721
 20
-835.12131530700447
 30
0.0
 40
8.0
  1
SA804S40
  0
LINE
  5
180E5
  8
01
 10
459.42421407944721
 20
-830.62131530699821
 30
0.0
 11
459.42421407944721
 21
-910.62131530699776
 31
0.0
  0
LINE
  5
18683
  8
1CENTER
 10
193.92421407944951
 20
-686.66040071585201
 30
0.0
 11
193.92421407944951
 21
-723.29159171630693
 31
0.0
  0
LINE
  5
18684
  8
1PHANTOM
 10
192.8298902654544
 20
-691.72131276083815
 30
0.0
 11
194.79222535432979
 21
-690.92131732678729
 31
0.0
  0
LINE
  5
18685
  8
1PHANTOM
 10
194.79222535432979
 20
-690.92131732678729
 30
0.0
 11
194.2039487792874
 21
-690.60954747053518
 31
0.0
  0
LINE
  5
18686
  8
1PHANTOM
 10
191.92426061534741
 20
-714.12131065362826
 30
0.0
 11
195.92426061534741
 21
-713.32131996081
 31
0.0
  0
LINE
  5
18687
  8
1PHANTOM
 10
191.92426061534741
 20
-702.92131065362378
 30
0.0
 11
195.92426061534741
 21
-702.12131996080132
 31
0.0
  0
LINE
  5
18688
  8
1PHANTOM
 10
191.92426061534741
 20
-699.72131065362385
 30
0.0
 11
195.92426061534741
 21
-698.92131996080127
 31
0.0
  0
LINE
  5
18689
  8
1PHANTOM
 10
195.92426061534741
 20
-698.92131996080127
 30
0.0
 11
195.42426061534741
 21
-698.82131879740405
 31
0.0
  0
LINE
  5
1868A
  8
1PHANTOM
 10
192.42426061534741
 20
-698.22131181702105
 30
0.0
 11
191.92426061534741
 21
-698.12131065362371
 31
0.0
  0
LINE
  5
1868B
  8
1PHANTOM
 10
195.92426061534741
 20
-702.12131996080132
 30
0.0
 11
195.42426061534741
 21
-702.02131879740398
 31
0.0
  0
LINE
  5
1868C
  8
1PHANTOM
 10
195.92426061534741
 20
-700.52131996080118
 30
0.0
 11
195.42426061534741
 21
-700.42131879740396
 31
0.0
  0
LINE
  5
1868D
  8
1PHANTOM
 10
192.42426061534741
 20
-699.82131181702096
 30
0.0
 11
191.92426061534741
 21
-699.72131065362385
 31
0.0
  0
LINE
  5
1868E
  8
1PHANTOM
 10
192.42426061534741
 20
-701.42131181702075
 30
0.0
 11
191.92426061534741
 21
-701.32131065362375
 31
0.0
  0
LINE
  5
1868F
  8
1PHANTOM
 10
191.92426061534741
 20
-701.32131065362375
 30
0.0
 11
195.92426061534741
 21
-700.52131996080118
 31
0.0
  0
LINE
  5
18690
  8
1PHANTOM
 10
195.24503945873661
 20
-692.52131838039293
 30
0.0
 11
194.69328999493331
 21
-692.33855423776492
 31
0.0
  0
LINE
  5
18691
  8
1PHANTOM
 10
195.92426061534741
 20
-695.72131996080122
 30
0.0
 11
195.42426061534741
 21
-695.62131879740411
 31
0.0
  0
LINE
  5
18692
  8
1PHANTOM
 10
195.92426061534741
 20
-697.32131996080125
 30
0.0
 11
195.42426061534741
 21
-697.22131879740425
 31
0.0
  0
LINE
  5
18693
  8
1PHANTOM
 10
195.69785356314341
 20
-694.12131943399856
 30
0.0
 11
195.1612598278723
 21
-693.9920487363687
 31
0.0
  0
LINE
  5
18694
  8
1PHANTOM
 10
192.84517521255609
 20
-693.43408121958396
 30
0.0
 11
192.37707675740609
 21
-693.32131170723403
 31
0.0
  0
LINE
  5
18695
  8
1PHANTOM
 10
192.42426061534741
 20
-696.62131181702091
 30
0.0
 11
191.92426061534741
 21
-696.52131065362369
 31
0.0
  0
LINE
  5
18696
  8
1PHANTOM
 10
192.42426061534741
 20
-695.021311817021
 30
0.0
 11
191.92426061534741
 21
-694.92131065362378
 31
0.0
  0
LINE
  5
18697
  8
1PHANTOM
 10
193.2870621060855
 20
-691.87274855727856
 30
0.0
 11
192.8298902654544
 21
-691.72131276083815
 31
0.0
  0
LINE
  5
18698
  8
1PHANTOM
 10
192.37707675740609
 20
-693.32131170723403
 30
0.0
 11
195.24503945873661
 21
-692.52131838039293
 31
0.0
  0
LINE
  5
18699
  8
1PHANTOM
 10
191.92426061534741
 20
-696.52131065362369
 30
0.0
 11
195.92426061534741
 21
-695.72131996080122
 31
0.0
  0
LINE
  5
1869A
  8
1PHANTOM
 10
191.92426061534741
 20
-694.92131065362378
 30
0.0
 11
195.69785356314341
 21
-694.12131943399856
 31
0.0
  0
LINE
  5
1869B
  8
1PHANTOM
 10
191.92426061534741
 20
-698.12131065362371
 30
0.0
 11
195.92426061534741
 21
-697.32131996080125
 31
0.0
  0
LINE
  5
1869C
  8
1PHANTOM
 10
191.92426061534741
 20
-710.92131065362821
 30
0.0
 11
195.92426061534741
 21
-710.12131996080996
 31
0.0
  0
LINE
  5
1869D
  8
1PHANTOM
 10
195.92426061534741
 20
-710.12131996080996
 30
0.0
 11
195.42426061534741
 21
-710.02131879741216
 31
0.0
  0
LINE
  5
1869E
  8
1PHANTOM
 10
192.42426061534741
 20
-709.42131181702155
 30
0.0
 11
191.92426061534741
 21
-709.32131065362375
 31
0.0
  0
LINE
  5
1869F
  8
1PHANTOM
 10
195.92426061534741
 20
-711.72131996081009
 30
0.0
 11
195.42426061534741
 21
-711.62131879741241
 31
0.0
  0
LINE
  5
186A0
  8
1PHANTOM
 10
195.92426061534741
 20
-713.32131996081
 30
0.0
 11
195.42426061534741
 21
-713.22131879741232
 31
0.0
  0
LINE
  5
186A1
  8
1PHANTOM
 10
192.42426061534741
 20
-711.02131181702589
 30
0.0
 11
191.92426061534741
 21
-710.92131065362821
 31
0.0
  0
LINE
  5
186A2
  8
1PHANTOM
 10
192.42426061534741
 20
-712.62131181702603
 30
0.0
 11
191.92426061534741
 21
-712.52131065362835
 31
0.0
  0
LINE
  5
186A3
  8
1PHANTOM
 10
191.92426061534741
 20
-712.52131065362835
 30
0.0
 11
195.92426061534741
 21
-711.72131996081009
 31
0.0
  0
LINE
  5
186A4
  8
1PHANTOM
 10
195.92426061534741
 20
-705.32131996080545
 30
0.0
 11
195.42426061534741
 21
-705.22131879740789
 31
0.0
  0
LINE
  5
186A5
  8
1PHANTOM
 10
195.92426061534741
 20
-703.72131996080122
 30
0.0
 11
195.42426061534741
 21
-703.62131879740411
 31
0.0
  0
LINE
  5
186A6
  8
1PHANTOM
 10
195.92426061534741
 20
-708.5213199608055
 30
0.0
 11
195.42426061534741
 21
-708.42131879740793
 31
0.0
  0
LINE
  5
186A7
  8
1PHANTOM
 10
195.92426061534741
 20
-706.9213199608057
 30
0.0
 11
195.42426061534741
 21
-706.82131879740803
 31
0.0
  0
LINE
  5
186A8
  8
1PHANTOM
 10
192.42426061534741
 20
-703.021311817021
 30
0.0
 11
191.92426061534741
 21
-702.92131065362378
 31
0.0
  0
LINE
  5
186A9
  8
1PHANTOM
 10
192.42426061534741
 20
-704.62131181702148
 30
0.0
 11
191.92426061534741
 21
-704.5213106536238
 31
0.0
  0
LINE
  5
186AA
  8
1PHANTOM
 10
192.42426061534741
 20
-707.82131181702164
 30
0.0
 11
191.92426061534741
 21
-707.72131065362385
 31
0.0
  0
LINE
  5
186AB
  8
1PHANTOM
 10
192.42426061534741
 20
-706.22131181702139
 30
0.0
 11
191.92426061534741
 21
-706.12131065362382
 31
0.0
  0
LINE
  5
186AC
  8
1PHANTOM
 10
191.92426061534741
 20
-706.12131065362382
 30
0.0
 11
195.92426061534741
 21
-705.32131996080545
 31
0.0
  0
LINE
  5
186AD
  8
1PHANTOM
 10
191.92426061534741
 20
-704.5213106536238
 30
0.0
 11
195.92426061534741
 21
-703.72131996080122
 31
0.0
  0
LINE
  5
186AE
  8
1PHANTOM
 10
191.92426061534741
 20
-707.72131065362385
 30
0.0
 11
195.92426061534741
 21
-706.9213199608057
 31
0.0
  0
LINE
  5
186AF
  8
1PHANTOM
 10
191.92426061534741
 20
-709.32131065362375
 30
0.0
 11
195.92426061534741
 21
-708.5213199608055
 31
0.0
  0
LINE
  5
186B0
  8
1PHANTOM
 10
195.42426061534741
 20
-719.62131879729873
 30
0.0
 11
192.42426061534761
 21
-719.62131181691404
 31
0.0
  0
LINE
  5
186B1
  8
1PHANTOM
 10
192.42426061534741
 20
-719.0213118170301
 30
0.0
 11
191.92426061534741
 21
-718.92131065363242
 31
0.0
  0
LINE
  5
186B2
  8
1PHANTOM
 10
191.92426061534741
 20
-718.92131065363242
 30
0.0
 11
195.92426061534741
 21
-718.12131996081416
 31
0.0
  0
LINE
  5
186B3
  8
1PHANTOM
 10
195.92426061534741
 20
-718.12131996081416
 30
0.0
 11
195.42426061534741
 21
-718.02131879741648
 31
0.0
  0
LINE
  5
186B4
  8
1PHANTOM
 10
192.42426061534741
 20
-717.42131181703007
 30
0.0
 11
191.92426061534741
 21
-717.32131065363251
 31
0.0
  0
LINE
  5
186B5
  8
1PHANTOM
 10
192.42426061534741
 20
-715.82131181703016
 30
0.0
 11
191.92426061534741
 21
-715.7213106536326
 31
0.0
  0
LINE
  5
186B6
  8
1PHANTOM
 10
191.92426061534741
 20
-715.7213106536326
 30
0.0
 11
195.92426061534741
 21
-714.92131996081434
 31
0.0
  0
LINE
  5
186B7
  8
1PHANTOM
 10
195.92426061534741
 20
-716.52131996081425
 30
0.0
 11
195.42426061534741
 21
-716.42131879741657
 31
0.0
  0
LINE
  5
186B8
  8
1PHANTOM
 10
195.92426061534741
 20
-714.92131996081434
 30
0.0
 11
195.42426061534741
 21
-714.82131879741667
 31
0.0
  0
LINE
  5
186B9
  8
1PHANTOM
 10
191.92426061534741
 20
-717.32131065363251
 30
0.0
 11
195.92426061534741
 21
-716.52131996081425
 31
0.0
  0
LINE
  5
186BA
  8
1PHANTOM
 10
192.42426061534741
 20
-714.22131181702593
 30
0.0
 11
191.92426061534741
 21
-714.12131065362826
 31
0.0
  0
LINE
  5
186BB
  8
1PHANTOM
 10
190.1242140794495
 20
-719.62131530699799
 30
0.0
 11
190.1242140794495
 21
-718.6213153069981
 31
0.0
  0
LINE
  5
186BC
  8
1PHANTOM
 10
197.72421407944941
 20
-719.62131530699799
 30
0.0
 11
197.72421407944941
 21
-718.6213153069981
 31
0.0
  0
LINE
  5
186BD
  8
1PHANTOM
 10
194.42421392944951
 20
-719.62131530699799
 30
0.0
 11
193.42421422944949
 21
-718.6213153069981
 31
0.0
  0
LINE
  5
186BE
  8
1PHANTOM
 10
197.72421407944941
 20
-719.62131530699799
 30
0.0
 11
190.1242140794495
 21
-719.62131530699799
 31
0.0
  0
LINE
  5
186BF
  8
1PHANTOM
 10
197.72421407944941
 20
-718.6213153069981
 30
0.0
 11
190.1242140794495
 21
-718.6213153069981
 31
0.0
  0
LINE
  5
186C2
  8
01
 10
273.92421407945039
 20
-725.1213153070056
 30
0.0
 11
273.92421407945039
 21
-829.12131530700526
 31
0.0
  0
LINE
  5
186C3
  8
01
 10
-126.07578592054961
 20
-829.12131530700526
 30
0.0
 11
-126.07578592054961
 21
-725.12131530700481
 31
0.0
  0
LINE
  5
186C4
  8
01
 10
173.92421407944951
 20
-877.12131530700594
 30
0.0
 11
-125.07578592054961
 21
-877.12131530700594
 31
0.0
  0
LINE
  5
186C5
  8
01
 10
268.92421407945039
 20
-834.12131530700537
 30
0.0
 11
-121.07578592054961
 21
-834.12131530700537
 31
0.0
  0
LINE
  5
186C6
  8
01
 10
173.92421407944951
 20
-869.12131530700594
 30
0.0
 11
-125.07578592054961
 21
-869.12131530700594
 31
0.0
  0
LINE
  5
186C7
  8
01
 10
-75.075785920552335
 20
-887.62131530700572
 30
0.0
 11
163.92421407944951
 21
-887.6213153070056
 31
0.0
  0
LINE
  5
186C8
  8
01
 10
-76.075785920551311
 20
-877.6213153070056
 30
0.0
 11
163.92421407944951
 21
-877.6213153070056
 31
0.0
  0
LINE
  5
186C9
  8
01
 10
103.92421407944759
 20
-869.12131530700594
 30
0.0
 11
163.92421407944951
 21
-869.12131530700549
 31
0.0
  0
LINE
  5
186CA
  8
01
 10
-75.075785920550516
 20
-864.1213153070056
 30
0.0
 11
163.92421407944951
 21
-864.1213153070056
 31
0.0
  0
LINE
  5
186CB
  8
01
 10
-126.07578592054961
 20
-870.12131530700583
 30
0.0
 11
-126.07578592054961
 21
-876.12131530700572
 31
0.0
  0
LINE
  5
186CC
  8
01
 10
-126.07578592054961
 20
-876.12131530700572
 30
0.0
 11
-125.07578592054961
 21
-877.12131530700594
 31
0.0
  0
LINE
  5
186CD
  8
01
 10
-125.07578592054961
 20
-869.12131530700594
 30
0.0
 11
-126.07578592054961
 21
-870.12131530700583
 31
0.0
  0
LINE
  5
186CE
  8
01
 10
-76.075785920552335
 20
-886.6213153070056
 30
0.0
 11
-76.075785920551183
 21
-877.12131530700594
 31
0.0
  0
LINE
  5
186CF
  8
01
 10
-76.075785920550516
 20
-869.12131530700594
 30
0.0
 11
-76.075785920550516
 21
-865.1213153070056
 31
0.0
  0
ARC
  5
186D0
  8
01
 10
-75.075785920552335
 20
-886.6213153070056
 30
0.0
 40
1.0
 50
179.9999999999967
 51
270.0
  0
ARC
  5
186D1
  8
01
 10
-75.075785920550516
 20
-865.1213153070056
 30
0.0
 40
1.0
 50
90.0
 51
179.9999999999967
  0
ARC
  5
186D2
  8
01
 10
-121.07578592054961
 20
-829.12131530700526
 30
0.0
 40
5.0
 50
180.0
 51
270.0
  0
LINE
  5
186D3
  8
01
 10
173.92421407944951
 20
-877.12131530700594
 30
0.0
 11
272.92421407944857
 21
-877.12131530700594
 31
0.0
  0
LINE
  5
186D4
  8
01
 10
173.92421407944951
 20
-869.12131530700594
 30
0.0
 11
272.92421407944857
 21
-869.12131530700594
 31
0.0
  0
LINE
  5
186D5
  8
01
 10
223.92421407945309
 20
-886.6213153070056
 30
0.0
 11
223.92421407945159
 21
-877.12131530700594
 31
0.0
  0
LINE
  5
186D6
  8
01
 10
223.92421407945019
 20
-869.12131530700594
 30
0.0
 11
223.92421407944951
 21
-865.12131530700537
 31
0.0
  0
LINE
  5
186D7
  8
01
 10
222.92421407945309
 20
-887.62131530700572
 30
0.0
 11
163.92421407944951
 21
-887.6213153070056
 31
0.0
  0
LINE
  5
186D8
  8
01
 10
223.9242140794513
 20
-877.6213153070056
 30
0.0
 11
163.92421407944951
 21
-877.6213153070056
 31
0.0
  0
LINE
  5
186D9
  8
01
 10
223.9242140794513
 20
-869.12131530700594
 30
0.0
 11
163.92421407944951
 21
-869.12131530700549
 31
0.0
  0
CIRCLE
  5
186DB
  8
01
 10
193.92421407944951
 20
-873.37131530700606
 30
0.0
 40
2.5
  0
ARC
  5
186DC
  8
01
 10
222.92421407945309
 20
-886.62131530700583
 30
0.0
 40
1.0
 50
270.0
 51
0.0000000000065138
  0
LINE
  5
186DD
  8
01
 10
222.92421407944951
 20
-864.12131530700526
 30
0.0
 11
163.92421407944951
 21
-864.1213153070056
 31
0.0
  0
ARC
  5
186DE
  8
01
 10
222.92421407944951
 20
-865.12131530700537
 30
0.0
 40
1.0
 50
0.0000000000032569
 51
90.0
  0
LINE
  5
186DF
  8
01
 10
273.92421407944857
 20
-870.12131530700583
 30
0.0
 11
273.92421407944857
 21
-876.12131530700572
 31
0.0
  0
LINE
  5
186E0
  8
01
 10
273.92421407944857
 20
-876.12131530700572
 30
0.0
 11
272.92421407944857
 21
-877.12131530700594
 31
0.0
  0
LINE
  5
186E1
  8
01
 10
272.92421407944857
 20
-869.12131530700594
 30
0.0
 11
273.92421407944857
 21
-870.12131530700583
 31
0.0
  0
ARC
  5
186E2
  8
01
 10
268.92421407945039
 20
-829.12131530700526
 30
0.0
 40
5.0
 50
270.0
 51
0.0
  0
LINE
  5
186E3
  8
01
 10
222.9242140794486
 20
-746.1213153070056
 30
0.0
 11
-75.075785920551425
 21
-746.1213153070056
 31
0.0
  0
LINE
  5
186E4
  8
01
 10
163.92421407944951
 20
-716.6213153070056
 30
0.0
 11
103.9242140794486
 21
-716.6213153070056
 31
0.0
  0
LINE
  5
186E5
  8
01
 10
-125.07578592054961
 20
-724.1213153070056
 30
0.0
 11
-76.075785920550743
 21
-724.1213153070056
 31
0.0
  0
LINE
  5
186E6
  8
01
 10
-126.07578592054961
 20
-725.1213153070056
 30
0.0
 11
-125.07578592054961
 21
-724.1213153070056
 31
0.0
  0
ARC
  5
186E7
  8
01
 10
-75.075785920551425
 20
-745.1213153070056
 30
0.0
 40
1.0
 50
180.0
 51
270.0
  0
LINE
  5
186E8
  8
01
 10
223.9242140794492
 20
-724.12131530700594
 30
0.0
 11
272.92421407945039
 21
-724.1213153070056
 31
0.0
  0
LINE
  5
186E9
  8
01
 10
223.9242140794486
 20
-745.1213153070056
 30
0.0
 11
223.92421407944951
 21
-716.62131530700492
 31
0.0
  0
LINE
  5
186EA
  8
01
 10
-76.075785920551425
 20
-745.12131530699924
 30
0.0
 11
-76.075785920550516
 21
-716.62131530699855
 31
0.0
  0
ARC
  5
186EC
  8
01
 10
222.9242140794486
 20
-745.1213153070056
 30
0.0
 40
1.0
 50
270.0
 51
359.99999999999682
  0
LINE
  5
186EE
  8
01
 10
272.92421407945039
 20
-724.1213153070056
 30
0.0
 11
273.92421407945039
 21
-725.1213153070056
 31
0.0
  0
LINE
  5
186EF
  8
01
 10
223.92421407944951
 20
-716.62131530700492
 30
0.0
 11
-76.075785920550516
 21
-716.62131530700526
 31
0.0
  0
LINE
  5
186F0
  8
1CENTER
 10
193.92421407944951
 20
-876.37131530700583
 30
0.0
 11
193.92421407944951
 21
-870.37131530700594
 31
0.0
  0
LINE
  5
186F1
  8
1CENTER
 10
190.92421407944951
 20
-873.37131530700594
 30
0.0
 11
196.92421407944951
 21
-873.37131530700594
 31
0.0
  0
LINE
  5
186F6
  8
1CENTER
 10
-46.075785920550508
 20
-686.66040071585201
 30
0.0
 11
-46.075785920550508
 21
-723.29159171630693
 31
0.0
  0
LINE
  5
186F7
  8
1PHANTOM
 10
-47.170109734545569
 20
-691.72131276083815
 30
0.0
 11
-45.207774645670149
 21
-690.92131732678729
 31
0.0
  0
LINE
  5
186F8
  8
1PHANTOM
 10
-45.207774645670149
 20
-690.92131732678729
 30
0.0
 11
-45.79605122071257
 21
-690.60954747053518
 31
0.0
  0
LINE
  5
186F9
  8
1PHANTOM
 10
-48.075739384652593
 20
-714.12131065362826
 30
0.0
 11
-44.075739384652593
 21
-713.32131996081
 31
0.0
  0
LINE
  5
186FA
  8
1PHANTOM
 10
-48.075739384652593
 20
-702.92131065362378
 30
0.0
 11
-44.075739384652593
 21
-702.12131996080132
 31
0.0
  0
LINE
  5
186FB
  8
1PHANTOM
 10
-48.075739384652593
 20
-699.72131065362385
 30
0.0
 11
-44.075739384652593
 21
-698.92131996080127
 31
0.0
  0
LINE
  5
186FC
  8
1PHANTOM
 10
-44.075739384652593
 20
-698.92131996080127
 30
0.0
 11
-44.575739384652593
 21
-698.82131879740405
 31
0.0
  0
LINE
  5
186FD
  8
1PHANTOM
 10
-47.575739384652593
 20
-698.22131181702105
 30
0.0
 11
-48.075739384652593
 21
-698.12131065362371
 31
0.0
  0
LINE
  5
186FE
  8
1PHANTOM
 10
-44.075739384652593
 20
-702.12131996080132
 30
0.0
 11
-44.575739384652593
 21
-702.02131879740398
 31
0.0
  0
LINE
  5
186FF
  8
1PHANTOM
 10
-44.075739384652593
 20
-700.52131996080118
 30
0.0
 11
-44.575739384652593
 21
-700.42131879740396
 31
0.0
  0
LINE
  5
18700
  8
1PHANTOM
 10
-47.575739384652593
 20
-699.82131181702096
 30
0.0
 11
-48.075739384652593
 21
-699.72131065362385
 31
0.0
  0
LINE
  5
18701
  8
1PHANTOM
 10
-47.575739384652593
 20
-701.42131181702075
 30
0.0
 11
-48.075739384652593
 21
-701.32131065362375
 31
0.0
  0
LINE
  5
18702
  8
1PHANTOM
 10
-48.075739384652593
 20
-701.32131065362375
 30
0.0
 11
-44.075739384652593
 21
-700.52131996080118
 31
0.0
  0
LINE
  5
18703
  8
1PHANTOM
 10
-44.754960541263351
 20
-692.52131838039293
 30
0.0
 11
-45.306710005066627
 21
-692.33855423776492
 31
0.0
  0
LINE
  5
18704
  8
1PHANTOM
 10
-44.075739384652593
 20
-695.72131996080122
 30
0.0
 11
-44.575739384652593
 21
-695.62131879740411
 31
0.0
  0
LINE
  5
18705
  8
1PHANTOM
 10
-44.075739384652593
 20
-697.32131996080125
 30
0.0
 11
-44.575739384652593
 21
-697.22131879740425
 31
0.0
  0
LINE
  5
18706
  8
1PHANTOM
 10
-44.30214643685656
 20
-694.12131943399856
 30
0.0
 11
-44.8387401721277
 21
-693.9920487363687
 31
0.0
  0
LINE
  5
18707
  8
1PHANTOM
 10
-47.154824787443879
 20
-693.43408121958396
 30
0.0
 11
-47.622923242593849
 21
-693.32131170723403
 31
0.0
  0
LINE
  5
18708
  8
1PHANTOM
 10
-47.575739384652593
 20
-696.62131181702091
 30
0.0
 11
-48.075739384652593
 21
-696.52131065362369
 31
0.0
  0
LINE
  5
18709
  8
1PHANTOM
 10
-47.575739384652593
 20
-695.021311817021
 30
0.0
 11
-48.075739384652593
 21
-694.92131065362378
 31
0.0
  0
LINE
  5
1870A
  8
1PHANTOM
 10
-46.7129378939145
 20
-691.87274855727856
 30
0.0
 11
-47.170109734545569
 21
-691.72131276083815
 31
0.0
  0
LINE
  5
1870B
  8
1PHANTOM
 10
-47.622923242593849
 20
-693.32131170723403
 30
0.0
 11
-44.754960541263351
 21
-692.52131838039293
 31
0.0
  0
LINE
  5
1870C
  8
1PHANTOM
 10
-48.075739384652593
 20
-696.52131065362369
 30
0.0
 11
-44.075739384652593
 21
-695.72131996080122
 31
0.0
  0
LINE
  5
1870D
  8
1PHANTOM
 10
-48.075739384652593
 20
-694.92131065362378
 30
0.0
 11
-44.30214643685656
 21
-694.12131943399856
 31
0.0
  0
LINE
  5
1870E
  8
1PHANTOM
 10
-48.075739384652593
 20
-698.12131065362371
 30
0.0
 11
-44.075739384652593
 21
-697.32131996080125
 31
0.0
  0
LINE
  5
1870F
  8
1PHANTOM
 10
-48.075739384652593
 20
-710.92131065362821
 30
0.0
 11
-44.075739384652593
 21
-710.12131996080996
 31
0.0
  0
LINE
  5
18710
  8
1PHANTOM
 10
-44.075739384652593
 20
-710.12131996080996
 30
0.0
 11
-44.575739384652593
 21
-710.02131879741216
 31
0.0
  0
LINE
  5
18711
  8
1PHANTOM
 10
-47.575739384652593
 20
-709.42131181702155
 30
0.0
 11
-48.075739384652593
 21
-709.32131065362375
 31
0.0
  0
LINE
  5
18712
  8
1PHANTOM
 10
-44.075739384652593
 20
-711.72131996081009
 30
0.0
 11
-44.575739384652593
 21
-711.62131879741241
 31
0.0
  0
LINE
  5
18713
  8
1PHANTOM
 10
-44.075739384652593
 20
-713.32131996081
 30
0.0
 11
-44.575739384652593
 21
-713.22131879741232
 31
0.0
  0
LINE
  5
18714
  8
1PHANTOM
 10
-47.575739384652593
 20
-711.02131181702589
 30
0.0
 11
-48.075739384652593
 21
-710.92131065362821
 31
0.0
  0
LINE
  5
18715
  8
1PHANTOM
 10
-47.575739384652593
 20
-712.62131181702603
 30
0.0
 11
-48.075739384652593
 21
-712.52131065362835
 31
0.0
  0
LINE
  5
18716
  8
1PHANTOM
 10
-48.075739384652593
 20
-712.52131065362835
 30
0.0
 11
-44.075739384652593
 21
-711.72131996081009
 31
0.0
  0
LINE
  5
18717
  8
1PHANTOM
 10
-44.075739384652593
 20
-705.32131996080545
 30
0.0
 11
-44.575739384652593
 21
-705.22131879740789
 31
0.0
  0
LINE
  5
18718
  8
1PHANTOM
 10
-44.075739384652593
 20
-703.72131996080122
 30
0.0
 11
-44.575739384652593
 21
-703.62131879740411
 31
0.0
  0
LINE
  5
18719
  8
1PHANTOM
 10
-44.075739384652593
 20
-708.5213199608055
 30
0.0
 11
-44.575739384652593
 21
-708.42131879740793
 31
0.0
  0
LINE
  5
1871A
  8
1PHANTOM
 10
-44.075739384652593
 20
-706.9213199608057
 30
0.0
 11
-44.575739384652593
 21
-706.82131879740803
 31
0.0
  0
LINE
  5
1871B
  8
1PHANTOM
 10
-47.575739384652593
 20
-703.021311817021
 30
0.0
 11
-48.075739384652593
 21
-702.92131065362378
 31
0.0
  0
LINE
  5
1871C
  8
1PHANTOM
 10
-47.575739384652593
 20
-704.62131181702148
 30
0.0
 11
-48.075739384652593
 21
-704.5213106536238
 31
0.0
  0
LINE
  5
1871D
  8
1PHANTOM
 10
-47.575739384652593
 20
-707.82131181702164
 30
0.0
 11
-48.075739384652593
 21
-707.72131065362385
 31
0.0
  0
LINE
  5
1871E
  8
1PHANTOM
 10
-47.575739384652593
 20
-706.22131181702139
 30
0.0
 11
-48.075739384652593
 21
-706.12131065362382
 31
0.0
  0
LINE
  5
1871F
  8
1PHANTOM
 10
-48.075739384652593
 20
-706.12131065362382
 30
0.0
 11
-44.075739384652593
 21
-705.32131996080545
 31
0.0
  0
LINE
  5
18720
  8
1PHANTOM
 10
-48.075739384652593
 20
-704.5213106536238
 30
0.0
 11
-44.075739384652593
 21
-703.72131996080122
 31
0.0
  0
LINE
  5
18721
  8
1PHANTOM
 10
-48.075739384652593
 20
-707.72131065362385
 30
0.0
 11
-44.075739384652593
 21
-706.9213199608057
 31
0.0
  0
LINE
  5
18722
  8
1PHANTOM
 10
-48.075739384652593
 20
-709.32131065362375
 30
0.0
 11
-44.075739384652593
 21
-708.5213199608055
 31
0.0
  0
LINE
  5
18723
  8
1PHANTOM
 10
-44.575739384652593
 20
-719.62131879729873
 30
0.0
 11
-47.575739384652358
 21
-719.62131181691404
 31
0.0
  0
LINE
  5
18724
  8
1PHANTOM
 10
-47.575739384652593
 20
-719.0213118170301
 30
0.0
 11
-48.075739384652593
 21
-718.92131065363242
 31
0.0
  0
LINE
  5
18725
  8
1PHANTOM
 10
-48.075739384652593
 20
-718.92131065363242
 30
0.0
 11
-44.075739384652593
 21
-718.12131996081416
 31
0.0
  0
LINE
  5
18726
  8
1PHANTOM
 10
-44.075739384652593
 20
-718.12131996081416
 30
0.0
 11
-44.575739384652593
 21
-718.02131879741648
 31
0.0
  0
LINE
  5
18727
  8
1PHANTOM
 10
-47.575739384652593
 20
-717.42131181703007
 30
0.0
 11
-48.075739384652593
 21
-717.32131065363251
 31
0.0
  0
LINE
  5
18728
  8
1PHANTOM
 10
-47.575739384652593
 20
-715.82131181703016
 30
0.0
 11
-48.075739384652593
 21
-715.7213106536326
 31
0.0
  0
LINE
  5
18729
  8
1PHANTOM
 10
-48.075739384652593
 20
-715.7213106536326
 30
0.0
 11
-44.075739384652593
 21
-714.92131996081434
 31
0.0
  0
LINE
  5
1872A
  8
1PHANTOM
 10
-44.075739384652593
 20
-716.52131996081425
 30
0.0
 11
-44.575739384652593
 21
-716.42131879741657
 31
0.0
  0
LINE
  5
1872B
  8
1PHANTOM
 10
-44.075739384652593
 20
-714.92131996081434
 30
0.0
 11
-44.575739384652593
 21
-714.82131879741667
 31
0.0
  0
LINE
  5
1872C
  8
1PHANTOM
 10
-48.075739384652593
 20
-717.32131065363251
 30
0.0
 11
-44.075739384652593
 21
-716.52131996081425
 31
0.0
  0
LINE
  5
1872D
  8
1PHANTOM
 10
-47.575739384652593
 20
-714.22131181702593
 30
0.0
 11
-48.075739384652593
 21
-714.12131065362826
 31
0.0
  0
LINE
  5
1872E
  8
1PHANTOM
 10
-49.87578592055047
 20
-719.62131530699799
 30
0.0
 11
-49.87578592055047
 21
-718.6213153069981
 31
0.0
  0
LINE
  5
1872F
  8
1PHANTOM
 10
-42.275785920550547
 20
-719.62131530699799
 30
0.0
 11
-42.275785920550547
 21
-718.6213153069981
 31
0.0
  0
LINE
  5
18730
  8
1PHANTOM
 10
-45.575786070550507
 20
-719.62131530699799
 30
0.0
 11
-46.575785770550503
 21
-718.6213153069981
 31
0.0
  0
LINE
  5
18731
  8
1PHANTOM
 10
-42.275785920550547
 20
-719.62131530699799
 30
0.0
 11
-49.87578592055047
 21
-719.62131530699799
 31
0.0
  0
LINE
  5
18732
  8
1PHANTOM
 10
-42.275785920550547
 20
-718.6213153069981
 30
0.0
 11
-49.87578592055047
 21
-718.6213153069981
 31
0.0
  0
CIRCLE
  5
18734
  8
01
 10
-46.075785920550508
 20
-873.37131530700606
 30
0.0
 40
2.5
  0
LINE
  5
18735
  8
1CENTER
 10
-46.075785920550508
 20
-876.37131530700583
 30
0.0
 11
-46.075785920550508
 21
-870.37131530700594
 31
0.0
  0
LINE
  5
18736
  8
1CENTER
 10
-49.075785920550523
 20
-873.37131530700594
 30
0.0
 11
-43.075785920550508
 21
-873.37131530700594
 31
0.0
  0
LINE
  5
188D8
  8
01
 10
450.42421407944721
 20
-830.62131530699821
 30
0.0
 11
450.42421407944721
 21
-910.62131530699776
 31
0.0
  0
LINE
  5
188DA
  8
01
 10
441.42421407944721
 20
-830.62131530699821
 30
0.0
 11
441.42421407944721
 21
-910.62131530699776
 31
0.0
  0
LINE
  5
188DB
  8
1CENTER
 10
443.42421407944852
 20
-873.37131530700685
 30
0.0
 11
461.42421407944857
 21
-873.37131530700685
 31
0.0
  0
LINE
  5
188DC
  8
01
 10
432.92421407944943
 20
-877.1213153070064
 30
0.0
 11
324.92421407944857
 21
-877.1213153070064
 31
0.0
  0
LINE
  5
188DD
  8
01
 10
432.92421407944943
 20
-869.1213153070064
 30
0.0
 11
324.92421407944948
 21
-869.1213153070064
 31
0.0
  0
LINE
  5
188DE
  8
01
 10
323.92421407944857
 20
-870.12131530700663
 30
0.0
 11
323.92421407944857
 21
-876.12131530700731
 31
0.0
  0
LINE
  5
188DF
  8
01
 10
323.92421407944857
 20
-876.1213153070064
 30
0.0
 11
324.92421407944857
 21
-877.1213153070064
 31
0.0
  0
LINE
  5
188E0
  8
01
 10
324.92421407944857
 20
-869.1213153070064
 30
0.0
 11
323.92421407944857
 21
-870.12131530700663
 31
0.0
  0
LINE
  5
188E1
  8
01
 10
412.92421407944943
 20
-864.12131530700651
 30
0.0
 11
440.92421407945119
 21
-864.12131530699924
 31
0.0
  0
LINE
  5
188E2
  8
1PHANTOM
 10
440.62421756942422
 20
-871.87136184290455
 30
0.0
 11
440.72421873282201
 21
-871.37136184290455
 31
0.0
  0
LINE
  5
188E3
  8
1CENTER
 10
471.38512867060211
 20
-873.3713153070064
 30
0.0
 11
434.75393767014788
 21
-873.3713153070064
 31
0.0
  0
LINE
  5
188E4
  8
1PHANTOM
 10
463.12421058904869
 20
-874.87136184290455
 30
0.0
 11
438.42421058915619
 21
-874.87136184290455
 31
0.0
  0
LINE
  5
188E5
  8
1PHANTOM
 10
463.1242175694324
 20
-871.87136184290455
 30
0.0
 11
438.4242175695407
 21
-871.87136184290455
 31
0.0
  0
LINE
  5
188E6
  8
01
 10
440.92421407943681
 20
-887.6213153070064
 30
0.0
 11
412.92421407944943
 21
-887.6213153070064
 31
0.0
  0
LINE
  5
188E7
  8
01
 10
411.92421407944948
 20
-865.12131530700651
 30
0.0
 11
411.92421407944948
 21
-868.62131530700651
 31
0.0
  0
LINE
  5
188E8
  8
01
 10
434.92421407944943
 20
-870.12131530700663
 30
0.0
 11
434.92421407944943
 21
-876.62131530700651
 31
0.0
  0
LINE
  5
188E9
  8
1PHANTOM
 10
438.4242222232387
 20
-869.8713153070064
 30
0.0
 11
438.4242175695407
 21
-871.87136184290455
 31
0.0
  0
ARC
  5
188EA
  8
1PHANTOM
 10
437.32421873304338
 20
-871.37131530700651
 30
0.0
 40
1.5
 50
90.0
 51
179.99986668446189
  0
LINE
  5
188EB
  8
1PHANTOM
 10
439.4242140794567
 20
-869.5713153070036
 30
0.0
 11
439.4242140794567
 21
-870.8713153070064
 31
0.0
  0
LINE
  5
188EC
  8
1PHANTOM
 10
439.4242140794567
 20
-877.17131530700658
 30
0.0
 11
439.4242140794567
 21
-869.57131530700622
 31
0.0
  0
LINE
  5
188ED
  8
1PHANTOM
 10
438.4242140794567
 20
-877.17131530700658
 30
0.0
 11
438.4242140794567
 21
-869.57131530700622
 31
0.0
  0
LINE
  5
188EE
  8
01
 10
433.92421407944943
 20
-877.62131530700651
 30
0.0
 11
412.42421407944943
 21
-877.62131530700651
 31
0.0
  0
ARC
  5
188EF
  8
01
 10
412.42421407944943
 20
-878.12131530700663
 30
0.0
 40
0.5
 50
90.0
 51
180.0
  0
LINE
  5
188F0
  8
1PHANTOM
 10
439.4242140794567
 20
-871.32131530700622
 30
0.0
 11
438.4242140794567
 21
-871.32131530700622
 31
0.0
  0
LINE
  5
188F1
  8
1PHANTOM
 10
440.22972989739901
 20
-873.3713153070064
 30
0.0
 11
437.60062337144791
 21
-873.3713153070064
 31
0.0
  0
LINE
  5
188F2
  8
1PHANTOM
 10
439.02421756942471
 20
-871.87136184290455
 30
0.0
 11
439.1242187328225
 21
-871.37136184290455
 31
0.0
  0
LINE
  5
188F3
  8
1PHANTOM
 10
439.4242140794567
 20
-875.42131530700658
 30
0.0
 11
438.42421407945579
 21
-875.42131530700658
 31
0.0
  0
LINE
  5
188F4
  8
1PHANTOM
 10
439.4242140794567
 20
-877.17131530700658
 30
0.0
 11
438.4242140794567
 21
-877.17131530700658
 31
0.0
  0
LINE
  5
188F5
  8
1PHANTOM
 10
439.92420942564058
 20
-875.37136184290455
 30
0.0
 11
440.02421058903838
 21
-874.87136184290455
 31
0.0
  0
LINE
  5
188F6
  8
1PHANTOM
 10
438.42421058915619
 20
-874.87136184290455
 30
0.0
 11
438.42420593567471
 21
-876.87131530700651
 31
0.0
  0
LINE
  5
188F7
  8
1PHANTOM
 10
438.42420593567471
 20
-876.87131530700651
 30
0.0
 11
437.3242094258639
 21
-876.87131530700651
 31
0.0
  0
ARC
  5
188F8
  8
1PHANTOM
 10
437.3242094258639
 20
-875.3713153070064
 30
0.0
 40
1.5
 50
179.99986668446189
 51
270.0
  0
ARC
  5
188F9
  8
01
 10
433.92421407944943
 20
-876.62131530700651
 30
0.0
 40
1.0
 50
270.0
 51
0.0
  0
LINE
  5
188FA
  8
1PHANTOM
 10
439.4242140794567
 20
-875.87131530700651
 30
0.0
 11
439.4242140794567
 21
-877.17131530700215
 31
0.0
  0
LINE
  5
188FB
  8
01
 10
433.92421407944943
 20
-876.1213153070064
 30
0.0
 11
432.92421407944943
 21
-877.1213153070064
 31
0.0
  0
LINE
  5
188FC
  8
1PHANTOM
 10
438.42421058915619
 20
-874.87136184290455
 30
0.0
 11
438.4242175695407
 21
-871.87136184290455
 31
0.0
  0
LINE
  5
188FD
  8
1PHANTOM
 10
439.1242187328225
 20
-871.37136184290455
 30
0.0
 11
439.92420942564058
 21
-875.37136184290455
 31
0.0
  0
LINE
  5
188FE
  8
1PHANTOM
 10
435.82421873304691
 20
-871.37131181681423
 30
0.0
 11
435.82420942586759
 21
-875.37131181681434
 31
0.0
  0
LINE
  5
188FF
  8
01
 10
433.92421407944943
 20
-869.1213153070064
 30
0.0
 11
412.42421407944943
 21
-869.1213153070064
 31
0.0
  0
ARC
  5
18900
  8
01
 10
412.42421407944943
 20
-868.62131530700651
 30
0.0
 40
0.5
 50
180.0
 51
270.0
  0
LINE
  5
18901
  8
1PHANTOM
 10
439.4242140794567
 20
-869.57131530700622
 30
0.0
 11
438.4242140794567
 21
-869.57131530700622
 31
0.0
  0
LINE
  5
18902
  8
1PHANTOM
 10
438.4242222232387
 20
-869.8713153070064
 30
0.0
 11
437.32421873304338
 21
-869.8713153070064
 31
0.0
  0
ARC
  5
18903
  8
01
 10
433.92421407944943
 20
-870.12131530700663
 30
0.0
 40
1.0
 50
0.0
 51
90.0
  0
LINE
  5
18904
  8
01
 10
433.92421407944943
 20
-870.12131530700663
 30
0.0
 11
432.92421407944943
 21
-869.1213153070064
 31
0.0
  0
ARC
  5
18905
  8
01
 10
412.92421407944943
 20
-886.62131530700651
 30
0.0
 40
1.0
 50
180.0
 51
270.0
  0
LINE
  5
18906
  8
01
 10
411.92421407944948
 20
-878.12131530700663
 30
0.0
 11
411.92421407944948
 21
-886.62131530700651
 31
0.0
  0
ARC
  5
18907
  8
01
 10
412.92421407944943
 20
-865.12131530700651
 30
0.0
 40
1.0
 50
90.0
 51
180.0
  0
LINE
  5
18908
  8
01
 10
441.42421407945119
 20
-864.62131530699912
 30
0.0
 11
441.42421407943669
 21
-887.12131530700651
 31
0.0
  0
LINE
  5
18909
  8
1PHANTOM
 10
464.7242176792206
 20
-871.82417798496306
 30
0.0
 11
465.52421100606159
 21
-874.69214068629378
 31
0.0
  0
LINE
  5
1890A
  8
1PHANTOM
 10
468.4242140792939
 20
-873.37136184290455
 30
0.0
 11
463.1242175694324
 21
-871.87136184290455
 31
0.0
  0
LINE
  5
1890B
  8
1PHANTOM
 10
468.4242140792939
 20
-873.37136184290455
 30
0.0
 11
463.12421058904869
 21
-874.87136184290455
 31
0.0
  0
LINE
  5
1890C
  8
1PHANTOM
 10
451.92421873283092
 20
-871.37136184290455
 30
0.0
 11
452.72420942564889
 21
-875.37136184290455
 31
0.0
  0
LINE
  5
1890D
  8
1PHANTOM
 10
448.62421756943331
 20
-871.87136184290455
 30
0.0
 11
448.7242187328311
 21
-871.37136184290455
 31
0.0
  0
LINE
  5
1890E
  8
1PHANTOM
 10
450.22421756943271
 20
-871.87136184290455
 30
0.0
 11
450.3242187328305
 21
-871.37136184290455
 31
0.0
  0
LINE
  5
1890F
  8
1PHANTOM
 10
451.82421756943307
 20
-871.87136184290455
 30
0.0
 11
451.92421873283092
 21
-871.37136184290455
 31
0.0
  0
LINE
  5
18910
  8
1PHANTOM
 10
447.92420942564411
 20
-875.37136184290455
 30
0.0
 11
448.02421058904201
 21
-874.87136184290455
 31
0.0
  0
LINE
  5
18911
  8
1PHANTOM
 10
449.52420942564908
 20
-875.37136184290455
 30
0.0
 11
449.62421058904692
 21
-874.87136184290455
 31
0.0
  0
LINE
  5
18912
  8
1PHANTOM
 10
451.12420942564859
 20
-875.37136184290455
 30
0.0
 11
451.22421058904638
 21
-874.87136184290455
 31
0.0
  0
LINE
  5
18913
  8
1PHANTOM
 10
450.3242187328305
 20
-871.37136184290455
 30
0.0
 11
451.12420942564859
 21
-875.37136184290455
 31
0.0
  0
LINE
  5
18914
  8
1PHANTOM
 10
448.7242187328311
 20
-871.37136184290455
 30
0.0
 11
449.52420942564908
 21
-875.37136184290455
 31
0.0
  0
LINE
  5
18915
  8
1PHANTOM
 10
447.02421756942829
 20
-871.87136184290455
 30
0.0
 11
447.12421873282619
 21
-871.37136184290455
 31
0.0
  0
LINE
  5
18916
  8
1PHANTOM
 10
445.42421756942889
 20
-871.87136184290455
 30
0.0
 11
445.52421873282577
 21
-871.37136184290455
 31
0.0
  0
LINE
  5
18917
  8
1PHANTOM
 10
446.32420942564482
 20
-875.37136184290455
 30
0.0
 11
446.4242105890425
 21
-874.87136184290455
 31
0.0
  0
LINE
  5
18918
  8
1PHANTOM
 10
444.7242094256444
 20
-875.37136184290455
 30
0.0
 11
444.8242105890422
 21
-874.87136184290455
 31
0.0
  0
LINE
  5
18919
  8
1PHANTOM
 10
443.92421873282638
 20
-871.37136184290455
 30
0.0
 11
444.7242094256444
 21
-875.37136184290455
 31
0.0
  0
LINE
  5
1891A
  8
1PHANTOM
 10
445.52421873282577
 20
-871.37136184290455
 30
0.0
 11
446.32420942564482
 21
-875.37136184290455
 31
0.0
  0
LINE
  5
1891B
  8
1PHANTOM
 10
447.12421873282619
 20
-871.37136184290455
 30
0.0
 11
447.92420942564411
 21
-875.37136184290455
 31
0.0
  0
LINE
  5
1891C
  8
1PHANTOM
 10
453.42421756943253
 20
-871.87136184290455
 30
0.0
 11
453.52421873283038
 21
-871.37136184290455
 31
0.0
  0
LINE
  5
1891D
  8
1PHANTOM
 10
458.22421756943368
 20
-871.87136184290455
 30
0.0
 11
458.32421873283062
 21
-871.37136184290455
 31
0.0
  0
LINE
  5
1891E
  8
1PHANTOM
 10
456.62421756943331
 20
-871.87136184290455
 30
0.0
 11
456.7242187328311
 21
-871.37136184290455
 31
0.0
  0
LINE
  5
1891F
  8
1PHANTOM
 10
455.0242175694338
 20
-871.87136184290455
 30
0.0
 11
455.12421873283068
 21
-871.37136184290455
 31
0.0
  0
LINE
  5
18920
  8
1PHANTOM
 10
452.72420942564889
 20
-875.37136184290455
 30
0.0
 11
452.82421058904669
 21
-874.87136184290455
 31
0.0
  0
LINE
  5
18921
  8
1PHANTOM
 10
454.3242094256529
 20
-875.37136184290455
 30
0.0
 11
454.42421058905069
 21
-874.87136184290455
 31
0.0
  0
LINE
  5
18922
  8
1PHANTOM
 10
455.92420942565332
 20
-875.37136184290455
 30
0.0
 11
456.0242105890502
 21
-874.87136184290455
 31
0.0
  0
LINE
  5
18923
  8
1PHANTOM
 10
457.52420942565368
 20
-875.37136184290455
 30
0.0
 11
457.62421058905051
 21
-874.87136184290455
 31
0.0
  0
LINE
  5
18924
  8
1PHANTOM
 10
453.52421873283038
 20
-871.37136184290455
 30
0.0
 11
454.3242094256529
 21
-875.37136184290455
 31
0.0
  0
LINE
  5
18925
  8
1PHANTOM
 10
455.12421873283068
 20
-871.37136184290455
 30
0.0
 11
455.92420942565332
 21
-875.37136184290455
 31
0.0
  0
LINE
  5
18926
  8
1PHANTOM
 10
458.32421873283062
 20
-871.37136184290455
 30
0.0
 11
459.12420942565308
 21
-875.37136184290455
 31
0.0
  0
LINE
  5
18927
  8
1PHANTOM
 10
456.7242187328311
 20
-871.37136184290455
 30
0.0
 11
457.52420942565368
 21
-875.37136184290455
 31
0.0
  0
LINE
  5
18928
  8
1PHANTOM
 10
459.12420942565308
 20
-875.37136184290455
 30
0.0
 11
459.22421058905093
 21
-874.87136184290455
 31
0.0
  0
LINE
  5
18929
  8
1PHANTOM
 10
459.82421756943307
 20
-871.87136184290455
 30
0.0
 11
459.92421873283092
 21
-871.37136184290455
 31
0.0
  0
LINE
  5
1892A
  8
1PHANTOM
 10
462.3242094256529
 20
-875.37136184290455
 30
0.0
 11
462.42421058905069
 21
-874.87136184290455
 31
0.0
  0
LINE
  5
1892B
  8
1PHANTOM
 10
460.7242094256535
 20
-875.37136184290455
 30
0.0
 11
460.82421058905038
 21
-874.87136184290455
 31
0.0
  0
LINE
  5
1892C
  8
1PHANTOM
 10
463.92420995245629
 20
-875.14495479070035
 30
0.0
 11
464.05348065008548
 21
-874.60836105542955
 31
0.0
  0
LINE
  5
1892D
  8
1PHANTOM
 10
464.6114481668701
 20
-872.29227644011269
 30
0.0
 11
464.7242176792206
 21
-871.82417798496306
 31
0.0
  0
LINE
  5
1892E
  8
1PHANTOM
 10
461.42421756943349
 20
-871.87136184290455
 30
0.0
 11
461.52421873283038
 21
-871.37136184290455
 31
0.0
  0
LINE
  5
1892F
  8
1PHANTOM
 10
463.02421756943392
 20
-871.87136184290455
 30
0.0
 11
463.12421873283068
 21
-871.37136184290455
 31
0.0
  0
LINE
  5
18930
  8
1PHANTOM
 10
461.52421873283038
 20
-871.37136184290455
 30
0.0
 11
462.3242094256529
 21
-875.37136184290455
 31
0.0
  0
LINE
  5
18931
  8
1PHANTOM
 10
463.12421873283068
 20
-871.37136184290455
 30
0.0
 11
463.92420995245629
 21
-875.14495479070035
 31
0.0
  0
LINE
  5
18932
  8
1PHANTOM
 10
459.92421873283092
 20
-871.37136184290455
 30
0.0
 11
460.7242094256535
 21
-875.37136184290455
 31
0.0
  0
LINE
  5
18933
  8
1PHANTOM
 10
467.12421205966712
 20
-874.2393265818863
 30
0.0
 11
467.435981915919
 21
-873.65105000684423
 31
0.0
  0
LINE
  5
18934
  8
1PHANTOM
 10
465.52421100606159
 20
-874.69214068629378
 30
0.0
 11
465.70697514868971
 21
-874.14039122249028
 31
0.0
  0
LINE
  5
18935
  8
1PHANTOM
 10
466.17278082917619
 20
-872.73416333364253
 30
0.0
 11
466.32421662561592
 21
-872.27699149301111
 31
0.0
  0
LINE
  5
18936
  8
1PHANTOM
 10
466.32421662561592
 20
-872.27699149301111
 30
0.0
 11
467.12421205966712
 21
-874.2393265818863
 31
0.0
  0
LINE
  5
18937
  8
1PHANTOM
 10
443.12420942564029
 20
-875.37136184290455
 30
0.0
 11
443.22421058903819
 21
-874.87136184290455
 31
0.0
  0
LINE
  5
18938
  8
1PHANTOM
 10
442.22421756942452
 20
-871.87136184290455
 30
0.0
 11
442.32421873282237
 21
-871.37136184290455
 31
0.0
  0
LINE
  5
18939
  8
1PHANTOM
 10
441.52420942563998
 20
-875.37136184290455
 30
0.0
 11
441.62421058903777
 21
-874.87136184290455
 31
0.0
  0
LINE
  5
1893A
  8
1PHANTOM
 10
440.72421873282201
 20
-871.37136184290455
 30
0.0
 11
441.52420942563998
 21
-875.37136184290455
 31
0.0
  0
LINE
  5
1893B
  8
1PHANTOM
 10
442.32421873282237
 20
-871.37136184290455
 30
0.0
 11
443.12420942564029
 21
-875.37136184290455
 31
0.0
  0
ARC
  5
1893C
  8
01
 10
440.92421407943681
 20
-887.12131530700651
 30
0.0
 40
0.5
 50
270.0
 51
359.99999999996089
  0
ARC
  5
1893E
  8
01
 10
440.92421407945119
 20
-864.62131530699912
 30
0.0
 40
0.5
 50
359.99999999996089
 51
90.000000000026048
  0
LINE
  5
18945
  8
01
 10
433.92421407944943
 20
-876.1213153070064
 30
0.0
 11
433.92421407944943
 21
-870.12131530700663
 31
0.0
  0
LINE
  5
1894B
  8
1PHANTOM
 10
416.72421407944961
 20
-877.12131530700685
 30
0.0
 11
423.1242140794493
 21
-877.12131530700594
 31
0.0
  0
LINE
  5
1894C
  8
1PHANTOM
 10
416.55421407944959
 20
-879.12131530700685
 30
0.0
 11
423.29421407944932
 21
-879.12131530700685
 31
0.0
  0
LINE
  5
1894D
  8
1PHANTOM
 10
416.72421407944961
 20
-877.12131530700685
 30
0.0
 11
416.72421407944961
 21
-879.12131530700685
 31
0.0
  0
LINE
  5
1894E
  8
1PHANTOM
 10
423.1242140794493
 20
-877.12131530700685
 30
0.0
 11
423.1242140794493
 21
-879.12131530700685
 31
0.0
  0
LINE
  5
1894F
  8
1PHANTOM
 10
415.92421407944948
 20
-879.75131530700696
 30
0.0
 11
423.92421407944948
 21
-879.75131530700696
 31
0.0
  0
LINE
  5
18950
  8
1PHANTOM
 10
416.55421407944959
 20
-887.12131530700685
 30
0.0
 11
423.29421407944932
 21
-887.12131530700685
 31
0.0
  0
LINE
  5
18951
  8
1PHANTOM
 10
415.92421407944948
 20
-886.49131530700674
 30
0.0
 11
423.92421407944948
 21
-886.49131530700674
 31
0.0
  0
LINE
  5
18952
  8
1PHANTOM
 10
416.55421407944959
 20
-887.12131530700685
 30
0.0
 11
415.92421407944948
 21
-886.49131530700674
 31
0.0
  0
LINE
  5
18953
  8
1PHANTOM
 10
415.92421407944948
 20
-879.75131530700696
 30
0.0
 11
415.92421407944948
 21
-886.49131530700504
 31
0.0
  0
LINE
  5
18954
  8
1PHANTOM
 10
415.92421407944948
 20
-879.75131530700696
 30
0.0
 11
415.92421407944948
 21
-886.49131530700674
 31
0.0
  0
LINE
  5
18955
  8
1PHANTOM
 10
423.29421407944932
 20
-887.12131530700685
 30
0.0
 11
423.92421407944948
 21
-886.49131530700674
 31
0.0
  0
LINE
  5
18956
  8
1PHANTOM
 10
423.92421407944948
 20
-879.75131530700696
 30
0.0
 11
423.92421407944948
 21
-886.49131530700504
 31
0.0
  0
LINE
  5
18957
  8
1PHANTOM
 10
423.92421407944948
 20
-879.75131530700696
 30
0.0
 11
423.92421407944948
 21
-886.49131530700674
 31
0.0
  0
LINE
  5
18958
  8
1PHANTOM
 10
416.55421407944959
 20
-879.12131530700685
 30
0.0
 11
415.92421407944948
 21
-879.75131530700696
 31
0.0
  0
LINE
  5
18959
  8
1PHANTOM
 10
416.55421407944959
 20
-879.12131530700685
 30
0.0
 11
416.55421407944959
 21
-887.12131530700685
 31
0.0
  0
LINE
  5
1895A
  8
1PHANTOM
 10
423.92421407944948
 20
-879.75131530700696
 30
0.0
 11
423.29421407944932
 21
-879.12131530700685
 31
0.0
  0
LINE
  5
1895B
  8
1CENTER
 10
419.92421407944948
 20
-876.35676465013182
 30
0.0
 11
419.92421407944948
 21
-887.90926038573275
 31
0.0
  0
LINE
  5
1895C
  8
1PHANTOM
 10
423.29421407944932
 20
-879.12131530700685
 30
0.0
 11
423.29421407944932
 21
-887.12131530700685
 31
0.0
  0
LINE
  5
18BC0
  8
1DIM1
 10
273.92421407944857
 20
-725.1213153070056
 30
0.0
 11
273.92421407944857
 21
-673.6213153070056
 31
0.0
  0
LINE
  5
18BC1
  8
1DIM1
 10
223.92421407944951
 20
-716.62131530699855
 30
0.0
 11
223.92421407944951
 21
-673.6213153070056
 31
0.0
  0
LINE
  5
18BC2
  8
1DIM1
 10
267.92421407944857
 20
-676.62131530700549
 30
0.0
 11
229.92421407944951
 21
-676.62131530700549
 31
0.0
  0
LINE
  5
18BC6
  8
1DIM1
 10
-126.07578592054961
 20
-725.1213153070056
 30
0.0
 11
-126.07578592054961
 21
-673.6213153070056
 31
0.0
  0
LINE
  5
18BC7
  8
1DIM1
 10
-76.075785920550516
 20
-716.62131530699855
 30
0.0
 11
-76.075785920550516
 21
-673.6213153070056
 31
0.0
  0
LINE
  5
18BC8
  8
1DIM1
 10
-120.07578592054961
 20
-676.62131530700549
 30
0.0
 11
-82.075785920550516
 21
-676.62131530700549
 31
0.0
  0
LINE
  5
18BCC
  8
1DIM1
 10
-76.075785920550516
 20
-716.62131530699855
 30
0.0
 11
-76.075785920550516
 21
-673.6213153070056
 31
0.0
  0
LINE
  5
18BCD
  8
1DIM1
 10
223.92421407944951
 20
-716.62131530700492
 30
0.0
 11
223.92421407944951
 21
-673.6213153070056
 31
0.0
  0
LINE
  5
18BCE
  8
1DIM1
 10
-70.075785920550516
 20
-676.62131530700549
 30
0.0
 11
217.92421407944951
 21
-676.62131530700549
 31
0.0
  0
LINE
  5
18BD2
  8
1DIM
 10
441.42421407943669
 20
-887.12131530700651
 30
0.0
 11
441.42421407943669
 21
-898.62131530700663
 31
0.0
  0
LINE
  5
18BD3
  8
1DIM
 10
419.92421407944948
 20
-887.90926038573275
 30
0.0
 11
419.92421407944948
 21
-898.62131530700663
 31
0.0
  0
LINE
  5
18BD4
  8
1DIM
 10
439.42421407943669
 20
-897.6213153070064
 30
0.0
 11
421.92421407944943
 21
-897.6213153070064
 31
0.0
  0
LINE
  5
18BD8
  8
1DIM
 10
324.92421407944857
 20
-869.1213153070064
 30
0.0
 11
312.92421407944869
 21
-869.1213153070064
 31
0.0
  0
LINE
  5
18BD9
  8
1DIM
 10
324.92421407944857
 20
-877.1213153070064
 30
0.0
 11
312.92421407944869
 21
-877.1213153070064
 31
0.0
  0
LINE
  5
18BDA
  8
1DIM
 10
313.92421407944869
 20
-871.12131530700651
 30
0.0
 11
313.92421407944869
 21
-875.1213153070064
 31
0.0
  0
LINE
  5
18BDE
  8
1DIM
 10
324.92421407944857
 20
-869.1213153070064
 30
0.0
 11
312.92421407944869
 21
-869.1213153070064
 31
0.0
  0
LINE
  5
18BDF
  8
1DIM
 10
412.9242140794492
 20
-864.12131530700651
 30
0.0
 11
312.92421407944869
 21
-864.12131530700651
 31
0.0
  0
LINE
  5
18BE0
  8
1DIM
 10
313.92421407944869
 20
-871.12131530700651
 30
0.0
 11
313.92421407944869
 21
-873.12131530700651
 31
0.0
  0
LINE
  5
18BE1
  8
1DIM
 10
313.92421407944869
 20
-862.12131530700651
 30
0.0
 11
313.92421407944869
 21
-856.38798197367305
 31
0.0
  0
LINE
  5
18BE2
  8
1DIM
 10
313.92421407944869
 20
-869.1213153070064
 30
0.0
 11
313.92421407944869
 21
-864.12131530700651
 31
0.0
  0
LINE
  5
18BE6
  8
1DIM
 10
412.92421407944943
 20
-887.6213153070064
 30
0.0
 11
302.92421407944869
 21
-887.6213153070064
 31
0.0
  0
LINE
  5
18BE7
  8
1DIM
 10
412.9242140794492
 20
-864.12131530700651
 30
0.0
 11
302.92421407944869
 21
-864.12131530700651
 31
0.0
  0
LINE
  5
18BE8
  8
1DIM
 10
303.92421407944869
 20
-885.62131530700651
 30
0.0
 11
303.92421407944869
 21
-866.12131530700651
 31
0.0
  0
LINE
  5
18BEC
  8
1DIM
 10
471.38512867060211
 20
-873.3713153070064
 30
0.0
 11
482.42421407944721
 21
-873.3713153070064
 31
0.0
  0
LINE
  5
18BED
  8
1DIM
 10
440.92421407945108
 20
-864.12131530699924
 30
0.0
 11
482.42421407944721
 21
-864.12131530699924
 31
0.0
  0
LINE
  5
18BEE
  8
1DIM
 10
481.42421407944721
 20
-871.37131530700651
 30
0.0
 11
481.42421407944721
 21
-866.12131530699924
 31
0.0
  0
LINE
  5
18BF2
  8
1DIM
 10
441.42421407944721
 20
-910.62131530699776
 30
0.0
 11
441.42421407944721
 21
-906.6213153070064
 31
0.0
  0
LINE
  5
18BF3
  8
1DIM
 10
411.92421407944948
 20
-886.62131530700651
 30
0.0
 11
411.92421407944948
 21
-908.62131530700651
 31
0.0
  0
LINE
  5
18BF4
  8
1DIM
 10
439.42421407944732
 20
-907.62131530700663
 30
0.0
 11
413.92421407944943
 21
-907.62131530700663
 31
0.0
  0
TEXT
  5
18BF8
  8
1DIM
 10
333.95993073835001
 20
-900.815939557761
 30
0.0
 40
3.5
  1
材質：ガラス
  0
SOLID
  5
18BF9
  8
1DIM
 10
376.3308137821208
 20
-878.56933413560489
 30
0.0
 11
377.75993073835002
 21
-877.13102407288227
 31
0.0
 12
376.8745422865839
 22
-878.95508503693759
 32
0.0
 13
376.8745422865839
 23
-878.95508503693759
 33
0.0
  0
TEXT
  5
18BFB
  8
1DIM
 10
447.07931532183949
 20
-808.08440749893271
 30
0.0
 40
3.5
  1
PB
  0
SOLID
  5
18BFC
  8
1DIM
 10
447.98384543348237
 20
-827.23716850262269
 30
0.0
 11
448.00418270152659
 21
-829.26465401592213
 31
0.0
 12
447.32738187609039
 22
-827.35335818486942
 32
0.0
 13
447.32738187609039
 23
-827.35335818486942
 33
0.0
  0
SOLID
  5
18BFE
  8
1DIM
 10
456.04736624601321
 20
-827.24155503272175
 30
0.0
 11
456.50216491546792
 21
-829.21747742020909
 31
0.0
 12
455.43111026463652
 22
-827.49586391943615
 32
0.0
 13
455.43111026463652
 23
-827.49586391943615
 33
0.0
  0
TEXT
  5
18C00
  8
1DIM
 10
453.2466598163781
 20
-814.08575351605657
 30
0.0
 40
3.5
  1
合板9mm以上
  0
LINE
  5
18C01
  8
1HATCH
 10
443.34353816848329
 20
-873.72494120225474
 30
0.0
 11
443.34353816848329
 21
-873.72494120225474
 31
0.0
  0
LINE
  5
18C02
  8
1HATCH
 10
439.70014160372352
 20
-885.91573554055935
 30
0.0
 11
439.70014160372352
 21
-885.91573554055935
 31
0.0
  0
LINE
  5
18C03
  8
1DIM
 10
323.92421407944857
 20
-876.1213153070064
 30
0.0
 11
323.92421407944857
 21
-918.62131530700651
 31
0.0
  0
LINE
  5
18C04
  8
1DIM
 10
441.42421407944721
 20
-887.12131530700651
 30
0.0
 11
441.42421407944721
 21
-918.62131530700651
 31
0.0
  0
LINE
  5
18C05
  8
1DIM
 10
325.92421407944857
 20
-917.62131530700651
 30
0.0
 11
439.42421407944732
 21
-917.62131530700651
 31
0.0
  0
TEXT
  5
18C09
  8
1DIM
 10
378.49199683398689
 20
-925.86338169281601
 30
0.0
 40
3.5
  1
材質：アルミ
  0
TEXT
  5
18C0A
  8
1DIM
 10
348.85866350065362
 20
-931.69671502614926
 30
0.0
 40
3.5
  1
仕上げ：ブラストアルマイト
  0
SOLID
  5
18C0B
  8
1DIM
 10
420.77999507870942
 20
-890.37748125612154
 30
0.0
 11
421.82533016732032
 21
-888.6401310716077
 31
0.0
 12
421.39996460280088
 22
-890.62259803164307
 32
0.0
 13
421.39996460280088
 23
-890.62259803164307
 33
0.0
  0
LINE
  5
18C0D
  8
1PHANTOM
 10
-46.075739384652593
 20
-689.62131530716044
 30
0.0
 11
-47.575739384652593
 21
-694.92131181702212
 31
0.0
  0
LINE
  5
18C0E
  8
1PHANTOM
 10
-47.575739384652593
 20
-694.92131181702212
 30
0.0
 11
-47.575739384652358
 21
-719.62131181691404
 31
0.0
  0
LINE
  5
18C0F
  8
1PHANTOM
 10
-46.075739384652593
 20
-689.62131530716044
 30
0.0
 11
-44.575739384652472
 21
-694.92131879740566
 31
0.0
  0
LINE
  5
18C10
  8
1PHANTOM
 10
-49.575785920550402
 20
-719.62130716321587
 30
0.0
 11
-47.575739384652358
 21
-719.62131181691404
 31
0.0
  0
LINE
  5
18C11
  8
1PHANTOM
 10
-44.575739384652472
 20
-694.92131879740566
 30
0.0
 11
-44.575739384652593
 21
-719.62131879729873
 31
0.0
  0
LINE
  5
18C12
  8
1PHANTOM
 10
-49.575785920550402
 20
-719.62130716321587
 30
0.0
 11
-49.575785920550508
 21
-720.72131065341125
 31
0.0
  0
LINE
  5
18C13
  8
1PHANTOM
 10
-44.575739384652593
 20
-719.62131879729873
 30
0.0
 11
-42.575785920550508
 21
-719.6213234507801
 31
0.0
  0
ARC
  5
18C14
  8
1PHANTOM
 10
-48.075785920550508
 20
-720.72131065341125
 30
0.0
 40
1.5
 50
180.0
 51
269.99986668447059
  0
LINE
  5
18C15
  8
1PHANTOM
 10
-42.575785920550508
 20
-719.6213234507801
 30
0.0
 11
-42.575785920550508
 21
-720.7213199605909
 31
0.0
  0
LINE
  5
18C16
  8
1PHANTOM
 10
-48.075789410742907
 20
-722.22131065340704
 30
0.0
 11
-44.075789410742907
 21
-722.2213199605867
 31
0.0
  0
ARC
  5
18C17
  8
1PHANTOM
 10
-44.075785920550523
 20
-720.7213199605909
 30
0.0
 40
1.5
 50
269.99986668447059
 51
0.0
  0
LINE
  5
18C18
  8
1DIM
 10
268.92421407945039
 20
-834.12131530700537
 30
0.0
 11
304.92421407944869
 21
-834.12131530700537
 31
0.0
  0
LINE
  5
18C19
  8
1DIM
 10
223.92421407945039
 20
-716.62131530700492
 30
0.0
 11
304.92421407944869
 21
-716.62131530700503
 31
0.0
  0
LINE
  5
18C1A
  8
1DIM
 10
303.92421407944869
 20
-832.12131530700537
 30
0.0
 11
303.92421407944869
 21
-718.62131530700503
 31
0.0
  0
LINE
  5
18C1E
  8
1DIM
 10
272.92421407945039
 20
-724.1213153070056
 30
0.0
 11
294.92421407944857
 21
-724.1213153070056
 31
0.0
  0
LINE
  5
18C1F
  8
1DIM
 10
268.92421407945039
 20
-834.12131530700537
 30
0.0
 11
294.92421407944857
 21
-834.12131530700537
 31
0.0
  0
LINE
  5
18C20
  8
1DIM
 10
293.92421407944857
 20
-726.12131530700549
 30
0.0
 11
293.92421407944857
 21
-832.12131530700537
 31
0.0
  0
LINE
  5
18C24
  8
1DIM
 10
272.92421407945039
 20
-724.1213153070056
 30
0.0
 11
294.92421407944857
 21
-724.1213153070056
 31
0.0
  0
LINE
  5
18C25
  8
1DIM
 10
223.92421407945039
 20
-716.62131530700492
 30
0.0
 11
294.92421407944857
 21
-716.62131530700503
 31
0.0
  0
LINE
  5
18C26
  8
1DIM
 10
293.92421407944857
 20
-722.12131530700549
 30
0.0
 11
293.92421407944857
 21
-718.62131530700503
 31
0.0
  0
LINE
  5
18C27
  8
1DIM
 10
293.92421407944857
 20
-716.62131530700503
 30
0.0
 11
293.92421407944857
 21
-705.88798197367157
 31
0.0
  0
LINE
  5
18C2B
  8
1DIM1
 10
-126.07578592054961
 20
-876.12131530700572
 30
0.0
 11
-126.07578592054961
 21
-950.62131530700742
 31
0.0
  0
LINE
  5
18C2C
  8
1DIM1
 10
273.92421407944857
 20
-876.12131530700572
 30
0.0
 11
273.92421407944857
 21
-950.62131530700742
 31
0.0
  0
LINE
  5
18C2D
  8
1DIM1
 10
-120.07578592054961
 20
-947.62131530700754
 30
0.0
 11
267.92421407944857
 21
-947.62131530700754
 31
0.0
  0
LINE
  5
18C31
  8
1DIM1
 10
-46.075785920550508
 20
-876.37131530700583
 30
0.0
 11
-46.075785920550508
 21
-920.62131530700731
 31
0.0
  0
LINE
  5
18C32
  8
1DIM1
 10
193.92421407944951
 20
-876.37131530700583
 30
0.0
 11
193.92421407944951
 21
-920.62131530700731
 31
0.0
  0
LINE
  5
18C33
  8
1DIM1
 10
-40.075785920550508
 20
-917.62131530700742
 30
0.0
 11
187.9242140794494
 21
-917.62131530700742
 31
0.0
  0
LINE
  5
18C37
  8
1PHANTOM
 10
193.92426061534741
 20
-689.62131530716044
 30
0.0
 11
192.42426061534741
 21
-694.92131181702212
 31
0.0
  0
LINE
  5
18C38
  8
1PHANTOM
 10
192.42426061534741
 20
-694.92131181702212
 30
0.0
 11
192.42426061534761
 21
-719.62131181691404
 31
0.0
  0
LINE
  5
18C39
  8
1PHANTOM
 10
193.92426061534741
 20
-689.62131530716044
 30
0.0
 11
195.42426061534749
 21
-694.92131879740566
 31
0.0
  0
LINE
  5
18C3A
  8
1PHANTOM
 10
190.4242140794496
 20
-719.62130716321587
 30
0.0
 11
192.42426061534761
 21
-719.62131181691404
 31
0.0
  0
LINE
  5
18C3B
  8
1PHANTOM
 10
195.42426061534749
 20
-694.92131879740566
 30
0.0
 11
195.42426061534741
 21
-719.62131879729873
 31
0.0
  0
LINE
  5
18C3C
  8
1PHANTOM
 10
190.4242140794496
 20
-719.62130716321587
 30
0.0
 11
190.42421407944951
 21
-720.72131065341125
 31
0.0
  0
LINE
  5
18C3D
  8
1PHANTOM
 10
195.42426061534741
 20
-719.62131879729873
 30
0.0
 11
197.4242140794494
 21
-719.6213234507801
 31
0.0
  0
ARC
  5
18C3E
  8
1PHANTOM
 10
191.92421407944951
 20
-720.72131065341125
 30
0.0
 40
1.5
 50
180.0
 51
269.99986668447059
  0
LINE
  5
18C3F
  8
1PHANTOM
 10
197.4242140794494
 20
-719.6213234507801
 30
0.0
 11
197.4242140794494
 21
-720.7213199605909
 31
0.0
  0
LINE
  5
18C40
  8
1PHANTOM
 10
191.92421058925709
 20
-722.22131065340704
 30
0.0
 11
195.92421058925709
 21
-722.2213199605867
 31
0.0
  0
ARC
  5
18C41
  8
1PHANTOM
 10
195.92421407944951
 20
-720.7213199605909
 30
0.0
 40
1.5
 50
269.99986668447059
 51
0.0
  0
TEXT
  5
18C42
  8
1DIM1
 10
55.549214079449492
 20
-915.52131530700728
 30
0.0
 40
10.5
  1
P240 
  0
LINE
  5
18C43
  8
0
  6
BYBLOCK
 10
187.9242140794494
 20
-916.01362016700739
 30
0.0
 11
193.92421407944951
 21
-917.62131530700742
 31
0.0
  0
LINE
  5
18C44
  8
0
  6
BYBLOCK
 10
193.92421407944951
 20
-917.62131530700742
 30
0.0
 11
187.9242140794494
 21
-919.22901044700745
 31
0.0
  0
LINE
  5
18C45
  8
0
  6
BYBLOCK
 10
193.92421407944951
 20
-917.62131530700742
 30
0.0
 11
187.9242140794494
 21
-917.62131530700742
 31
0.0
  0
LINE
  5
18C46
  8
0
  6
BYBLOCK
 10
-40.075785920550508
 20
-919.22901044700745
 30
0.0
 11
-46.075785920550508
 21
-917.62131530700742
 31
0.0
  0
LINE
  5
18C47
  8
0
  6
BYBLOCK
 10
-46.075785920550508
 20
-917.62131530700742
 30
0.0
 11
-40.075785920550508
 21
-916.01362016700739
 31
0.0
  0
LINE
  5
18C48
  8
0
  6
BYBLOCK
 10
-46.075785920550508
 20
-917.62131530700742
 30
0.0
 11
-40.075785920550508
 21
-917.62131530700742
 31
0.0
  0
TEXT
  5
18C49
  8
1DIM1
 10
61.674214079449477
 20
-945.5213153070074
 30
0.0
 40
10.5
  1
400 
  0
LINE
  5
18C4A
  8
0
  6
BYBLOCK
 10
267.92421407944857
 20
-946.01362016700739
 30
0.0
 11
273.92421407944857
 21
-947.62131530700754
 31
0.0
  0
LINE
  5
18C4B
  8
0
  6
BYBLOCK
 10
273.92421407944857
 20
-947.62131530700754
 30
0.0
 11
267.92421407944857
 21
-949.22901044700745
 31
0.0
  0
LINE
  5
18C4C
  8
0
  6
BYBLOCK
 10
273.92421407944857
 20
-947.62131530700754
 30
0.0
 11
267.92421407944857
 21
-947.62131530700754
 31
0.0
  0
LINE
  5
18C4D
  8
0
  6
BYBLOCK
 10
-120.07578592054961
 20
-949.22901044700745
 30
0.0
 11
-126.07578592054961
 21
-947.62131530700754
 31
0.0
  0
LINE
  5
18C4E
  8
0
  6
BYBLOCK
 10
-126.07578592054961
 20
-947.62131530700754
 30
0.0
 11
-120.07578592054961
 21
-946.01362016700739
 31
0.0
  0
LINE
  5
18C4F
  8
0
  6
BYBLOCK
 10
-126.07578592054961
 20
-947.62131530700754
 30
0.0
 11
-120.07578592054961
 21
-947.62131530700754
 31
0.0
  0
TEXT
  5
18C50
  8
1DIM
 10
293.2242140794487
 20
-713.75464864033825
 30
0.0
 40
3.5
  1
7.5 
 50
90.0
  0
LINE
  5
18C51
  8
0
  6
BYBLOCK
 10
293.38831569944858
 20
-718.62131530700503
 30
0.0
 11
293.92421407944857
 21
-716.62131530700503
 31
0.0
  0
LINE
  5
18C52
  8
0
  6
BYBLOCK
 10
293.92421407944857
 20
-716.62131530700503
 30
0.0
 11
294.46011245944862
 21
-718.62131530700503
 31
0.0
  0
LINE
  5
18C53
  8
0
  6
BYBLOCK
 10
293.92421407944857
 20
-716.62131530700503
 30
0.0
 11
293.92421407944857
 21
-718.62131530700503
 31
0.0
  0
LINE
  5
18C54
  8
0
  6
BYBLOCK
 10
294.46011245944862
 20
-722.12131530700549
 30
0.0
 11
293.92421407944857
 21
-724.1213153070056
 31
0.0
  0
LINE
  5
18C55
  8
0
  6
BYBLOCK
 10
293.92421407944857
 20
-724.1213153070056
 30
0.0
 11
293.38831569944858
 21
-722.12131530700549
 31
0.0
  0
LINE
  5
18C56
  8
0
  6
BYBLOCK
 10
293.92421407944857
 20
-724.1213153070056
 30
0.0
 11
293.92421407944857
 21
-722.12131530700549
 31
0.0
  0
TEXT
  5
18C57
  8
1DIM
 10
293.2242140794487
 20
-782.32964864033875
 30
0.0
 40
3.5
  1
110 
 50
90.0
  0
LINE
  5
18C58
  8
0
  6
BYBLOCK
 10
294.46011245944862
 20
-832.12131530700537
 30
0.0
 11
293.92421407944857
 21
-834.12131530700537
 31
0.0
  0
LINE
  5
18C59
  8
0
  6
BYBLOCK
 10
293.92421407944857
 20
-834.12131530700537
 30
0.0
 11
293.38831569944858
 21
-832.12131530700537
 31
0.0
  0
LINE
  5
18C5A
  8
0
  6
BYBLOCK
 10
293.92421407944857
 20
-834.12131530700537
 30
0.0
 11
293.92421407944857
 21
-832.12131530700537
 31
0.0
  0
LINE
  5
18C5B
  8
0
  6
BYBLOCK
 10
293.38831569944858
 20
-726.12131530700549
 30
0.0
 11
293.92421407944857
 21
-724.1213153070056
 31
0.0
  0
LINE
  5
18C5C
  8
0
  6
BYBLOCK
 10
293.92421407944857
 20
-724.1213153070056
 30
0.0
 11
294.46011245944862
 21
-726.12131530700549
 31
0.0
  0
LINE
  5
18C5D
  8
0
  6
BYBLOCK
 10
293.92421407944857
 20
-724.1213153070056
 30
0.0
 11
293.92421407944857
 21
-726.12131530700549
 31
0.0
  0
TEXT
  5
18C5E
  8
1DIM
 10
303.22421407944881
 20
-781.20464864033829
 30
0.0
 40
3.5
  1
117.5 
 50
90.0
  0
LINE
  5
18C5F
  8
0
  6
BYBLOCK
 10
303.3883156994487
 20
-718.62131530700503
 30
0.0
 11
303.92421407944869
 21
-716.62131530700503
 31
0.0
  0
LINE
  5
18C60
  8
0
  6
BYBLOCK
 10
303.92421407944869
 20
-716.62131530700503
 30
0.0
 11
304.46011245944868
 21
-718.62131530700503
 31
0.0
  0
LINE
  5
18C61
  8
0
  6
BYBLOCK
 10
303.92421407944869
 20
-716.62131530700503
 30
0.0
 11
303.92421407944869
 21
-718.62131530700503
 31
0.0
  0
LINE
  5
18C62
  8
0
  6
BYBLOCK
 10
304.46011245944868
 20
-832.12131530700537
 30
0.0
 11
303.92421407944869
 21
-834.12131530700537
 31
0.0
  0
LINE
  5
18C63
  8
0
  6
BYBLOCK
 10
303.92421407944869
 20
-834.12131530700537
 30
0.0
 11
303.3883156994487
 21
-832.12131530700537
 31
0.0
  0
LINE
  5
18C64
  8
0
  6
BYBLOCK
 10
303.92421407944869
 20
-834.12131530700537
 30
0.0
 11
303.92421407944869
 21
-832.12131530700537
 31
0.0
  0
LINE
  5
18C65
  8
1DIM
 10
421.08997984075512
 20
-890.50003964388225
 30
0.0
 11
404.52533016732031
 21
-932.39671502614931
 31
0.0
  0
LINE
  5
18C66
  8
1DIM
 10
404.52533016732031
 20
-932.39671502614931
 30
0.0
 11
348.15866350065357
 21
-932.39671502614931
 31
0.0
  0
TEXT
  5
18C67
  8
1DIM
 10
376.84088074611458
 20
-916.92131530700635
 30
0.0
 40
3.5
  1
117.5 
  0
LINE
  5
18C68
  8
0
  6
BYBLOCK
 10
439.42421407944732
 20
-917.08541692700635
 30
0.0
 11
441.42421407944721
 21
-917.62131530700651
 31
0.0
  0
LINE
  5
18C69
  8
0
  6
BYBLOCK
 10
441.42421407944721
 20
-917.62131530700651
 30
0.0
 11
439.42421407944732
 21
-918.15721368700656
 31
0.0
  0
LINE
  5
18C6A
  8
0
  6
BYBLOCK
 10
441.42421407944721
 20
-917.62131530700651
 30
0.0
 11
439.42421407944732
 21
-917.62131530700651
 31
0.0
  0
LINE
  5
18C6B
  8
0
  6
BYBLOCK
 10
325.92421407944857
 20
-918.15721368700656
 30
0.0
 11
323.92421407944857
 21
-917.62131530700651
 31
0.0
  0
LINE
  5
18C6C
  8
0
  6
BYBLOCK
 10
323.92421407944857
 20
-917.62131530700651
 30
0.0
 11
325.92421407944857
 21
-917.08541692700635
 31
0.0
  0
LINE
  5
18C6D
  8
0
  6
BYBLOCK
 10
323.92421407944857
 20
-917.62131530700651
 30
0.0
 11
325.92421407944857
 21
-917.62131530700651
 31
0.0
  0
LINE
  5
18C6E
  8
1DIM
 10
455.73923825532478
 20
-827.36870947607895
 30
0.0
 11
450.54665981637822
 21
-814.78575351605662
 31
0.0
  0
LINE
  5
18C6F
  8
1DIM
 10
450.54665981637822
 20
-814.78575351605662
 30
0.0
 11
482.44665981637809
 21
-814.78575351605662
 31
0.0
  0
LINE
  5
18C70
  8
1DIM
 10
447.65561365478641
 20
-827.295263343746
 30
0.0
 11
444.37931532183961
 21
-808.78440749893275
 31
0.0
  0
LINE
  5
18C71
  8
1DIM
 10
444.37931532183961
 20
-808.78440749893275
 30
0.0
 11
452.91264865517297
 21
-808.78440749893275
 31
0.0
  0
LINE
  5
18C72
  8
1DIM
 10
376.60267803435238
 20
-878.76220958627141
 30
0.0
 11
360.45993073835001
 21
-901.51593955776104
 31
0.0
  0
LINE
  5
18C73
  8
1DIM
 10
360.45993073835001
 20
-901.51593955776104
 30
0.0
 11
333.49326407168343
 21
-901.51593955776104
 31
0.0
  0
TEXT
  5
18C74
  8
1DIM
 10
421.42421407944829
 20
-906.92131530700635
 30
0.0
 40
3.5
  1
29.5 
  0
LINE
  5
18C75
  8
0
  6
BYBLOCK
 10
413.92421407944943
 20
-908.15721368700645
 30
0.0
 11
411.92421407944948
 21
-907.62131530700663
 31
0.0
  0
LINE
  5
18C76
  8
0
  6
BYBLOCK
 10
411.92421407944948
 20
-907.62131530700663
 30
0.0
 11
413.92421407944943
 21
-907.08541692700646
 31
0.0
  0
LINE
  5
18C77
  8
0
  6
BYBLOCK
 10
411.92421407944948
 20
-907.62131530700663
 30
0.0
 11
413.92421407944943
 21
-907.62131530700663
 31
0.0
  0
LINE
  5
18C78
  8
0
  6
BYBLOCK
 10
439.42421407944732
 20
-907.08541692700646
 30
0.0
 11
441.42421407944721
 21
-907.62131530700663
 31
0.0
  0
LINE
  5
18C79
  8
0
  6
BYBLOCK
 10
441.42421407944721
 20
-907.62131530700663
 30
0.0
 11
439.42421407944732
 21
-908.15721368700645
 31
0.0
  0
LINE
  5
18C7A
  8
0
  6
BYBLOCK
 10
441.42421407944721
 20
-907.62131530700663
 30
0.0
 11
439.42421407944732
 21
-907.62131530700663
 31
0.0
  0
TEXT
  5
18C7B
  8
1DIM
 10
480.72421407944728
 20
-869.91298197366928
 30
0.0
 40
3.5
  1
9 
 50
90.0
  0
LINE
  5
18C7C
  8
0
  6
BYBLOCK
 10
480.88831569944722
 20
-866.12131530699924
 30
0.0
 11
481.42421407944721
 21
-864.12131530699924
 31
0.0
  0
LINE
  5
18C7D
  8
0
  6
BYBLOCK
 10
481.42421407944721
 20
-864.12131530699924
 30
0.0
 11
481.9601124594472
 21
-866.12131530699924
 31
0.0
  0
LINE
  5
18C7E
  8
0
  6
BYBLOCK
 10
481.42421407944721
 20
-864.12131530699924
 30
0.0
 11
481.42421407944721
 21
-866.12131530699924
 31
0.0
  0
LINE
  5
18C7F
  8
0
  6
BYBLOCK
 10
481.9601124594472
 20
-871.37131530700651
 30
0.0
 11
481.42421407944721
 21
-873.3713153070064
 31
0.0
  0
LINE
  5
18C80
  8
0
  6
BYBLOCK
 10
481.42421407944721
 20
-873.3713153070064
 30
0.0
 11
480.88831569944722
 21
-871.37131530700651
 31
0.0
  0
LINE
  5
18C81
  8
0
  6
BYBLOCK
 10
481.42421407944721
 20
-873.3713153070064
 30
0.0
 11
481.42421407944721
 21
-871.37131530700651
 31
0.0
  0
TEXT
  5
18C82
  8
1DIM
 10
303.22421407944881
 20
-881.12131530700628
 30
0.0
 40
3.5
  1
23.5 
 50
90.0
  0
LINE
  5
18C83
  8
0
  6
BYBLOCK
 10
303.3883156994487
 20
-866.12131530700651
 30
0.0
 11
303.92421407944869
 21
-864.12131530700651
 31
0.0
  0
LINE
  5
18C84
  8
0
  6
BYBLOCK
 10
303.92421407944869
 20
-864.12131530700651
 30
0.0
 11
304.46011245944868
 21
-866.12131530700651
 31
0.0
  0
LINE
  5
18C85
  8
0
  6
BYBLOCK
 10
303.92421407944869
 20
-864.12131530700651
 30
0.0
 11
303.92421407944869
 21
-866.12131530700651
 31
0.0
  0
LINE
  5
18C86
  8
0
  6
BYBLOCK
 10
304.46011245944868
 20
-885.62131530700651
 30
0.0
 11
303.92421407944869
 21
-887.6213153070064
 31
0.0
  0
LINE
  5
18C87
  8
0
  6
BYBLOCK
 10
303.92421407944869
 20
-887.6213153070064
 30
0.0
 11
303.3883156994487
 21
-885.62131530700651
 31
0.0
  0
LINE
  5
18C88
  8
0
  6
BYBLOCK
 10
303.92421407944869
 20
-887.6213153070064
 30
0.0
 11
303.92421407944869
 21
-885.62131530700651
 31
0.0
  0
TEXT
  5
18C89
  8
1DIM
 10
313.22421407944881
 20
-859.42131530700635
 30
0.0
 40
3.5
  1
5 
 50
90.0
  0
LINE
  5
18C8A
  8
0
  6
BYBLOCK
 10
314.46011245944868
 20
-862.12131530700651
 30
0.0
 11
313.92421407944869
 21
-864.12131530700651
 31
0.0
  0
LINE
  5
18C8B
  8
0
  6
BYBLOCK
 10
313.92421407944869
 20
-864.12131530700651
 30
0.0
 11
313.3883156994487
 21
-862.12131530700651
 31
0.0
  0
LINE
  5
18C8C
  8
0
  6
BYBLOCK
 10
313.92421407944869
 20
-864.12131530700651
 30
0.0
 11
313.92421407944869
 21
-862.12131530700651
 31
0.0
  0
LINE
  5
18C8D
  8
0
  6
BYBLOCK
 10
313.3883156994487
 20
-871.12131530700651
 30
0.0
 11
313.92421407944869
 21
-869.1213153070064
 31
0.0
  0
LINE
  5
18C8E
  8
0
  6
BYBLOCK
 10
313.92421407944869
 20
-869.1213153070064
 30
0.0
 11
314.46011245944868
 21
-871.12131530700651
 31
0.0
  0
LINE
  5
18C8F
  8
0
  6
BYBLOCK
 10
313.92421407944869
 20
-869.1213153070064
 30
0.0
 11
313.92421407944869
 21
-871.12131530700651
 31
0.0
  0
TEXT
  5
18C90
  8
1DIM
 10
313.22421407944881
 20
-874.28798197367303
 30
0.0
 40
3.5
  1
8 
 50
90.0
  0
LINE
  5
18C91
  8
0
  6
BYBLOCK
 10
314.46011245944868
 20
-875.1213153070064
 30
0.0
 11
313.92421407944869
 21
-877.1213153070064
 31
0.0
  0
LINE
  5
18C92
  8
0
  6
BYBLOCK
 10
313.92421407944869
 20
-877.1213153070064
 30
0.0
 11
313.3883156994487
 21
-875.1213153070064
 31
0.0
  0
LINE
  5
18C93
  8
0
  6
BYBLOCK
 10
313.92421407944869
 20
-877.1213153070064
 30
0.0
 11
313.92421407944869
 21
-875.1213153070064
 31
0.0
  0
LINE
  5
18C94
  8
0
  6
BYBLOCK
 10
313.3883156994487
 20
-871.12131530700651
 30
0.0
 11
313.92421407944869
 21
-869.1213153070064
 31
0.0
  0
LINE
  5
18C95
  8
0
  6
BYBLOCK
 10
313.92421407944869
 20
-869.1213153070064
 30
0.0
 11
314.46011245944868
 21
-871.12131530700651
 31
0.0
  0
LINE
  5
18C96
  8
0
  6
BYBLOCK
 10
313.92421407944869
 20
-869.1213153070064
 30
0.0
 11
313.92421407944869
 21
-871.12131530700651
 31
0.0
  0
TEXT
  5
18C97
  8
1DIM
 10
426.00754741277638
 20
-896.92131530700635
 30
0.0
 40
3.5
  1
21.5 
  0
LINE
  5
18C98
  8
0
  6
BYBLOCK
 10
421.92421407944943
 20
-898.15721368700645
 30
0.0
 11
419.92421407944948
 21
-897.6213153070064
 31
0.0
  0
LINE
  5
18C99
  8
0
  6
BYBLOCK
 10
419.92421407944948
 20
-897.6213153070064
 30
0.0
 11
421.92421407944943
 21
-897.08541692700646
 31
0.0
  0
LINE
  5
18C9A
  8
0
  6
BYBLOCK
 10
419.92421407944948
 20
-897.6213153070064
 30
0.0
 11
421.92421407944943
 21
-897.6213153070064
 31
0.0
  0
LINE
  5
18C9B
  8
0
  6
BYBLOCK
 10
439.42421407943669
 20
-897.08541692700646
 30
0.0
 11
441.42421407943669
 21
-897.6213153070064
 31
0.0
  0
LINE
  5
18C9C
  8
0
  6
BYBLOCK
 10
441.42421407943669
 20
-897.6213153070064
 30
0.0
 11
439.42421407943669
 21
-898.15721368700645
 31
0.0
  0
LINE
  5
18C9D
  8
0
  6
BYBLOCK
 10
441.42421407943669
 20
-897.6213153070064
 30
0.0
 11
439.42421407943669
 21
-897.6213153070064
 31
0.0
  0
TEXT
  5
18C9E
  8
1DIM1
 10
61.674214079449477
 20
-674.52131530700547
 30
0.0
 40
10.5
  1
300 
  0
LINE
  5
18C9F
  8
0
  6
BYBLOCK
 10
217.92421407944951
 20
-675.01362016700557
 30
0.0
 11
223.92421407944951
 21
-676.62131530700549
 31
0.0
  0
LINE
  5
18CA0
  8
0
  6
BYBLOCK
 10
223.92421407944951
 20
-676.62131530700549
 30
0.0
 11
217.92421407944951
 21
-678.22901044700563
 31
0.0
  0
LINE
  5
18CA1
  8
0
  6
BYBLOCK
 10
223.92421407944951
 20
-676.62131530700549
 30
0.0
 11
217.92421407944951
 21
-676.62131530700549
 31
0.0
  0
LINE
  5
18CA2
  8
0
  6
BYBLOCK
 10
-70.075785920550516
 20
-678.22901044700563
 30
0.0
 11
-76.075785920550516
 21
-676.62131530700549
 31
0.0
  0
LINE
  5
18CA3
  8
0
  6
BYBLOCK
 10
-76.075785920550516
 20
-676.62131530700549
 30
0.0
 11
-70.075785920550516
 21
-675.01362016700557
 31
0.0
  0
LINE
  5
18CA4
  8
0
  6
BYBLOCK
 10
-76.075785920550516
 20
-676.62131530700549
 30
0.0
 11
-70.075785920550516
 21
-676.62131530700549
 31
0.0
  0
TEXT
  5
18CA5
  8
1DIM1
 10
-108.95078592055
 20
-674.52131530700547
 30
0.0
 40
10.5
  1
50 
  0
LINE
  5
18CA6
  8
0
  6
BYBLOCK
 10
-82.075785920550516
 20
-675.01362016700557
 30
0.0
 11
-76.075785920550516
 21
-676.62131530700549
 31
0.0
  0
LINE
  5
18CA7
  8
0
  6
BYBLOCK
 10
-76.075785920550516
 20
-676.62131530700549
 30
0.0
 11
-82.075785920550516
 21
-678.22901044700563
 31
0.0
  0
LINE
  5
18CA8
  8
0
  6
BYBLOCK
 10
-76.075785920550516
 20
-676.62131530700549
 30
0.0
 11
-82.075785920550516
 21
-676.62131530700549
 31
0.0
  0
LINE
  5
18CA9
  8
0
  6
BYBLOCK
 10
-120.07578592054961
 20
-678.22901044700563
 30
0.0
 11
-126.07578592054961
 21
-676.62131530700549
 31
0.0
  0
LINE
  5
18CAA
  8
0
  6
BYBLOCK
 10
-126.07578592054961
 20
-676.62131530700549
 30
0.0
 11
-120.07578592054961
 21
-675.01362016700557
 31
0.0
  0
LINE
  5
18CAB
  8
0
  6
BYBLOCK
 10
-126.07578592054961
 20
-676.62131530700549
 30
0.0
 11
-120.07578592054961
 21
-676.62131530700549
 31
0.0
  0
TEXT
  5
18CAC
  8
1DIM1
 10
241.049214079449
 20
-674.52131530700547
 30
0.0
 40
10.5
  1
50 
  0
LINE
  5
18CAD
  8
0
  6
BYBLOCK
 10
229.92421407944951
 20
-678.22901044700563
 30
0.0
 11
223.92421407944951
 21
-676.62131530700549
 31
0.0
  0
LINE
  5
18CAE
  8
0
  6
BYBLOCK
 10
223.92421407944951
 20
-676.62131530700549
 30
0.0
 11
229.92421407944951
 21
-675.01362016700557
 31
0.0
  0
LINE
  5
18CAF
  8
0
  6
BYBLOCK
 10
223.92421407944951
 20
-676.62131530700549
 30
0.0
 11
229.92421407944951
 21
-676.62131530700549
 31
0.0
  0
LINE
  5
18CB0
  8
0
  6
BYBLOCK
 10
267.92421407944857
 20
-675.01362016700557
 30
0.0
 11
273.92421407944857
 21
-676.62131530700549
 31
0.0
  0
LINE
  5
18CB1
  8
0
  6
BYBLOCK
 10
273.92421407944857
 20
-676.62131530700549
 30
0.0
 11
267.92421407944857
 21
-678.22901044700563
 31
0.0
  0
LINE
  5
18CB2
  8
0
  6
BYBLOCK
 10
273.92421407944857
 20
-676.62131530700549
 30
0.0
 11
267.92421407944857
 21
-676.62131530700549
 31
0.0
  0
VIEWPORT
  5
57
 67
     1
  8
0
 10
-12.73141056964354
 20
10.083731670551
 30
0.0
 40
426.49732989047362
 41
282.80698729109162
 68
     1
 69
     1
1001
ACAD
1000
MVIEW
1002
{
1070
    16
1010
0.0
1020
0.0
1030
0.0
1010
0.0
1020
0.0
1030
1.0
1040
0.0
1040
282.80698729109162
1040
-12.73141056964354
1040
10.083731670551
1040
50.0
1040
0.0
1040
0.0
1070
     0
1070
   100
1070
     1
1070
     1
1070
     0
1070
     0
1070
     0
1070
     0
1040
0.0
1040
0.0
1040
0.0
1040
10.0
1040
10.0
1040
10.0
1040
10.0
1070
     0
1002
{
1002
}
1002
}
  0
ENDSEC
  0
EOF
