  0
SECTION
  2
HEADER
  9
$ACADVER
  1
AC1009
  9
$INSBASE
 10
0.0
 20
0.0
 30
0.0
  9
$EXTMIN
 10
-227.11131982648229
 20
-950.62131530700651
 30
0.0
  9
$EXTMAX
 10
482.44665981637809
 20
-664.02131530700456
 30
0.0
  9
$LIMMIN
 10
0.0
 20
0.0
  9
$LIMMAX
 10
420.0
 20
297.0
  9
$ORTHOMODE
 70
     0
  9
$REGENMODE
 70
     1
  9
$FILLMODE
 70
     1
  9
$QTEXTMODE
 70
     0
  9
$MIRRTEXT
 70
     0
  9
$DRAGMODE
 70
     2
  9
$LTSCALE
 40
0.5
  9
$OSMODE
 70
  2173
  9
$ATTMODE
 70
     1
  9
$TEXTSIZE
 40
4.0
  9
$TRACEWID
 40
1.0
  9
$TEXTSTYLE
  7
STANDARD
  9
$CLAYER
  8
1TEXT
  9
$CELTYPE
  6
BYLAYER
  9
$CECOLOR
 62
   256
  9
$DIMSCALE
 40
1.0
  9
$DIMASZ
 40
2.0
  9
$DIMEXO
 40
0.0
  9
$DIMDLI
 40
7.0
  9
$DIMRND
 40
0.0
  9
$DIMDLE
 40
0.0
  9
$DIMEXE
 40
1.0
  9
$DIMTP
 40
0.0
  9
$DIMTM
 40
0.0
  9
$DIMTXT
 40
3.5
  9
$DIMCEN
 40
0.0
  9
$DIMTSZ
 40
0.0
  9
$DIMTOL
 70
     0
  9
$DIMLIM
 70
     0
  9
$DIMTIH
 70
     0
  9
$DIMTOH
 70
     0
  9
$DIMSE1
 70
     0
  9
$DIMSE2
 70
     0
  9
$DIMTAD
 70
     1
  9
$DIMZIN
 70
     8
  9
$DIMBLK
  1

  9
$DIMASO
 70
     1
  9
$DIMSHO
 70
     1
  9
$DIMPOST
  1
 
  9
$DIMAPOST
  1

  9
$DIMALT
 70
     0
  9
$DIMALTD
 70
     2
  9
$DIMALTF
 40
25.399999999999999
  9
$DIMLFAC
 40
1.0
  9
$DIMTOFL
 70
     1
  9
$DIMTVP
 40
0.0
  9
$DIMTIX
 70
     0
  9
$DIMSOXD
 70
     0
  9
$DIMSAH
 70
     1
  9
$DIMBLK1
  1
OPEN30
  9
$DIMBLK2
  1
OPEN30
  9
$DIMSTYLE
  2
NEWX10
  9
$DIMCLRD
 70
   256
  9
$DIMCLRE
 70
   256
  9
$DIMCLRT
 70
   201
  9
$DIMTFAC
 40
0.7
  9
$DIMGAP
 40
0.7
  9
$LUNITS
 70
     2
  9
$LUPREC
 70
     4
  9
$SKETCHINC
 40
1.0
  9
$FILLETRAD
 40
0.0
  9
$AUNITS
 70
     0
  9
$AUPREC
 70
     2
  9
$MENU
  1
acad
  9
$ELEVATION
 40
0.0
  9
$PELEVATION
 40
0.0
  9
$THICKNESS
 40
0.0
  9
$LIMCHECK
 70
     0
  9
$BLIPMODE
 70
     0
  9
$CHAMFERA
 40
10.0
  9
$CHAMFERB
 40
10.0
  9
$SKPOLY
 70
     0
  9
$TDCREATE
 40
2453033.7326634838
  9
$TDUPDATE
 40
2453605.74089735
  9
$TDINDWG
 40
1.7181696527999999
  9
$TDUSRTIMER
 40
1.7181696527999999
  9
$USRTIMER
 70
     1
  9
$ANGBASE
 50
0.0
  9
$ANGDIR
 70
     0
  9
$PDMODE
 70
     0
  9
$PDSIZE
 40
0.0
  9
$PLINEWID
 40
0.0
  9
$COORDS
 70
     2
  9
$SPLFRAME
 70
     0
  9
$SPLINETYPE
 70
     6
  9
$SPLINESEGS
 70
     8
  9
$ATTDIA
 70
     0
  9
$ATTREQ
 70
     1
  9
$HANDLING
 70
     1
  9
$HANDSEED
  5
18FBA
  9
$SURFTAB1
 70
     6
  9
$SURFTAB2
 70
     6
  9
$SURFTYPE
 70
     6
  9
$SURFU
 70
     6
  9
$SURFV
 70
     6
  9
$UCSNAME
  2

  9
$UCSORG
 10
0.0
 20
0.0
 30
0.0
  9
$UCSXDIR
 10
1.0
 20
0.0
 30
0.0
  9
$UCSYDIR
 10
0.0
 20
1.0
 30
0.0
  9
$PUCSNAME
  2

  9
$PUCSORG
 10
0.0
 20
0.0
 30
0.0
  9
$PUCSXDIR
 10
1.0
 20
0.0
 30
0.0
  9
$PUCSYDIR
 10
0.0
 20
1.0
 30
0.0
  9
$USERI1
 70
     0
  9
$USERI2
 70
     0
  9
$USERI3
 70
     0
  9
$USERI4
 70
     0
  9
$USERI5
 70
     0
  9
$USERR1
 40
0.0
  9
$USERR2
 40
0.0
  9
$USERR3
 40
0.0
  9
$USERR4
 40
0.0
  9
$USERR5
 40
0.0
  9
$WORLDVIEW
 70
     1
  9
$SHADEDGE
 70
     3
  9
$SHADEDIF
 70
    70
  9
$TILEMODE
 70
     1
  9
$MAXACTVP
 70
    48
  9
$PLIMCHECK
 70
     0
  9
$PEXTMIN
 10
1.0000000000000000E+020
 20
1.0000000000000000E+020
 30
1.0000000000000000E+020
  9
$PEXTMAX
 10
-1.0000000000000000E+020
 20
-1.0000000000000000E+020
 30
-1.0000000000000000E+020
  9
$PLIMMIN
 10
0.0
 20
0.0
  9
$PLIMMAX
 10
420.0
 20
297.0
  9
$UNITMODE
 70
     0
  9
$VISRETAIN
 70
     1
  9
$PLINEGEN
 70
     0
  9
$PSLTSCALE
 70
     1
  0
ENDSEC
  0
SECTION
  2
TABLES
  0
TABLE
  2
VPORT
 70
     4
  0
VPORT
  2
*ACTIVE
 70
     0
 10
0.0
 20
0.0
 11
1.0
 21
1.0
 12
127.6676716470166
 22
-807.30934302697869
 13
0.0
 23
0.0
 14
10.0
 24
10.0
 15
10.0
 25
10.0
 16
0.0
 26
0.0
 36
1.0
 17
0.0
 27
0.0
 37
0.0
 40
497.94792486336331
 41
1.508086253369272
 42
50.0
 43
0.0
 44
0.0
 50
0.0
 51
0.0
 71
     0
 72
   100
 73
     1
 74
     1
 75
     0
 76
     0
 77
     0
 78
     0
  0
ENDTAB
  0
TABLE
  2
LTYPE
 70
    15
  0
LTYPE
  2
CONTINUOUS
 70
     0
  3
Solid line
 72
    65
 73
     0
 40
0.0
  0
LTYPE
  2
CENTER2
 70
     0
  3
Center (.5x) ___ _ ___ _ ___ _ ___ _ ___ _ ___
 72
    65
 73
     4
 40
28.574999999999999
 49
19.050000000000001
 49
-3.1749999999999989
 49
3.1749999999999989
 49
-3.1749999999999989
  0
LTYPE
  2
XREF1|CENTER2
 70
    48
  3
Center (.5x) ___ _ ___ _ ___ _ ___ _ ___ _ ___
 72
    65
 73
     4
 40
28.574999999999999
 49
19.050000000000001
 49
-3.1749999999999989
 49
3.1749999999999989
 49
-3.1749999999999989
  0
LTYPE
  2
PHANTOM2
 70
     0
  3
Phantom (.5x) ___ _ _ ___ _ _ ___ _ _ ___ _ _
 72
    65
 73
     6
 40
31.75
 49
15.875
 49
-3.1749999999999989
 49
3.1749999999999989
 49
-3.1749999999999989
 49
3.1749999999999989
 49
-3.1749999999999989
  0
LTYPE
  2
A3WAKUDAKE|CENTER2
 70
    48
  3
Center (.5x) ___ _ ___ _ ___ _ ___ _ ___ _ ___
 72
    65
 73
     4
 40
28.574999999999999
 49
19.050000000000001
 49
-3.1749999999999989
 49
3.1749999999999989
 49
-3.1749999999999989
  0
ENDTAB
  0
TABLE
  2
LAYER
 70
    44
  0
LAYER
  2
0
 70
     0
 62
     7
  6
CONTINUOUS
  0
LAYER
  2
1CENTER
 70
     0
 62
     7
  6
CENTER2
  0
LAYER
  2
1TEXT
 70
     0
 62
     7
  6
CONTINUOUS
  0
LAYER
  2
1DIM
 70
     0
 62
     7
  6
CONTINUOUS
  0
LAYER
  2
1PHANTOM
 70
     0
 62
     7
  6
PHANTOM2
  0
LAYER
  2
01
 70
     0
 62
     1
  6
CONTINUOUS
  0
LAYER
  2
1DIM1
 70
     0
 62
     7
  6
CONTINUOUS
  0
LAYER
  2
1HATCH
 70
     0
 62
     7
  6
CONTINUOUS
  0
LAYER
  2
XREF1|1CENTER
 70
    48
 62
     7
  6
XREF1|CENTER2
  0
LAYER
  2
A3WAKUDAKE|THICK
 70
    48
 62
     7
  6
CONTINUOUS
  0
LAYER
  2
A3WAKUDAKE|POINT
 70
    48
 62
     7
  6
CONTINUOUS
  0
LAYER
  2
A3WAKUDAKE|1CENTER
 70
    48
 62
     7
  6
A3WAKUDAKE|CENTER2
  0
LAYER
  2
A3WAKUDAKE|0-6
 70
    48
 62
     7
  6
CONTINUOUS
  0
LAYER
  2
A3WAKUDAKE|1DIM
 70
    48
 62
     7
  6
CONTINUOUS
  0
ENDTAB
  0
TABLE
  2
STYLE
 70
    22
  0
STYLE
  2
STANDARD
 70
     0
 40
0.0
 41
1.0
 50
0.0
 71
     0
 42
4.0
  3
txt.shx
  4
extfont.shx
  0
ENDTAB
  0
TABLE
  2
VIEW
 70
     0
  0
ENDTAB
  0
TABLE
  2
UCS
 70
     0
  0
ENDTAB
  0
TABLE
  2
APPID
 70
     9
  0
APPID
  2
ACAD
 70
     0
  0
APPID
  2
DRAWINGVARIABLESXDATA
 70
     0
  0
APPID
  2
CONTENTTABDATA
 70
     0
  0
APPID
  2
CONTENTCURRENTTAB
 70
     0
  0
APPID
  2
CONTENTBLOCKDESCRIPTION
 70
     0
  0
APPID
  2
CONTENTBLOCKICON
 70
     0
  0
APPID
  2
CONTENTLONGBLOCKNAME
 70
     0
  0
APPID
  2
ACAD_PSEXT
 70
     0
  0
APPID
  2
ACAD_DSTYLE_DIMTEXT_FILL
 70
     0
  0
ENDTAB
  0
TABLE
  2
DIMSTYLE
 70
     9
  0
DIMSTYLE
  2
NEWX10
 70
     0
  3
 
  4

  5

  6
OPEN30
  7
OPEN30
 40
1.0
 41
2.0
 42
0.0
 43
7.0
 44
1.0
 45
0.0
 46
0.0
 47
0.0
 48
0.0
140
3.5
141
0.0
142
0.0
143
25.399999999999999
144
1.0
145
0.0
146
0.7
147
0.7
 71
     0
 72
     0
 73
     0
 74
     0
 75
     0
 76
     0
 77
     1
 78
     8
170
     0
171
     2
172
     1
173
     1
174
     0
175
     0
176
   256
177
   256
178
   201
  0
ENDTAB
  0
ENDSEC
  0
SECTION
  2
BLOCKS
  0
BLOCK
  8
0
  2
$MODEL_SPACE
 70
     0
 10
0.0
 20
0.0
 30
0.0
  3
$MODEL_SPACE
  1

  0
ENDBLK
  5
1A
  8
0
  0
BLOCK
 67
     1
  8
0
  2
$PAPER_SPACE
 70
     0
 10
0.0
 20
0.0
 30
0.0
  3
$PAPER_SPACE
  1

  0
ENDBLK
  5
17
 67
     1
  8
0
  0
BLOCK
  8
0
  2
_OPEN30
 70
     0
 10
0.0
 20
0.0
 30
0.0
  3
_OPEN30
  1

  0
LINE
  5
44
  8
0
  6
BYBLOCK
 62
     0
 10
-1.0
 20
0.26794919
 30
0.0
 11
0.0
 21
0.0
 31
0.0
  0
LINE
  5
45
  8
0
  6
BYBLOCK
 62
     0
 10
0.0
 20
0.0
 30
0.0
 11
-1.0
 21
-0.26794919
 31
0.0
  0
LINE
  5
46
  8
0
  6
BYBLOCK
 62
     0
 10
0.0
 20
0.0
 30
0.0
 11
-1.0
 21
0.0
 31
0.0
  0
ENDBLK
  5
47
  8
0
  0
BLOCK
  8
0
  2
XREF1
 70
    36
 10
0.0
 20
0.0
 30
0.0
  3
XREF1
  1
D:\ACLT\FORMAT\KAWAJUN(9)図面用.dwg
  0
ENDBLK
  5
5D
  8
0
  0
BLOCK
  8
0
  2
A3WAKUDAKE
 70
    36
 10
0.0
 20
0.0
 30
0.0
  3
A3WAKUDAKE
  1
D:\ACLT\FORMAT\A3WAKUdake.dwg
  0
ENDBLK
  5
6DC
  8
0
  0
BLOCK
  8
0
  2
*U23
 70
     1
 10
0.0
 20
0.0
 30
0.0
  3
*U23
  1

  0
TEXT
  5
18F7B
  8
1DIM1
 62
   201
 10
72.299214079449484
 20
-915.52131530700638
 30
0.0
 40
10.5
  1
P130 
  0
ENDBLK
  5
18F7D
  8
0
  0
BLOCK
  8
0
  2
*U24
 70
     1
 10
0.0
 20
0.0
 30
0.0
  3
*U24
  1

  0
TEXT
  5
18F7F
  8
1DIM1
 62
   201
 10
11.674214079449481
 20
-945.52131530700649
 30
0.0
 40
10.5
  1
500 
  0
ENDBLK
  5
18F81
  8
0
  0
BLOCK
  8
0
  2
*U25
 70
     1
 10
0.0
 20
0.0
 30
0.0
  3
*U25
  1

  0
TEXT
  5
18F83
  8
1DIM
 62
   201
 10
293.2242140794487
 20
-713.75464864033745
 30
0.0
 40
3.5
  1
7.5 
 50
90.0
  0
ENDBLK
  5
18F85
  8
0
  0
BLOCK
  8
0
  2
*U26
 70
     1
 10
0.0
 20
0.0
 30
0.0
  3
*U26
  1

  0
TEXT
  5
18F87
  8
1DIM
 62
   201
 10
293.2242140794487
 20
-782.32964864033784
 30
0.0
 40
3.5
  1
110 
 50
90.0
  0
ENDBLK
  5
18F89
  8
0
  0
BLOCK
  8
0
  2
*U27
 70
     1
 10
0.0
 20
0.0
 30
0.0
  3
*U27
  1

  0
TEXT
  5
18F8B
  8
1DIM
 62
   201
 10
303.22421407944881
 20
-781.20464864033772
 30
0.0
 40
3.5
  1
117.5 
 50
90.0
  0
ENDBLK
  5
18F8D
  8
0
  0
BLOCK
  8
0
  2
*U28
 70
     1
 10
0.0
 20
0.0
 30
0.0
  3
*U28
  1

  0
TEXT
  5
18F8F
  8
1DIM1
 62
   201
 10
-57.700785920550508
 20
-915.52131530700638
 30
0.0
 40
10.5
  1
P130 
  0
ENDBLK
  5
18F91
  8
0
  0
BLOCK
  8
0
  2
*U29
 70
     1
 10
0.0
 20
0.0
 30
0.0
  3
*U29
  1

  0
TEXT
  5
18F93
  8
1DIM
 62
   201
 10
376.84088074611458
 20
-916.92131530700635
 30
0.0
 40
3.5
  1
117.5 
  0
ENDBLK
  5
18F95
  8
0
  0
BLOCK
  8
0
  2
*U30
 70
     1
 10
0.0
 20
0.0
 30
0.0
  3
*U30
  1

  0
TEXT
  5
18F97
  8
1DIM
 62
   201
 10
421.42421407944829
 20
-906.92131530700635
 30
0.0
 40
3.5
  1
29.5 
  0
ENDBLK
  5
18F99
  8
0
  0
BLOCK
  8
0
  2
*U31
 70
     1
 10
0.0
 20
0.0
 30
0.0
  3
*U31
  1

  0
TEXT
  5
18F9B
  8
1DIM
 62
   201
 10
480.72421407944728
 20
-869.91298197366928
 30
0.0
 40
3.5
  1
9 
 50
90.0
  0
ENDBLK
  5
18F9D
  8
0
  0
BLOCK
  8
0
  2
*U32
 70
     1
 10
0.0
 20
0.0
 30
0.0
  3
*U32
  1

  0
TEXT
  5
18F9F
  8
1DIM
 62
   201
 10
303.22421407944881
 20
-881.12131530700628
 30
0.0
 40
3.5
  1
23.5 
 50
90.0
  0
ENDBLK
  5
18FA1
  8
0
  0
BLOCK
  8
0
  2
*U33
 70
     1
 10
0.0
 20
0.0
 30
0.0
  3
*U33
  1

  0
TEXT
  5
18FA3
  8
1DIM
 62
   201
 10
313.22421407944881
 20
-859.42131530700635
 30
0.0
 40
3.5
  1
5 
 50
90.0
  0
ENDBLK
  5
18FA5
  8
0
  0
BLOCK
  8
0
  2
*U34
 70
     1
 10
0.0
 20
0.0
 30
0.0
  3
*U34
  1

  0
TEXT
  5
18FA7
  8
1DIM
 62
   201
 10
313.22421407944881
 20
-874.28798197367303
 30
0.0
 40
3.5
  1
8 
 50
90.0
  0
ENDBLK
  5
18FA9
  8
0
  0
BLOCK
  8
0
  2
*U35
 70
     1
 10
0.0
 20
0.0
 30
0.0
  3
*U35
  1

  0
TEXT
  5
18FAB
  8
1DIM
 62
   201
 10
426.00754741277638
 20
-896.92131530700635
 30
0.0
 40
3.5
  1
21.5 
  0
ENDBLK
  5
18FAD
  8
0
  0
BLOCK
  8
0
  2
*U36
 70
     1
 10
0.0
 20
0.0
 30
0.0
  3
*U36
  1

  0
TEXT
  5
18FAF
  8
1DIM1
 62
   201
 10
10.79921407945039
 20
-674.52131530700456
 30
0.0
 40
10.5
  1
340 
  0
ENDBLK
  5
18FB1
  8
0
  0
BLOCK
  8
0
  2
*U37
 70
     1
 10
0.0
 20
0.0
 30
0.0
  3
*U37
  1

  0
TEXT
  5
18FB3
  8
1DIM1
 62
   201
 10
-193.95078592054909
 20
-674.52131530700456
 30
0.0
 40
10.5
  1
80 
  0
ENDBLK
  5
18FB5
  8
0
  0
BLOCK
  8
0
  2
*U38
 70
     1
 10
0.0
 20
0.0
 30
0.0
  3
*U38
  1

  0
TEXT
  5
18FB7
  8
1DIM1
 62
   201
 10
226.04921407944991
 20
-674.52131530700456
 30
0.0
 40
10.5
  1
80 
  0
ENDBLK
  5
18FB9
  8
0
  0
ENDSEC
  0
SECTION
  2
ENTITIES
  0
LINE
  5
180D8
  8
1DIM
 10
361.42421407944721
 20
-847.12131530700435
 30
0.0
 11
431.42421407944721
 21
-847.12131530700435
 31
0.0
  0
TEXT
  5
180D9
  8
1TEXT
 10
368.17659503182779
 20
-845.62131530700447
 30
0.0
 40
4.0
  1
表面処理：
 72
     1
 11
378.82421407944679
 21
-845.62131530700447
 31
0.0
  0
LINE
  5
180DA
  8
1DIM
 10
361.42421407944721
 20
-840.12131530700435
 30
0.0
 11
431.42421407944721
 21
-840.12131530700435
 31
0.0
  0
LINE
  5
180DB
  8
1DIM
 10
361.42421407944721
 20
-840.12131530700435
 30
0.0
 11
431.42421407944721
 21
-840.12131530700435
 31
0.0
  0
LINE
  5
180DC
  8
1DIM
 10
396.42421407944721
 20
-840.12131530700435
 30
0.0
 11
396.42421407944721
 21
-854.12131530700435
 31
0.0
  0
TEXT
  5
180DD
  8
1TEXT
 10
407.02421407944672
 20
-845.62131530700447
 30
0.0
 40
4.0
  1
コード
 72
     1
 11
413.82421407944679
 21
-845.62131530700447
 31
0.0
  0
LINE
  5
180DE
  8
1DIM
 10
361.42421407944721
 20
-854.12131530700435
 30
0.0
 11
431.42421407944721
 21
-854.12131530700435
 31
0.0
  0
TEXT
  5
180DF
  8
1TEXT
 10
362.07754741278018
 20
-852.43222891857545
 30
0.0
 40
4.0
  1
ブラストアルマイト
 41
0.8
 72
     1
 11
378.82421407944679
 21
-852.43222891857545
 31
0.0
  0
TEXT
  5
180E0
  8
1TEXT
 10
399.15754741278113
 20
-852.83567229065375
 30
0.0
 40
4.0
  1
SA804S50
 72
     1
 11
413.8242140794477
 21
-852.83567229065375
 31
0.0
  0
LINE
  5
180E1
  8
1DIM
 10
361.42421407944721
 20
-854.12131530700435
 30
0.0
 11
361.42421407944721
 21
-840.12131530700435
 31
0.0
  0
LINE
  5
180E2
  8
1DIM
 10
431.42421407944721
 20
-854.12131530700435
 30
0.0
 11
431.4242140794471
 21
-840.12131530700435
 31
0.0
  0
TEXT
  5
180E3
  8
1TEXT
 10
361.42421407944721
 20
-835.12131530700447
 30
0.0
 40
8.0
  1
SA804S50
  0
LINE
  5
180E5
  8
01
 10
459.42421407944721
 20
-830.62131530699821
 30
0.0
 11
459.42421407944721
 21
-910.62131530699776
 31
0.0
  0
LINE
  5
188B6
  8
1CENTER
 10
153.92421407944951
 20
-686.66040071585098
 30
0.0
 11
153.92421407944951
 21
-723.29159171630602
 31
0.0
  0
LINE
  5
188B7
  8
1PHANTOM
 10
152.8298902654544
 20
-691.72131276083735
 30
0.0
 11
154.79222535432979
 21
-690.92131732678638
 31
0.0
  0
LINE
  5
188B8
  8
1PHANTOM
 10
154.79222535432979
 20
-690.92131732678638
 30
0.0
 11
154.2039487792874
 21
-690.60954747053427
 31
0.0
  0
LINE
  5
188B9
  8
1PHANTOM
 10
151.92426061534741
 20
-714.12131065362735
 30
0.0
 11
155.92426061534741
 21
-713.32131996080909
 31
0.0
  0
LINE
  5
188BA
  8
1PHANTOM
 10
151.92426061534741
 20
-702.92131065362287
 30
0.0
 11
155.92426061534741
 21
-702.12131996080041
 31
0.0
  0
LINE
  5
188BB
  8
1PHANTOM
 10
151.92426061534741
 20
-699.72131065362294
 30
0.0
 11
155.92426061534741
 21
-698.92131996080025
 31
0.0
  0
LINE
  5
188BC
  8
1PHANTOM
 10
155.92426061534741
 20
-698.92131996080025
 30
0.0
 11
155.42426061534741
 21
-698.82131879740314
 31
0.0
  0
LINE
  5
188BD
  8
1PHANTOM
 10
152.42426061534741
 20
-698.22131181702014
 30
0.0
 11
151.92426061534741
 21
-698.12131065362291
 31
0.0
  0
LINE
  5
188BE
  8
1PHANTOM
 10
155.92426061534741
 20
-702.12131996080041
 30
0.0
 11
155.42426061534741
 21
-702.02131879740307
 31
0.0
  0
LINE
  5
188BF
  8
1PHANTOM
 10
155.92426061534741
 20
-700.52131996080016
 30
0.0
 11
155.42426061534741
 21
-700.42131879740305
 31
0.0
  0
LINE
  5
188C0
  8
1PHANTOM
 10
152.42426061534741
 20
-699.82131181702005
 30
0.0
 11
151.92426061534741
 21
-699.72131065362294
 31
0.0
  0
LINE
  5
188C1
  8
1PHANTOM
 10
152.42426061534741
 20
-701.42131181701996
 30
0.0
 11
151.92426061534741
 21
-701.32131065362285
 31
0.0
  0
LINE
  5
188C2
  8
1PHANTOM
 10
151.92426061534741
 20
-701.32131065362285
 30
0.0
 11
155.92426061534741
 21
-700.52131996080016
 31
0.0
  0
LINE
  5
188C3
  8
1PHANTOM
 10
155.24503945873661
 20
-692.5213183803919
 30
0.0
 11
154.69328999493331
 21
-692.33855423776401
 31
0.0
  0
LINE
  5
188C4
  8
1PHANTOM
 10
155.92426061534741
 20
-695.72131996080032
 30
0.0
 11
155.42426061534741
 21
-695.62131879740309
 31
0.0
  0
LINE
  5
188C5
  8
1PHANTOM
 10
155.92426061534741
 20
-697.32131996080034
 30
0.0
 11
155.42426061534741
 21
-697.22131879740334
 31
0.0
  0
LINE
  5
188C6
  8
1PHANTOM
 10
155.69785356314341
 20
-694.12131943399766
 30
0.0
 11
155.1612598278723
 21
-693.99204873636779
 31
0.0
  0
LINE
  5
188C7
  8
1PHANTOM
 10
152.84517521255609
 20
-693.43408121958316
 30
0.0
 11
152.37707675740609
 21
-693.32131170723312
 31
0.0
  0
LINE
  5
188C8
  8
1PHANTOM
 10
152.42426061534741
 20
-696.62131181702
 30
0.0
 11
151.92426061534741
 21
-696.52131065362289
 31
0.0
  0
LINE
  5
188C9
  8
1PHANTOM
 10
152.42426061534741
 20
-695.02131181702009
 30
0.0
 11
151.92426061534741
 21
-694.92131065362287
 31
0.0
  0
LINE
  5
188CA
  8
1PHANTOM
 10
153.2870621060855
 20
-691.87274855727776
 30
0.0
 11
152.8298902654544
 21
-691.72131276083735
 31
0.0
  0
LINE
  5
188CB
  8
1PHANTOM
 10
152.37707675740609
 20
-693.32131170723312
 30
0.0
 11
155.24503945873661
 21
-692.5213183803919
 31
0.0
  0
LINE
  5
188CC
  8
1PHANTOM
 10
151.92426061534741
 20
-696.52131065362289
 30
0.0
 11
155.92426061534741
 21
-695.72131996080032
 31
0.0
  0
LINE
  5
188CD
  8
1PHANTOM
 10
151.92426061534741
 20
-694.92131065362287
 30
0.0
 11
155.69785356314341
 21
-694.12131943399766
 31
0.0
  0
LINE
  5
188CE
  8
1PHANTOM
 10
151.92426061534741
 20
-698.12131065362291
 30
0.0
 11
155.92426061534741
 21
-697.32131996080034
 31
0.0
  0
LINE
  5
188CF
  8
1PHANTOM
 10
151.92426061534741
 20
-710.9213106536273
 30
0.0
 11
155.92426061534741
 21
-710.12131996080905
 31
0.0
  0
LINE
  5
188D0
  8
1PHANTOM
 10
155.92426061534741
 20
-710.12131996080905
 30
0.0
 11
155.42426061534741
 21
-710.02131879741125
 31
0.0
  0
LINE
  5
188D1
  8
1PHANTOM
 10
152.42426061534741
 20
-709.42131181702064
 30
0.0
 11
151.92426061534741
 21
-709.32131065362296
 31
0.0
  0
LINE
  5
188D2
  8
1PHANTOM
 10
155.92426061534741
 20
-711.72131996080918
 30
0.0
 11
155.42426061534741
 21
-711.6213187974115
 31
0.0
  0
LINE
  5
188D3
  8
1PHANTOM
 10
155.92426061534741
 20
-713.32131996080909
 30
0.0
 11
155.42426061534741
 21
-713.22131879741141
 31
0.0
  0
LINE
  5
188D4
  8
1PHANTOM
 10
152.42426061534741
 20
-711.02131181702498
 30
0.0
 11
151.92426061534741
 21
-710.9213106536273
 31
0.0
  0
LINE
  5
188D5
  8
1PHANTOM
 10
152.42426061534741
 20
-712.62131181702512
 30
0.0
 11
151.92426061534741
 21
-712.52131065362744
 31
0.0
  0
LINE
  5
188D6
  8
1PHANTOM
 10
151.92426061534741
 20
-712.52131065362744
 30
0.0
 11
155.92426061534741
 21
-711.72131996080918
 31
0.0
  0
LINE
  5
188D7
  8
1PHANTOM
 10
155.92426061534741
 20
-705.32131996080454
 30
0.0
 11
155.42426061534741
 21
-705.22131879740698
 31
0.0
  0
LINE
  5
188D8
  8
1PHANTOM
 10
155.92426061534741
 20
-703.72131996080032
 30
0.0
 11
155.42426061534741
 21
-703.62131879740309
 31
0.0
  0
LINE
  5
188D9
  8
1PHANTOM
 10
155.92426061534741
 20
-708.52131996080459
 30
0.0
 11
155.42426061534741
 21
-708.42131879740703
 31
0.0
  0
LINE
  5
188DA
  8
1PHANTOM
 10
155.92426061534741
 20
-706.92131996080468
 30
0.0
 11
155.42426061534741
 21
-706.82131879740712
 31
0.0
  0
LINE
  5
188DB
  8
1PHANTOM
 10
152.42426061534741
 20
-703.02131181702009
 30
0.0
 11
151.92426061534741
 21
-702.92131065362287
 31
0.0
  0
LINE
  5
188DC
  8
1PHANTOM
 10
152.42426061534741
 20
-704.62131181702057
 30
0.0
 11
151.92426061534741
 21
-704.52131065362289
 31
0.0
  0
LINE
  5
188DD
  8
1PHANTOM
 10
152.42426061534741
 20
-707.82131181702073
 30
0.0
 11
151.92426061534741
 21
-707.72131065362305
 31
0.0
  0
LINE
  5
188DE
  8
1PHANTOM
 10
152.42426061534741
 20
-706.22131181702048
 30
0.0
 11
151.92426061534741
 21
-706.12131065362291
 31
0.0
  0
LINE
  5
188DF
  8
1PHANTOM
 10
151.92426061534741
 20
-706.12131065362291
 30
0.0
 11
155.92426061534741
 21
-705.32131996080454
 31
0.0
  0
LINE
  5
188E0
  8
1PHANTOM
 10
151.92426061534741
 20
-704.52131065362289
 30
0.0
 11
155.92426061534741
 21
-703.72131996080032
 31
0.0
  0
LINE
  5
188E1
  8
1PHANTOM
 10
151.92426061534741
 20
-707.72131065362305
 30
0.0
 11
155.92426061534741
 21
-706.92131996080468
 31
0.0
  0
LINE
  5
188E2
  8
1PHANTOM
 10
151.92426061534741
 20
-709.32131065362296
 30
0.0
 11
155.92426061534741
 21
-708.52131996080459
 31
0.0
  0
LINE
  5
188E3
  8
1PHANTOM
 10
155.42426061534741
 20
-719.62131879729782
 30
0.0
 11
152.42426061534761
 21
-719.62131181691313
 31
0.0
  0
LINE
  5
188E4
  8
1PHANTOM
 10
152.42426061534741
 20
-719.02131181702919
 30
0.0
 11
151.92426061534741
 21
-718.92131065363151
 31
0.0
  0
LINE
  5
188E5
  8
1PHANTOM
 10
151.92426061534741
 20
-718.92131065363151
 30
0.0
 11
155.92426061534741
 21
-718.12131996081325
 31
0.0
  0
LINE
  5
188E6
  8
1PHANTOM
 10
155.92426061534741
 20
-718.12131996081325
 30
0.0
 11
155.42426061534741
 21
-718.02131879741546
 31
0.0
  0
LINE
  5
188E7
  8
1PHANTOM
 10
152.42426061534741
 20
-717.42131181702928
 30
0.0
 11
151.92426061534741
 21
-717.3213106536316
 31
0.0
  0
LINE
  5
188E8
  8
1PHANTOM
 10
152.42426061534741
 20
-715.82131181702925
 30
0.0
 11
151.92426061534741
 21
-715.72131065363169
 31
0.0
  0
LINE
  5
188E9
  8
1PHANTOM
 10
151.92426061534741
 20
-715.72131065363169
 30
0.0
 11
155.92426061534741
 21
-714.92131996081343
 31
0.0
  0
LINE
  5
188EA
  8
1PHANTOM
 10
155.92426061534741
 20
-716.52131996081334
 30
0.0
 11
155.42426061534741
 21
-716.42131879741555
 31
0.0
  0
LINE
  5
188EB
  8
1PHANTOM
 10
155.92426061534741
 20
-714.92131996081343
 30
0.0
 11
155.42426061534741
 21
-714.82131879741576
 31
0.0
  0
LINE
  5
188EC
  8
1PHANTOM
 10
151.92426061534741
 20
-717.3213106536316
 30
0.0
 11
155.92426061534741
 21
-716.52131996081334
 31
0.0
  0
LINE
  5
188ED
  8
1PHANTOM
 10
152.42426061534741
 20
-714.22131181702503
 30
0.0
 11
151.92426061534741
 21
-714.12131065362735
 31
0.0
  0
LINE
  5
188EE
  8
1PHANTOM
 10
150.1242140794495
 20
-719.62131530699719
 30
0.0
 11
150.1242140794495
 21
-718.62131530699719
 31
0.0
  0
LINE
  5
188EF
  8
1PHANTOM
 10
157.72421407944941
 20
-719.62131530699719
 30
0.0
 11
157.72421407944941
 21
-718.62131530699719
 31
0.0
  0
LINE
  5
188F0
  8
1PHANTOM
 10
154.42421392944939
 20
-719.62131530699719
 30
0.0
 11
153.42421422944949
 21
-718.62131530699719
 31
0.0
  0
LINE
  5
188F1
  8
1PHANTOM
 10
157.72421407944941
 20
-719.62131530699719
 30
0.0
 11
150.1242140794495
 21
-719.62131530699719
 31
0.0
  0
LINE
  5
188F2
  8
1PHANTOM
 10
157.72421407944941
 20
-718.62131530699719
 30
0.0
 11
150.1242140794495
 21
-718.62131530699719
 31
0.0
  0
LINE
  5
188F5
  8
01
 10
273.92421407945039
 20
-725.12131530700469
 30
0.0
 11
273.92421407945039
 21
-829.12131530700435
 31
0.0
  0
LINE
  5
188F6
  8
01
 10
-226.07578592054961
 20
-829.12131530700435
 30
0.0
 11
-226.07578592054961
 21
-725.12131530700401
 31
0.0
  0
LINE
  5
188F7
  8
01
 10
173.92421407944951
 20
-877.12131530700481
 30
0.0
 11
-225.07578592054941
 21
-877.12131530700515
 31
0.0
  0
LINE
  5
188F8
  8
01
 10
268.92421407945039
 20
-834.12131530700447
 30
0.0
 11
-221.07578592054961
 21
-834.12131530700447
 31
0.0
  0
LINE
  5
188F9
  8
01
 10
173.92421407944951
 20
-869.12131530700503
 30
0.0
 11
-225.07578592054941
 21
-869.12131530700503
 31
0.0
  0
LINE
  5
188FA
  8
01
 10
-145.0757859205514
 20
-887.62131530700481
 30
0.0
 11
163.92421407944951
 21
-887.62131530700469
 31
0.0
  0
LINE
  5
188FB
  8
01
 10
-146.07578592055029
 20
-877.62131530700469
 30
0.0
 11
163.92421407944951
 21
-877.62131530700469
 31
0.0
  0
LINE
  5
188FC
  8
01
 10
103.92421407944759
 20
-869.12131530700503
 30
0.0
 11
163.92421407944951
 21
-869.12131530700458
 31
0.0
  0
LINE
  5
188FD
  8
01
 10
-145.07578592054961
 20
-864.12131530700469
 30
0.0
 11
163.92421407944951
 21
-864.12131530700469
 31
0.0
  0
LINE
  5
188FE
  8
01
 10
-226.07578592054961
 20
-870.12131530700503
 30
0.0
 11
-226.07578592054961
 21
-876.12131530700481
 31
0.0
  0
LINE
  5
188FF
  8
01
 10
-226.07578592054961
 20
-876.12131530700481
 30
0.0
 11
-225.07578592054961
 21
-877.12131530700481
 31
0.0
  0
LINE
  5
18900
  8
01
 10
-225.07578592054961
 20
-869.12131530700503
 30
0.0
 11
-226.07578592054961
 21
-870.12131530700503
 31
0.0
  0
LINE
  5
18901
  8
01
 10
-146.0757859205514
 20
-886.62131530700469
 30
0.0
 11
-146.07578592055029
 21
-877.12131530700481
 31
0.0
  0
LINE
  5
18902
  8
01
 10
-146.07578592054961
 20
-869.12131530700503
 30
0.0
 11
-146.07578592054961
 21
-865.12131530700469
 31
0.0
  0
ARC
  5
18903
  8
01
 10
-145.0757859205514
 20
-886.62131530700469
 30
0.0
 40
1.0
 50
179.9999999999967
 51
270.0
  0
ARC
  5
18904
  8
01
 10
-145.07578592054961
 20
-865.12131530700469
 30
0.0
 40
1.0
 50
90.0
 51
179.9999999999967
  0
ARC
  5
18905
  8
01
 10
-221.07578592054961
 20
-829.12131530700435
 30
0.0
 40
5.0
 50
180.0
 51
270.0
  0
LINE
  5
18906
  8
01
 10
173.92421407944951
 20
-877.12131530700481
 30
0.0
 11
272.92421407944857
 21
-877.12131530700481
 31
0.0
  0
LINE
  5
18907
  8
01
 10
173.92421407944951
 20
-869.12131530700503
 30
0.0
 11
272.92421407944857
 21
-869.12131530700503
 31
0.0
  0
LINE
  5
18908
  8
01
 10
193.92421407945309
 20
-886.62131530700469
 30
0.0
 11
193.9242140794515
 21
-877.12131530700503
 31
0.0
  0
LINE
  5
18909
  8
01
 10
193.92421407945011
 20
-869.12131530700503
 30
0.0
 11
193.92421407944951
 21
-865.12131530700435
 31
0.0
  0
LINE
  5
1890A
  8
01
 10
192.92421407945309
 20
-887.62131530700469
 30
0.0
 11
163.92421407944951
 21
-887.62131530700469
 31
0.0
  0
LINE
  5
1890B
  8
01
 10
193.92421407945159
 20
-877.62131530700469
 30
0.0
 11
163.92421407944951
 21
-877.62131530700469
 31
0.0
  0
LINE
  5
1890C
  8
01
 10
223.9242140794513
 20
-869.12131530700503
 30
0.0
 11
163.92421407944951
 21
-869.12131530700458
 31
0.0
  0
CIRCLE
  5
1890E
  8
01
 10
153.92421407944951
 20
-873.37131530700515
 30
0.0
 40
2.5
  0
ARC
  5
1890F
  8
01
 10
192.92421407945309
 20
-886.62131530700492
 30
0.0
 40
1.0
 50
270.0
 51
0.0000000000065138
  0
LINE
  5
18910
  8
01
 10
192.9242140794494
 20
-864.12131530700458
 30
0.0
 11
163.92421407944951
 21
-864.12131530700469
 31
0.0
  0
ARC
  5
18911
  8
01
 10
192.9242140794494
 20
-865.12131530700435
 30
0.0
 40
1.0
 50
0.0000000000032569
 51
90.0
  0
LINE
  5
18912
  8
01
 10
273.92421407944857
 20
-870.12131530700503
 30
0.0
 11
273.92421407944857
 21
-876.12131530700481
 31
0.0
  0
LINE
  5
18913
  8
01
 10
273.92421407944857
 20
-876.12131530700481
 30
0.0
 11
272.92421407944857
 21
-877.12131530700481
 31
0.0
  0
LINE
  5
18914
  8
01
 10
272.92421407944857
 20
-869.12131530700503
 30
0.0
 11
273.92421407944857
 21
-870.12131530700503
 31
0.0
  0
ARC
  5
18915
  8
01
 10
268.92421407945039
 20
-829.12131530700435
 30
0.0
 40
5.0
 50
270.0
 51
0.0
  0
LINE
  5
18916
  8
01
 10
163.92421407945039
 20
-746.12131530700469
 30
0.0
 11
-145.07578592054961
 21
-746.12131530700469
 31
0.0
  0
LINE
  5
18917
  8
01
 10
163.92421407944951
 20
-716.62131530700469
 30
0.0
 11
103.9242140794486
 21
-716.62131530700469
 31
0.0
  0
LINE
  5
18918
  8
01
 10
-225.07578592054961
 20
-724.12131530700469
 30
0.0
 11
-146.0757859205489
 21
-724.12131530700469
 31
0.0
  0
LINE
  5
18919
  8
01
 10
-226.07578592054961
 20
-725.12131530700469
 30
0.0
 11
-225.07578592054961
 21
-724.12131530700469
 31
0.0
  0
ARC
  5
1891A
  8
01
 10
-145.07578592054961
 20
-745.12131530700469
 30
0.0
 40
1.0
 50
180.0
 51
270.0
  0
LINE
  5
1891B
  8
01
 10
193.92421407944909
 20
-724.12131530700515
 30
0.0
 11
272.92421407945039
 21
-724.12131530700469
 31
0.0
  0
LINE
  5
1891C
  8
01
 10
193.92421407944849
 20
-745.12131530700469
 30
0.0
 11
193.92421407944951
 21
-716.62131530700401
 31
0.0
  0
LINE
  5
1891D
  8
01
 10
-146.07578592054961
 20
-745.12131530699833
 30
0.0
 11
-146.0757859205487
 21
-716.62131530699764
 31
0.0
  0
LINE
  5
1891E
  8
01
 10
163.92421407944849
 20
-746.12131530700469
 30
0.0
 11
192.92421407944849
 21
-746.12131530700469
 31
0.0
  0
ARC
  5
1891F
  8
01
 10
192.92421407944849
 20
-745.12131530700469
 30
0.0
 40
1.0
 50
270.0
 51
359.99999999999682
  0
LINE
  5
18920
  8
01
 10
163.92421407944951
 20
-716.62131530700469
 30
0.0
 11
193.92421407944951
 21
-716.62131530700424
 31
0.0
  0
LINE
  5
18921
  8
01
 10
272.92421407945039
 20
-724.12131530700469
 30
0.0
 11
273.92421407945039
 21
-725.12131530700469
 31
0.0
  0
LINE
  5
18922
  8
01
 10
163.92421407944951
 20
-716.62131530700469
 30
0.0
 11
-146.0757859205487
 21
-716.62131530700435
 31
0.0
  0
LINE
  5
18923
  8
1CENTER
 10
153.92421407944951
 20
-876.37131530700503
 30
0.0
 11
153.92421407944951
 21
-870.37131530700515
 31
0.0
  0
LINE
  5
18924
  8
1CENTER
 10
150.92421407944951
 20
-873.37131530700503
 30
0.0
 11
156.92421407944951
 21
-873.37131530700503
 31
0.0
  0
LINE
  5
18929
  8
1CENTER
 10
23.924214079449492
 20
-686.66040071585098
 30
0.0
 11
23.924214079449492
 21
-723.29159171630602
 31
0.0
  0
LINE
  5
1892A
  8
1PHANTOM
 10
22.82989026545442
 20
-691.72131276083735
 30
0.0
 11
24.792225354329851
 21
-690.92131732678638
 31
0.0
  0
LINE
  5
1892B
  8
1PHANTOM
 10
24.792225354329851
 20
-690.92131732678638
 30
0.0
 11
24.20394877928743
 21
-690.60954747053427
 31
0.0
  0
LINE
  5
1892C
  8
1PHANTOM
 10
21.924260615347411
 20
-714.12131065362735
 30
0.0
 11
25.924260615347411
 21
-713.32131996080909
 31
0.0
  0
LINE
  5
1892D
  8
1PHANTOM
 10
21.924260615347411
 20
-702.92131065362287
 30
0.0
 11
25.924260615347411
 21
-702.12131996080041
 31
0.0
  0
LINE
  5
1892E
  8
1PHANTOM
 10
21.924260615347411
 20
-699.72131065362294
 30
0.0
 11
25.924260615347411
 21
-698.92131996080025
 31
0.0
  0
LINE
  5
1892F
  8
1PHANTOM
 10
25.924260615347411
 20
-698.92131996080025
 30
0.0
 11
25.424260615347411
 21
-698.82131879740314
 31
0.0
  0
LINE
  5
18930
  8
1PHANTOM
 10
22.424260615347411
 20
-698.22131181702014
 30
0.0
 11
21.924260615347411
 21
-698.12131065362291
 31
0.0
  0
LINE
  5
18931
  8
1PHANTOM
 10
25.924260615347411
 20
-702.12131996080041
 30
0.0
 11
25.424260615347411
 21
-702.02131879740307
 31
0.0
  0
LINE
  5
18932
  8
1PHANTOM
 10
25.924260615347411
 20
-700.52131996080016
 30
0.0
 11
25.424260615347411
 21
-700.42131879740305
 31
0.0
  0
LINE
  5
18933
  8
1PHANTOM
 10
22.424260615347411
 20
-699.82131181702005
 30
0.0
 11
21.924260615347411
 21
-699.72131065362294
 31
0.0
  0
LINE
  5
18934
  8
1PHANTOM
 10
22.424260615347411
 20
-701.42131181701996
 30
0.0
 11
21.924260615347411
 21
-701.32131065362285
 31
0.0
  0
LINE
  5
18935
  8
1PHANTOM
 10
21.924260615347411
 20
-701.32131065362285
 30
0.0
 11
25.924260615347411
 21
-700.52131996080016
 31
0.0
  0
LINE
  5
18936
  8
1PHANTOM
 10
25.245039458736638
 20
-692.5213183803919
 30
0.0
 11
24.69328999493337
 21
-692.33855423776401
 31
0.0
  0
LINE
  5
18937
  8
1PHANTOM
 10
25.924260615347411
 20
-695.72131996080032
 30
0.0
 11
25.424260615347411
 21
-695.62131879740309
 31
0.0
  0
LINE
  5
18938
  8
1PHANTOM
 10
25.924260615347411
 20
-697.32131996080034
 30
0.0
 11
25.424260615347411
 21
-697.22131879740334
 31
0.0
  0
LINE
  5
18939
  8
1PHANTOM
 10
25.69785356314344
 20
-694.12131943399766
 30
0.0
 11
25.1612598278723
 21
-693.99204873636779
 31
0.0
  0
LINE
  5
1893A
  8
1PHANTOM
 10
22.845175212556121
 20
-693.43408121958316
 30
0.0
 11
22.37707675740614
 21
-693.32131170723312
 31
0.0
  0
LINE
  5
1893B
  8
1PHANTOM
 10
22.424260615347411
 20
-696.62131181702
 30
0.0
 11
21.924260615347411
 21
-696.52131065362289
 31
0.0
  0
LINE
  5
1893C
  8
1PHANTOM
 10
22.424260615347411
 20
-695.02131181702009
 30
0.0
 11
21.924260615347411
 21
-694.92131065362287
 31
0.0
  0
LINE
  5
1893D
  8
1PHANTOM
 10
23.2870621060855
 20
-691.87274855727776
 30
0.0
 11
22.82989026545442
 21
-691.72131276083735
 31
0.0
  0
LINE
  5
1893E
  8
1PHANTOM
 10
22.37707675740614
 20
-693.32131170723312
 30
0.0
 11
25.245039458736638
 21
-692.5213183803919
 31
0.0
  0
LINE
  5
1893F
  8
1PHANTOM
 10
21.924260615347411
 20
-696.52131065362289
 30
0.0
 11
25.924260615347411
 21
-695.72131996080032
 31
0.0
  0
LINE
  5
18940
  8
1PHANTOM
 10
21.924260615347411
 20
-694.92131065362287
 30
0.0
 11
25.69785356314344
 21
-694.12131943399766
 31
0.0
  0
LINE
  5
18941
  8
1PHANTOM
 10
21.924260615347411
 20
-698.12131065362291
 30
0.0
 11
25.924260615347411
 21
-697.32131996080034
 31
0.0
  0
LINE
  5
18942
  8
1PHANTOM
 10
21.924260615347411
 20
-710.9213106536273
 30
0.0
 11
25.924260615347411
 21
-710.12131996080905
 31
0.0
  0
LINE
  5
18943
  8
1PHANTOM
 10
25.924260615347411
 20
-710.12131996080905
 30
0.0
 11
25.424260615347411
 21
-710.02131879741125
 31
0.0
  0
LINE
  5
18944
  8
1PHANTOM
 10
22.424260615347411
 20
-709.42131181702064
 30
0.0
 11
21.924260615347411
 21
-709.32131065362296
 31
0.0
  0
LINE
  5
18945
  8
1PHANTOM
 10
25.924260615347411
 20
-711.72131996080918
 30
0.0
 11
25.424260615347411
 21
-711.6213187974115
 31
0.0
  0
LINE
  5
18946
  8
1PHANTOM
 10
25.924260615347411
 20
-713.32131996080909
 30
0.0
 11
25.424260615347411
 21
-713.22131879741141
 31
0.0
  0
LINE
  5
18947
  8
1PHANTOM
 10
22.424260615347411
 20
-711.02131181702498
 30
0.0
 11
21.924260615347411
 21
-710.9213106536273
 31
0.0
  0
LINE
  5
18948
  8
1PHANTOM
 10
22.424260615347411
 20
-712.62131181702512
 30
0.0
 11
21.924260615347411
 21
-712.52131065362744
 31
0.0
  0
LINE
  5
18949
  8
1PHANTOM
 10
21.924260615347411
 20
-712.52131065362744
 30
0.0
 11
25.924260615347411
 21
-711.72131996080918
 31
0.0
  0
LINE
  5
1894A
  8
1PHANTOM
 10
25.924260615347411
 20
-705.32131996080454
 30
0.0
 11
25.424260615347411
 21
-705.22131879740698
 31
0.0
  0
LINE
  5
1894B
  8
1PHANTOM
 10
25.924260615347411
 20
-703.72131996080032
 30
0.0
 11
25.424260615347411
 21
-703.62131879740309
 31
0.0
  0
LINE
  5
1894C
  8
1PHANTOM
 10
25.924260615347411
 20
-708.52131996080459
 30
0.0
 11
25.424260615347411
 21
-708.42131879740703
 31
0.0
  0
LINE
  5
1894D
  8
1PHANTOM
 10
25.924260615347411
 20
-706.92131996080468
 30
0.0
 11
25.424260615347411
 21
-706.82131879740712
 31
0.0
  0
LINE
  5
1894E
  8
1PHANTOM
 10
22.424260615347411
 20
-703.02131181702009
 30
0.0
 11
21.924260615347411
 21
-702.92131065362287
 31
0.0
  0
LINE
  5
1894F
  8
1PHANTOM
 10
22.424260615347411
 20
-704.62131181702057
 30
0.0
 11
21.924260615347411
 21
-704.52131065362289
 31
0.0
  0
LINE
  5
18950
  8
1PHANTOM
 10
22.424260615347411
 20
-707.82131181702073
 30
0.0
 11
21.924260615347411
 21
-707.72131065362305
 31
0.0
  0
LINE
  5
18951
  8
1PHANTOM
 10
22.424260615347411
 20
-706.22131181702048
 30
0.0
 11
21.924260615347411
 21
-706.12131065362291
 31
0.0
  0
LINE
  5
18952
  8
1PHANTOM
 10
21.924260615347411
 20
-706.12131065362291
 30
0.0
 11
25.924260615347411
 21
-705.32131996080454
 31
0.0
  0
LINE
  5
18953
  8
1PHANTOM
 10
21.924260615347411
 20
-704.52131065362289
 30
0.0
 11
25.924260615347411
 21
-703.72131996080032
 31
0.0
  0
LINE
  5
18954
  8
1PHANTOM
 10
21.924260615347411
 20
-707.72131065362305
 30
0.0
 11
25.924260615347411
 21
-706.92131996080468
 31
0.0
  0
LINE
  5
18955
  8
1PHANTOM
 10
21.924260615347411
 20
-709.32131065362296
 30
0.0
 11
25.924260615347411
 21
-708.52131996080459
 31
0.0
  0
LINE
  5
18956
  8
1PHANTOM
 10
25.424260615347411
 20
-719.62131879729782
 30
0.0
 11
22.424260615347631
 21
-719.62131181691313
 31
0.0
  0
LINE
  5
18957
  8
1PHANTOM
 10
22.424260615347411
 20
-719.02131181702919
 30
0.0
 11
21.924260615347411
 21
-718.92131065363151
 31
0.0
  0
LINE
  5
18958
  8
1PHANTOM
 10
21.924260615347411
 20
-718.92131065363151
 30
0.0
 11
25.924260615347411
 21
-718.12131996081325
 31
0.0
  0
LINE
  5
18959
  8
1PHANTOM
 10
25.924260615347411
 20
-718.12131996081325
 30
0.0
 11
25.424260615347411
 21
-718.02131879741546
 31
0.0
  0
LINE
  5
1895A
  8
1PHANTOM
 10
22.424260615347411
 20
-717.42131181702928
 30
0.0
 11
21.924260615347411
 21
-717.3213106536316
 31
0.0
  0
LINE
  5
1895B
  8
1PHANTOM
 10
22.424260615347411
 20
-715.82131181702925
 30
0.0
 11
21.924260615347411
 21
-715.72131065363169
 31
0.0
  0
LINE
  5
1895C
  8
1PHANTOM
 10
21.924260615347411
 20
-715.72131065363169
 30
0.0
 11
25.924260615347411
 21
-714.92131996081343
 31
0.0
  0
LINE
  5
1895D
  8
1PHANTOM
 10
25.924260615347411
 20
-716.52131996081334
 30
0.0
 11
25.424260615347411
 21
-716.42131879741555
 31
0.0
  0
LINE
  5
1895E
  8
1PHANTOM
 10
25.924260615347411
 20
-714.92131996081343
 30
0.0
 11
25.424260615347411
 21
-714.82131879741576
 31
0.0
  0
LINE
  5
1895F
  8
1PHANTOM
 10
21.924260615347411
 20
-717.3213106536316
 30
0.0
 11
25.924260615347411
 21
-716.52131996081334
 31
0.0
  0
LINE
  5
18960
  8
1PHANTOM
 10
22.424260615347411
 20
-714.22131181702503
 30
0.0
 11
21.924260615347411
 21
-714.12131065362735
 31
0.0
  0
LINE
  5
18961
  8
1PHANTOM
 10
20.12421407944953
 20
-719.62131530699719
 30
0.0
 11
20.12421407944953
 21
-718.62131530699719
 31
0.0
  0
LINE
  5
18962
  8
1PHANTOM
 10
27.724214079449439
 20
-719.62131530699719
 30
0.0
 11
27.724214079449439
 21
-718.62131530699719
 31
0.0
  0
LINE
  5
18963
  8
1PHANTOM
 10
24.424213929449479
 20
-719.62131530699719
 30
0.0
 11
23.42421422944949
 21
-718.62131530699719
 31
0.0
  0
LINE
  5
18964
  8
1PHANTOM
 10
27.724214079449439
 20
-719.62131530699719
 30
0.0
 11
20.12421407944953
 21
-719.62131530699719
 31
0.0
  0
LINE
  5
18965
  8
1PHANTOM
 10
27.724214079449439
 20
-718.62131530699719
 30
0.0
 11
20.12421407944953
 21
-718.62131530699719
 31
0.0
  0
LINE
  5
18967
  8
1CENTER
 10
-106.0757859205505
 20
-686.66040071585098
 30
0.0
 11
-106.0757859205505
 21
-723.29159171630602
 31
0.0
  0
LINE
  5
18968
  8
1PHANTOM
 10
-107.17010973454551
 20
-691.72131276083735
 30
0.0
 11
-105.2077746456701
 21
-690.92131732678638
 31
0.0
  0
LINE
  5
18969
  8
1PHANTOM
 10
-105.2077746456701
 20
-690.92131732678638
 30
0.0
 11
-105.7960512207125
 21
-690.60954747053427
 31
0.0
  0
LINE
  5
1896A
  8
1PHANTOM
 10
-108.07573938465249
 20
-714.12131065362735
 30
0.0
 11
-104.07573938465261
 21
-713.32131996080909
 31
0.0
  0
LINE
  5
1896B
  8
1PHANTOM
 10
-108.07573938465249
 20
-702.92131065362287
 30
0.0
 11
-104.07573938465261
 21
-702.12131996080041
 31
0.0
  0
LINE
  5
1896C
  8
1PHANTOM
 10
-108.07573938465249
 20
-699.72131065362294
 30
0.0
 11
-104.07573938465261
 21
-698.92131996080025
 31
0.0
  0
LINE
  5
1896D
  8
1PHANTOM
 10
-104.07573938465261
 20
-698.92131996080025
 30
0.0
 11
-104.57573938465261
 21
-698.82131879740314
 31
0.0
  0
LINE
  5
1896E
  8
1PHANTOM
 10
-107.57573938465249
 20
-698.22131181702014
 30
0.0
 11
-108.07573938465249
 21
-698.12131065362291
 31
0.0
  0
LINE
  5
1896F
  8
1PHANTOM
 10
-104.07573938465261
 20
-702.12131996080041
 30
0.0
 11
-104.57573938465261
 21
-702.02131879740307
 31
0.0
  0
LINE
  5
18970
  8
1PHANTOM
 10
-104.07573938465261
 20
-700.52131996080016
 30
0.0
 11
-104.57573938465261
 21
-700.42131879740305
 31
0.0
  0
LINE
  5
18971
  8
1PHANTOM
 10
-107.57573938465249
 20
-699.82131181702005
 30
0.0
 11
-108.07573938465249
 21
-699.72131065362294
 31
0.0
  0
LINE
  5
18972
  8
1PHANTOM
 10
-107.57573938465249
 20
-701.42131181701996
 30
0.0
 11
-108.07573938465249
 21
-701.32131065362285
 31
0.0
  0
LINE
  5
18973
  8
1PHANTOM
 10
-108.07573938465249
 20
-701.32131065362285
 30
0.0
 11
-104.07573938465261
 21
-700.52131996080016
 31
0.0
  0
LINE
  5
18974
  8
1PHANTOM
 10
-104.7549605412633
 20
-692.5213183803919
 30
0.0
 11
-105.30671000506661
 21
-692.33855423776401
 31
0.0
  0
LINE
  5
18975
  8
1PHANTOM
 10
-104.07573938465261
 20
-695.72131996080032
 30
0.0
 11
-104.57573938465261
 21
-695.62131879740309
 31
0.0
  0
LINE
  5
18976
  8
1PHANTOM
 10
-104.07573938465261
 20
-697.32131996080034
 30
0.0
 11
-104.57573938465261
 21
-697.22131879740334
 31
0.0
  0
LINE
  5
18977
  8
1PHANTOM
 10
-104.3021464368565
 20
-694.12131943399766
 30
0.0
 11
-104.8387401721277
 21
-693.99204873636779
 31
0.0
  0
LINE
  5
18978
  8
1PHANTOM
 10
-107.1548247874439
 20
-693.43408121958316
 30
0.0
 11
-107.6229232425939
 21
-693.32131170723312
 31
0.0
  0
LINE
  5
18979
  8
1PHANTOM
 10
-107.57573938465249
 20
-696.62131181702
 30
0.0
 11
-108.07573938465249
 21
-696.52131065362289
 31
0.0
  0
LINE
  5
1897A
  8
1PHANTOM
 10
-107.57573938465249
 20
-695.02131181702009
 30
0.0
 11
-108.07573938465249
 21
-694.92131065362287
 31
0.0
  0
LINE
  5
1897B
  8
1PHANTOM
 10
-106.7129378939145
 20
-691.87274855727776
 30
0.0
 11
-107.17010973454551
 21
-691.72131276083735
 31
0.0
  0
LINE
  5
1897C
  8
1PHANTOM
 10
-107.6229232425939
 20
-693.32131170723312
 30
0.0
 11
-104.7549605412633
 21
-692.5213183803919
 31
0.0
  0
LINE
  5
1897D
  8
1PHANTOM
 10
-108.07573938465249
 20
-696.52131065362289
 30
0.0
 11
-104.07573938465261
 21
-695.72131996080032
 31
0.0
  0
LINE
  5
1897E
  8
1PHANTOM
 10
-108.07573938465249
 20
-694.92131065362287
 30
0.0
 11
-104.3021464368565
 21
-694.12131943399766
 31
0.0
  0
LINE
  5
1897F
  8
1PHANTOM
 10
-108.07573938465249
 20
-698.12131065362291
 30
0.0
 11
-104.07573938465261
 21
-697.32131996080034
 31
0.0
  0
LINE
  5
18980
  8
1PHANTOM
 10
-108.07573938465249
 20
-710.9213106536273
 30
0.0
 11
-104.07573938465261
 21
-710.12131996080905
 31
0.0
  0
LINE
  5
18981
  8
1PHANTOM
 10
-104.07573938465261
 20
-710.12131996080905
 30
0.0
 11
-104.57573938465261
 21
-710.02131879741125
 31
0.0
  0
LINE
  5
18982
  8
1PHANTOM
 10
-107.57573938465249
 20
-709.42131181702064
 30
0.0
 11
-108.07573938465249
 21
-709.32131065362296
 31
0.0
  0
LINE
  5
18983
  8
1PHANTOM
 10
-104.07573938465261
 20
-711.72131996080918
 30
0.0
 11
-104.57573938465261
 21
-711.6213187974115
 31
0.0
  0
LINE
  5
18984
  8
1PHANTOM
 10
-104.07573938465261
 20
-713.32131996080909
 30
0.0
 11
-104.57573938465261
 21
-713.22131879741141
 31
0.0
  0
LINE
  5
18985
  8
1PHANTOM
 10
-107.57573938465249
 20
-711.02131181702498
 30
0.0
 11
-108.07573938465249
 21
-710.9213106536273
 31
0.0
  0
LINE
  5
18986
  8
1PHANTOM
 10
-107.57573938465249
 20
-712.62131181702512
 30
0.0
 11
-108.07573938465249
 21
-712.52131065362744
 31
0.0
  0
LINE
  5
18987
  8
1PHANTOM
 10
-108.07573938465249
 20
-712.52131065362744
 30
0.0
 11
-104.07573938465261
 21
-711.72131996080918
 31
0.0
  0
LINE
  5
18988
  8
1PHANTOM
 10
-104.07573938465261
 20
-705.32131996080454
 30
0.0
 11
-104.57573938465261
 21
-705.22131879740698
 31
0.0
  0
LINE
  5
18989
  8
1PHANTOM
 10
-104.07573938465261
 20
-703.72131996080032
 30
0.0
 11
-104.57573938465261
 21
-703.62131879740309
 31
0.0
  0
LINE
  5
1898A
  8
1PHANTOM
 10
-104.07573938465261
 20
-708.52131996080459
 30
0.0
 11
-104.57573938465261
 21
-708.42131879740703
 31
0.0
  0
LINE
  5
1898B
  8
1PHANTOM
 10
-104.07573938465261
 20
-706.92131996080468
 30
0.0
 11
-104.57573938465261
 21
-706.82131879740712
 31
0.0
  0
LINE
  5
1898C
  8
1PHANTOM
 10
-107.57573938465249
 20
-703.02131181702009
 30
0.0
 11
-108.07573938465249
 21
-702.92131065362287
 31
0.0
  0
LINE
  5
1898D
  8
1PHANTOM
 10
-107.57573938465249
 20
-704.62131181702057
 30
0.0
 11
-108.07573938465249
 21
-704.52131065362289
 31
0.0
  0
LINE
  5
1898E
  8
1PHANTOM
 10
-107.57573938465249
 20
-707.82131181702073
 30
0.0
 11
-108.07573938465249
 21
-707.72131065362305
 31
0.0
  0
LINE
  5
1898F
  8
1PHANTOM
 10
-107.57573938465249
 20
-706.22131181702048
 30
0.0
 11
-108.07573938465249
 21
-706.12131065362291
 31
0.0
  0
LINE
  5
18990
  8
1PHANTOM
 10
-108.07573938465249
 20
-706.12131065362291
 30
0.0
 11
-104.07573938465261
 21
-705.32131996080454
 31
0.0
  0
LINE
  5
18991
  8
1PHANTOM
 10
-108.07573938465249
 20
-704.52131065362289
 30
0.0
 11
-104.07573938465261
 21
-703.72131996080032
 31
0.0
  0
LINE
  5
18992
  8
1PHANTOM
 10
-108.07573938465249
 20
-707.72131065362305
 30
0.0
 11
-104.07573938465261
 21
-706.92131996080468
 31
0.0
  0
LINE
  5
18993
  8
1PHANTOM
 10
-108.07573938465249
 20
-709.32131065362296
 30
0.0
 11
-104.07573938465261
 21
-708.52131996080459
 31
0.0
  0
LINE
  5
18994
  8
1PHANTOM
 10
-104.57573938465261
 20
-719.62131879729782
 30
0.0
 11
-107.57573938465249
 21
-719.62131181691313
 31
0.0
  0
LINE
  5
18995
  8
1PHANTOM
 10
-107.57573938465249
 20
-719.02131181702919
 30
0.0
 11
-108.07573938465249
 21
-718.92131065363151
 31
0.0
  0
LINE
  5
18996
  8
1PHANTOM
 10
-108.07573938465249
 20
-718.92131065363151
 30
0.0
 11
-104.07573938465261
 21
-718.12131996081325
 31
0.0
  0
LINE
  5
18997
  8
1PHANTOM
 10
-104.07573938465261
 20
-718.12131996081325
 30
0.0
 11
-104.57573938465261
 21
-718.02131879741546
 31
0.0
  0
LINE
  5
18998
  8
1PHANTOM
 10
-107.57573938465249
 20
-717.42131181702928
 30
0.0
 11
-108.07573938465249
 21
-717.3213106536316
 31
0.0
  0
LINE
  5
18999
  8
1PHANTOM
 10
-107.57573938465249
 20
-715.82131181702925
 30
0.0
 11
-108.07573938465249
 21
-715.72131065363169
 31
0.0
  0
LINE
  5
1899A
  8
1PHANTOM
 10
-108.07573938465249
 20
-715.72131065363169
 30
0.0
 11
-104.07573938465261
 21
-714.92131996081343
 31
0.0
  0
LINE
  5
1899B
  8
1PHANTOM
 10
-104.07573938465261
 20
-716.52131996081334
 30
0.0
 11
-104.57573938465261
 21
-716.42131879741555
 31
0.0
  0
LINE
  5
1899C
  8
1PHANTOM
 10
-104.07573938465261
 20
-714.92131996081343
 30
0.0
 11
-104.57573938465261
 21
-714.82131879741576
 31
0.0
  0
LINE
  5
1899D
  8
1PHANTOM
 10
-108.07573938465249
 20
-717.3213106536316
 30
0.0
 11
-104.07573938465261
 21
-716.52131996081334
 31
0.0
  0
LINE
  5
1899E
  8
1PHANTOM
 10
-107.57573938465249
 20
-714.22131181702503
 30
0.0
 11
-108.07573938465249
 21
-714.12131065362735
 31
0.0
  0
LINE
  5
1899F
  8
1PHANTOM
 10
-109.8757859205504
 20
-719.62131530699719
 30
0.0
 11
-109.8757859205504
 21
-718.62131530699719
 31
0.0
  0
LINE
  5
189A0
  8
1PHANTOM
 10
-102.2757859205505
 20
-719.62131530699719
 30
0.0
 11
-102.2757859205505
 21
-718.62131530699719
 31
0.0
  0
LINE
  5
189A1
  8
1PHANTOM
 10
-105.57578607055051
 20
-719.62131530699719
 30
0.0
 11
-106.5757857705505
 21
-718.62131530699719
 31
0.0
  0
LINE
  5
189A2
  8
1PHANTOM
 10
-102.2757859205505
 20
-719.62131530699719
 30
0.0
 11
-109.8757859205504
 21
-719.62131530699719
 31
0.0
  0
LINE
  5
189A3
  8
1PHANTOM
 10
-102.2757859205505
 20
-718.62131530699719
 30
0.0
 11
-109.8757859205504
 21
-718.62131530699719
 31
0.0
  0
CIRCLE
  5
189A5
  8
01
 10
23.924214079449492
 20
-873.37131530700515
 30
0.0
 40
2.5
  0
LINE
  5
189A6
  8
1CENTER
 10
23.924214079449492
 20
-876.37131530700503
 30
0.0
 11
23.924214079449492
 21
-870.37131530700515
 31
0.0
  0
LINE
  5
189A7
  8
1CENTER
 10
20.924214079449481
 20
-873.37131530700503
 30
0.0
 11
26.924214079449481
 21
-873.37131530700503
 31
0.0
  0
CIRCLE
  5
189A9
  8
01
 10
-106.0757859205505
 20
-873.37131530700515
 30
0.0
 40
2.5
  0
LINE
  5
189AA
  8
1CENTER
 10
-106.0757859205505
 20
-876.37131530700503
 30
0.0
 11
-106.0757859205505
 21
-870.37131530700515
 31
0.0
  0
LINE
  5
189AB
  8
1CENTER
 10
-109.0757859205505
 20
-873.37131530700503
 30
0.0
 11
-103.0757859205505
 21
-873.37131530700503
 31
0.0
  0
LINE
  5
18B66
  8
01
 10
450.42421407944721
 20
-830.62131530699821
 30
0.0
 11
450.42421407944721
 21
-910.62131530699776
 31
0.0
  0
LINE
  5
18B68
  8
01
 10
441.42421407944721
 20
-830.62131530699821
 30
0.0
 11
441.42421407944721
 21
-910.62131530699776
 31
0.0
  0
LINE
  5
18B69
  8
1CENTER
 10
443.42421407944852
 20
-873.37131530700663
 30
0.0
 11
461.42421407944857
 21
-873.37131530700663
 31
0.0
  0
LINE
  5
18B6A
  8
01
 10
432.92421407944943
 20
-877.1213153070064
 30
0.0
 11
324.92421407944857
 21
-877.1213153070064
 31
0.0
  0
LINE
  5
18B6B
  8
01
 10
432.92421407944943
 20
-869.1213153070064
 30
0.0
 11
324.92421407944948
 21
-869.1213153070064
 31
0.0
  0
LINE
  5
18B6C
  8
01
 10
323.92421407944857
 20
-870.12131530700663
 30
0.0
 11
323.92421407944857
 21
-876.12131530700731
 31
0.0
  0
LINE
  5
18B6D
  8
01
 10
323.92421407944857
 20
-876.1213153070064
 30
0.0
 11
324.92421407944857
 21
-877.1213153070064
 31
0.0
  0
LINE
  5
18B6E
  8
01
 10
324.92421407944857
 20
-869.1213153070064
 30
0.0
 11
323.92421407944857
 21
-870.12131530700663
 31
0.0
  0
LINE
  5
18B6F
  8
01
 10
412.92421407944943
 20
-864.12131530700651
 30
0.0
 11
440.92421407945119
 21
-864.12131530699924
 31
0.0
  0
LINE
  5
18B70
  8
1PHANTOM
 10
440.62421756942422
 20
-871.87136184290455
 30
0.0
 11
440.72421873282201
 21
-871.37136184290455
 31
0.0
  0
LINE
  5
18B71
  8
1CENTER
 10
471.38512867060211
 20
-873.3713153070064
 30
0.0
 11
434.75393767014788
 21
-873.3713153070064
 31
0.0
  0
LINE
  5
18B72
  8
1PHANTOM
 10
463.12421058904869
 20
-874.87136184290455
 30
0.0
 11
438.42421058915619
 21
-874.87136184290455
 31
0.0
  0
LINE
  5
18B73
  8
1PHANTOM
 10
463.1242175694324
 20
-871.87136184290455
 30
0.0
 11
438.4242175695407
 21
-871.87136184290455
 31
0.0
  0
LINE
  5
18B74
  8
01
 10
440.92421407943681
 20
-887.6213153070064
 30
0.0
 11
412.92421407944943
 21
-887.6213153070064
 31
0.0
  0
LINE
  5
18B75
  8
01
 10
411.92421407944948
 20
-865.12131530700651
 30
0.0
 11
411.92421407944948
 21
-868.62131530700651
 31
0.0
  0
LINE
  5
18B76
  8
01
 10
434.92421407944943
 20
-870.12131530700663
 30
0.0
 11
434.92421407944943
 21
-876.62131530700651
 31
0.0
  0
LINE
  5
18B77
  8
1PHANTOM
 10
438.4242222232387
 20
-869.8713153070064
 30
0.0
 11
438.4242175695407
 21
-871.87136184290455
 31
0.0
  0
ARC
  5
18B78
  8
1PHANTOM
 10
437.32421873304338
 20
-871.37131530700651
 30
0.0
 40
1.5
 50
90.0
 51
179.99986668446189
  0
LINE
  5
18B79
  8
1PHANTOM
 10
439.4242140794567
 20
-869.5713153070036
 30
0.0
 11
439.4242140794567
 21
-870.8713153070064
 31
0.0
  0
LINE
  5
18B7A
  8
1PHANTOM
 10
439.4242140794567
 20
-877.17131530700658
 30
0.0
 11
439.4242140794567
 21
-869.57131530700622
 31
0.0
  0
LINE
  5
18B7B
  8
1PHANTOM
 10
438.4242140794567
 20
-877.17131530700658
 30
0.0
 11
438.4242140794567
 21
-869.57131530700622
 31
0.0
  0
LINE
  5
18B7C
  8
01
 10
433.92421407944943
 20
-877.62131530700651
 30
0.0
 11
412.42421407944943
 21
-877.62131530700651
 31
0.0
  0
ARC
  5
18B7D
  8
01
 10
412.42421407944943
 20
-878.12131530700663
 30
0.0
 40
0.5
 50
90.0
 51
180.0
  0
LINE
  5
18B7E
  8
1PHANTOM
 10
439.4242140794567
 20
-871.32131530700622
 30
0.0
 11
438.4242140794567
 21
-871.32131530700622
 31
0.0
  0
LINE
  5
18B7F
  8
1PHANTOM
 10
440.22972989739901
 20
-873.3713153070064
 30
0.0
 11
437.60062337144791
 21
-873.3713153070064
 31
0.0
  0
LINE
  5
18B80
  8
1PHANTOM
 10
439.02421756942471
 20
-871.87136184290455
 30
0.0
 11
439.1242187328225
 21
-871.37136184290455
 31
0.0
  0
LINE
  5
18B81
  8
1PHANTOM
 10
439.4242140794567
 20
-875.42131530700658
 30
0.0
 11
438.42421407945579
 21
-875.42131530700658
 31
0.0
  0
LINE
  5
18B82
  8
1PHANTOM
 10
439.4242140794567
 20
-877.17131530700658
 30
0.0
 11
438.4242140794567
 21
-877.17131530700658
 31
0.0
  0
LINE
  5
18B83
  8
1PHANTOM
 10
439.92420942564058
 20
-875.37136184290455
 30
0.0
 11
440.02421058903838
 21
-874.87136184290455
 31
0.0
  0
LINE
  5
18B84
  8
1PHANTOM
 10
438.42421058915619
 20
-874.87136184290455
 30
0.0
 11
438.42420593567471
 21
-876.87131530700651
 31
0.0
  0
LINE
  5
18B85
  8
1PHANTOM
 10
438.42420593567471
 20
-876.87131530700651
 30
0.0
 11
437.3242094258639
 21
-876.87131530700651
 31
0.0
  0
ARC
  5
18B86
  8
1PHANTOM
 10
437.3242094258639
 20
-875.3713153070064
 30
0.0
 40
1.5
 50
179.99986668446189
 51
270.0
  0
ARC
  5
18B87
  8
01
 10
433.92421407944943
 20
-876.62131530700651
 30
0.0
 40
1.0
 50
270.0
 51
0.0
  0
LINE
  5
18B88
  8
1PHANTOM
 10
439.4242140794567
 20
-875.87131530700651
 30
0.0
 11
439.4242140794567
 21
-877.17131530700215
 31
0.0
  0
LINE
  5
18B89
  8
01
 10
433.92421407944943
 20
-876.1213153070064
 30
0.0
 11
432.92421407944943
 21
-877.1213153070064
 31
0.0
  0
LINE
  5
18B8A
  8
1PHANTOM
 10
438.42421058915619
 20
-874.87136184290455
 30
0.0
 11
438.4242175695407
 21
-871.87136184290455
 31
0.0
  0
LINE
  5
18B8B
  8
1PHANTOM
 10
439.1242187328225
 20
-871.37136184290455
 30
0.0
 11
439.92420942564058
 21
-875.37136184290455
 31
0.0
  0
LINE
  5
18B8C
  8
1PHANTOM
 10
435.82421873304691
 20
-871.37131181681423
 30
0.0
 11
435.82420942586759
 21
-875.37131181681434
 31
0.0
  0
LINE
  5
18B8D
  8
01
 10
433.92421407944943
 20
-869.1213153070064
 30
0.0
 11
412.42421407944943
 21
-869.1213153070064
 31
0.0
  0
ARC
  5
18B8E
  8
01
 10
412.42421407944943
 20
-868.62131530700651
 30
0.0
 40
0.5
 50
180.0
 51
270.0
  0
LINE
  5
18B8F
  8
1PHANTOM
 10
439.4242140794567
 20
-869.57131530700622
 30
0.0
 11
438.4242140794567
 21
-869.57131530700622
 31
0.0
  0
LINE
  5
18B90
  8
1PHANTOM
 10
438.4242222232387
 20
-869.8713153070064
 30
0.0
 11
437.32421873304338
 21
-869.8713153070064
 31
0.0
  0
ARC
  5
18B91
  8
01
 10
433.92421407944943
 20
-870.12131530700663
 30
0.0
 40
1.0
 50
0.0
 51
90.0
  0
LINE
  5
18B92
  8
01
 10
433.92421407944943
 20
-870.12131530700663
 30
0.0
 11
432.92421407944943
 21
-869.1213153070064
 31
0.0
  0
ARC
  5
18B93
  8
01
 10
412.92421407944943
 20
-886.62131530700651
 30
0.0
 40
1.0
 50
180.0
 51
270.0
  0
LINE
  5
18B94
  8
01
 10
411.92421407944948
 20
-878.12131530700663
 30
0.0
 11
411.92421407944948
 21
-886.62131530700651
 31
0.0
  0
ARC
  5
18B95
  8
01
 10
412.92421407944943
 20
-865.12131530700651
 30
0.0
 40
1.0
 50
90.0
 51
180.0
  0
LINE
  5
18B96
  8
01
 10
441.42421407945119
 20
-864.62131530699912
 30
0.0
 11
441.42421407943669
 21
-887.12131530700651
 31
0.0
  0
LINE
  5
18B97
  8
1PHANTOM
 10
464.7242176792206
 20
-871.82417798496306
 30
0.0
 11
465.52421100606159
 21
-874.69214068629378
 31
0.0
  0
LINE
  5
18B98
  8
1PHANTOM
 10
468.4242140792939
 20
-873.37136184290455
 30
0.0
 11
463.1242175694324
 21
-871.87136184290455
 31
0.0
  0
LINE
  5
18B99
  8
1PHANTOM
 10
468.4242140792939
 20
-873.37136184290455
 30
0.0
 11
463.12421058904869
 21
-874.87136184290455
 31
0.0
  0
LINE
  5
18B9A
  8
1PHANTOM
 10
451.92421873283092
 20
-871.37136184290455
 30
0.0
 11
452.72420942564889
 21
-875.37136184290455
 31
0.0
  0
LINE
  5
18B9B
  8
1PHANTOM
 10
448.62421756943331
 20
-871.87136184290455
 30
0.0
 11
448.7242187328311
 21
-871.37136184290455
 31
0.0
  0
LINE
  5
18B9C
  8
1PHANTOM
 10
450.22421756943271
 20
-871.87136184290455
 30
0.0
 11
450.3242187328305
 21
-871.37136184290455
 31
0.0
  0
LINE
  5
18B9D
  8
1PHANTOM
 10
451.82421756943307
 20
-871.87136184290455
 30
0.0
 11
451.92421873283092
 21
-871.37136184290455
 31
0.0
  0
LINE
  5
18B9E
  8
1PHANTOM
 10
447.92420942564411
 20
-875.37136184290455
 30
0.0
 11
448.02421058904201
 21
-874.87136184290455
 31
0.0
  0
LINE
  5
18B9F
  8
1PHANTOM
 10
449.52420942564908
 20
-875.37136184290455
 30
0.0
 11
449.62421058904692
 21
-874.87136184290455
 31
0.0
  0
LINE
  5
18BA0
  8
1PHANTOM
 10
451.12420942564859
 20
-875.37136184290455
 30
0.0
 11
451.22421058904638
 21
-874.87136184290455
 31
0.0
  0
LINE
  5
18BA1
  8
1PHANTOM
 10
450.3242187328305
 20
-871.37136184290455
 30
0.0
 11
451.12420942564859
 21
-875.37136184290455
 31
0.0
  0
LINE
  5
18BA2
  8
1PHANTOM
 10
448.7242187328311
 20
-871.37136184290455
 30
0.0
 11
449.52420942564908
 21
-875.37136184290455
 31
0.0
  0
LINE
  5
18BA3
  8
1PHANTOM
 10
447.02421756942829
 20
-871.87136184290455
 30
0.0
 11
447.12421873282619
 21
-871.37136184290455
 31
0.0
  0
LINE
  5
18BA4
  8
1PHANTOM
 10
445.42421756942889
 20
-871.87136184290455
 30
0.0
 11
445.52421873282577
 21
-871.37136184290455
 31
0.0
  0
LINE
  5
18BA5
  8
1PHANTOM
 10
446.32420942564482
 20
-875.37136184290455
 30
0.0
 11
446.4242105890425
 21
-874.87136184290455
 31
0.0
  0
LINE
  5
18BA6
  8
1PHANTOM
 10
444.7242094256444
 20
-875.37136184290455
 30
0.0
 11
444.8242105890422
 21
-874.87136184290455
 31
0.0
  0
LINE
  5
18BA7
  8
1PHANTOM
 10
443.92421873282638
 20
-871.37136184290455
 30
0.0
 11
444.7242094256444
 21
-875.37136184290455
 31
0.0
  0
LINE
  5
18BA8
  8
1PHANTOM
 10
445.52421873282577
 20
-871.37136184290455
 30
0.0
 11
446.32420942564482
 21
-875.37136184290455
 31
0.0
  0
LINE
  5
18BA9
  8
1PHANTOM
 10
447.12421873282619
 20
-871.37136184290455
 30
0.0
 11
447.92420942564411
 21
-875.37136184290455
 31
0.0
  0
LINE
  5
18BAA
  8
1PHANTOM
 10
453.42421756943253
 20
-871.87136184290455
 30
0.0
 11
453.52421873283038
 21
-871.37136184290455
 31
0.0
  0
LINE
  5
18BAB
  8
1PHANTOM
 10
458.22421756943368
 20
-871.87136184290455
 30
0.0
 11
458.32421873283062
 21
-871.37136184290455
 31
0.0
  0
LINE
  5
18BAC
  8
1PHANTOM
 10
456.62421756943331
 20
-871.87136184290455
 30
0.0
 11
456.7242187328311
 21
-871.37136184290455
 31
0.0
  0
LINE
  5
18BAD
  8
1PHANTOM
 10
455.0242175694338
 20
-871.87136184290455
 30
0.0
 11
455.12421873283068
 21
-871.37136184290455
 31
0.0
  0
LINE
  5
18BAE
  8
1PHANTOM
 10
452.72420942564889
 20
-875.37136184290455
 30
0.0
 11
452.82421058904669
 21
-874.87136184290455
 31
0.0
  0
LINE
  5
18BAF
  8
1PHANTOM
 10
454.3242094256529
 20
-875.37136184290455
 30
0.0
 11
454.42421058905069
 21
-874.87136184290455
 31
0.0
  0
LINE
  5
18BB0
  8
1PHANTOM
 10
455.92420942565332
 20
-875.37136184290455
 30
0.0
 11
456.0242105890502
 21
-874.87136184290455
 31
0.0
  0
LINE
  5
18BB1
  8
1PHANTOM
 10
457.52420942565368
 20
-875.37136184290455
 30
0.0
 11
457.62421058905051
 21
-874.87136184290455
 31
0.0
  0
LINE
  5
18BB2
  8
1PHANTOM
 10
453.52421873283038
 20
-871.37136184290455
 30
0.0
 11
454.3242094256529
 21
-875.37136184290455
 31
0.0
  0
LINE
  5
18BB3
  8
1PHANTOM
 10
455.12421873283068
 20
-871.37136184290455
 30
0.0
 11
455.92420942565332
 21
-875.37136184290455
 31
0.0
  0
LINE
  5
18BB4
  8
1PHANTOM
 10
458.32421873283062
 20
-871.37136184290455
 30
0.0
 11
459.12420942565308
 21
-875.37136184290455
 31
0.0
  0
LINE
  5
18BB5
  8
1PHANTOM
 10
456.7242187328311
 20
-871.37136184290455
 30
0.0
 11
457.52420942565368
 21
-875.37136184290455
 31
0.0
  0
LINE
  5
18BB6
  8
1PHANTOM
 10
459.12420942565308
 20
-875.37136184290455
 30
0.0
 11
459.22421058905093
 21
-874.87136184290455
 31
0.0
  0
LINE
  5
18BB7
  8
1PHANTOM
 10
459.82421756943307
 20
-871.87136184290455
 30
0.0
 11
459.92421873283092
 21
-871.37136184290455
 31
0.0
  0
LINE
  5
18BB8
  8
1PHANTOM
 10
462.3242094256529
 20
-875.37136184290455
 30
0.0
 11
462.42421058905069
 21
-874.87136184290455
 31
0.0
  0
LINE
  5
18BB9
  8
1PHANTOM
 10
460.7242094256535
 20
-875.37136184290455
 30
0.0
 11
460.82421058905038
 21
-874.87136184290455
 31
0.0
  0
LINE
  5
18BBA
  8
1PHANTOM
 10
463.92420995245629
 20
-875.14495479070035
 30
0.0
 11
464.05348065008548
 21
-874.60836105542955
 31
0.0
  0
LINE
  5
18BBB
  8
1PHANTOM
 10
464.6114481668701
 20
-872.29227644011269
 30
0.0
 11
464.7242176792206
 21
-871.82417798496306
 31
0.0
  0
LINE
  5
18BBC
  8
1PHANTOM
 10
461.42421756943349
 20
-871.87136184290455
 30
0.0
 11
461.52421873283038
 21
-871.37136184290455
 31
0.0
  0
LINE
  5
18BBD
  8
1PHANTOM
 10
463.02421756943392
 20
-871.87136184290455
 30
0.0
 11
463.12421873283068
 21
-871.37136184290455
 31
0.0
  0
LINE
  5
18BBE
  8
1PHANTOM
 10
461.52421873283038
 20
-871.37136184290455
 30
0.0
 11
462.3242094256529
 21
-875.37136184290455
 31
0.0
  0
LINE
  5
18BBF
  8
1PHANTOM
 10
463.12421873283068
 20
-871.37136184290455
 30
0.0
 11
463.92420995245629
 21
-875.14495479070035
 31
0.0
  0
LINE
  5
18BC0
  8
1PHANTOM
 10
459.92421873283092
 20
-871.37136184290455
 30
0.0
 11
460.7242094256535
 21
-875.37136184290455
 31
0.0
  0
LINE
  5
18BC1
  8
1PHANTOM
 10
467.12421205966712
 20
-874.2393265818863
 30
0.0
 11
467.435981915919
 21
-873.65105000684423
 31
0.0
  0
LINE
  5
18BC2
  8
1PHANTOM
 10
465.52421100606159
 20
-874.69214068629378
 30
0.0
 11
465.70697514868971
 21
-874.14039122249028
 31
0.0
  0
LINE
  5
18BC3
  8
1PHANTOM
 10
466.17278082917619
 20
-872.73416333364253
 30
0.0
 11
466.32421662561592
 21
-872.27699149301111
 31
0.0
  0
LINE
  5
18BC4
  8
1PHANTOM
 10
466.32421662561592
 20
-872.27699149301111
 30
0.0
 11
467.12421205966712
 21
-874.2393265818863
 31
0.0
  0
LINE
  5
18BC5
  8
1PHANTOM
 10
443.12420942564029
 20
-875.37136184290455
 30
0.0
 11
443.22421058903819
 21
-874.87136184290455
 31
0.0
  0
LINE
  5
18BC6
  8
1PHANTOM
 10
442.22421756942452
 20
-871.87136184290455
 30
0.0
 11
442.32421873282237
 21
-871.37136184290455
 31
0.0
  0
LINE
  5
18BC7
  8
1PHANTOM
 10
441.52420942563998
 20
-875.37136184290455
 30
0.0
 11
441.62421058903777
 21
-874.87136184290455
 31
0.0
  0
LINE
  5
18BC8
  8
1PHANTOM
 10
440.72421873282201
 20
-871.37136184290455
 30
0.0
 11
441.52420942563998
 21
-875.37136184290455
 31
0.0
  0
LINE
  5
18BC9
  8
1PHANTOM
 10
442.32421873282237
 20
-871.37136184290455
 30
0.0
 11
443.12420942564029
 21
-875.37136184290455
 31
0.0
  0
ARC
  5
18BCA
  8
01
 10
440.92421407943681
 20
-887.12131530700651
 30
0.0
 40
0.5
 50
270.0
 51
359.99999999996089
  0
ARC
  5
18BCC
  8
01
 10
440.92421407945119
 20
-864.62131530699912
 30
0.0
 40
0.5
 50
359.99999999996089
 51
90.000000000026048
  0
LINE
  5
18BD3
  8
01
 10
433.92421407944943
 20
-876.1213153070064
 30
0.0
 11
433.92421407944943
 21
-870.12131530700663
 31
0.0
  0
LINE
  5
18BD9
  8
1PHANTOM
 10
416.72421407944961
 20
-877.12131530700685
 30
0.0
 11
423.1242140794493
 21
-877.12131530700594
 31
0.0
  0
LINE
  5
18BDA
  8
1PHANTOM
 10
416.55421407944959
 20
-879.12131530700685
 30
0.0
 11
423.29421407944932
 21
-879.12131530700685
 31
0.0
  0
LINE
  5
18BDB
  8
1PHANTOM
 10
416.72421407944961
 20
-877.12131530700685
 30
0.0
 11
416.72421407944961
 21
-879.12131530700685
 31
0.0
  0
LINE
  5
18BDC
  8
1PHANTOM
 10
423.1242140794493
 20
-877.12131530700685
 30
0.0
 11
423.1242140794493
 21
-879.12131530700685
 31
0.0
  0
LINE
  5
18BDD
  8
1PHANTOM
 10
415.92421407944948
 20
-879.75131530700696
 30
0.0
 11
423.92421407944948
 21
-879.75131530700696
 31
0.0
  0
LINE
  5
18BDE
  8
1PHANTOM
 10
416.55421407944959
 20
-887.12131530700685
 30
0.0
 11
423.29421407944932
 21
-887.12131530700685
 31
0.0
  0
LINE
  5
18BDF
  8
1PHANTOM
 10
415.92421407944948
 20
-886.49131530700674
 30
0.0
 11
423.92421407944948
 21
-886.49131530700674
 31
0.0
  0
LINE
  5
18BE0
  8
1PHANTOM
 10
416.55421407944959
 20
-887.12131530700685
 30
0.0
 11
415.92421407944948
 21
-886.49131530700674
 31
0.0
  0
LINE
  5
18BE1
  8
1PHANTOM
 10
415.92421407944948
 20
-879.75131530700696
 30
0.0
 11
415.92421407944948
 21
-886.49131530700504
 31
0.0
  0
LINE
  5
18BE2
  8
1PHANTOM
 10
415.92421407944948
 20
-879.75131530700696
 30
0.0
 11
415.92421407944948
 21
-886.49131530700674
 31
0.0
  0
LINE
  5
18BE3
  8
1PHANTOM
 10
423.29421407944932
 20
-887.12131530700685
 30
0.0
 11
423.92421407944948
 21
-886.49131530700674
 31
0.0
  0
LINE
  5
18BE4
  8
1PHANTOM
 10
423.92421407944948
 20
-879.75131530700696
 30
0.0
 11
423.92421407944948
 21
-886.49131530700504
 31
0.0
  0
LINE
  5
18BE5
  8
1PHANTOM
 10
423.92421407944948
 20
-879.75131530700696
 30
0.0
 11
423.92421407944948
 21
-886.49131530700674
 31
0.0
  0
LINE
  5
18BE6
  8
1PHANTOM
 10
416.55421407944959
 20
-879.12131530700685
 30
0.0
 11
415.92421407944948
 21
-879.75131530700696
 31
0.0
  0
LINE
  5
18BE7
  8
1PHANTOM
 10
416.55421407944959
 20
-879.12131530700685
 30
0.0
 11
416.55421407944959
 21
-887.12131530700685
 31
0.0
  0
LINE
  5
18BE8
  8
1PHANTOM
 10
423.92421407944948
 20
-879.75131530700696
 30
0.0
 11
423.29421407944932
 21
-879.12131530700685
 31
0.0
  0
LINE
  5
18BE9
  8
1CENTER
 10
419.92421407944948
 20
-876.35676465013182
 30
0.0
 11
419.92421407944948
 21
-887.90926038573275
 31
0.0
  0
LINE
  5
18BEA
  8
1PHANTOM
 10
423.29421407944932
 20
-879.12131530700685
 30
0.0
 11
423.29421407944932
 21
-887.12131530700685
 31
0.0
  0
LINE
  5
18E60
  8
1DIM1
 10
273.92421407945039
 20
-725.12131530701083
 30
0.0
 11
273.92421407945039
 21
-673.62131530700458
 31
0.0
  0
LINE
  5
18E61
  8
1DIM1
 10
193.92421407944951
 20
-716.62131530699764
 30
0.0
 11
193.92421407944951
 21
-673.62131530700458
 31
0.0
  0
LINE
  5
18E62
  8
1DIM1
 10
267.92421407945039
 20
-676.62131530700458
 30
0.0
 11
199.92421407944951
 21
-676.62131530700458
 31
0.0
  0
LINE
  5
18E66
  8
1DIM1
 10
-226.07578592054961
 20
-725.12131530701083
 30
0.0
 11
-226.07578592054961
 21
-673.62131530700458
 31
0.0
  0
LINE
  5
18E67
  8
1DIM1
 10
-146.0757859205487
 20
-716.62131530699764
 30
0.0
 11
-146.0757859205487
 21
-673.62131530700458
 31
0.0
  0
LINE
  5
18E68
  8
1DIM1
 10
-220.07578592054961
 20
-676.62131530700458
 30
0.0
 11
-152.0757859205487
 21
-676.62131530700458
 31
0.0
  0
LINE
  5
18E6C
  8
1DIM1
 10
-146.0757859205487
 20
-716.62131530700435
 30
0.0
 11
-146.0757859205487
 21
-673.62131530700458
 31
0.0
  0
LINE
  5
18E6D
  8
1DIM1
 10
193.92421407944951
 20
-716.62131530700401
 30
0.0
 11
193.92421407944951
 21
-673.62131530700458
 31
0.0
  0
LINE
  5
18E6E
  8
1DIM1
 10
-140.0757859205487
 20
-676.62131530700458
 30
0.0
 11
187.9242140794494
 21
-676.62131530700458
 31
0.0
  0
LINE
  5
18E72
  8
1DIM
 10
441.42421407943669
 20
-887.12131530700651
 30
0.0
 11
441.42421407943669
 21
-898.62131530700663
 31
0.0
  0
LINE
  5
18E73
  8
1DIM
 10
419.92421407944948
 20
-887.90926038573275
 30
0.0
 11
419.92421407944948
 21
-898.62131530700663
 31
0.0
  0
LINE
  5
18E74
  8
1DIM
 10
439.42421407943669
 20
-897.6213153070064
 30
0.0
 11
421.92421407944943
 21
-897.6213153070064
 31
0.0
  0
LINE
  5
18E78
  8
1DIM
 10
324.92421407944857
 20
-869.1213153070064
 30
0.0
 11
312.92421407944869
 21
-869.1213153070064
 31
0.0
  0
LINE
  5
18E79
  8
1DIM
 10
324.92421407944857
 20
-877.1213153070064
 30
0.0
 11
312.92421407944869
 21
-877.1213153070064
 31
0.0
  0
LINE
  5
18E7A
  8
1DIM
 10
313.92421407944869
 20
-871.12131530700651
 30
0.0
 11
313.92421407944869
 21
-875.1213153070064
 31
0.0
  0
LINE
  5
18E7E
  8
1DIM
 10
324.92421407944857
 20
-869.1213153070064
 30
0.0
 11
312.92421407944869
 21
-869.1213153070064
 31
0.0
  0
LINE
  5
18E7F
  8
1DIM
 10
412.9242140794492
 20
-864.12131530700651
 30
0.0
 11
312.92421407944869
 21
-864.12131530700651
 31
0.0
  0
LINE
  5
18E80
  8
1DIM
 10
313.92421407944869
 20
-871.12131530700651
 30
0.0
 11
313.92421407944869
 21
-873.12131530700651
 31
0.0
  0
LINE
  5
18E81
  8
1DIM
 10
313.92421407944869
 20
-862.12131530700651
 30
0.0
 11
313.92421407944869
 21
-856.38798197367305
 31
0.0
  0
LINE
  5
18E82
  8
1DIM
 10
313.92421407944869
 20
-869.1213153070064
 30
0.0
 11
313.92421407944869
 21
-864.12131530700651
 31
0.0
  0
LINE
  5
18E86
  8
1DIM
 10
412.92421407944943
 20
-887.6213153070064
 30
0.0
 11
302.92421407944869
 21
-887.6213153070064
 31
0.0
  0
LINE
  5
18E87
  8
1DIM
 10
412.9242140794492
 20
-864.12131530700651
 30
0.0
 11
302.92421407944869
 21
-864.12131530700651
 31
0.0
  0
LINE
  5
18E88
  8
1DIM
 10
303.92421407944869
 20
-885.62131530700651
 30
0.0
 11
303.92421407944869
 21
-866.12131530700651
 31
0.0
  0
LINE
  5
18E8C
  8
1DIM
 10
471.38512867060211
 20
-873.3713153070064
 30
0.0
 11
482.42421407944721
 21
-873.3713153070064
 31
0.0
  0
LINE
  5
18E8D
  8
1DIM
 10
440.92421407945108
 20
-864.12131530699924
 30
0.0
 11
482.42421407944721
 21
-864.12131530699924
 31
0.0
  0
LINE
  5
18E8E
  8
1DIM
 10
481.42421407944721
 20
-871.37131530700651
 30
0.0
 11
481.42421407944721
 21
-866.12131530699924
 31
0.0
  0
LINE
  5
18E92
  8
1DIM
 10
441.42421407944721
 20
-910.62131530699776
 30
0.0
 11
441.42421407944721
 21
-906.6213153070064
 31
0.0
  0
LINE
  5
18E93
  8
1DIM
 10
411.92421407944948
 20
-886.62131530700651
 30
0.0
 11
411.92421407944948
 21
-908.62131530700651
 31
0.0
  0
LINE
  5
18E94
  8
1DIM
 10
439.42421407944732
 20
-907.62131530700663
 30
0.0
 11
413.92421407944943
 21
-907.62131530700663
 31
0.0
  0
TEXT
  5
18E98
  8
1DIM
 10
333.95993073835001
 20
-900.815939557761
 30
0.0
 40
3.5
  1
材質：ガラス
  0
SOLID
  5
18E99
  8
1DIM
 10
376.3308137821208
 20
-878.56933413560512
 30
0.0
 11
377.75993073835002
 21
-877.13102407288227
 31
0.0
 12
376.8745422865839
 22
-878.95508503693759
 32
0.0
 13
376.8745422865839
 23
-878.95508503693759
 33
0.0
  0
TEXT
  5
18E9B
  8
1DIM
 10
447.07931532183949
 20
-808.08440749893271
 30
0.0
 40
3.5
  1
PB
  0
SOLID
  5
18E9C
  8
1DIM
 10
447.98384543348237
 20
-827.23716850262247
 30
0.0
 11
448.00418270152659
 21
-829.26465401592213
 31
0.0
 12
447.32738187609039
 22
-827.35335818486919
 32
0.0
 13
447.32738187609039
 23
-827.35335818486919
 33
0.0
  0
SOLID
  5
18E9E
  8
1DIM
 10
456.04736624601321
 20
-827.24155503272175
 30
0.0
 11
456.50216491546792
 21
-829.21747742020898
 31
0.0
 12
455.43111026463652
 22
-827.49586391943615
 32
0.0
 13
455.43111026463652
 23
-827.49586391943615
 33
0.0
  0
TEXT
  5
18EA0
  8
1DIM
 10
453.2466598163781
 20
-814.08575351605657
 30
0.0
 40
3.5
  1
合板9mm以上
  0
LINE
  5
18EA1
  8
1HATCH
 10
443.34353816848301
 20
-873.72494120225474
 30
0.0
 11
443.34353816848301
 21
-873.72494120225474
 31
0.0
  0
LINE
  5
18EA2
  8
1HATCH
 10
439.7001416037229
 20
-885.91573554055981
 30
0.0
 11
439.7001416037229
 21
-885.91573554055981
 31
0.0
  0
LINE
  5
18EA3
  8
1DIM
 10
323.92421407944857
 20
-876.1213153070064
 30
0.0
 11
323.92421407944857
 21
-918.62131530700651
 31
0.0
  0
LINE
  5
18EA4
  8
1DIM
 10
441.42421407944721
 20
-887.12131530700651
 30
0.0
 11
441.42421407944721
 21
-918.62131530700651
 31
0.0
  0
LINE
  5
18EA5
  8
1DIM
 10
325.92421407944857
 20
-917.62131530700651
 30
0.0
 11
439.42421407944732
 21
-917.62131530700651
 31
0.0
  0
TEXT
  5
18EA9
  8
1DIM
 10
378.49199683398689
 20
-925.86338169281601
 30
0.0
 40
3.5
  1
材質：アルミ
  0
TEXT
  5
18EAA
  8
1DIM
 10
348.85866350065362
 20
-931.69671502614926
 30
0.0
 40
3.5
  1
仕上げ：ブラストアルマイト
  0
SOLID
  5
18EAB
  8
1DIM
 10
420.77999507870942
 20
-890.37748125612154
 30
0.0
 11
421.82533016732032
 21
-888.6401310716077
 31
0.0
 12
421.39996460280088
 22
-890.62259803164307
 32
0.0
 13
421.39996460280088
 23
-890.62259803164307
 33
0.0
  0
LINE
  5
18EAD
  8
1DIM1
 10
-106.0757859205505
 20
-876.37131530700503
 30
0.0
 11
-106.0757859205505
 21
-920.62131530700651
 31
0.0
  0
LINE
  5
18EAE
  8
1DIM1
 10
23.924214079449492
 20
-876.37131530700503
 30
0.0
 11
23.924214079449481
 21
-920.62131530700651
 31
0.0
  0
LINE
  5
18EAF
  8
1DIM1
 10
-100.0757859205505
 20
-917.62131530700651
 30
0.0
 11
17.924214079449481
 21
-917.62131530700651
 31
0.0
  0
LINE
  5
18EB3
  8
1PHANTOM
 10
-106.07573938465261
 20
-689.62131530715953
 30
0.0
 11
-107.57573938465249
 21
-694.92131181702121
 31
0.0
  0
LINE
  5
18EB4
  8
1PHANTOM
 10
-107.57573938465249
 20
-694.92131181702121
 30
0.0
 11
-107.57573938465249
 21
-719.62131181691313
 31
0.0
  0
LINE
  5
18EB5
  8
1PHANTOM
 10
-106.07573938465261
 20
-689.62131530715953
 30
0.0
 11
-104.57573938465239
 21
-694.92131879740487
 31
0.0
  0
LINE
  5
18EB6
  8
1PHANTOM
 10
-109.5757859205505
 20
-719.62130716321508
 30
0.0
 11
-107.57573938465249
 21
-719.62131181691313
 31
0.0
  0
LINE
  5
18EB7
  8
1PHANTOM
 10
-104.57573938465239
 20
-694.92131879740487
 30
0.0
 11
-104.57573938465261
 21
-719.62131879729782
 31
0.0
  0
LINE
  5
18EB8
  8
1PHANTOM
 10
-109.5757859205505
 20
-719.62130716321508
 30
0.0
 11
-109.5757859205505
 21
-720.72131065341034
 31
0.0
  0
LINE
  5
18EB9
  8
1PHANTOM
 10
-104.57573938465261
 20
-719.62131879729782
 30
0.0
 11
-102.5757859205505
 21
-719.62132345077919
 31
0.0
  0
ARC
  5
18EBA
  8
1PHANTOM
 10
-108.0757859205505
 20
-720.72131065341034
 30
0.0
 40
1.5
 50
180.0
 51
269.99986668447491
  0
LINE
  5
18EBB
  8
1PHANTOM
 10
-102.5757859205505
 20
-719.62132345077919
 30
0.0
 11
-102.5757859205505
 21
-720.72131996058999
 31
0.0
  0
LINE
  5
18EBC
  8
1PHANTOM
 10
-108.0757894107428
 20
-722.22131065340625
 30
0.0
 11
-104.0757894107429
 21
-722.22131996058579
 31
0.0
  0
ARC
  5
18EBD
  8
1PHANTOM
 10
-104.0757859205505
 20
-720.72131996058999
 30
0.0
 40
1.5
 50
269.99986668447059
 51
0.0
  0
LINE
  5
18EBE
  8
1PHANTOM
 10
23.924260615347411
 20
-689.62131530715953
 30
0.0
 11
22.424260615347411
 21
-694.92131181702121
 31
0.0
  0
LINE
  5
18EBF
  8
1PHANTOM
 10
22.424260615347411
 20
-694.92131181702121
 30
0.0
 11
22.424260615347631
 21
-719.62131181691313
 31
0.0
  0
LINE
  5
18EC0
  8
1PHANTOM
 10
23.924260615347411
 20
-689.62131530715953
 30
0.0
 11
25.424260615347521
 21
-694.92131879740487
 31
0.0
  0
LINE
  5
18EC1
  8
1PHANTOM
 10
20.424214079449602
 20
-719.62130716321508
 30
0.0
 11
22.424260615347631
 21
-719.62131181691313
 31
0.0
  0
LINE
  5
18EC2
  8
1PHANTOM
 10
25.424260615347521
 20
-694.92131879740487
 30
0.0
 11
25.424260615347411
 21
-719.62131879729782
 31
0.0
  0
LINE
  5
18EC3
  8
1PHANTOM
 10
20.424214079449602
 20
-719.62130716321508
 30
0.0
 11
20.424214079449481
 21
-720.72131065341034
 31
0.0
  0
LINE
  5
18EC4
  8
1PHANTOM
 10
25.424260615347411
 20
-719.62131879729782
 30
0.0
 11
27.424214079449492
 21
-719.62132345077919
 31
0.0
  0
ARC
  5
18EC5
  8
1PHANTOM
 10
21.924214079449481
 20
-720.72131065341034
 30
0.0
 40
1.5
 50
180.0
 51
269.99986668447059
  0
LINE
  5
18EC6
  8
1PHANTOM
 10
27.424214079449492
 20
-719.62132345077919
 30
0.0
 11
27.424214079449492
 21
-720.72131996058999
 31
0.0
  0
LINE
  5
18EC7
  8
1PHANTOM
 10
21.92421058925709
 20
-722.22131065340625
 30
0.0
 11
25.92421058925709
 21
-722.22131996058579
 31
0.0
  0
ARC
  5
18EC8
  8
1PHANTOM
 10
25.924214079449492
 20
-720.72131996058999
 30
0.0
 40
1.5
 50
269.99986668447059
 51
0.0
  0
LINE
  5
18EC9
  8
1DIM
 10
268.92421407945039
 20
-834.12131530700447
 30
0.0
 11
304.92421407944869
 21
-834.12131530700447
 31
0.0
  0
LINE
  5
18ECA
  8
1DIM
 10
193.92421407944951
 20
-716.62131530700424
 30
0.0
 11
304.92421407944869
 21
-716.62131530700435
 31
0.0
  0
LINE
  5
18ECB
  8
1DIM
 10
303.92421407944869
 20
-832.12131530700435
 30
0.0
 11
303.92421407944869
 21
-718.62131530700435
 31
0.0
  0
LINE
  5
18ECF
  8
1DIM
 10
272.92421407945039
 20
-724.12131530700469
 30
0.0
 11
294.92421407944857
 21
-724.12131530700469
 31
0.0
  0
LINE
  5
18ED0
  8
1DIM
 10
268.92421407945039
 20
-834.12131530700447
 30
0.0
 11
294.92421407944857
 21
-834.12131530700447
 31
0.0
  0
LINE
  5
18ED1
  8
1DIM
 10
293.92421407944857
 20
-726.12131530700458
 30
0.0
 11
293.92421407944857
 21
-832.12131530700435
 31
0.0
  0
LINE
  5
18ED5
  8
1DIM
 10
272.92421407945039
 20
-724.12131530700469
 30
0.0
 11
294.92421407944857
 21
-724.12131530700469
 31
0.0
  0
LINE
  5
18ED6
  8
1DIM
 10
193.92421407944951
 20
-716.62131530700424
 30
0.0
 11
294.92421407944857
 21
-716.62131530700435
 31
0.0
  0
LINE
  5
18ED7
  8
1DIM
 10
293.92421407944857
 20
-722.12131530700458
 30
0.0
 11
293.92421407944857
 21
-718.62131530700435
 31
0.0
  0
LINE
  5
18ED8
  8
1DIM
 10
293.92421407944857
 20
-716.62131530700435
 30
0.0
 11
293.92421407944857
 21
-705.88798197367089
 31
0.0
  0
LINE
  5
18EDC
  8
1DIM1
 10
-226.07578592054961
 20
-876.12131530700481
 30
0.0
 11
-226.07578592054961
 21
-950.62131530700651
 31
0.0
  0
LINE
  5
18EDD
  8
1DIM1
 10
273.92421407944857
 20
-876.12131530700481
 30
0.0
 11
273.92421407944857
 21
-950.62131530700651
 31
0.0
  0
LINE
  5
18EDE
  8
1DIM1
 10
-220.07578592054961
 20
-947.6213153070064
 30
0.0
 11
267.92421407944857
 21
-947.6213153070064
 31
0.0
  0
LINE
  5
18EE2
  8
1DIM1
 10
23.924214079449492
 20
-876.37131530700503
 30
0.0
 11
23.924214079449481
 21
-920.62131530700651
 31
0.0
  0
LINE
  5
18EE3
  8
1DIM1
 10
153.92421407944951
 20
-876.37131530700503
 30
0.0
 11
153.92421407944951
 21
-920.62131530700651
 31
0.0
  0
LINE
  5
18EE4
  8
1DIM1
 10
29.924214079449481
 20
-917.62131530700651
 30
0.0
 11
147.92421407944951
 21
-917.62131530700651
 31
0.0
  0
LINE
  5
18EE8
  8
1PHANTOM
 10
153.92426061534741
 20
-689.62131530715953
 30
0.0
 11
152.42426061534741
 21
-694.92131181702121
 31
0.0
  0
LINE
  5
18EE9
  8
1PHANTOM
 10
152.42426061534741
 20
-694.92131181702121
 30
0.0
 11
152.42426061534761
 21
-719.62131181691313
 31
0.0
  0
LINE
  5
18EEA
  8
1PHANTOM
 10
153.92426061534741
 20
-689.62131530715953
 30
0.0
 11
155.42426061534749
 21
-694.92131879740487
 31
0.0
  0
LINE
  5
18EEB
  8
1PHANTOM
 10
150.4242140794496
 20
-719.62130716321508
 30
0.0
 11
152.42426061534761
 21
-719.62131181691313
 31
0.0
  0
LINE
  5
18EEC
  8
1PHANTOM
 10
155.42426061534749
 20
-694.92131879740487
 30
0.0
 11
155.42426061534741
 21
-719.62131879729782
 31
0.0
  0
LINE
  5
18EED
  8
1PHANTOM
 10
150.4242140794496
 20
-719.62130716321508
 30
0.0
 11
150.4242140794494
 21
-720.72131065341034
 31
0.0
  0
LINE
  5
18EEE
  8
1PHANTOM
 10
155.42426061534741
 20
-719.62131879729782
 30
0.0
 11
157.42421407944951
 21
-719.62132345077919
 31
0.0
  0
ARC
  5
18EEF
  8
1PHANTOM
 10
151.92421407944951
 20
-720.72131065341034
 30
0.0
 40
1.5
 50
180.0
 51
269.99986668447059
  0
LINE
  5
18EF0
  8
1PHANTOM
 10
157.42421407944951
 20
-719.62132345077919
 30
0.0
 11
157.42421407944951
 21
-720.72131996058999
 31
0.0
  0
LINE
  5
18EF1
  8
1PHANTOM
 10
151.92421058925709
 20
-722.22131065340625
 30
0.0
 11
155.92421058925709
 21
-722.22131996058579
 31
0.0
  0
ARC
  5
18EF2
  8
1PHANTOM
 10
155.92421407944951
 20
-720.72131996058999
 30
0.0
 40
1.5
 50
269.99986668447059
 51
0.0
  0
TEXT
  5
18EF3
  8
1DIM1
 10
72.299214079449484
 20
-915.52131530700638
 30
0.0
 40
10.5
  1
P130 
  0
LINE
  5
18EF4
  8
0
  6
BYBLOCK
 10
147.92421407944951
 20
-916.01362016700648
 30
0.0
 11
153.92421407944951
 21
-917.62131530700651
 31
0.0
  0
LINE
  5
18EF5
  8
0
  6
BYBLOCK
 10
153.92421407944951
 20
-917.62131530700651
 30
0.0
 11
147.92421407944951
 21
-919.22901044700654
 31
0.0
  0
LINE
  5
18EF6
  8
0
  6
BYBLOCK
 10
153.92421407944951
 20
-917.62131530700651
 30
0.0
 11
147.92421407944951
 21
-917.62131530700651
 31
0.0
  0
LINE
  5
18EF7
  8
0
  6
BYBLOCK
 10
29.924214079449481
 20
-919.22901044700654
 30
0.0
 11
23.924214079449481
 21
-917.62131530700651
 31
0.0
  0
LINE
  5
18EF8
  8
0
  6
BYBLOCK
 10
23.924214079449481
 20
-917.62131530700651
 30
0.0
 11
29.924214079449481
 21
-916.01362016700648
 31
0.0
  0
LINE
  5
18EF9
  8
0
  6
BYBLOCK
 10
23.924214079449481
 20
-917.62131530700651
 30
0.0
 11
29.924214079449481
 21
-917.62131530700651
 31
0.0
  0
TEXT
  5
18EFA
  8
1DIM1
 10
11.674214079449481
 20
-945.52131530700649
 30
0.0
 40
10.5
  1
500 
  0
LINE
  5
18EFB
  8
0
  6
BYBLOCK
 10
267.92421407944857
 20
-946.01362016700648
 30
0.0
 11
273.92421407944857
 21
-947.6213153070064
 31
0.0
  0
LINE
  5
18EFC
  8
0
  6
BYBLOCK
 10
273.92421407944857
 20
-947.6213153070064
 30
0.0
 11
267.92421407944857
 21
-949.22901044700654
 31
0.0
  0
LINE
  5
18EFD
  8
0
  6
BYBLOCK
 10
273.92421407944857
 20
-947.6213153070064
 30
0.0
 11
267.92421407944857
 21
-947.6213153070064
 31
0.0
  0
LINE
  5
18EFE
  8
0
  6
BYBLOCK
 10
-220.07578592054961
 20
-949.22901044700654
 30
0.0
 11
-226.07578592054961
 21
-947.6213153070064
 31
0.0
  0
LINE
  5
18EFF
  8
0
  6
BYBLOCK
 10
-226.07578592054961
 20
-947.6213153070064
 30
0.0
 11
-220.07578592054961
 21
-946.01362016700648
 31
0.0
  0
LINE
  5
18F00
  8
0
  6
BYBLOCK
 10
-226.07578592054961
 20
-947.6213153070064
 30
0.0
 11
-220.07578592054961
 21
-947.6213153070064
 31
0.0
  0
TEXT
  5
18F01
  8
1DIM
 10
293.2242140794487
 20
-713.75464864033745
 30
0.0
 40
3.5
  1
7.5 
 50
90.0
  0
LINE
  5
18F02
  8
0
  6
BYBLOCK
 10
293.38831569944858
 20
-718.62131530700435
 30
0.0
 11
293.92421407944857
 21
-716.62131530700435
 31
0.0
  0
LINE
  5
18F03
  8
0
  6
BYBLOCK
 10
293.92421407944857
 20
-716.62131530700435
 30
0.0
 11
294.46011245944862
 21
-718.62131530700435
 31
0.0
  0
LINE
  5
18F04
  8
0
  6
BYBLOCK
 10
293.92421407944857
 20
-716.62131530700435
 30
0.0
 11
293.92421407944857
 21
-718.62131530700435
 31
0.0
  0
LINE
  5
18F05
  8
0
  6
BYBLOCK
 10
294.46011245944862
 20
-722.12131530700458
 30
0.0
 11
293.92421407944857
 21
-724.12131530700469
 31
0.0
  0
LINE
  5
18F06
  8
0
  6
BYBLOCK
 10
293.92421407944857
 20
-724.12131530700469
 30
0.0
 11
293.38831569944858
 21
-722.12131530700458
 31
0.0
  0
LINE
  5
18F07
  8
0
  6
BYBLOCK
 10
293.92421407944857
 20
-724.12131530700469
 30
0.0
 11
293.92421407944857
 21
-722.12131530700458
 31
0.0
  0
TEXT
  5
18F08
  8
1DIM
 10
293.2242140794487
 20
-782.32964864033784
 30
0.0
 40
3.5
  1
110 
 50
90.0
  0
LINE
  5
18F09
  8
0
  6
BYBLOCK
 10
294.46011245944862
 20
-832.12131530700435
 30
0.0
 11
293.92421407944857
 21
-834.12131530700447
 31
0.0
  0
LINE
  5
18F0A
  8
0
  6
BYBLOCK
 10
293.92421407944857
 20
-834.12131530700447
 30
0.0
 11
293.38831569944858
 21
-832.12131530700435
 31
0.0
  0
LINE
  5
18F0B
  8
0
  6
BYBLOCK
 10
293.92421407944857
 20
-834.12131530700447
 30
0.0
 11
293.92421407944857
 21
-832.12131530700435
 31
0.0
  0
LINE
  5
18F0C
  8
0
  6
BYBLOCK
 10
293.38831569944858
 20
-726.12131530700458
 30
0.0
 11
293.92421407944857
 21
-724.12131530700469
 31
0.0
  0
LINE
  5
18F0D
  8
0
  6
BYBLOCK
 10
293.92421407944857
 20
-724.12131530700469
 30
0.0
 11
294.46011245944862
 21
-726.12131530700458
 31
0.0
  0
LINE
  5
18F0E
  8
0
  6
BYBLOCK
 10
293.92421407944857
 20
-724.12131530700469
 30
0.0
 11
293.92421407944857
 21
-726.12131530700458
 31
0.0
  0
TEXT
  5
18F0F
  8
1DIM
 10
303.22421407944881
 20
-781.20464864033772
 30
0.0
 40
3.5
  1
117.5 
 50
90.0
  0
LINE
  5
18F10
  8
0
  6
BYBLOCK
 10
303.3883156994487
 20
-718.62131530700435
 30
0.0
 11
303.92421407944869
 21
-716.62131530700435
 31
0.0
  0
LINE
  5
18F11
  8
0
  6
BYBLOCK
 10
303.92421407944869
 20
-716.62131530700435
 30
0.0
 11
304.46011245944868
 21
-718.62131530700435
 31
0.0
  0
LINE
  5
18F12
  8
0
  6
BYBLOCK
 10
303.92421407944869
 20
-716.62131530700435
 30
0.0
 11
303.92421407944869
 21
-718.62131530700435
 31
0.0
  0
LINE
  5
18F13
  8
0
  6
BYBLOCK
 10
304.46011245944868
 20
-832.12131530700435
 30
0.0
 11
303.92421407944869
 21
-834.12131530700447
 31
0.0
  0
LINE
  5
18F14
  8
0
  6
BYBLOCK
 10
303.92421407944869
 20
-834.12131530700447
 30
0.0
 11
303.3883156994487
 21
-832.12131530700435
 31
0.0
  0
LINE
  5
18F15
  8
0
  6
BYBLOCK
 10
303.92421407944869
 20
-834.12131530700447
 30
0.0
 11
303.92421407944869
 21
-832.12131530700435
 31
0.0
  0
TEXT
  5
18F16
  8
1DIM1
 10
-57.700785920550508
 20
-915.52131530700638
 30
0.0
 40
10.5
  1
P130 
  0
LINE
  5
18F17
  8
0
  6
BYBLOCK
 10
17.924214079449481
 20
-916.01362016700648
 30
0.0
 11
23.924214079449481
 21
-917.62131530700651
 31
0.0
  0
LINE
  5
18F18
  8
0
  6
BYBLOCK
 10
23.924214079449481
 20
-917.62131530700651
 30
0.0
 11
17.924214079449481
 21
-919.22901044700654
 31
0.0
  0
LINE
  5
18F19
  8
0
  6
BYBLOCK
 10
23.924214079449481
 20
-917.62131530700651
 30
0.0
 11
17.924214079449481
 21
-917.62131530700651
 31
0.0
  0
LINE
  5
18F1A
  8
0
  6
BYBLOCK
 10
-100.0757859205505
 20
-919.22901044700654
 30
0.0
 11
-106.0757859205505
 21
-917.62131530700651
 31
0.0
  0
LINE
  5
18F1B
  8
0
  6
BYBLOCK
 10
-106.0757859205505
 20
-917.62131530700651
 30
0.0
 11
-100.0757859205505
 21
-916.01362016700648
 31
0.0
  0
LINE
  5
18F1C
  8
0
  6
BYBLOCK
 10
-106.0757859205505
 20
-917.62131530700651
 30
0.0
 11
-100.0757859205505
 21
-917.62131530700651
 31
0.0
  0
LINE
  5
18F1D
  8
1DIM
 10
421.08997984075512
 20
-890.50003964388225
 30
0.0
 11
404.52533016732031
 21
-932.39671502614931
 31
0.0
  0
LINE
  5
18F1E
  8
1DIM
 10
404.52533016732031
 20
-932.39671502614931
 30
0.0
 11
348.15866350065357
 21
-932.39671502614931
 31
0.0
  0
TEXT
  5
18F1F
  8
1DIM
 10
376.84088074611458
 20
-916.92131530700635
 30
0.0
 40
3.5
  1
117.5 
  0
LINE
  5
18F20
  8
0
  6
BYBLOCK
 10
439.42421407944732
 20
-917.08541692700635
 30
0.0
 11
441.42421407944721
 21
-917.62131530700651
 31
0.0
  0
LINE
  5
18F21
  8
0
  6
BYBLOCK
 10
441.42421407944721
 20
-917.62131530700651
 30
0.0
 11
439.42421407944732
 21
-918.15721368700656
 31
0.0
  0
LINE
  5
18F22
  8
0
  6
BYBLOCK
 10
441.42421407944721
 20
-917.62131530700651
 30
0.0
 11
439.42421407944732
 21
-917.62131530700651
 31
0.0
  0
LINE
  5
18F23
  8
0
  6
BYBLOCK
 10
325.92421407944857
 20
-918.15721368700656
 30
0.0
 11
323.92421407944857
 21
-917.62131530700651
 31
0.0
  0
LINE
  5
18F24
  8
0
  6
BYBLOCK
 10
323.92421407944857
 20
-917.62131530700651
 30
0.0
 11
325.92421407944857
 21
-917.08541692700635
 31
0.0
  0
LINE
  5
18F25
  8
0
  6
BYBLOCK
 10
323.92421407944857
 20
-917.62131530700651
 30
0.0
 11
325.92421407944857
 21
-917.62131530700651
 31
0.0
  0
LINE
  5
18F26
  8
1DIM
 10
455.73923825532478
 20
-827.36870947607883
 30
0.0
 11
450.54665981637822
 21
-814.78575351605662
 31
0.0
  0
LINE
  5
18F27
  8
1DIM
 10
450.54665981637822
 20
-814.78575351605662
 30
0.0
 11
482.44665981637809
 21
-814.78575351605662
 31
0.0
  0
LINE
  5
18F28
  8
1DIM
 10
447.65561365478641
 20
-827.29526334374589
 30
0.0
 11
444.37931532183961
 21
-808.78440749893275
 31
0.0
  0
LINE
  5
18F29
  8
1DIM
 10
444.37931532183961
 20
-808.78440749893275
 30
0.0
 11
452.91264865517297
 21
-808.78440749893275
 31
0.0
  0
LINE
  5
18F2A
  8
1DIM
 10
376.60267803435238
 20
-878.76220958627141
 30
0.0
 11
360.45993073835001
 21
-901.51593955776116
 31
0.0
  0
LINE
  5
18F2B
  8
1DIM
 10
360.45993073835001
 20
-901.51593955776116
 30
0.0
 11
333.49326407168343
 21
-901.51593955776116
 31
0.0
  0
TEXT
  5
18F2C
  8
1DIM
 10
421.42421407944829
 20
-906.92131530700635
 30
0.0
 40
3.5
  1
29.5 
  0
LINE
  5
18F2D
  8
0
  6
BYBLOCK
 10
413.92421407944943
 20
-908.15721368700645
 30
0.0
 11
411.92421407944948
 21
-907.62131530700663
 31
0.0
  0
LINE
  5
18F2E
  8
0
  6
BYBLOCK
 10
411.92421407944948
 20
-907.62131530700663
 30
0.0
 11
413.92421407944943
 21
-907.08541692700646
 31
0.0
  0
LINE
  5
18F2F
  8
0
  6
BYBLOCK
 10
411.92421407944948
 20
-907.62131530700663
 30
0.0
 11
413.92421407944943
 21
-907.62131530700663
 31
0.0
  0
LINE
  5
18F30
  8
0
  6
BYBLOCK
 10
439.42421407944732
 20
-907.08541692700646
 30
0.0
 11
441.42421407944721
 21
-907.62131530700663
 31
0.0
  0
LINE
  5
18F31
  8
0
  6
BYBLOCK
 10
441.42421407944721
 20
-907.62131530700663
 30
0.0
 11
439.42421407944732
 21
-908.15721368700645
 31
0.0
  0
LINE
  5
18F32
  8
0
  6
BYBLOCK
 10
441.42421407944721
 20
-907.62131530700663
 30
0.0
 11
439.42421407944732
 21
-907.62131530700663
 31
0.0
  0
TEXT
  5
18F33
  8
1DIM
 10
480.72421407944728
 20
-869.91298197366928
 30
0.0
 40
3.5
  1
9 
 50
90.0
  0
LINE
  5
18F34
  8
0
  6
BYBLOCK
 10
480.88831569944722
 20
-866.12131530699924
 30
0.0
 11
481.42421407944721
 21
-864.12131530699924
 31
0.0
  0
LINE
  5
18F35
  8
0
  6
BYBLOCK
 10
481.42421407944721
 20
-864.12131530699924
 30
0.0
 11
481.9601124594472
 21
-866.12131530699924
 31
0.0
  0
LINE
  5
18F36
  8
0
  6
BYBLOCK
 10
481.42421407944721
 20
-864.12131530699924
 30
0.0
 11
481.42421407944721
 21
-866.12131530699924
 31
0.0
  0
LINE
  5
18F37
  8
0
  6
BYBLOCK
 10
481.9601124594472
 20
-871.37131530700651
 30
0.0
 11
481.42421407944721
 21
-873.3713153070064
 31
0.0
  0
LINE
  5
18F38
  8
0
  6
BYBLOCK
 10
481.42421407944721
 20
-873.3713153070064
 30
0.0
 11
480.88831569944722
 21
-871.37131530700651
 31
0.0
  0
LINE
  5
18F39
  8
0
  6
BYBLOCK
 10
481.42421407944721
 20
-873.3713153070064
 30
0.0
 11
481.42421407944721
 21
-871.37131530700651
 31
0.0
  0
TEXT
  5
18F3A
  8
1DIM
 10
303.22421407944881
 20
-881.12131530700628
 30
0.0
 40
3.5
  1
23.5 
 50
90.0
  0
LINE
  5
18F3B
  8
0
  6
BYBLOCK
 10
303.3883156994487
 20
-866.12131530700651
 30
0.0
 11
303.92421407944869
 21
-864.12131530700651
 31
0.0
  0
LINE
  5
18F3C
  8
0
  6
BYBLOCK
 10
303.92421407944869
 20
-864.12131530700651
 30
0.0
 11
304.46011245944868
 21
-866.12131530700651
 31
0.0
  0
LINE
  5
18F3D
  8
0
  6
BYBLOCK
 10
303.92421407944869
 20
-864.12131530700651
 30
0.0
 11
303.92421407944869
 21
-866.12131530700651
 31
0.0
  0
LINE
  5
18F3E
  8
0
  6
BYBLOCK
 10
304.46011245944868
 20
-885.62131530700651
 30
0.0
 11
303.92421407944869
 21
-887.6213153070064
 31
0.0
  0
LINE
  5
18F3F
  8
0
  6
BYBLOCK
 10
303.92421407944869
 20
-887.6213153070064
 30
0.0
 11
303.3883156994487
 21
-885.62131530700651
 31
0.0
  0
LINE
  5
18F40
  8
0
  6
BYBLOCK
 10
303.92421407944869
 20
-887.6213153070064
 30
0.0
 11
303.92421407944869
 21
-885.62131530700651
 31
0.0
  0
TEXT
  5
18F41
  8
1DIM
 10
313.22421407944881
 20
-859.42131530700635
 30
0.0
 40
3.5
  1
5 
 50
90.0
  0
LINE
  5
18F42
  8
0
  6
BYBLOCK
 10
314.46011245944868
 20
-862.12131530700651
 30
0.0
 11
313.92421407944869
 21
-864.12131530700651
 31
0.0
  0
LINE
  5
18F43
  8
0
  6
BYBLOCK
 10
313.92421407944869
 20
-864.12131530700651
 30
0.0
 11
313.3883156994487
 21
-862.12131530700651
 31
0.0
  0
LINE
  5
18F44
  8
0
  6
BYBLOCK
 10
313.92421407944869
 20
-864.12131530700651
 30
0.0
 11
313.92421407944869
 21
-862.12131530700651
 31
0.0
  0
LINE
  5
18F45
  8
0
  6
BYBLOCK
 10
313.3883156994487
 20
-871.12131530700651
 30
0.0
 11
313.92421407944869
 21
-869.1213153070064
 31
0.0
  0
LINE
  5
18F46
  8
0
  6
BYBLOCK
 10
313.92421407944869
 20
-869.1213153070064
 30
0.0
 11
314.46011245944868
 21
-871.12131530700651
 31
0.0
  0
LINE
  5
18F47
  8
0
  6
BYBLOCK
 10
313.92421407944869
 20
-869.1213153070064
 30
0.0
 11
313.92421407944869
 21
-871.12131530700651
 31
0.0
  0
TEXT
  5
18F48
  8
1DIM
 10
313.22421407944881
 20
-874.28798197367303
 30
0.0
 40
3.5
  1
8 
 50
90.0
  0
LINE
  5
18F49
  8
0
  6
BYBLOCK
 10
314.46011245944868
 20
-875.1213153070064
 30
0.0
 11
313.92421407944869
 21
-877.1213153070064
 31
0.0
  0
LINE
  5
18F4A
  8
0
  6
BYBLOCK
 10
313.92421407944869
 20
-877.1213153070064
 30
0.0
 11
313.3883156994487
 21
-875.1213153070064
 31
0.0
  0
LINE
  5
18F4B
  8
0
  6
BYBLOCK
 10
313.92421407944869
 20
-877.1213153070064
 30
0.0
 11
313.92421407944869
 21
-875.1213153070064
 31
0.0
  0
LINE
  5
18F4C
  8
0
  6
BYBLOCK
 10
313.3883156994487
 20
-871.12131530700651
 30
0.0
 11
313.92421407944869
 21
-869.1213153070064
 31
0.0
  0
LINE
  5
18F4D
  8
0
  6
BYBLOCK
 10
313.92421407944869
 20
-869.1213153070064
 30
0.0
 11
314.46011245944868
 21
-871.12131530700651
 31
0.0
  0
LINE
  5
18F4E
  8
0
  6
BYBLOCK
 10
313.92421407944869
 20
-869.1213153070064
 30
0.0
 11
313.92421407944869
 21
-871.12131530700651
 31
0.0
  0
TEXT
  5
18F4F
  8
1DIM
 10
426.00754741277638
 20
-896.92131530700635
 30
0.0
 40
3.5
  1
21.5 
  0
LINE
  5
18F50
  8
0
  6
BYBLOCK
 10
421.92421407944943
 20
-898.15721368700645
 30
0.0
 11
419.92421407944948
 21
-897.6213153070064
 31
0.0
  0
LINE
  5
18F51
  8
0
  6
BYBLOCK
 10
419.92421407944948
 20
-897.6213153070064
 30
0.0
 11
421.92421407944943
 21
-897.08541692700646
 31
0.0
  0
LINE
  5
18F52
  8
0
  6
BYBLOCK
 10
419.92421407944948
 20
-897.6213153070064
 30
0.0
 11
421.92421407944943
 21
-897.6213153070064
 31
0.0
  0
LINE
  5
18F53
  8
0
  6
BYBLOCK
 10
439.42421407943669
 20
-897.08541692700646
 30
0.0
 11
441.42421407943669
 21
-897.6213153070064
 31
0.0
  0
LINE
  5
18F54
  8
0
  6
BYBLOCK
 10
441.42421407943669
 20
-897.6213153070064
 30
0.0
 11
439.42421407943669
 21
-898.15721368700645
 31
0.0
  0
LINE
  5
18F55
  8
0
  6
BYBLOCK
 10
441.42421407943669
 20
-897.6213153070064
 30
0.0
 11
439.42421407943669
 21
-897.6213153070064
 31
0.0
  0
TEXT
  5
18F56
  8
1DIM1
 10
10.79921407945039
 20
-674.52131530700456
 30
0.0
 40
10.5
  1
340 
  0
LINE
  5
18F57
  8
0
  6
BYBLOCK
 10
187.9242140794494
 20
-675.01362016700455
 30
0.0
 11
193.92421407944951
 21
-676.62131530700458
 31
0.0
  0
LINE
  5
18F58
  8
0
  6
BYBLOCK
 10
193.92421407944951
 20
-676.62131530700458
 30
0.0
 11
187.9242140794494
 21
-678.22901044700473
 31
0.0
  0
LINE
  5
18F59
  8
0
  6
BYBLOCK
 10
193.92421407944951
 20
-676.62131530700458
 30
0.0
 11
187.9242140794494
 21
-676.62131530700458
 31
0.0
  0
LINE
  5
18F5A
  8
0
  6
BYBLOCK
 10
-140.0757859205487
 20
-678.22901044700473
 30
0.0
 11
-146.0757859205487
 21
-676.62131530700458
 31
0.0
  0
LINE
  5
18F5B
  8
0
  6
BYBLOCK
 10
-146.0757859205487
 20
-676.62131530700458
 30
0.0
 11
-140.0757859205487
 21
-675.01362016700455
 31
0.0
  0
LINE
  5
18F5C
  8
0
  6
BYBLOCK
 10
-146.0757859205487
 20
-676.62131530700458
 30
0.0
 11
-140.0757859205487
 21
-676.62131530700458
 31
0.0
  0
TEXT
  5
18F5D
  8
1DIM1
 10
-193.95078592054909
 20
-674.52131530700456
 30
0.0
 40
10.5
  1
80 
  0
LINE
  5
18F5E
  8
0
  6
BYBLOCK
 10
-152.0757859205487
 20
-675.01362016700455
 30
0.0
 11
-146.0757859205487
 21
-676.62131530700458
 31
0.0
  0
LINE
  5
18F5F
  8
0
  6
BYBLOCK
 10
-146.0757859205487
 20
-676.62131530700458
 30
0.0
 11
-152.0757859205487
 21
-678.22901044700473
 31
0.0
  0
LINE
  5
18F60
  8
0
  6
BYBLOCK
 10
-146.0757859205487
 20
-676.62131530700458
 30
0.0
 11
-152.0757859205487
 21
-676.62131530700458
 31
0.0
  0
LINE
  5
18F61
  8
0
  6
BYBLOCK
 10
-220.07578592054961
 20
-678.22901044700473
 30
0.0
 11
-226.07578592054961
 21
-676.62131530700458
 31
0.0
  0
LINE
  5
18F62
  8
0
  6
BYBLOCK
 10
-226.07578592054961
 20
-676.62131530700458
 30
0.0
 11
-220.07578592054961
 21
-675.01362016700455
 31
0.0
  0
LINE
  5
18F63
  8
0
  6
BYBLOCK
 10
-226.07578592054961
 20
-676.62131530700458
 30
0.0
 11
-220.07578592054961
 21
-676.62131530700458
 31
0.0
  0
TEXT
  5
18F64
  8
1DIM1
 10
226.04921407944991
 20
-674.52131530700456
 30
0.0
 40
10.5
  1
80 
  0
LINE
  5
18F65
  8
0
  6
BYBLOCK
 10
199.92421407944951
 20
-678.22901044700473
 30
0.0
 11
193.92421407944951
 21
-676.62131530700458
 31
0.0
  0
LINE
  5
18F66
  8
0
  6
BYBLOCK
 10
193.92421407944951
 20
-676.62131530700458
 30
0.0
 11
199.92421407944951
 21
-675.01362016700455
 31
0.0
  0
LINE
  5
18F67
  8
0
  6
BYBLOCK
 10
193.92421407944951
 20
-676.62131530700458
 30
0.0
 11
199.92421407944951
 21
-676.62131530700458
 31
0.0
  0
LINE
  5
18F68
  8
0
  6
BYBLOCK
 10
267.92421407945039
 20
-675.01362016700455
 30
0.0
 11
273.92421407945039
 21
-676.62131530700458
 31
0.0
  0
LINE
  5
18F69
  8
0
  6
BYBLOCK
 10
273.92421407945039
 20
-676.62131530700458
 30
0.0
 11
267.92421407945039
 21
-678.22901044700473
 31
0.0
  0
LINE
  5
18F6A
  8
0
  6
BYBLOCK
 10
273.92421407945039
 20
-676.62131530700458
 30
0.0
 11
267.92421407945039
 21
-676.62131530700458
 31
0.0
  0
VIEWPORT
  5
57
 67
     1
  8
0
 10
-12.73141056964354
 20
10.083731670551
 30
0.0
 40
426.49732989047362
 41
282.80698729109162
 68
     1
 69
     1
1001
ACAD
1000
MVIEW
1002
{
1070
    16
1010
0.0
1020
0.0
1030
0.0
1010
0.0
1020
0.0
1030
1.0
1040
0.0
1040
282.80698729109162
1040
-12.73141056964354
1040
10.083731670551
1040
50.0
1040
0.0
1040
0.0
1070
     0
1070
   100
1070
     1
1070
     1
1070
     0
1070
     0
1070
     0
1070
     0
1040
0.0
1040
0.0
1040
0.0
1040
10.0
1040
10.0
1040
10.0
1040
10.0
1070
     0
1002
{
1002
}
1002
}
  0
ENDSEC
  0
EOF
