  0
SECTION
  2
HEADER
  9
$ACADVER
  1
AC1009
  9
$INSBASE
 10
0.0
 20
0.0
 30
0.0
  9
$EXTMIN
 10
-261.09956988341253
 20
-952.62131530700651
 30
0.0
  9
$EXTMAX
 10
548.45840975944782
 20
-655.62131530700424
 30
0.0
  9
$LIMMIN
 10
0.0
 20
0.0
  9
$LIMMAX
 10
420.0
 20
297.0
  9
$ORTHOMODE
 70
     0
  9
$REGENMODE
 70
     1
  9
$FILLMODE
 70
     1
  9
$QTEXTMODE
 70
     0
  9
$MIRRTEXT
 70
     0
  9
$DRAGMODE
 70
     2
  9
$LTSCALE
 40
0.5
  9
$OSMODE
 70
  2173
  9
$ATTMODE
 70
     1
  9
$TEXTSIZE
 40
4.0
  9
$TRACEWID
 40
1.0
  9
$TEXTSTYLE
  7
STANDARD
  9
$CLAYER
  8
1TEXT
  9
$CELTYPE
  6
BYLAYER
  9
$CECOLOR
 62
   256
  9
$DIMSCALE
 40
1.0
  9
$DIMASZ
 40
2.0
  9
$DIMEXO
 40
0.0
  9
$DIMDLI
 40
7.0
  9
$DIMRND
 40
0.0
  9
$DIMDLE
 40
0.0
  9
$DIMEXE
 40
1.0
  9
$DIMTP
 40
0.0
  9
$DIMTM
 40
0.0
  9
$DIMTXT
 40
3.5
  9
$DIMCEN
 40
0.0
  9
$DIMTSZ
 40
0.0
  9
$DIMTOL
 70
     0
  9
$DIMLIM
 70
     0
  9
$DIMTIH
 70
     0
  9
$DIMTOH
 70
     0
  9
$DIMSE1
 70
     0
  9
$DIMSE2
 70
     0
  9
$DIMTAD
 70
     1
  9
$DIMZIN
 70
     8
  9
$DIMBLK
  1

  9
$DIMASO
 70
     1
  9
$DIMSHO
 70
     1
  9
$DIMPOST
  1
 
  9
$DIMAPOST
  1

  9
$DIMALT
 70
     0
  9
$DIMALTD
 70
     2
  9
$DIMALTF
 40
25.399999999999999
  9
$DIMLFAC
 40
1.0
  9
$DIMTOFL
 70
     1
  9
$DIMTVP
 40
0.0
  9
$DIMTIX
 70
     0
  9
$DIMSOXD
 70
     0
  9
$DIMSAH
 70
     1
  9
$DIMBLK1
  1
OPEN30
  9
$DIMBLK2
  1
OPEN30
  9
$DIMSTYLE
  2
NEWX10
  9
$DIMCLRD
 70
   256
  9
$DIMCLRE
 70
   256
  9
$DIMCLRT
 70
   201
  9
$DIMTFAC
 40
0.7
  9
$DIMGAP
 40
0.7
  9
$LUNITS
 70
     2
  9
$LUPREC
 70
     4
  9
$SKETCHINC
 40
1.0
  9
$FILLETRAD
 40
0.0
  9
$AUNITS
 70
     0
  9
$AUPREC
 70
     2
  9
$MENU
  1
acad
  9
$ELEVATION
 40
0.0
  9
$PELEVATION
 40
0.0
  9
$THICKNESS
 40
0.0
  9
$LIMCHECK
 70
     0
  9
$BLIPMODE
 70
     0
  9
$CHAMFERA
 40
10.0
  9
$CHAMFERB
 40
10.0
  9
$SKPOLY
 70
     0
  9
$TDCREATE
 40
2453033.7326634838
  9
$TDUPDATE
 40
2453605.7407087269
  9
$TDINDWG
 40
1.7233893980999999
  9
$TDUSRTIMER
 40
1.7233893980999999
  9
$USRTIMER
 70
     1
  9
$ANGBASE
 50
0.0
  9
$ANGDIR
 70
     0
  9
$PDMODE
 70
     0
  9
$PDSIZE
 40
0.0
  9
$PLINEWID
 40
0.0
  9
$COORDS
 70
     2
  9
$SPLFRAME
 70
     0
  9
$SPLINETYPE
 70
     6
  9
$SPLINESEGS
 70
     8
  9
$ATTDIA
 70
     0
  9
$ATTREQ
 70
     1
  9
$HANDLING
 70
     1
  9
$HANDSEED
  5
191F7
  9
$SURFTAB1
 70
     6
  9
$SURFTAB2
 70
     6
  9
$SURFTYPE
 70
     6
  9
$SURFU
 70
     6
  9
$SURFV
 70
     6
  9
$UCSNAME
  2

  9
$UCSORG
 10
0.0
 20
0.0
 30
0.0
  9
$UCSXDIR
 10
1.0
 20
0.0
 30
0.0
  9
$UCSYDIR
 10
0.0
 20
1.0
 30
0.0
  9
$PUCSNAME
  2

  9
$PUCSORG
 10
0.0
 20
0.0
 30
0.0
  9
$PUCSXDIR
 10
1.0
 20
0.0
 30
0.0
  9
$PUCSYDIR
 10
0.0
 20
1.0
 30
0.0
  9
$USERI1
 70
     0
  9
$USERI2
 70
     0
  9
$USERI3
 70
     0
  9
$USERI4
 70
     0
  9
$USERI5
 70
     0
  9
$USERR1
 40
0.0
  9
$USERR2
 40
0.0
  9
$USERR3
 40
0.0
  9
$USERR4
 40
0.0
  9
$USERR5
 40
0.0
  9
$WORLDVIEW
 70
     1
  9
$SHADEDGE
 70
     3
  9
$SHADEDIF
 70
    70
  9
$TILEMODE
 70
     1
  9
$MAXACTVP
 70
    48
  9
$PLIMCHECK
 70
     0
  9
$PEXTMIN
 10
1.0000000000000000E+020
 20
1.0000000000000000E+020
 30
1.0000000000000000E+020
  9
$PEXTMAX
 10
-1.0000000000000000E+020
 20
-1.0000000000000000E+020
 30
-1.0000000000000000E+020
  9
$PLIMMIN
 10
0.0
 20
0.0
  9
$PLIMMAX
 10
420.0
 20
297.0
  9
$UNITMODE
 70
     0
  9
$VISRETAIN
 70
     1
  9
$PLINEGEN
 70
     0
  9
$PSLTSCALE
 70
     1
  0
ENDSEC
  0
SECTION
  2
TABLES
  0
TABLE
  2
VPORT
 70
     4
  0
VPORT
  2
*ACTIVE
 70
     0
 10
0.0
 20
0.0
 11
1.0
 21
1.0
 12
143.67942182291711
 22
-804.12200259417125
 13
0.0
 23
0.0
 14
10.0
 24
10.0
 15
10.0
 25
10.0
 16
0.0
 26
0.0
 36
1.0
 17
0.0
 27
0.0
 37
0.0
 40
568.12512519785776
 41
1.508086253369272
 42
50.0
 43
0.0
 44
0.0
 50
0.0
 51
0.0
 71
     0
 72
   100
 73
     1
 74
     1
 75
     0
 76
     0
 77
     0
 78
     0
  0
ENDTAB
  0
TABLE
  2
LTYPE
 70
    15
  0
LTYPE
  2
CONTINUOUS
 70
     0
  3
Solid line
 72
    65
 73
     0
 40
0.0
  0
LTYPE
  2
CENTER2
 70
     0
  3
Center (.5x) ___ _ ___ _ ___ _ ___ _ ___ _ ___
 72
    65
 73
     4
 40
28.574999999999999
 49
19.050000000000001
 49
-3.1749999999999989
 49
3.1749999999999989
 49
-3.1749999999999989
  0
LTYPE
  2
XREF1|CENTER2
 70
    48
  3
Center (.5x) ___ _ ___ _ ___ _ ___ _ ___ _ ___
 72
    65
 73
     4
 40
28.574999999999999
 49
19.050000000000001
 49
-3.1749999999999989
 49
3.1749999999999989
 49
-3.1749999999999989
  0
LTYPE
  2
PHANTOM2
 70
     0
  3
Phantom (.5x) ___ _ _ ___ _ _ ___ _ _ ___ _ _
 72
    65
 73
     6
 40
31.75
 49
15.875
 49
-3.1749999999999989
 49
3.1749999999999989
 49
-3.1749999999999989
 49
3.1749999999999989
 49
-3.1749999999999989
  0
LTYPE
  2
A3WAKUDAKE|CENTER2
 70
    48
  3
Center (.5x) ___ _ ___ _ ___ _ ___ _ ___ _ ___
 72
    65
 73
     4
 40
28.574999999999999
 49
19.050000000000001
 49
-3.1749999999999989
 49
3.1749999999999989
 49
-3.1749999999999989
  0
ENDTAB
  0
TABLE
  2
LAYER
 70
    44
  0
LAYER
  2
0
 70
     0
 62
     7
  6
CONTINUOUS
  0
LAYER
  2
1CENTER
 70
     0
 62
     7
  6
CENTER2
  0
LAYER
  2
1TEXT
 70
     0
 62
     7
  6
CONTINUOUS
  0
LAYER
  2
1DIM
 70
     0
 62
     7
  6
CONTINUOUS
  0
LAYER
  2
1PHANTOM
 70
     0
 62
     7
  6
PHANTOM2
  0
LAYER
  2
01
 70
     0
 62
     1
  6
CONTINUOUS
  0
LAYER
  2
1DIM1
 70
     0
 62
     7
  6
CONTINUOUS
  0
LAYER
  2
1HATCH
 70
     0
 62
     7
  6
CONTINUOUS
  0
LAYER
  2
XREF1|1CENTER
 70
    48
 62
     7
  6
XREF1|CENTER2
  0
LAYER
  2
A3WAKUDAKE|THICK
 70
    48
 62
     7
  6
CONTINUOUS
  0
LAYER
  2
A3WAKUDAKE|POINT
 70
    48
 62
     7
  6
CONTINUOUS
  0
LAYER
  2
A3WAKUDAKE|1CENTER
 70
    48
 62
     7
  6
A3WAKUDAKE|CENTER2
  0
LAYER
  2
A3WAKUDAKE|0-6
 70
    48
 62
     7
  6
CONTINUOUS
  0
LAYER
  2
A3WAKUDAKE|1DIM
 70
    48
 62
     7
  6
CONTINUOUS
  0
ENDTAB
  0
TABLE
  2
STYLE
 70
    22
  0
STYLE
  2
STANDARD
 70
     0
 40
0.0
 41
1.0
 50
0.0
 71
     0
 42
4.0
  3
txt.shx
  4
extfont.shx
  0
ENDTAB
  0
TABLE
  2
VIEW
 70
     0
  0
ENDTAB
  0
TABLE
  2
UCS
 70
     0
  0
ENDTAB
  0
TABLE
  2
APPID
 70
     9
  0
APPID
  2
ACAD
 70
     0
  0
APPID
  2
DRAWINGVARIABLESXDATA
 70
     0
  0
APPID
  2
CONTENTTABDATA
 70
     0
  0
APPID
  2
CONTENTCURRENTTAB
 70
     0
  0
APPID
  2
CONTENTBLOCKDESCRIPTION
 70
     0
  0
APPID
  2
CONTENTBLOCKICON
 70
     0
  0
APPID
  2
CONTENTLONGBLOCKNAME
 70
     0
  0
APPID
  2
ACAD_PSEXT
 70
     0
  0
APPID
  2
ACAD_DSTYLE_DIMTEXT_FILL
 70
     0
  0
ENDTAB
  0
TABLE
  2
DIMSTYLE
 70
     9
  0
DIMSTYLE
  2
NEWX10
 70
     0
  3
 
  4

  5

  6
OPEN30
  7
OPEN30
 40
1.0
 41
2.0
 42
0.0
 43
7.0
 44
1.0
 45
0.0
 46
0.0
 47
0.0
 48
0.0
140
3.5
141
0.0
142
0.0
143
25.399999999999999
144
1.0
145
0.0
146
0.7
147
0.7
 71
     0
 72
     0
 73
     0
 74
     0
 75
     0
 76
     0
 77
     1
 78
     8
170
     0
171
     2
172
     1
173
     1
174
     0
175
     0
176
   256
177
   256
178
   201
  0
ENDTAB
  0
ENDSEC
  0
SECTION
  2
BLOCKS
  0
BLOCK
  8
0
  2
$MODEL_SPACE
 70
     0
 10
0.0
 20
0.0
 30
0.0
  3
$MODEL_SPACE
  1

  0
ENDBLK
  5
1A
  8
0
  0
BLOCK
 67
     1
  8
0
  2
$PAPER_SPACE
 70
     0
 10
0.0
 20
0.0
 30
0.0
  3
$PAPER_SPACE
  1

  0
ENDBLK
  5
17
 67
     1
  8
0
  0
BLOCK
  8
0
  2
_OPEN30
 70
     0
 10
0.0
 20
0.0
 30
0.0
  3
_OPEN30
  1

  0
LINE
  5
44
  8
0
  6
BYBLOCK
 62
     0
 10
-1.0
 20
0.26794919
 30
0.0
 11
0.0
 21
0.0
 31
0.0
  0
LINE
  5
45
  8
0
  6
BYBLOCK
 62
     0
 10
0.0
 20
0.0
 30
0.0
 11
-1.0
 21
-0.26794919
 31
0.0
  0
LINE
  5
46
  8
0
  6
BYBLOCK
 62
     0
 10
0.0
 20
0.0
 30
0.0
 11
-1.0
 21
0.0
 31
0.0
  0
ENDBLK
  5
47
  8
0
  0
BLOCK
  8
0
  2
XREF1
 70
    36
 10
0.0
 20
0.0
 30
0.0
  3
XREF1
  1
D:\ACLT\FORMAT\KAWAJUN(9)図面用.dwg
  0
ENDBLK
  5
5D
  8
0
  0
BLOCK
  8
0
  2
A3WAKUDAKE
 70
    36
 10
0.0
 20
0.0
 30
0.0
  3
A3WAKUDAKE
  1
D:\ACLT\FORMAT\A3WAKUdake.dwg
  0
ENDBLK
  5
6DC
  8
0
  0
BLOCK
  8
0
  2
*U23
 70
     1
 10
0.0
 20
0.0
 30
0.0
  3
*U23
  1

  0
TEXT
  5
191B8
  8
1DIM1
 62
   201
 10
-77.772369310814014
 20
-914.12131530700651
 30
0.0
 40
17.5
  1
P180 
  0
ENDBLK
  5
191BA
  8
0
  0
BLOCK
  8
0
  2
*U24
 70
     1
 10
0.0
 20
0.0
 30
0.0
  3
*U24
  1

  0
TEXT
  5
191BC
  8
1DIM1
 62
   201
 10
102.227630689186
 20
-914.12131530700651
 30
0.0
 40
17.5
  1
P180 
  0
ENDBLK
  5
191BE
  8
0
  0
BLOCK
  8
0
  2
*U25
 70
     1
 10
0.0
 20
0.0
 30
0.0
  3
*U25
  1

  0
TEXT
  5
191C0
  8
1DIM1
 62
   201
 10
19.519297355852661
 20
-944.1213153070064
 30
0.0
 40
17.5
  1
600 
  0
ENDBLK
  5
191C2
  8
0
  0
BLOCK
  8
0
  2
*U26
 70
     1
 10
0.0
 20
0.0
 30
0.0
  3
*U26
  1

  0
TEXT
  5
191C4
  8
1DIM
 62
   201
 10
359.23596402251849
 20
-713.75464864033745
 30
0.0
 40
3.5
  1
7.5 
 50
90.0
  0
ENDBLK
  5
191C6
  8
0
  0
BLOCK
  8
0
  2
*U27
 70
     1
 10
0.0
 20
0.0
 30
0.0
  3
*U27
  1

  0
TEXT
  5
191C8
  8
1DIM
 62
   201
 10
359.23596402251849
 20
-782.32964864033784
 30
0.0
 40
3.5
  1
110 
 50
90.0
  0
ENDBLK
  5
191CA
  8
0
  0
BLOCK
  8
0
  2
*U28
 70
     1
 10
0.0
 20
0.0
 30
0.0
  3
*U28
  1

  0
TEXT
  5
191CC
  8
1DIM
 62
   201
 10
369.23596402251871
 20
-781.2046486403375
 30
0.0
 40
3.5
  1
117.5 
 50
90.0
  0
ENDBLK
  5
191CE
  8
0
  0
BLOCK
  8
0
  2
*U29
 70
     1
 10
0.0
 20
0.0
 30
0.0
  3
*U29
  1

  0
TEXT
  5
191D0
  8
1DIM
 62
   201
 10
442.85263068918442
 20
-916.92131530700635
 30
0.0
 40
3.5
  1
117.5 
  0
ENDBLK
  5
191D2
  8
0
  0
BLOCK
  8
0
  2
*U30
 70
     1
 10
0.0
 20
0.0
 30
0.0
  3
*U30
  1

  0
TEXT
  5
191D4
  8
1DIM
 62
   201
 10
487.43596402251808
 20
-906.92131530700635
 30
0.0
 40
3.5
  1
29.5 
  0
ENDBLK
  5
191D6
  8
0
  0
BLOCK
  8
0
  2
*U31
 70
     1
 10
0.0
 20
0.0
 30
0.0
  3
*U31
  1

  0
TEXT
  5
191D8
  8
1DIM
 62
   201
 10
546.73596402251712
 20
-869.91298197366928
 30
0.0
 40
3.5
  1
9 
 50
90.0
  0
ENDBLK
  5
191DA
  8
0
  0
BLOCK
  8
0
  2
*U32
 70
     1
 10
0.0
 20
0.0
 30
0.0
  3
*U32
  1

  0
TEXT
  5
191DC
  8
1DIM
 62
   201
 10
369.23596402251849
 20
-881.12131530700628
 30
0.0
 40
3.5
  1
23.5 
 50
90.0
  0
ENDBLK
  5
191DE
  8
0
  0
BLOCK
  8
0
  2
*U33
 70
     1
 10
0.0
 20
0.0
 30
0.0
  3
*U33
  1

  0
TEXT
  5
191E0
  8
1DIM
 62
   201
 10
379.2359640225186
 20
-859.42131530700635
 30
0.0
 40
3.5
  1
5 
 50
90.0
  0
ENDBLK
  5
191E2
  8
0
  0
BLOCK
  8
0
  2
*U34
 70
     1
 10
0.0
 20
0.0
 30
0.0
  3
*U34
  1

  0
TEXT
  5
191E4
  8
1DIM
 62
   201
 10
379.2359640225186
 20
-874.28798197367303
 30
0.0
 40
3.5
  1
8 
 50
90.0
  0
ENDBLK
  5
191E6
  8
0
  0
BLOCK
  8
0
  2
*U35
 70
     1
 10
0.0
 20
0.0
 30
0.0
  3
*U35
  1

  0
TEXT
  5
191E8
  8
1DIM
 62
   201
 10
492.01929735584611
 20
-896.92131530700635
 30
0.0
 40
3.5
  1
21.5 
  0
ENDBLK
  5
191EA
  8
0
  0
BLOCK
  8
0
  2
*U36
 70
     1
 10
0.0
 20
0.0
 30
0.0
  3
*U36
  1

  0
TEXT
  5
191EC
  8
1DIM1
 62
   201
 10
18.060964022520238
 20
-673.12131530700424
 30
0.0
 40
17.5
  1
440 
  0
ENDBLK
  5
191EE
  8
0
  0
BLOCK
  8
0
  2
*U37
 70
     1
 10
0.0
 20
0.0
 30
0.0
  3
*U37
  1

  0
TEXT
  5
191F0
  8
1DIM1
 62
   201
 10
-233.18903597747931
 20
-673.12131530700424
 30
0.0
 40
17.5
  1
80 
  0
ENDBLK
  5
191F2
  8
0
  0
BLOCK
  8
0
  2
*U38
 70
     1
 10
0.0
 20
0.0
 30
0.0
  3
*U38
  1

  0
TEXT
  5
191F4
  8
1DIM1
 62
   201
 10
286.81096402251978
 20
-673.12131530700424
 30
0.0
 40
17.5
  1
80 
  0
ENDBLK
  5
191F6
  8
0
  0
ENDSEC
  0
SECTION
  2
ENTITIES
  0
LINE
  5
180D8
  8
1DIM
 10
427.435964022517
 20
-847.12131530700435
 30
0.0
 11
497.435964022517
 21
-847.12131530700435
 31
0.0
  0
TEXT
  5
180D9
  8
1TEXT
 10
434.18834497489752
 20
-845.62131530700447
 30
0.0
 40
4.0
  1
表面処理：
 72
     1
 11
444.83596402251669
 21
-845.62131530700447
 31
0.0
  0
LINE
  5
180DA
  8
1DIM
 10
427.435964022517
 20
-840.12131530700435
 30
0.0
 11
497.435964022517
 21
-840.12131530700435
 31
0.0
  0
LINE
  5
180DB
  8
1DIM
 10
427.435964022517
 20
-840.12131530700435
 30
0.0
 11
497.435964022517
 21
-840.12131530700435
 31
0.0
  0
LINE
  5
180DC
  8
1DIM
 10
462.435964022517
 20
-840.12131530700435
 30
0.0
 11
462.435964022517
 21
-854.12131530700435
 31
0.0
  0
TEXT
  5
180DD
  8
1TEXT
 10
473.03596402251668
 20
-845.62131530700447
 30
0.0
 40
4.0
  1
コード
 72
     1
 11
479.83596402251658
 21
-845.62131530700447
 31
0.0
  0
LINE
  5
180DE
  8
1DIM
 10
427.435964022517
 20
-854.12131530700435
 30
0.0
 11
497.435964022517
 21
-854.12131530700435
 31
0.0
  0
TEXT
  5
180DF
  8
1TEXT
 10
428.08929735585002
 20
-852.43222891857545
 30
0.0
 40
4.0
  1
ブラストアルマイト
 41
0.8
 72
     1
 11
444.83596402251669
 21
-852.43222891857545
 31
0.0
  0
TEXT
  5
180E0
  8
1TEXT
 10
465.16929735585092
 20
-852.83567229065375
 30
0.0
 40
4.0
  1
SA804S60
 72
     1
 11
479.8359640225176
 21
-852.83567229065375
 31
0.0
  0
LINE
  5
180E1
  8
1DIM
 10
427.435964022517
 20
-854.12131530700435
 30
0.0
 11
427.435964022517
 21
-840.12131530700435
 31
0.0
  0
LINE
  5
180E2
  8
1DIM
 10
497.435964022517
 20
-854.12131530700435
 30
0.0
 11
497.435964022517
 21
-840.12131530700435
 31
0.0
  0
TEXT
  5
180E3
  8
1TEXT
 10
427.435964022517
 20
-835.12131530700447
 30
0.0
 40
8.0
  1
SA804S60
  0
LINE
  5
180E5
  8
01
 10
525.43596402251706
 20
-830.62131530699821
 30
0.0
 11
525.43596402251706
 21
-910.62131530699776
 31
0.0
  0
LINE
  5
188CF
  8
1CENTER
 10
219.9359640225193
 20
-686.66040071585098
 30
0.0
 11
219.9359640225193
 21
-723.29159171630602
 31
0.0
  0
LINE
  5
188D0
  8
1PHANTOM
 10
218.8416402085243
 20
-691.72131276083735
 30
0.0
 11
220.8039752973996
 21
-690.92131732678638
 31
0.0
  0
LINE
  5
188D1
  8
1PHANTOM
 10
220.8039752973996
 20
-690.92131732678638
 30
0.0
 11
220.2156987223573
 21
-690.60954747053427
 31
0.0
  0
LINE
  5
188D2
  8
1PHANTOM
 10
217.93601055841739
 20
-714.12131065362735
 30
0.0
 11
221.93601055841739
 21
-713.32131996080909
 31
0.0
  0
LINE
  5
188D3
  8
1PHANTOM
 10
217.93601055841739
 20
-702.92131065362287
 30
0.0
 11
221.93601055841739
 21
-702.12131996080041
 31
0.0
  0
LINE
  5
188D4
  8
1PHANTOM
 10
217.93601055841739
 20
-699.72131065362294
 30
0.0
 11
221.93601055841739
 21
-698.92131996080025
 31
0.0
  0
LINE
  5
188D5
  8
1PHANTOM
 10
221.93601055841739
 20
-698.92131996080025
 30
0.0
 11
221.43601055841731
 21
-698.82131879740314
 31
0.0
  0
LINE
  5
188D6
  8
1PHANTOM
 10
218.43601055841739
 20
-698.22131181702014
 30
0.0
 11
217.93601055841739
 21
-698.12131065362291
 31
0.0
  0
LINE
  5
188D7
  8
1PHANTOM
 10
221.93601055841739
 20
-702.12131996080041
 30
0.0
 11
221.43601055841731
 21
-702.02131879740307
 31
0.0
  0
LINE
  5
188D8
  8
1PHANTOM
 10
221.93601055841739
 20
-700.52131996080016
 30
0.0
 11
221.43601055841731
 21
-700.42131879740305
 31
0.0
  0
LINE
  5
188D9
  8
1PHANTOM
 10
218.43601055841739
 20
-699.82131181702005
 30
0.0
 11
217.93601055841739
 21
-699.72131065362294
 31
0.0
  0
LINE
  5
188DA
  8
1PHANTOM
 10
218.43601055841739
 20
-701.42131181701996
 30
0.0
 11
217.93601055841739
 21
-701.32131065362285
 31
0.0
  0
LINE
  5
188DB
  8
1PHANTOM
 10
217.93601055841739
 20
-701.32131065362285
 30
0.0
 11
221.93601055841739
 21
-700.52131996080016
 31
0.0
  0
LINE
  5
188DC
  8
1PHANTOM
 10
221.2567894018066
 20
-692.5213183803919
 30
0.0
 11
220.70503993800321
 21
-692.33855423776401
 31
0.0
  0
LINE
  5
188DD
  8
1PHANTOM
 10
221.93601055841739
 20
-695.72131996080032
 30
0.0
 11
221.43601055841731
 21
-695.62131879740309
 31
0.0
  0
LINE
  5
188DE
  8
1PHANTOM
 10
221.93601055841739
 20
-697.32131996080034
 30
0.0
 11
221.43601055841731
 21
-697.22131879740334
 31
0.0
  0
LINE
  5
188DF
  8
1PHANTOM
 10
221.7096035062132
 20
-694.12131943399766
 30
0.0
 11
221.1730097709422
 21
-693.99204873636779
 31
0.0
  0
LINE
  5
188E0
  8
1PHANTOM
 10
218.85692515562599
 20
-693.43408121958316
 30
0.0
 11
218.3888267004759
 21
-693.32131170723312
 31
0.0
  0
LINE
  5
188E1
  8
1PHANTOM
 10
218.43601055841739
 20
-696.62131181702
 30
0.0
 11
217.93601055841739
 21
-696.52131065362289
 31
0.0
  0
LINE
  5
188E2
  8
1PHANTOM
 10
218.43601055841739
 20
-695.02131181702009
 30
0.0
 11
217.93601055841739
 21
-694.92131065362287
 31
0.0
  0
LINE
  5
188E3
  8
1PHANTOM
 10
219.29881204915549
 20
-691.87274855727776
 30
0.0
 11
218.8416402085243
 21
-691.72131276083735
 31
0.0
  0
LINE
  5
188E4
  8
1PHANTOM
 10
218.3888267004759
 20
-693.32131170723312
 30
0.0
 11
221.2567894018066
 21
-692.5213183803919
 31
0.0
  0
LINE
  5
188E5
  8
1PHANTOM
 10
217.93601055841739
 20
-696.52131065362289
 30
0.0
 11
221.93601055841739
 21
-695.72131996080032
 31
0.0
  0
LINE
  5
188E6
  8
1PHANTOM
 10
217.93601055841739
 20
-694.92131065362287
 30
0.0
 11
221.7096035062132
 21
-694.12131943399766
 31
0.0
  0
LINE
  5
188E7
  8
1PHANTOM
 10
217.93601055841739
 20
-698.12131065362291
 30
0.0
 11
221.93601055841739
 21
-697.32131996080034
 31
0.0
  0
LINE
  5
188E8
  8
1PHANTOM
 10
217.93601055841739
 20
-710.9213106536273
 30
0.0
 11
221.93601055841739
 21
-710.12131996080905
 31
0.0
  0
LINE
  5
188E9
  8
1PHANTOM
 10
221.93601055841739
 20
-710.12131996080905
 30
0.0
 11
221.43601055841731
 21
-710.02131879741125
 31
0.0
  0
LINE
  5
188EA
  8
1PHANTOM
 10
218.43601055841739
 20
-709.42131181702064
 30
0.0
 11
217.93601055841739
 21
-709.32131065362296
 31
0.0
  0
LINE
  5
188EB
  8
1PHANTOM
 10
221.93601055841739
 20
-711.72131996080918
 30
0.0
 11
221.43601055841731
 21
-711.6213187974115
 31
0.0
  0
LINE
  5
188EC
  8
1PHANTOM
 10
221.93601055841739
 20
-713.32131996080909
 30
0.0
 11
221.43601055841731
 21
-713.22131879741141
 31
0.0
  0
LINE
  5
188ED
  8
1PHANTOM
 10
218.43601055841739
 20
-711.02131181702498
 30
0.0
 11
217.93601055841739
 21
-710.9213106536273
 31
0.0
  0
LINE
  5
188EE
  8
1PHANTOM
 10
218.43601055841739
 20
-712.62131181702512
 30
0.0
 11
217.93601055841739
 21
-712.52131065362744
 31
0.0
  0
LINE
  5
188EF
  8
1PHANTOM
 10
217.93601055841739
 20
-712.52131065362744
 30
0.0
 11
221.93601055841739
 21
-711.72131996080918
 31
0.0
  0
LINE
  5
188F0
  8
1PHANTOM
 10
221.93601055841739
 20
-705.32131996080454
 30
0.0
 11
221.43601055841731
 21
-705.22131879740698
 31
0.0
  0
LINE
  5
188F1
  8
1PHANTOM
 10
221.93601055841739
 20
-703.72131996080032
 30
0.0
 11
221.43601055841731
 21
-703.62131879740309
 31
0.0
  0
LINE
  5
188F2
  8
1PHANTOM
 10
221.93601055841739
 20
-708.52131996080459
 30
0.0
 11
221.43601055841731
 21
-708.42131879740703
 31
0.0
  0
LINE
  5
188F3
  8
1PHANTOM
 10
221.93601055841739
 20
-706.92131996080468
 30
0.0
 11
221.43601055841731
 21
-706.82131879740712
 31
0.0
  0
LINE
  5
188F4
  8
1PHANTOM
 10
218.43601055841739
 20
-703.02131181702009
 30
0.0
 11
217.93601055841739
 21
-702.92131065362287
 31
0.0
  0
LINE
  5
188F5
  8
1PHANTOM
 10
218.43601055841739
 20
-704.62131181702057
 30
0.0
 11
217.93601055841739
 21
-704.52131065362289
 31
0.0
  0
LINE
  5
188F6
  8
1PHANTOM
 10
218.43601055841739
 20
-707.82131181702073
 30
0.0
 11
217.93601055841739
 21
-707.72131065362305
 31
0.0
  0
LINE
  5
188F7
  8
1PHANTOM
 10
218.43601055841739
 20
-706.22131181702048
 30
0.0
 11
217.93601055841739
 21
-706.12131065362291
 31
0.0
  0
LINE
  5
188F8
  8
1PHANTOM
 10
217.93601055841739
 20
-706.12131065362291
 30
0.0
 11
221.93601055841739
 21
-705.32131996080454
 31
0.0
  0
LINE
  5
188F9
  8
1PHANTOM
 10
217.93601055841739
 20
-704.52131065362289
 30
0.0
 11
221.93601055841739
 21
-703.72131996080032
 31
0.0
  0
LINE
  5
188FA
  8
1PHANTOM
 10
217.93601055841739
 20
-707.72131065362305
 30
0.0
 11
221.93601055841739
 21
-706.92131996080468
 31
0.0
  0
LINE
  5
188FB
  8
1PHANTOM
 10
217.93601055841739
 20
-709.32131065362296
 30
0.0
 11
221.93601055841739
 21
-708.52131996080459
 31
0.0
  0
LINE
  5
188FC
  8
1PHANTOM
 10
221.43601055841731
 20
-719.62131879729782
 30
0.0
 11
218.43601055841739
 21
-719.62131181691313
 31
0.0
  0
LINE
  5
188FD
  8
1PHANTOM
 10
218.43601055841739
 20
-719.02131181702919
 30
0.0
 11
217.93601055841739
 21
-718.92131065363151
 31
0.0
  0
LINE
  5
188FE
  8
1PHANTOM
 10
217.93601055841739
 20
-718.92131065363151
 30
0.0
 11
221.93601055841739
 21
-718.12131996081325
 31
0.0
  0
LINE
  5
188FF
  8
1PHANTOM
 10
221.93601055841739
 20
-718.12131996081325
 30
0.0
 11
221.43601055841731
 21
-718.02131879741546
 31
0.0
  0
LINE
  5
18900
  8
1PHANTOM
 10
218.43601055841739
 20
-717.42131181702928
 30
0.0
 11
217.93601055841739
 21
-717.3213106536316
 31
0.0
  0
LINE
  5
18901
  8
1PHANTOM
 10
218.43601055841739
 20
-715.82131181702925
 30
0.0
 11
217.93601055841739
 21
-715.72131065363169
 31
0.0
  0
LINE
  5
18902
  8
1PHANTOM
 10
217.93601055841739
 20
-715.72131065363169
 30
0.0
 11
221.93601055841739
 21
-714.92131996081343
 31
0.0
  0
LINE
  5
18903
  8
1PHANTOM
 10
221.93601055841739
 20
-716.52131996081334
 30
0.0
 11
221.43601055841731
 21
-716.42131879741555
 31
0.0
  0
LINE
  5
18904
  8
1PHANTOM
 10
221.93601055841739
 20
-714.92131996081343
 30
0.0
 11
221.43601055841731
 21
-714.82131879741576
 31
0.0
  0
LINE
  5
18905
  8
1PHANTOM
 10
217.93601055841739
 20
-717.3213106536316
 30
0.0
 11
221.93601055841739
 21
-716.52131996081334
 31
0.0
  0
LINE
  5
18906
  8
1PHANTOM
 10
218.43601055841739
 20
-714.22131181702503
 30
0.0
 11
217.93601055841739
 21
-714.12131065362735
 31
0.0
  0
LINE
  5
18907
  8
1PHANTOM
 10
216.1359640225194
 20
-719.62131530699719
 30
0.0
 11
216.1359640225194
 21
-718.62131530699719
 31
0.0
  0
LINE
  5
18908
  8
1PHANTOM
 10
223.73596402251931
 20
-719.62131530699719
 30
0.0
 11
223.73596402251931
 21
-718.62131530699719
 31
0.0
  0
LINE
  5
18909
  8
1PHANTOM
 10
220.4359638725193
 20
-719.62131530699719
 30
0.0
 11
219.43596417251931
 21
-718.62131530699719
 31
0.0
  0
LINE
  5
1890A
  8
1PHANTOM
 10
223.73596402251931
 20
-719.62131530699719
 30
0.0
 11
216.1359640225194
 21
-719.62131530699719
 31
0.0
  0
LINE
  5
1890B
  8
1PHANTOM
 10
223.73596402251931
 20
-718.62131530699719
 30
0.0
 11
216.1359640225194
 21
-718.62131530699719
 31
0.0
  0
LINE
  5
1890E
  8
01
 10
339.9359640225203
 20
-725.12131530700469
 30
0.0
 11
339.9359640225203
 21
-829.12131530700435
 31
0.0
  0
LINE
  5
1890F
  8
01
 10
-260.06403597747982
 20
-829.12131530700435
 30
0.0
 11
-260.06403597747982
 21
-725.12131530700401
 31
0.0
  0
LINE
  5
18910
  8
01
 10
239.9359640225193
 20
-877.12131530700481
 30
0.0
 11
-259.06403597747948
 21
-877.12131530700515
 31
0.0
  0
LINE
  5
18911
  8
01
 10
334.93596402252018
 20
-834.12131530700447
 30
0.0
 11
-255.0640359774797
 21
-834.12131530700447
 31
0.0
  0
LINE
  5
18912
  8
01
 10
239.9359640225193
 20
-869.12131530700503
 30
0.0
 11
-259.06403597747982
 21
-869.12131530700481
 31
0.0
  0
LINE
  5
18913
  8
01
 10
-179.06403597748161
 20
-887.62131530700515
 30
0.0
 11
229.9359640225193
 21
-887.62131530700469
 31
0.0
  0
LINE
  5
18914
  8
01
 10
-180.06403597748039
 20
-877.62131530700447
 30
0.0
 11
229.9359640225193
 21
-877.62131530700469
 31
0.0
  0
LINE
  5
18915
  8
01
 10
169.93596402251751
 20
-869.12131530700503
 30
0.0
 11
229.9359640225193
 21
-869.12131530700458
 31
0.0
  0
LINE
  5
18916
  8
01
 10
-179.06403597747979
 20
-864.12131530700469
 30
0.0
 11
229.9359640225193
 21
-864.12131530700469
 31
0.0
  0
LINE
  5
18917
  8
01
 10
-260.06403597747982
 20
-870.12131530700503
 30
0.0
 11
-260.06403597747982
 21
-876.12131530700481
 31
0.0
  0
LINE
  5
18918
  8
01
 10
-260.06403597747982
 20
-876.12131530700481
 30
0.0
 11
-259.06403597747982
 21
-877.12131530700481
 31
0.0
  0
LINE
  5
18919
  8
01
 10
-259.06403597747982
 20
-869.12131530700503
 30
0.0
 11
-260.06403597747982
 21
-870.12131530700503
 31
0.0
  0
LINE
  5
1891A
  8
01
 10
-180.0640359774815
 20
-886.62131530700469
 30
0.0
 11
-180.06403597748039
 21
-877.12131530700481
 31
0.0
  0
LINE
  5
1891B
  8
01
 10
-180.0640359774797
 20
-869.12131530700503
 30
0.0
 11
-180.0640359774797
 21
-865.12131530700469
 31
0.0
  0
ARC
  5
1891C
  8
01
 10
-179.06403597748161
 20
-886.62131530700469
 30
0.0
 40
1.0
 50
179.9999999999967
 51
270.0
  0
ARC
  5
1891D
  8
01
 10
-179.06403597747979
 20
-865.12131530700469
 30
0.0
 40
1.0
 50
90.0
 51
179.9999999999967
  0
ARC
  5
1891E
  8
01
 10
-255.0640359774797
 20
-829.12131530700435
 30
0.0
 40
5.0
 50
180.0
 51
270.0
  0
LINE
  5
1891F
  8
01
 10
239.9359640225193
 20
-877.12131530700481
 30
0.0
 11
338.93596402251842
 21
-877.12131530700481
 31
0.0
  0
LINE
  5
18920
  8
01
 10
239.9359640225193
 20
-869.12131530700503
 30
0.0
 11
338.93596402251842
 21
-869.12131530700503
 31
0.0
  0
LINE
  5
18921
  8
01
 10
259.93596402252302
 20
-886.62131530700469
 30
0.0
 11
259.93596402252138
 21
-877.12131530700503
 31
0.0
  0
LINE
  5
18922
  8
01
 10
259.93596402252001
 20
-869.12131530700503
 30
0.0
 11
259.93596402251927
 21
-865.12131530700435
 31
0.0
  0
LINE
  5
18923
  8
01
 10
258.93596402252302
 20
-887.62131530700469
 30
0.0
 11
229.9359640225193
 21
-887.62131530700469
 31
0.0
  0
LINE
  5
18924
  8
01
 10
259.9359640225216
 20
-877.62131530700469
 30
0.0
 11
229.9359640225193
 21
-877.62131530700469
 31
0.0
  0
LINE
  5
18925
  8
01
 10
289.93596402252109
 20
-869.12131530700503
 30
0.0
 11
229.9359640225193
 21
-869.12131530700458
 31
0.0
  0
CIRCLE
  5
18927
  8
01
 10
219.9359640225193
 20
-873.37131530700515
 30
0.0
 40
2.5
  0
ARC
  5
18928
  8
01
 10
258.93596402252302
 20
-886.62131530700492
 30
0.0
 40
1.0
 50
270.0
 51
0.0000000000065138
  0
LINE
  5
18929
  8
01
 10
258.93596402251927
 20
-864.12131530700458
 30
0.0
 11
229.9359640225193
 21
-864.12131530700469
 31
0.0
  0
ARC
  5
1892A
  8
01
 10
258.93596402251927
 20
-865.12131530700435
 30
0.0
 40
1.0
 50
0.0000000000032569
 51
90.0
  0
LINE
  5
1892B
  8
01
 10
339.93596402251842
 20
-870.12131530700503
 30
0.0
 11
339.93596402251842
 21
-876.12131530700481
 31
0.0
  0
LINE
  5
1892C
  8
01
 10
339.93596402251842
 20
-876.12131530700481
 30
0.0
 11
338.93596402251842
 21
-877.12131530700481
 31
0.0
  0
LINE
  5
1892D
  8
01
 10
338.93596402251842
 20
-869.12131530700503
 30
0.0
 11
339.93596402251842
 21
-870.12131530700503
 31
0.0
  0
ARC
  5
1892E
  8
01
 10
334.93596402252018
 20
-829.12131530700435
 30
0.0
 40
5.0
 50
270.0
 51
0.0
  0
LINE
  5
1892F
  8
01
 10
229.9359640225203
 20
-746.12131530700469
 30
0.0
 11
-179.06403597747979
 21
-746.12131530700469
 31
0.0
  0
LINE
  5
18930
  8
01
 10
229.9359640225193
 20
-716.62131530700469
 30
0.0
 11
169.93596402251839
 21
-716.62131530700469
 31
0.0
  0
LINE
  5
18931
  8
01
 10
-259.06403597747982
 20
-724.12131530700469
 30
0.0
 11
-180.06403597747911
 21
-724.12131530700469
 31
0.0
  0
LINE
  5
18932
  8
01
 10
-260.06403597747982
 20
-725.12131530700469
 30
0.0
 11
-259.06403597747982
 21
-724.12131530700469
 31
0.0
  0
ARC
  5
18933
  8
01
 10
-179.06403597747979
 20
-745.12131530700469
 30
0.0
 40
1.0
 50
180.0
 51
270.0
  0
LINE
  5
18934
  8
01
 10
259.93596402251887
 20
-724.12131530700515
 30
0.0
 11
338.93596402252018
 21
-724.12131530700469
 31
0.0
  0
LINE
  5
18935
  8
01
 10
259.93596402251842
 20
-745.12131530700469
 30
0.0
 11
259.93596402251927
 21
-716.62131530700401
 31
0.0
  0
LINE
  5
18936
  8
01
 10
-180.0640359774797
 20
-745.12131530699833
 30
0.0
 11
-180.0640359774788
 21
-716.62131530699764
 31
0.0
  0
LINE
  5
18937
  8
01
 10
229.93596402251839
 20
-746.12131530700469
 30
0.0
 11
258.93596402251842
 21
-746.12131530700469
 31
0.0
  0
ARC
  5
18938
  8
01
 10
258.93596402251842
 20
-745.12131530700469
 30
0.0
 40
1.0
 50
270.0
 51
359.99999999999682
  0
LINE
  5
1893A
  8
01
 10
338.93596402252018
 20
-724.12131530700469
 30
0.0
 11
339.9359640225203
 21
-725.12131530700469
 31
0.0
  0
LINE
  5
1893B
  8
01
 10
259.93596402251927
 20
-716.62131530700401
 30
0.0
 11
-180.0640359774788
 21
-716.62131530700424
 31
0.0
  0
LINE
  5
1893C
  8
1CENTER
 10
219.9359640225193
 20
-876.37131530700503
 30
0.0
 11
219.9359640225193
 21
-870.37131530700515
 31
0.0
  0
LINE
  5
1893D
  8
1CENTER
 10
216.9359640225193
 20
-873.37131530700503
 30
0.0
 11
222.9359640225193
 21
-873.37131530700503
 31
0.0
  0
LINE
  5
18942
  8
1CENTER
 10
39.935964022519329
 20
-686.66040071585098
 30
0.0
 11
39.935964022519329
 21
-723.29159171630602
 31
0.0
  0
LINE
  5
18943
  8
1PHANTOM
 10
38.841640208524268
 20
-691.72131276083735
 30
0.0
 11
40.803975297399568
 21
-690.92131732678638
 31
0.0
  0
LINE
  5
18944
  8
1PHANTOM
 10
40.803975297399568
 20
-690.92131732678638
 30
0.0
 11
40.215698722357267
 21
-690.60954747053427
 31
0.0
  0
LINE
  5
18945
  8
1PHANTOM
 10
37.936010558417372
 20
-714.12131065362735
 30
0.0
 11
41.936010558417358
 21
-713.32131996080909
 31
0.0
  0
LINE
  5
18946
  8
1PHANTOM
 10
37.936010558417372
 20
-702.92131065362287
 30
0.0
 11
41.936010558417358
 21
-702.12131996080041
 31
0.0
  0
LINE
  5
18947
  8
1PHANTOM
 10
37.936010558417372
 20
-699.72131065362294
 30
0.0
 11
41.936010558417358
 21
-698.92131996080025
 31
0.0
  0
LINE
  5
18948
  8
1PHANTOM
 10
41.936010558417358
 20
-698.92131996080025
 30
0.0
 11
41.436010558417358
 21
-698.82131879740314
 31
0.0
  0
LINE
  5
18949
  8
1PHANTOM
 10
38.436010558417372
 20
-698.22131181702014
 30
0.0
 11
37.936010558417372
 21
-698.12131065362291
 31
0.0
  0
LINE
  5
1894A
  8
1PHANTOM
 10
41.936010558417358
 20
-702.12131996080041
 30
0.0
 11
41.436010558417358
 21
-702.02131879740307
 31
0.0
  0
LINE
  5
1894B
  8
1PHANTOM
 10
41.936010558417358
 20
-700.52131996080016
 30
0.0
 11
41.436010558417358
 21
-700.42131879740305
 31
0.0
  0
LINE
  5
1894C
  8
1PHANTOM
 10
38.436010558417372
 20
-699.82131181702005
 30
0.0
 11
37.936010558417372
 21
-699.72131065362294
 31
0.0
  0
LINE
  5
1894D
  8
1PHANTOM
 10
38.436010558417372
 20
-701.42131181701996
 30
0.0
 11
37.936010558417372
 21
-701.32131065362285
 31
0.0
  0
LINE
  5
1894E
  8
1PHANTOM
 10
37.936010558417372
 20
-701.32131065362285
 30
0.0
 11
41.936010558417358
 21
-700.52131996080016
 31
0.0
  0
LINE
  5
1894F
  8
1PHANTOM
 10
41.2567894018066
 20
-692.5213183803919
 30
0.0
 11
40.70503993800321
 21
-692.33855423776401
 31
0.0
  0
LINE
  5
18950
  8
1PHANTOM
 10
41.936010558417358
 20
-695.72131996080032
 30
0.0
 11
41.436010558417358
 21
-695.62131879740309
 31
0.0
  0
LINE
  5
18951
  8
1PHANTOM
 10
41.936010558417358
 20
-697.32131996080034
 30
0.0
 11
41.436010558417358
 21
-697.22131879740334
 31
0.0
  0
LINE
  5
18952
  8
1PHANTOM
 10
41.709603506213163
 20
-694.12131943399766
 30
0.0
 11
41.173009770942137
 21
-693.99204873636779
 31
0.0
  0
LINE
  5
18953
  8
1PHANTOM
 10
38.856925155625959
 20
-693.43408121958316
 30
0.0
 11
38.388826700475867
 21
-693.32131170723312
 31
0.0
  0
LINE
  5
18954
  8
1PHANTOM
 10
38.436010558417372
 20
-696.62131181702
 30
0.0
 11
37.936010558417372
 21
-696.52131065362289
 31
0.0
  0
LINE
  5
18955
  8
1PHANTOM
 10
38.436010558417372
 20
-695.02131181702009
 30
0.0
 11
37.936010558417372
 21
-694.92131065362287
 31
0.0
  0
LINE
  5
18956
  8
1PHANTOM
 10
39.298812049155458
 20
-691.87274855727776
 30
0.0
 11
38.841640208524268
 21
-691.72131276083735
 31
0.0
  0
LINE
  5
18957
  8
1PHANTOM
 10
38.388826700475867
 20
-693.32131170723312
 30
0.0
 11
41.2567894018066
 21
-692.5213183803919
 31
0.0
  0
LINE
  5
18958
  8
1PHANTOM
 10
37.936010558417372
 20
-696.52131065362289
 30
0.0
 11
41.936010558417358
 21
-695.72131996080032
 31
0.0
  0
LINE
  5
18959
  8
1PHANTOM
 10
37.936010558417372
 20
-694.92131065362287
 30
0.0
 11
41.709603506213163
 21
-694.12131943399766
 31
0.0
  0
LINE
  5
1895A
  8
1PHANTOM
 10
37.936010558417372
 20
-698.12131065362291
 30
0.0
 11
41.936010558417358
 21
-697.32131996080034
 31
0.0
  0
LINE
  5
1895B
  8
1PHANTOM
 10
37.936010558417372
 20
-710.9213106536273
 30
0.0
 11
41.936010558417358
 21
-710.12131996080905
 31
0.0
  0
LINE
  5
1895C
  8
1PHANTOM
 10
41.936010558417358
 20
-710.12131996080905
 30
0.0
 11
41.436010558417358
 21
-710.02131879741125
 31
0.0
  0
LINE
  5
1895D
  8
1PHANTOM
 10
38.436010558417372
 20
-709.42131181702064
 30
0.0
 11
37.936010558417372
 21
-709.32131065362296
 31
0.0
  0
LINE
  5
1895E
  8
1PHANTOM
 10
41.936010558417358
 20
-711.72131996080918
 30
0.0
 11
41.436010558417358
 21
-711.6213187974115
 31
0.0
  0
LINE
  5
1895F
  8
1PHANTOM
 10
41.936010558417358
 20
-713.32131996080909
 30
0.0
 11
41.436010558417358
 21
-713.22131879741141
 31
0.0
  0
LINE
  5
18960
  8
1PHANTOM
 10
38.436010558417372
 20
-711.02131181702498
 30
0.0
 11
37.936010558417372
 21
-710.9213106536273
 31
0.0
  0
LINE
  5
18961
  8
1PHANTOM
 10
38.436010558417372
 20
-712.62131181702512
 30
0.0
 11
37.936010558417372
 21
-712.52131065362744
 31
0.0
  0
LINE
  5
18962
  8
1PHANTOM
 10
37.936010558417372
 20
-712.52131065362744
 30
0.0
 11
41.936010558417358
 21
-711.72131996080918
 31
0.0
  0
LINE
  5
18963
  8
1PHANTOM
 10
41.936010558417358
 20
-705.32131996080454
 30
0.0
 11
41.436010558417358
 21
-705.22131879740698
 31
0.0
  0
LINE
  5
18964
  8
1PHANTOM
 10
41.936010558417358
 20
-703.72131996080032
 30
0.0
 11
41.436010558417358
 21
-703.62131879740309
 31
0.0
  0
LINE
  5
18965
  8
1PHANTOM
 10
41.936010558417358
 20
-708.52131996080459
 30
0.0
 11
41.436010558417358
 21
-708.42131879740703
 31
0.0
  0
LINE
  5
18966
  8
1PHANTOM
 10
41.936010558417358
 20
-706.92131996080468
 30
0.0
 11
41.436010558417358
 21
-706.82131879740712
 31
0.0
  0
LINE
  5
18967
  8
1PHANTOM
 10
38.436010558417372
 20
-703.02131181702009
 30
0.0
 11
37.936010558417372
 21
-702.92131065362287
 31
0.0
  0
LINE
  5
18968
  8
1PHANTOM
 10
38.436010558417372
 20
-704.62131181702057
 30
0.0
 11
37.936010558417372
 21
-704.52131065362289
 31
0.0
  0
LINE
  5
18969
  8
1PHANTOM
 10
38.436010558417372
 20
-707.82131181702073
 30
0.0
 11
37.936010558417372
 21
-707.72131065362305
 31
0.0
  0
LINE
  5
1896A
  8
1PHANTOM
 10
38.436010558417372
 20
-706.22131181702048
 30
0.0
 11
37.936010558417372
 21
-706.12131065362291
 31
0.0
  0
LINE
  5
1896B
  8
1PHANTOM
 10
37.936010558417372
 20
-706.12131065362291
 30
0.0
 11
41.936010558417358
 21
-705.32131996080454
 31
0.0
  0
LINE
  5
1896C
  8
1PHANTOM
 10
37.936010558417372
 20
-704.52131065362289
 30
0.0
 11
41.936010558417358
 21
-703.72131996080032
 31
0.0
  0
LINE
  5
1896D
  8
1PHANTOM
 10
37.936010558417372
 20
-707.72131065362305
 30
0.0
 11
41.936010558417358
 21
-706.92131996080468
 31
0.0
  0
LINE
  5
1896E
  8
1PHANTOM
 10
37.936010558417372
 20
-709.32131065362296
 30
0.0
 11
41.936010558417358
 21
-708.52131996080459
 31
0.0
  0
LINE
  5
1896F
  8
1PHANTOM
 10
41.436010558417358
 20
-719.62131879729782
 30
0.0
 11
38.436010558417372
 21
-719.62131181691313
 31
0.0
  0
LINE
  5
18970
  8
1PHANTOM
 10
38.436010558417372
 20
-719.02131181702919
 30
0.0
 11
37.936010558417372
 21
-718.92131065363151
 31
0.0
  0
LINE
  5
18971
  8
1PHANTOM
 10
37.936010558417372
 20
-718.92131065363151
 30
0.0
 11
41.936010558417358
 21
-718.12131996081325
 31
0.0
  0
LINE
  5
18972
  8
1PHANTOM
 10
41.936010558417358
 20
-718.12131996081325
 30
0.0
 11
41.436010558417358
 21
-718.02131879741546
 31
0.0
  0
LINE
  5
18973
  8
1PHANTOM
 10
38.436010558417372
 20
-717.42131181702928
 30
0.0
 11
37.936010558417372
 21
-717.3213106536316
 31
0.0
  0
LINE
  5
18974
  8
1PHANTOM
 10
38.436010558417372
 20
-715.82131181702925
 30
0.0
 11
37.936010558417372
 21
-715.72131065363169
 31
0.0
  0
LINE
  5
18975
  8
1PHANTOM
 10
37.936010558417372
 20
-715.72131065363169
 30
0.0
 11
41.936010558417358
 21
-714.92131996081343
 31
0.0
  0
LINE
  5
18976
  8
1PHANTOM
 10
41.936010558417358
 20
-716.52131996081334
 30
0.0
 11
41.436010558417358
 21
-716.42131879741555
 31
0.0
  0
LINE
  5
18977
  8
1PHANTOM
 10
41.936010558417358
 20
-714.92131996081343
 30
0.0
 11
41.436010558417358
 21
-714.82131879741576
 31
0.0
  0
LINE
  5
18978
  8
1PHANTOM
 10
37.936010558417372
 20
-717.3213106536316
 30
0.0
 11
41.936010558417358
 21
-716.52131996081334
 31
0.0
  0
LINE
  5
18979
  8
1PHANTOM
 10
38.436010558417372
 20
-714.22131181702503
 30
0.0
 11
37.936010558417372
 21
-714.12131065362735
 31
0.0
  0
LINE
  5
1897A
  8
1PHANTOM
 10
36.135964022519381
 20
-719.62131530699719
 30
0.0
 11
36.135964022519381
 21
-718.62131530699719
 31
0.0
  0
LINE
  5
1897B
  8
1PHANTOM
 10
43.735964022519283
 20
-719.62131530699719
 30
0.0
 11
43.735964022519283
 21
-718.62131530699719
 31
0.0
  0
LINE
  5
1897C
  8
1PHANTOM
 10
40.435963872519316
 20
-719.62131530699719
 30
0.0
 11
39.435964172519341
 21
-718.62131530699719
 31
0.0
  0
LINE
  5
1897D
  8
1PHANTOM
 10
43.735964022519283
 20
-719.62131530699719
 30
0.0
 11
36.135964022519381
 21
-719.62131530699719
 31
0.0
  0
LINE
  5
1897E
  8
1PHANTOM
 10
43.735964022519283
 20
-718.62131530699719
 30
0.0
 11
36.135964022519381
 21
-718.62131530699719
 31
0.0
  0
LINE
  5
18980
  8
1CENTER
 10
-140.06403597748059
 20
-686.66040071585098
 30
0.0
 11
-140.06403597748059
 21
-723.29159171630602
 31
0.0
  0
LINE
  5
18981
  8
1PHANTOM
 10
-141.1583597914757
 20
-691.72131276083735
 30
0.0
 11
-139.1960247026004
 21
-690.92131732678638
 31
0.0
  0
LINE
  5
18982
  8
1PHANTOM
 10
-139.1960247026004
 20
-690.92131732678638
 30
0.0
 11
-139.7843012776427
 21
-690.60954747053427
 31
0.0
  0
LINE
  5
18983
  8
1PHANTOM
 10
-142.06398944158261
 20
-714.12131065362735
 30
0.0
 11
-138.06398944158261
 21
-713.32131996080909
 31
0.0
  0
LINE
  5
18984
  8
1PHANTOM
 10
-142.06398944158261
 20
-702.92131065362287
 30
0.0
 11
-138.06398944158261
 21
-702.12131996080041
 31
0.0
  0
LINE
  5
18985
  8
1PHANTOM
 10
-142.06398944158261
 20
-699.72131065362294
 30
0.0
 11
-138.06398944158261
 21
-698.92131996080025
 31
0.0
  0
LINE
  5
18986
  8
1PHANTOM
 10
-138.06398944158261
 20
-698.92131996080025
 30
0.0
 11
-138.56398944158261
 21
-698.82131879740314
 31
0.0
  0
LINE
  5
18987
  8
1PHANTOM
 10
-141.56398944158261
 20
-698.22131181702014
 30
0.0
 11
-142.06398944158261
 21
-698.12131065362291
 31
0.0
  0
LINE
  5
18988
  8
1PHANTOM
 10
-138.06398944158261
 20
-702.12131996080041
 30
0.0
 11
-138.56398944158261
 21
-702.02131879740307
 31
0.0
  0
LINE
  5
18989
  8
1PHANTOM
 10
-138.06398944158261
 20
-700.52131996080016
 30
0.0
 11
-138.56398944158261
 21
-700.42131879740305
 31
0.0
  0
LINE
  5
1898A
  8
1PHANTOM
 10
-141.56398944158261
 20
-699.82131181702005
 30
0.0
 11
-142.06398944158261
 21
-699.72131065362294
 31
0.0
  0
LINE
  5
1898B
  8
1PHANTOM
 10
-141.56398944158261
 20
-701.42131181701996
 30
0.0
 11
-142.06398944158261
 21
-701.32131065362285
 31
0.0
  0
LINE
  5
1898C
  8
1PHANTOM
 10
-142.06398944158261
 20
-701.32131065362285
 30
0.0
 11
-138.06398944158261
 21
-700.52131996080016
 31
0.0
  0
LINE
  5
1898D
  8
1PHANTOM
 10
-138.7432105981934
 20
-692.5213183803919
 30
0.0
 11
-139.29496006199679
 21
-692.33855423776401
 31
0.0
  0
LINE
  5
1898E
  8
1PHANTOM
 10
-138.06398944158261
 20
-695.72131996080032
 30
0.0
 11
-138.56398944158261
 21
-695.62131879740309
 31
0.0
  0
LINE
  5
1898F
  8
1PHANTOM
 10
-138.06398944158261
 20
-697.32131996080034
 30
0.0
 11
-138.56398944158261
 21
-697.22131879740334
 31
0.0
  0
LINE
  5
18990
  8
1PHANTOM
 10
-138.2903964937868
 20
-694.12131943399766
 30
0.0
 11
-138.8269902290578
 21
-693.99204873636779
 31
0.0
  0
LINE
  5
18991
  8
1PHANTOM
 10
-141.14307484437401
 20
-693.43408121958316
 30
0.0
 11
-141.6111732995241
 21
-693.32131170723312
 31
0.0
  0
LINE
  5
18992
  8
1PHANTOM
 10
-141.56398944158261
 20
-696.62131181702
 30
0.0
 11
-142.06398944158261
 21
-696.52131065362289
 31
0.0
  0
LINE
  5
18993
  8
1PHANTOM
 10
-141.56398944158261
 20
-695.02131181702009
 30
0.0
 11
-142.06398944158261
 21
-694.92131065362287
 31
0.0
  0
LINE
  5
18994
  8
1PHANTOM
 10
-140.70118795084451
 20
-691.87274855727776
 30
0.0
 11
-141.1583597914757
 21
-691.72131276083735
 31
0.0
  0
LINE
  5
18995
  8
1PHANTOM
 10
-141.6111732995241
 20
-693.32131170723312
 30
0.0
 11
-138.7432105981934
 21
-692.5213183803919
 31
0.0
  0
LINE
  5
18996
  8
1PHANTOM
 10
-142.06398944158261
 20
-696.52131065362289
 30
0.0
 11
-138.06398944158261
 21
-695.72131996080032
 31
0.0
  0
LINE
  5
18997
  8
1PHANTOM
 10
-142.06398944158261
 20
-694.92131065362287
 30
0.0
 11
-138.2903964937868
 21
-694.12131943399766
 31
0.0
  0
LINE
  5
18998
  8
1PHANTOM
 10
-142.06398944158261
 20
-698.12131065362291
 30
0.0
 11
-138.06398944158261
 21
-697.32131996080034
 31
0.0
  0
LINE
  5
18999
  8
1PHANTOM
 10
-142.06398944158261
 20
-710.9213106536273
 30
0.0
 11
-138.06398944158261
 21
-710.12131996080905
 31
0.0
  0
LINE
  5
1899A
  8
1PHANTOM
 10
-138.06398944158261
 20
-710.12131996080905
 30
0.0
 11
-138.56398944158261
 21
-710.02131879741125
 31
0.0
  0
LINE
  5
1899B
  8
1PHANTOM
 10
-141.56398944158261
 20
-709.42131181702064
 30
0.0
 11
-142.06398944158261
 21
-709.32131065362296
 31
0.0
  0
LINE
  5
1899C
  8
1PHANTOM
 10
-138.06398944158261
 20
-711.72131996080918
 30
0.0
 11
-138.56398944158261
 21
-711.6213187974115
 31
0.0
  0
LINE
  5
1899D
  8
1PHANTOM
 10
-138.06398944158261
 20
-713.32131996080909
 30
0.0
 11
-138.56398944158261
 21
-713.22131879741141
 31
0.0
  0
LINE
  5
1899E
  8
1PHANTOM
 10
-141.56398944158261
 20
-711.02131181702498
 30
0.0
 11
-142.06398944158261
 21
-710.9213106536273
 31
0.0
  0
LINE
  5
1899F
  8
1PHANTOM
 10
-141.56398944158261
 20
-712.62131181702512
 30
0.0
 11
-142.06398944158261
 21
-712.52131065362744
 31
0.0
  0
LINE
  5
189A0
  8
1PHANTOM
 10
-142.06398944158261
 20
-712.52131065362744
 30
0.0
 11
-138.06398944158261
 21
-711.72131996080918
 31
0.0
  0
LINE
  5
189A1
  8
1PHANTOM
 10
-138.06398944158261
 20
-705.32131996080454
 30
0.0
 11
-138.56398944158261
 21
-705.22131879740698
 31
0.0
  0
LINE
  5
189A2
  8
1PHANTOM
 10
-138.06398944158261
 20
-703.72131996080032
 30
0.0
 11
-138.56398944158261
 21
-703.62131879740309
 31
0.0
  0
LINE
  5
189A3
  8
1PHANTOM
 10
-138.06398944158261
 20
-708.52131996080459
 30
0.0
 11
-138.56398944158261
 21
-708.42131879740703
 31
0.0
  0
LINE
  5
189A4
  8
1PHANTOM
 10
-138.06398944158261
 20
-706.92131996080468
 30
0.0
 11
-138.56398944158261
 21
-706.82131879740712
 31
0.0
  0
LINE
  5
189A5
  8
1PHANTOM
 10
-141.56398944158261
 20
-703.02131181702009
 30
0.0
 11
-142.06398944158261
 21
-702.92131065362287
 31
0.0
  0
LINE
  5
189A6
  8
1PHANTOM
 10
-141.56398944158261
 20
-704.62131181702057
 30
0.0
 11
-142.06398944158261
 21
-704.52131065362289
 31
0.0
  0
LINE
  5
189A7
  8
1PHANTOM
 10
-141.56398944158261
 20
-707.82131181702073
 30
0.0
 11
-142.06398944158261
 21
-707.72131065362305
 31
0.0
  0
LINE
  5
189A8
  8
1PHANTOM
 10
-141.56398944158261
 20
-706.22131181702048
 30
0.0
 11
-142.06398944158261
 21
-706.12131065362291
 31
0.0
  0
LINE
  5
189A9
  8
1PHANTOM
 10
-142.06398944158261
 20
-706.12131065362291
 30
0.0
 11
-138.06398944158261
 21
-705.32131996080454
 31
0.0
  0
LINE
  5
189AA
  8
1PHANTOM
 10
-142.06398944158261
 20
-704.52131065362289
 30
0.0
 11
-138.06398944158261
 21
-703.72131996080032
 31
0.0
  0
LINE
  5
189AB
  8
1PHANTOM
 10
-142.06398944158261
 20
-707.72131065362305
 30
0.0
 11
-138.06398944158261
 21
-706.92131996080468
 31
0.0
  0
LINE
  5
189AC
  8
1PHANTOM
 10
-142.06398944158261
 20
-709.32131065362296
 30
0.0
 11
-138.06398944158261
 21
-708.52131996080459
 31
0.0
  0
LINE
  5
189AD
  8
1PHANTOM
 10
-138.56398944158261
 20
-719.62131879729782
 30
0.0
 11
-141.56398944158261
 21
-719.62131181691313
 31
0.0
  0
LINE
  5
189AE
  8
1PHANTOM
 10
-141.56398944158261
 20
-719.02131181702919
 30
0.0
 11
-142.06398944158261
 21
-718.92131065363151
 31
0.0
  0
LINE
  5
189AF
  8
1PHANTOM
 10
-142.06398944158261
 20
-718.92131065363151
 30
0.0
 11
-138.06398944158261
 21
-718.12131996081325
 31
0.0
  0
LINE
  5
189B0
  8
1PHANTOM
 10
-138.06398944158261
 20
-718.12131996081325
 30
0.0
 11
-138.56398944158261
 21
-718.02131879741546
 31
0.0
  0
LINE
  5
189B1
  8
1PHANTOM
 10
-141.56398944158261
 20
-717.42131181702928
 30
0.0
 11
-142.06398944158261
 21
-717.3213106536316
 31
0.0
  0
LINE
  5
189B2
  8
1PHANTOM
 10
-141.56398944158261
 20
-715.82131181702925
 30
0.0
 11
-142.06398944158261
 21
-715.72131065363169
 31
0.0
  0
LINE
  5
189B3
  8
1PHANTOM
 10
-142.06398944158261
 20
-715.72131065363169
 30
0.0
 11
-138.06398944158261
 21
-714.92131996081343
 31
0.0
  0
LINE
  5
189B4
  8
1PHANTOM
 10
-138.06398944158261
 20
-716.52131996081334
 30
0.0
 11
-138.56398944158261
 21
-716.42131879741555
 31
0.0
  0
LINE
  5
189B5
  8
1PHANTOM
 10
-138.06398944158261
 20
-714.92131996081343
 30
0.0
 11
-138.56398944158261
 21
-714.82131879741576
 31
0.0
  0
LINE
  5
189B6
  8
1PHANTOM
 10
-142.06398944158261
 20
-717.3213106536316
 30
0.0
 11
-138.06398944158261
 21
-716.52131996081334
 31
0.0
  0
LINE
  5
189B7
  8
1PHANTOM
 10
-141.56398944158261
 20
-714.22131181702503
 30
0.0
 11
-142.06398944158261
 21
-714.12131065362735
 31
0.0
  0
LINE
  5
189B8
  8
1PHANTOM
 10
-143.8640359774806
 20
-719.62131530699719
 30
0.0
 11
-143.8640359774806
 21
-718.62131530699719
 31
0.0
  0
LINE
  5
189B9
  8
1PHANTOM
 10
-136.26403597748069
 20
-719.62131530699719
 30
0.0
 11
-136.26403597748069
 21
-718.62131530699719
 31
0.0
  0
LINE
  5
189BA
  8
1PHANTOM
 10
-139.56403612748059
 20
-719.62131530699719
 30
0.0
 11
-140.56403582748061
 21
-718.62131530699719
 31
0.0
  0
LINE
  5
189BB
  8
1PHANTOM
 10
-136.26403597748069
 20
-719.62131530699719
 30
0.0
 11
-143.8640359774806
 21
-719.62131530699719
 31
0.0
  0
LINE
  5
189BC
  8
1PHANTOM
 10
-136.26403597748069
 20
-718.62131530699719
 30
0.0
 11
-143.8640359774806
 21
-718.62131530699719
 31
0.0
  0
CIRCLE
  5
189BE
  8
01
 10
39.935964022519329
 20
-873.37131530700515
 30
0.0
 40
2.5
  0
LINE
  5
189BF
  8
1CENTER
 10
39.935964022519329
 20
-876.37131530700503
 30
0.0
 11
39.935964022519329
 21
-870.37131530700515
 31
0.0
  0
LINE
  5
189C0
  8
1CENTER
 10
36.935964022519329
 20
-873.37131530700503
 30
0.0
 11
42.935964022519329
 21
-873.37131530700503
 31
0.0
  0
CIRCLE
  5
189C2
  8
01
 10
-140.06403597748059
 20
-873.37131530700515
 30
0.0
 40
2.5
  0
LINE
  5
189C3
  8
1CENTER
 10
-140.06403597748059
 20
-876.37131530700503
 30
0.0
 11
-140.06403597748059
 21
-870.37131530700515
 31
0.0
  0
LINE
  5
189C4
  8
1CENTER
 10
-143.06403597748059
 20
-873.37131530700503
 30
0.0
 11
-137.06403597748059
 21
-873.37131530700503
 31
0.0
  0
LINE
  5
18CB6
  8
01
 10
516.43596402251706
 20
-830.62131530699821
 30
0.0
 11
516.43596402251706
 21
-910.62131530699776
 31
0.0
  0
LINE
  5
18CB8
  8
01
 10
507.435964022517
 20
-830.62131530699821
 30
0.0
 11
507.435964022517
 21
-910.62131530699776
 31
0.0
  0
LINE
  5
18CB9
  8
1CENTER
 10
509.43596402251819
 20
-873.37131530700685
 30
0.0
 11
527.43596402251831
 21
-873.37131530700685
 31
0.0
  0
LINE
  5
18CBA
  8
01
 10
498.93596402251922
 20
-877.1213153070064
 30
0.0
 11
390.93596402251831
 21
-877.1213153070064
 31
0.0
  0
LINE
  5
18CBB
  8
01
 10
498.93596402251922
 20
-869.1213153070064
 30
0.0
 11
390.93596402251922
 21
-869.1213153070064
 31
0.0
  0
LINE
  5
18CBC
  8
01
 10
389.93596402251831
 20
-870.12131530700663
 30
0.0
 11
389.93596402251831
 21
-876.12131530700731
 31
0.0
  0
LINE
  5
18CBD
  8
01
 10
389.93596402251831
 20
-876.1213153070064
 30
0.0
 11
390.93596402251831
 21
-877.1213153070064
 31
0.0
  0
LINE
  5
18CBE
  8
01
 10
390.93596402251831
 20
-869.1213153070064
 30
0.0
 11
389.93596402251831
 21
-870.12131530700663
 31
0.0
  0
LINE
  5
18CBF
  8
01
 10
478.93596402251922
 20
-864.12131530700651
 30
0.0
 11
506.93596402252098
 21
-864.12131530699924
 31
0.0
  0
LINE
  5
18CC0
  8
1PHANTOM
 10
506.63596751249389
 20
-871.87136184290455
 30
0.0
 11
506.73596867589168
 21
-871.37136184290455
 31
0.0
  0
LINE
  5
18CC1
  8
1CENTER
 10
537.39687861367179
 20
-873.3713153070064
 30
0.0
 11
500.76568761321761
 21
-873.3713153070064
 31
0.0
  0
LINE
  5
18CC2
  8
1PHANTOM
 10
529.13596053211847
 20
-874.87136184290455
 30
0.0
 11
504.43596053222592
 21
-874.87136184290455
 31
0.0
  0
LINE
  5
18CC3
  8
1PHANTOM
 10
529.13596751250213
 20
-871.87136184290455
 30
0.0
 11
504.43596751261049
 21
-871.87136184290455
 31
0.0
  0
LINE
  5
18CC4
  8
01
 10
506.93596402250648
 20
-887.6213153070064
 30
0.0
 11
478.93596402251922
 21
-887.6213153070064
 31
0.0
  0
LINE
  5
18CC5
  8
01
 10
477.93596402251922
 20
-865.12131530700651
 30
0.0
 11
477.93596402251922
 21
-868.62131530700651
 31
0.0
  0
LINE
  5
18CC6
  8
01
 10
500.9359640225191
 20
-870.12131530700663
 30
0.0
 11
500.9359640225191
 21
-876.62131530700651
 31
0.0
  0
LINE
  5
18CC7
  8
1PHANTOM
 10
504.43597216630837
 20
-869.8713153070064
 30
0.0
 11
504.43596751261049
 21
-871.87136184290455
 31
0.0
  0
ARC
  5
18CC8
  8
1PHANTOM
 10
503.33596867611311
 20
-871.37131530700651
 30
0.0
 40
1.5
 50
90.0
 51
179.99986668446189
  0
LINE
  5
18CC9
  8
1PHANTOM
 10
505.43596402252638
 20
-869.5713153070036
 30
0.0
 11
505.43596402252638
 21
-870.8713153070064
 31
0.0
  0
LINE
  5
18CCA
  8
1PHANTOM
 10
505.43596402252638
 20
-877.17131530700658
 30
0.0
 11
505.43596402252638
 21
-869.57131530700622
 31
0.0
  0
LINE
  5
18CCB
  8
1PHANTOM
 10
504.43596402252638
 20
-877.17131530700658
 30
0.0
 11
504.43596402252638
 21
-869.57131530700622
 31
0.0
  0
LINE
  5
18CCC
  8
01
 10
499.93596402251922
 20
-877.62131530700651
 30
0.0
 11
478.43596402251922
 21
-877.62131530700651
 31
0.0
  0
ARC
  5
18CCD
  8
01
 10
478.43596402251922
 20
-878.12131530700663
 30
0.0
 40
0.5
 50
90.0
 51
180.0
  0
LINE
  5
18CCE
  8
1PHANTOM
 10
505.43596402252638
 20
-871.32131530700622
 30
0.0
 11
504.43596402252638
 21
-871.32131530700622
 31
0.0
  0
LINE
  5
18CCF
  8
1PHANTOM
 10
506.24147984046868
 20
-873.3713153070064
 30
0.0
 11
503.61237331451758
 21
-873.3713153070064
 31
0.0
  0
LINE
  5
18CD0
  8
1PHANTOM
 10
505.03596751249438
 20
-871.87136184290455
 30
0.0
 11
505.13596867589229
 21
-871.37136184290455
 31
0.0
  0
LINE
  5
18CD1
  8
1PHANTOM
 10
505.43596402252638
 20
-875.42131530700658
 30
0.0
 11
504.43596402252552
 21
-875.42131530700658
 31
0.0
  0
LINE
  5
18CD2
  8
1PHANTOM
 10
505.43596402252638
 20
-877.17131530700658
 30
0.0
 11
504.43596402252638
 21
-877.17131530700658
 31
0.0
  0
LINE
  5
18CD3
  8
1PHANTOM
 10
505.93595936871031
 20
-875.37136184290455
 30
0.0
 11
506.03596053210811
 21
-874.87136184290455
 31
0.0
  0
LINE
  5
18CD4
  8
1PHANTOM
 10
504.43596053222592
 20
-874.87136184290455
 30
0.0
 11
504.43595587874438
 21
-876.87131530700651
 31
0.0
  0
LINE
  5
18CD5
  8
1PHANTOM
 10
504.43595587874438
 20
-876.87131530700651
 30
0.0
 11
503.33595936893357
 21
-876.87131530700651
 31
0.0
  0
ARC
  5
18CD6
  8
1PHANTOM
 10
503.33595936893357
 20
-875.3713153070064
 30
0.0
 40
1.5
 50
179.99986668446189
 51
270.0
  0
ARC
  5
18CD7
  8
01
 10
499.93596402251922
 20
-876.62131530700651
 30
0.0
 40
1.0
 50
270.0
 51
0.0
  0
LINE
  5
18CD8
  8
1PHANTOM
 10
505.43596402252638
 20
-875.87131530700651
 30
0.0
 11
505.43596402252638
 21
-877.17131530700215
 31
0.0
  0
LINE
  5
18CD9
  8
01
 10
499.93596402251922
 20
-876.1213153070064
 30
0.0
 11
498.93596402251922
 21
-877.1213153070064
 31
0.0
  0
LINE
  5
18CDA
  8
1PHANTOM
 10
504.43596053222592
 20
-874.87136184290455
 30
0.0
 11
504.43596751261049
 21
-871.87136184290455
 31
0.0
  0
LINE
  5
18CDB
  8
1PHANTOM
 10
505.13596867589229
 20
-871.37136184290455
 30
0.0
 11
505.93595936871031
 21
-875.37136184290455
 31
0.0
  0
LINE
  5
18CDC
  8
1PHANTOM
 10
501.83596867611669
 20
-871.37131181681423
 30
0.0
 11
501.83595936893732
 21
-875.37131181681434
 31
0.0
  0
LINE
  5
18CDD
  8
01
 10
499.93596402251922
 20
-869.1213153070064
 30
0.0
 11
478.43596402251922
 21
-869.1213153070064
 31
0.0
  0
ARC
  5
18CDE
  8
01
 10
478.43596402251922
 20
-868.62131530700651
 30
0.0
 40
0.5
 50
180.0
 51
270.0
  0
LINE
  5
18CDF
  8
1PHANTOM
 10
505.43596402252638
 20
-869.57131530700622
 30
0.0
 11
504.43596402252638
 21
-869.57131530700622
 31
0.0
  0
LINE
  5
18CE0
  8
1PHANTOM
 10
504.43597216630837
 20
-869.8713153070064
 30
0.0
 11
503.33596867611311
 21
-869.8713153070064
 31
0.0
  0
ARC
  5
18CE1
  8
01
 10
499.93596402251922
 20
-870.12131530700663
 30
0.0
 40
1.0
 50
0.0
 51
90.0
  0
LINE
  5
18CE2
  8
01
 10
499.93596402251922
 20
-870.12131530700663
 30
0.0
 11
498.93596402251922
 21
-869.1213153070064
 31
0.0
  0
ARC
  5
18CE3
  8
01
 10
478.93596402251922
 20
-886.62131530700651
 30
0.0
 40
1.0
 50
180.0
 51
270.0
  0
LINE
  5
18CE4
  8
01
 10
477.93596402251922
 20
-878.12131530700663
 30
0.0
 11
477.93596402251922
 21
-886.62131530700651
 31
0.0
  0
ARC
  5
18CE5
  8
01
 10
478.93596402251922
 20
-865.12131530700651
 30
0.0
 40
1.0
 50
90.0
 51
180.0
  0
LINE
  5
18CE6
  8
01
 10
507.43596402252098
 20
-864.62131530699912
 30
0.0
 11
507.43596402250648
 21
-887.12131530700651
 31
0.0
  0
LINE
  5
18CE7
  8
1PHANTOM
 10
530.73596762229033
 20
-871.82417798496306
 30
0.0
 11
531.53596094913144
 21
-874.69214068629378
 31
0.0
  0
LINE
  5
18CE8
  8
1PHANTOM
 10
534.43596402236358
 20
-873.37136184290455
 30
0.0
 11
529.13596751250213
 21
-871.87136184290455
 31
0.0
  0
LINE
  5
18CE9
  8
1PHANTOM
 10
534.43596402236358
 20
-873.37136184290455
 30
0.0
 11
529.13596053211847
 21
-874.87136184290455
 31
0.0
  0
LINE
  5
18CEA
  8
1PHANTOM
 10
517.93596867590065
 20
-871.37136184290455
 30
0.0
 11
518.73595936871868
 21
-875.37136184290455
 31
0.0
  0
LINE
  5
18CEB
  8
1PHANTOM
 10
514.63596751250304
 20
-871.87136184290455
 30
0.0
 11
514.73596867590084
 21
-871.37136184290455
 31
0.0
  0
LINE
  5
18CEC
  8
1PHANTOM
 10
516.23596751250238
 20
-871.87136184290455
 30
0.0
 11
516.33596867590029
 21
-871.37136184290455
 31
0.0
  0
LINE
  5
18CED
  8
1PHANTOM
 10
517.83596751250286
 20
-871.87136184290455
 30
0.0
 11
517.93596867590065
 21
-871.37136184290455
 31
0.0
  0
LINE
  5
18CEE
  8
1PHANTOM
 10
513.93595936871395
 20
-875.37136184290455
 30
0.0
 11
514.03596053211174
 21
-874.87136184290455
 31
0.0
  0
LINE
  5
18CEF
  8
1PHANTOM
 10
515.53595936871875
 20
-875.37136184290455
 30
0.0
 11
515.63596053211666
 21
-874.87136184290455
 31
0.0
  0
LINE
  5
18CF0
  8
1PHANTOM
 10
517.13595936871832
 20
-875.37136184290455
 30
0.0
 11
517.23596053211611
 21
-874.87136184290455
 31
0.0
  0
LINE
  5
18CF1
  8
1PHANTOM
 10
516.33596867590029
 20
-871.37136184290455
 30
0.0
 11
517.13595936871832
 21
-875.37136184290455
 31
0.0
  0
LINE
  5
18CF2
  8
1PHANTOM
 10
514.73596867590084
 20
-871.37136184290455
 30
0.0
 11
515.53595936871875
 21
-875.37136184290455
 31
0.0
  0
LINE
  5
18CF3
  8
1PHANTOM
 10
513.03596751249813
 20
-871.87136184290455
 30
0.0
 11
513.13596867589592
 21
-871.37136184290455
 31
0.0
  0
LINE
  5
18CF4
  8
1PHANTOM
 10
511.43596751249862
 20
-871.87136184290455
 30
0.0
 11
511.53596867589562
 21
-871.37136184290455
 31
0.0
  0
LINE
  5
18CF5
  8
1PHANTOM
 10
512.3359593687145
 20
-875.37136184290455
 30
0.0
 11
512.43596053211229
 21
-874.87136184290455
 31
0.0
  0
LINE
  5
18CF6
  8
1PHANTOM
 10
510.73595936871408
 20
-875.37136184290455
 30
0.0
 11
510.83596053211193
 21
-874.87136184290455
 31
0.0
  0
LINE
  5
18CF7
  8
1PHANTOM
 10
509.93596867589611
 20
-871.37136184290455
 30
0.0
 11
510.73595936871408
 21
-875.37136184290455
 31
0.0
  0
LINE
  5
18CF8
  8
1PHANTOM
 10
511.53596867589562
 20
-871.37136184290455
 30
0.0
 11
512.3359593687145
 21
-875.37136184290455
 31
0.0
  0
LINE
  5
18CF9
  8
1PHANTOM
 10
513.13596867589592
 20
-871.37136184290455
 30
0.0
 11
513.93595936871395
 21
-875.37136184290455
 31
0.0
  0
LINE
  5
18CFA
  8
1PHANTOM
 10
519.4359675125022
 20
-871.87136184290455
 30
0.0
 11
519.53596867590011
 21
-871.37136184290455
 31
0.0
  0
LINE
  5
18CFB
  8
1PHANTOM
 10
524.23596751250341
 20
-871.87136184290455
 30
0.0
 11
524.33596867590029
 21
-871.37136184290455
 31
0.0
  0
LINE
  5
18CFC
  8
1PHANTOM
 10
522.63596751250304
 20
-871.87136184290455
 30
0.0
 11
522.73596867590084
 21
-871.37136184290455
 31
0.0
  0
LINE
  5
18CFD
  8
1PHANTOM
 10
521.03596751250359
 20
-871.87136184290455
 30
0.0
 11
521.13596867590047
 21
-871.37136184290455
 31
0.0
  0
LINE
  5
18CFE
  8
1PHANTOM
 10
518.73595936871868
 20
-875.37136184290455
 30
0.0
 11
518.83596053211636
 21
-874.87136184290455
 31
0.0
  0
LINE
  5
18CFF
  8
1PHANTOM
 10
520.33595936872268
 20
-875.37136184290455
 30
0.0
 11
520.43596053212036
 21
-874.87136184290455
 31
0.0
  0
LINE
  5
18D00
  8
1PHANTOM
 10
521.93595936872305
 20
-875.37136184290455
 30
0.0
 11
522.03596053211993
 21
-874.87136184290455
 31
0.0
  0
LINE
  5
18D01
  8
1PHANTOM
 10
523.53595936872341
 20
-875.37136184290455
 30
0.0
 11
523.63596053212029
 21
-874.87136184290455
 31
0.0
  0
LINE
  5
18D02
  8
1PHANTOM
 10
519.53596867590011
 20
-871.37136184290455
 30
0.0
 11
520.33595936872268
 21
-875.37136184290455
 31
0.0
  0
LINE
  5
18D03
  8
1PHANTOM
 10
521.13596867590047
 20
-871.37136184290455
 30
0.0
 11
521.93595936872305
 21
-875.37136184290455
 31
0.0
  0
LINE
  5
18D04
  8
1PHANTOM
 10
524.33596867590029
 20
-871.37136184290455
 30
0.0
 11
525.13595936872287
 21
-875.37136184290455
 31
0.0
  0
LINE
  5
18D05
  8
1PHANTOM
 10
522.73596867590084
 20
-871.37136184290455
 30
0.0
 11
523.53595936872341
 21
-875.37136184290455
 31
0.0
  0
LINE
  5
18D06
  8
1PHANTOM
 10
525.13595936872287
 20
-875.37136184290455
 30
0.0
 11
525.23596053212054
 21
-874.87136184290455
 31
0.0
  0
LINE
  5
18D07
  8
1PHANTOM
 10
525.83596751250275
 20
-871.87136184290455
 30
0.0
 11
525.93596867590065
 21
-871.37136184290455
 31
0.0
  0
LINE
  5
18D08
  8
1PHANTOM
 10
528.33595936872268
 20
-875.37136184290455
 30
0.0
 11
528.43596053212036
 21
-874.87136184290455
 31
0.0
  0
LINE
  5
18D09
  8
1PHANTOM
 10
526.73595936872323
 20
-875.37136184290455
 30
0.0
 11
526.83596053212011
 21
-874.87136184290455
 31
0.0
  0
LINE
  5
18D0A
  8
1PHANTOM
 10
529.93595989552603
 20
-875.14495479070035
 30
0.0
 11
530.06523059315521
 21
-874.60836105542955
 31
0.0
  0
LINE
  5
18D0B
  8
1PHANTOM
 10
530.62319810993984
 20
-872.29227644011269
 30
0.0
 11
530.73596762229033
 21
-871.82417798496306
 31
0.0
  0
LINE
  5
18D0C
  8
1PHANTOM
 10
527.43596751250323
 20
-871.87136184290455
 30
0.0
 11
527.53596867590011
 21
-871.37136184290455
 31
0.0
  0
LINE
  5
18D0D
  8
1PHANTOM
 10
529.03596751250359
 20
-871.87136184290455
 30
0.0
 11
529.13596867590047
 21
-871.37136184290455
 31
0.0
  0
LINE
  5
18D0E
  8
1PHANTOM
 10
527.53596867590011
 20
-871.37136184290455
 30
0.0
 11
528.33595936872268
 21
-875.37136184290455
 31
0.0
  0
LINE
  5
18D0F
  8
1PHANTOM
 10
529.13596867590047
 20
-871.37136184290455
 30
0.0
 11
529.93595989552603
 21
-875.14495479070035
 31
0.0
  0
LINE
  5
18D10
  8
1PHANTOM
 10
525.93596867590065
 20
-871.37136184290455
 30
0.0
 11
526.73595936872323
 21
-875.37136184290455
 31
0.0
  0
LINE
  5
18D11
  8
1PHANTOM
 10
533.13596200273685
 20
-874.2393265818863
 30
0.0
 11
533.44773185898873
 21
-873.65105000684423
 31
0.0
  0
LINE
  5
18D12
  8
1PHANTOM
 10
531.53596094913144
 20
-874.69214068629378
 30
0.0
 11
531.71872509175944
 21
-874.14039122249028
 31
0.0
  0
LINE
  5
18D13
  8
1PHANTOM
 10
532.18453077224592
 20
-872.73416333364253
 30
0.0
 11
532.33596656868565
 21
-872.27699149301111
 31
0.0
  0
LINE
  5
18D14
  8
1PHANTOM
 10
532.33596656868565
 20
-872.27699149301111
 30
0.0
 11
533.13596200273685
 21
-874.2393265818863
 31
0.0
  0
LINE
  5
18D15
  8
1PHANTOM
 10
509.13595936871008
 20
-875.37136184290455
 30
0.0
 11
509.23596053210792
 21
-874.87136184290455
 31
0.0
  0
LINE
  5
18D16
  8
1PHANTOM
 10
508.2359675124942
 20
-871.87136184290455
 30
0.0
 11
508.3359686758921
 21
-871.37136184290455
 31
0.0
  0
LINE
  5
18D17
  8
1PHANTOM
 10
507.53595936870971
 20
-875.37136184290455
 30
0.0
 11
507.6359605321075
 21
-874.87136184290455
 31
0.0
  0
LINE
  5
18D18
  8
1PHANTOM
 10
506.73596867589168
 20
-871.37136184290455
 30
0.0
 11
507.53595936870971
 21
-875.37136184290455
 31
0.0
  0
LINE
  5
18D19
  8
1PHANTOM
 10
508.3359686758921
 20
-871.37136184290455
 30
0.0
 11
509.13595936871008
 21
-875.37136184290455
 31
0.0
  0
ARC
  5
18D1A
  8
01
 10
506.93596402250648
 20
-887.12131530700651
 30
0.0
 40
0.5
 50
270.0
 51
359.99999999996089
  0
ARC
  5
18D1C
  8
01
 10
506.93596402252098
 20
-864.62131530699912
 30
0.0
 40
0.5
 50
359.99999999996089
 51
90.000000000026048
  0
LINE
  5
18D23
  8
01
 10
499.93596402251922
 20
-876.1213153070064
 30
0.0
 11
499.93596402251922
 21
-870.12131530700663
 31
0.0
  0
LINE
  5
18D29
  8
1PHANTOM
 10
482.7359640225194
 20
-877.12131530700685
 30
0.0
 11
489.13596402251898
 21
-877.12131530700594
 31
0.0
  0
LINE
  5
18D2A
  8
1PHANTOM
 10
482.56596402251932
 20
-879.12131530700685
 30
0.0
 11
489.30596402251911
 21
-879.12131530700685
 31
0.0
  0
LINE
  5
18D2B
  8
1PHANTOM
 10
482.7359640225194
 20
-877.12131530700685
 30
0.0
 11
482.7359640225194
 21
-879.12131530700685
 31
0.0
  0
LINE
  5
18D2C
  8
1PHANTOM
 10
489.13596402251898
 20
-877.12131530700685
 30
0.0
 11
489.13596402251898
 21
-879.12131530700685
 31
0.0
  0
LINE
  5
18D2D
  8
1PHANTOM
 10
481.93596402251922
 20
-879.75131530700696
 30
0.0
 11
489.93596402251922
 21
-879.75131530700696
 31
0.0
  0
LINE
  5
18D2E
  8
1PHANTOM
 10
482.56596402251932
 20
-887.12131530700685
 30
0.0
 11
489.30596402251911
 21
-887.12131530700685
 31
0.0
  0
LINE
  5
18D2F
  8
1PHANTOM
 10
481.93596402251922
 20
-886.49131530700674
 30
0.0
 11
489.93596402251922
 21
-886.49131530700674
 31
0.0
  0
LINE
  5
18D30
  8
1PHANTOM
 10
482.56596402251932
 20
-887.12131530700685
 30
0.0
 11
481.93596402251922
 21
-886.49131530700674
 31
0.0
  0
LINE
  5
18D31
  8
1PHANTOM
 10
481.93596402251922
 20
-879.75131530700696
 30
0.0
 11
481.93596402251922
 21
-886.49131530700504
 31
0.0
  0
LINE
  5
18D32
  8
1PHANTOM
 10
481.93596402251922
 20
-879.75131530700696
 30
0.0
 11
481.93596402251922
 21
-886.49131530700674
 31
0.0
  0
LINE
  5
18D33
  8
1PHANTOM
 10
489.30596402251911
 20
-887.12131530700685
 30
0.0
 11
489.93596402251922
 21
-886.49131530700674
 31
0.0
  0
LINE
  5
18D34
  8
1PHANTOM
 10
489.93596402251922
 20
-879.75131530700696
 30
0.0
 11
489.93596402251922
 21
-886.49131530700504
 31
0.0
  0
LINE
  5
18D35
  8
1PHANTOM
 10
489.93596402251922
 20
-879.75131530700696
 30
0.0
 11
489.93596402251922
 21
-886.49131530700674
 31
0.0
  0
LINE
  5
18D36
  8
1PHANTOM
 10
482.56596402251932
 20
-879.12131530700685
 30
0.0
 11
481.93596402251922
 21
-879.75131530700696
 31
0.0
  0
LINE
  5
18D37
  8
1PHANTOM
 10
482.56596402251932
 20
-879.12131530700685
 30
0.0
 11
482.56596402251932
 21
-887.12131530700685
 31
0.0
  0
LINE
  5
18D38
  8
1PHANTOM
 10
489.93596402251922
 20
-879.75131530700696
 30
0.0
 11
489.30596402251911
 21
-879.12131530700685
 31
0.0
  0
LINE
  5
18D39
  8
1CENTER
 10
485.93596402251922
 20
-876.35676465013182
 30
0.0
 11
485.93596402251922
 21
-887.90926038573275
 31
0.0
  0
LINE
  5
18D3A
  8
1PHANTOM
 10
489.30596402251911
 20
-879.12131530700685
 30
0.0
 11
489.30596402251911
 21
-887.12131530700685
 31
0.0
  0
LINE
  5
1909D
  8
1DIM1
 10
339.9359640225203
 20
-725.12131530700401
 30
0.0
 11
339.9359640225203
 21
-671.62131530700424
 31
0.0
  0
LINE
  5
1909E
  8
1DIM1
 10
259.93596402251927
 20
-716.62131530699764
 30
0.0
 11
259.93596402251927
 21
-671.62131530700424
 31
0.0
  0
LINE
  5
1909F
  8
1DIM1
 10
329.9359640225203
 20
-676.62131530700424
 30
0.0
 11
269.93596402251927
 21
-676.62131530700424
 31
0.0
  0
LINE
  5
190A3
  8
1DIM1
 10
-260.06403597747982
 20
-725.12131530700401
 30
0.0
 11
-260.06403597747982
 21
-671.62131530700424
 31
0.0
  0
LINE
  5
190A4
  8
1DIM1
 10
-180.0640359774788
 20
-716.62131530699764
 30
0.0
 11
-180.0640359774788
 21
-671.62131530700424
 31
0.0
  0
LINE
  5
190A5
  8
1DIM1
 10
-250.06403597747979
 20
-676.62131530700424
 30
0.0
 11
-190.0640359774788
 21
-676.62131530700424
 31
0.0
  0
LINE
  5
190A9
  8
1DIM1
 10
-180.0640359774788
 20
-716.62131530700424
 30
0.0
 11
-180.0640359774788
 21
-671.62131530700424
 31
0.0
  0
LINE
  5
190AA
  8
1DIM1
 10
259.93596402251927
 20
-716.62131530700424
 30
0.0
 11
259.93596402251927
 21
-671.62131530700424
 31
0.0
  0
LINE
  5
190AB
  8
1DIM1
 10
-170.0640359774788
 20
-676.62131530700424
 30
0.0
 11
249.9359640225193
 21
-676.62131530700424
 31
0.0
  0
LINE
  5
190AF
  8
1DIM
 10
507.43596402250648
 20
-887.12131530700651
 30
0.0
 11
507.43596402250648
 21
-898.62131530700663
 31
0.0
  0
LINE
  5
190B0
  8
1DIM
 10
485.93596402251922
 20
-887.90926038573275
 30
0.0
 11
485.93596402251922
 21
-898.62131530700663
 31
0.0
  0
LINE
  5
190B1
  8
1DIM
 10
505.43596402250643
 20
-897.6213153070064
 30
0.0
 11
487.9359640225191
 21
-897.6213153070064
 31
0.0
  0
LINE
  5
190B5
  8
1DIM
 10
390.93596402251831
 20
-869.1213153070064
 30
0.0
 11
378.93596402251842
 21
-869.1213153070064
 31
0.0
  0
LINE
  5
190B6
  8
1DIM
 10
390.93596402251831
 20
-877.1213153070064
 30
0.0
 11
378.93596402251842
 21
-877.1213153070064
 31
0.0
  0
LINE
  5
190B7
  8
1DIM
 10
379.93596402251842
 20
-871.12131530700651
 30
0.0
 11
379.93596402251842
 21
-875.1213153070064
 31
0.0
  0
LINE
  5
190BB
  8
1DIM
 10
390.93596402251831
 20
-869.1213153070064
 30
0.0
 11
378.93596402251842
 21
-869.1213153070064
 31
0.0
  0
LINE
  5
190BC
  8
1DIM
 10
478.93596402251882
 20
-864.12131530700651
 30
0.0
 11
378.93596402251842
 21
-864.12131530700651
 31
0.0
  0
LINE
  5
190BD
  8
1DIM
 10
379.93596402251842
 20
-871.12131530700651
 30
0.0
 11
379.93596402251842
 21
-873.12131530700651
 31
0.0
  0
LINE
  5
190BE
  8
1DIM
 10
379.93596402251842
 20
-862.12131530700651
 30
0.0
 11
379.93596402251842
 21
-856.38798197367305
 31
0.0
  0
LINE
  5
190BF
  8
1DIM
 10
379.93596402251842
 20
-869.1213153070064
 30
0.0
 11
379.93596402251842
 21
-864.12131530700651
 31
0.0
  0
LINE
  5
190C3
  8
1DIM
 10
478.93596402251922
 20
-887.6213153070064
 30
0.0
 11
368.93596402251842
 21
-887.6213153070064
 31
0.0
  0
LINE
  5
190C4
  8
1DIM
 10
478.93596402251882
 20
-864.12131530700651
 30
0.0
 11
368.93596402251842
 21
-864.12131530700651
 31
0.0
  0
LINE
  5
190C5
  8
1DIM
 10
369.93596402251842
 20
-885.62131530700651
 30
0.0
 11
369.93596402251842
 21
-866.12131530700651
 31
0.0
  0
LINE
  5
190C9
  8
1DIM
 10
537.39687861367179
 20
-873.3713153070064
 30
0.0
 11
548.43596402251694
 21
-873.3713153070064
 31
0.0
  0
LINE
  5
190CA
  8
1DIM
 10
506.93596402252081
 20
-864.12131530699924
 30
0.0
 11
548.43596402251694
 21
-864.12131530699924
 31
0.0
  0
LINE
  5
190CB
  8
1DIM
 10
547.43596402251694
 20
-871.37131530700651
 30
0.0
 11
547.43596402251694
 21
-866.12131530699924
 31
0.0
  0
LINE
  5
190CF
  8
1DIM
 10
507.435964022517
 20
-910.62131530699776
 30
0.0
 11
507.435964022517
 21
-906.6213153070064
 31
0.0
  0
LINE
  5
190D0
  8
1DIM
 10
477.93596402251922
 20
-886.62131530700651
 30
0.0
 11
477.93596402251922
 21
-908.62131530700651
 31
0.0
  0
LINE
  5
190D1
  8
1DIM
 10
505.435964022517
 20
-907.62131530700663
 30
0.0
 11
479.9359640225191
 21
-907.62131530700663
 31
0.0
  0
TEXT
  5
190D5
  8
1DIM
 10
399.97168068141968
 20
-900.815939557761
 30
0.0
 40
3.5
  1
材質：ガラス
  0
SOLID
  5
190D6
  8
1DIM
 10
442.34256372519059
 20
-878.56933413560489
 30
0.0
 11
443.7716806814197
 21
-877.13102407288227
 31
0.0
 12
442.88629222965358
 22
-878.95508503693759
 32
0.0
 13
442.88629222965358
 23
-878.95508503693759
 33
0.0
  0
TEXT
  5
190D8
  8
1DIM
 10
513.09106526490928
 20
-808.08440749893271
 30
0.0
 40
3.5
  1
PB
  0
SOLID
  5
190D9
  8
1DIM
 10
513.99559537655227
 20
-827.23716850262247
 30
0.0
 11
514.01593264459643
 21
-829.26465401592213
 31
0.0
 12
513.33913181916023
 22
-827.35335818486919
 32
0.0
 13
513.33913181916023
 23
-827.35335818486919
 33
0.0
  0
SOLID
  5
190DB
  8
1DIM
 10
522.05911618908306
 20
-827.24155503272175
 30
0.0
 11
522.51391485853765
 21
-829.21747742020898
 31
0.0
 12
521.44286020770619
 22
-827.49586391943615
 32
0.0
 13
521.44286020770619
 23
-827.49586391943615
 33
0.0
  0
TEXT
  5
190DD
  8
1DIM
 10
519.25840975944789
 20
-814.08575351605657
 30
0.0
 40
3.5
  1
合板9mm以上
  0
LINE
  5
190DE
  8
1HATCH
 10
509.3552881115528
 20
-873.72494120225474
 30
0.0
 11
509.3552881115528
 21
-873.72494120225474
 31
0.0
  0
LINE
  5
190DF
  8
1HATCH
 10
505.71189154679269
 20
-885.91573554055981
 30
0.0
 11
505.71189154679269
 21
-885.91573554055981
 31
0.0
  0
LINE
  5
190E0
  8
1DIM
 10
389.93596402251831
 20
-876.1213153070064
 30
0.0
 11
389.93596402251831
 21
-918.62131530700651
 31
0.0
  0
LINE
  5
190E1
  8
1DIM
 10
507.435964022517
 20
-887.12131530700651
 30
0.0
 11
507.435964022517
 21
-918.62131530700651
 31
0.0
  0
LINE
  5
190E2
  8
1DIM
 10
391.93596402251831
 20
-917.62131530700651
 30
0.0
 11
505.435964022517
 21
-917.62131530700651
 31
0.0
  0
TEXT
  5
190E6
  8
1DIM
 10
444.50374677705668
 20
-925.86338169281601
 30
0.0
 40
3.5
  1
材質：アルミ
  0
TEXT
  5
190E7
  8
1DIM
 10
414.87041344372329
 20
-931.69671502614926
 30
0.0
 40
3.5
  1
仕上げ：ブラストアルマイト
  0
SOLID
  5
190E8
  8
1DIM
 10
486.79174502177909
 20
-890.37748125612154
 30
0.0
 11
487.83708011038999
 21
-888.6401310716077
 31
0.0
 12
487.41171454587061
 22
-890.62259803164307
 32
0.0
 13
487.41171454587061
 23
-890.62259803164307
 33
0.0
  0
LINE
  5
190EA
  8
1DIM1
 10
-140.06403597748059
 20
-876.37131530700503
 30
0.0
 11
-140.06403597748059
 21
-922.6213153070064
 31
0.0
  0
LINE
  5
190EB
  8
1DIM1
 10
39.935964022519329
 20
-876.37131530700503
 30
0.0
 11
39.935964022519329
 21
-922.6213153070064
 31
0.0
  0
LINE
  5
190EC
  8
1DIM1
 10
-130.06403597748059
 20
-917.62131530700651
 30
0.0
 11
29.935964022519329
 21
-917.62131530700651
 31
0.0
  0
LINE
  5
190F0
  8
1PHANTOM
 10
-140.06398944158261
 20
-689.62131530715953
 30
0.0
 11
-141.56398944158261
 21
-694.92131181702121
 31
0.0
  0
LINE
  5
190F1
  8
1PHANTOM
 10
-141.56398944158261
 20
-694.92131181702121
 30
0.0
 11
-141.56398944158261
 21
-719.62131181691313
 31
0.0
  0
LINE
  5
190F2
  8
1PHANTOM
 10
-140.06398944158261
 20
-689.62131530715953
 30
0.0
 11
-138.56398944158261
 21
-694.92131879740487
 31
0.0
  0
LINE
  5
190F3
  8
1PHANTOM
 10
-143.56403597748059
 20
-719.62130716321508
 30
0.0
 11
-141.56398944158261
 21
-719.62131181691313
 31
0.0
  0
LINE
  5
190F4
  8
1PHANTOM
 10
-138.56398944158261
 20
-694.92131879740487
 30
0.0
 11
-138.56398944158261
 21
-719.62131879729782
 31
0.0
  0
LINE
  5
190F5
  8
1PHANTOM
 10
-143.56403597748059
 20
-719.62130716321508
 30
0.0
 11
-143.56403597748059
 21
-720.72131065341034
 31
0.0
  0
LINE
  5
190F6
  8
1PHANTOM
 10
-138.56398944158261
 20
-719.62131879729782
 30
0.0
 11
-136.5640359774807
 21
-719.62132345077919
 31
0.0
  0
ARC
  5
190F7
  8
1PHANTOM
 10
-142.06403597748059
 20
-720.72131065341034
 30
0.0
 40
1.5
 50
180.0
 51
269.99986668447491
  0
LINE
  5
190F8
  8
1PHANTOM
 10
-136.5640359774807
 20
-719.62132345077919
 30
0.0
 11
-136.5640359774807
 21
-720.72131996058999
 31
0.0
  0
LINE
  5
190F9
  8
1PHANTOM
 10
-142.0640394676729
 20
-722.22131065340625
 30
0.0
 11
-138.0640394676729
 21
-722.22131996058579
 31
0.0
  0
ARC
  5
190FA
  8
1PHANTOM
 10
-138.06403597748059
 20
-720.72131996058999
 30
0.0
 40
1.5
 50
269.99986668447491
 51
0.0
  0
LINE
  5
190FB
  8
1PHANTOM
 10
39.936010558417252
 20
-689.62131530715953
 30
0.0
 11
38.436010558417252
 21
-694.92131181702121
 31
0.0
  0
LINE
  5
190FC
  8
1PHANTOM
 10
38.436010558417252
 20
-694.92131181702121
 30
0.0
 11
38.436010558417479
 21
-719.62131181691313
 31
0.0
  0
LINE
  5
190FD
  8
1PHANTOM
 10
39.936010558417252
 20
-689.62131530715953
 30
0.0
 11
41.436010558417358
 21
-694.92131879740487
 31
0.0
  0
LINE
  5
190FE
  8
1PHANTOM
 10
36.435964022519443
 20
-719.62130716321508
 30
0.0
 11
38.436010558417479
 21
-719.62131181691313
 31
0.0
  0
LINE
  5
190FF
  8
1PHANTOM
 10
41.436010558417358
 20
-694.92131879740487
 30
0.0
 11
41.436010558417252
 21
-719.62131879729782
 31
0.0
  0
LINE
  5
19100
  8
1PHANTOM
 10
36.435964022519443
 20
-719.62130716321508
 30
0.0
 11
36.435964022519329
 21
-720.72131065341034
 31
0.0
  0
LINE
  5
19101
  8
1PHANTOM
 10
41.436010558417252
 20
-719.62131879729782
 30
0.0
 11
43.435964022519322
 21
-719.62132345077919
 31
0.0
  0
ARC
  5
19102
  8
1PHANTOM
 10
37.935964022519329
 20
-720.72131065341034
 30
0.0
 40
1.5
 50
180.0
 51
269.99986668447059
  0
LINE
  5
19103
  8
1PHANTOM
 10
43.435964022519322
 20
-719.62132345077919
 30
0.0
 11
43.435964022519322
 21
-720.72131996058999
 31
0.0
  0
LINE
  5
19104
  8
1PHANTOM
 10
37.935960532326931
 20
-722.22131065340625
 30
0.0
 11
41.935960532326931
 21
-722.22131996058579
 31
0.0
  0
ARC
  5
19105
  8
1PHANTOM
 10
41.935964022519329
 20
-720.72131996058999
 30
0.0
 40
1.5
 50
269.99986668447059
 51
0.0
  0
LINE
  5
19106
  8
1DIM
 10
334.93596402252018
 20
-834.12131530700447
 30
0.0
 11
370.93596402251848
 21
-834.12131530700447
 31
0.0
  0
LINE
  5
19107
  8
1DIM
 10
259.93596402251927
 20
-716.62131530700424
 30
0.0
 11
370.93596402251848
 21
-716.62131530700424
 31
0.0
  0
LINE
  5
19108
  8
1DIM
 10
369.93596402251859
 20
-832.12131530700435
 30
0.0
 11
369.93596402251859
 21
-718.62131530700424
 31
0.0
  0
LINE
  5
1910C
  8
1DIM
 10
338.93596402252018
 20
-724.12131530700469
 30
0.0
 11
360.93596402251842
 21
-724.12131530700469
 31
0.0
  0
LINE
  5
1910D
  8
1DIM
 10
334.93596402252018
 20
-834.12131530700447
 30
0.0
 11
360.93596402251842
 21
-834.12131530700447
 31
0.0
  0
LINE
  5
1910E
  8
1DIM
 10
359.93596402251842
 20
-726.12131530700458
 30
0.0
 11
359.93596402251842
 21
-832.12131530700435
 31
0.0
  0
LINE
  5
19112
  8
1DIM
 10
338.93596402252018
 20
-724.12131530700469
 30
0.0
 11
360.93596402251842
 21
-724.12131530700469
 31
0.0
  0
LINE
  5
19113
  8
1DIM
 10
259.93596402251927
 20
-716.62131530700424
 30
0.0
 11
360.93596402251842
 21
-716.62131530700424
 31
0.0
  0
LINE
  5
19114
  8
1DIM
 10
359.93596402251842
 20
-722.12131530700458
 30
0.0
 11
359.93596402251842
 21
-718.62131530700424
 31
0.0
  0
LINE
  5
19115
  8
1DIM
 10
359.93596402251842
 20
-716.62131530700424
 30
0.0
 11
359.93596402251842
 21
-705.88798197367078
 31
0.0
  0
LINE
  5
19119
  8
1DIM1
 10
-260.06403597747982
 20
-876.12131530700481
 30
0.0
 11
-260.06403597747982
 21
-952.62131530700651
 31
0.0
  0
LINE
  5
1911A
  8
1DIM1
 10
339.93596402251842
 20
-876.12131530700481
 30
0.0
 11
339.93596402251842
 21
-952.62131530700651
 31
0.0
  0
LINE
  5
1911B
  8
1DIM1
 10
-250.06403597747979
 20
-947.6213153070064
 30
0.0
 11
329.93596402251842
 21
-947.6213153070064
 31
0.0
  0
LINE
  5
1911F
  8
1DIM1
 10
39.935964022519329
 20
-876.37131530700503
 30
0.0
 11
39.935964022519329
 21
-922.6213153070064
 31
0.0
  0
LINE
  5
19120
  8
1DIM1
 10
219.9359640225193
 20
-876.37131530700503
 30
0.0
 11
219.9359640225193
 21
-922.6213153070064
 31
0.0
  0
LINE
  5
19121
  8
1DIM1
 10
49.935964022519329
 20
-917.62131530700651
 30
0.0
 11
209.9359640225193
 21
-917.62131530700651
 31
0.0
  0
LINE
  5
19125
  8
1PHANTOM
 10
219.93601055841719
 20
-689.62131530715953
 30
0.0
 11
218.43601055841719
 21
-694.92131181702121
 31
0.0
  0
LINE
  5
19126
  8
1PHANTOM
 10
218.43601055841719
 20
-694.92131181702121
 30
0.0
 11
218.43601055841751
 21
-719.62131181691313
 31
0.0
  0
LINE
  5
19127
  8
1PHANTOM
 10
219.93601055841719
 20
-689.62131530715953
 30
0.0
 11
221.43601055841731
 21
-694.92131879740487
 31
0.0
  0
LINE
  5
19128
  8
1PHANTOM
 10
216.43596402251941
 20
-719.62130716321508
 30
0.0
 11
218.43601055841751
 21
-719.62131181691313
 31
0.0
  0
LINE
  5
19129
  8
1PHANTOM
 10
221.43601055841731
 20
-694.92131879740487
 30
0.0
 11
221.43601055841731
 21
-719.62131879729782
 31
0.0
  0
LINE
  5
1912A
  8
1PHANTOM
 10
216.43596402251941
 20
-719.62130716321508
 30
0.0
 11
216.4359640225193
 21
-720.72131065341034
 31
0.0
  0
LINE
  5
1912B
  8
1PHANTOM
 10
221.43601055841731
 20
-719.62131879729782
 30
0.0
 11
223.4359640225193
 21
-719.62132345077919
 31
0.0
  0
ARC
  5
1912C
  8
1PHANTOM
 10
217.9359640225193
 20
-720.72131065341034
 30
0.0
 40
1.5
 50
180.0
 51
269.99986668447059
  0
LINE
  5
1912D
  8
1PHANTOM
 10
223.4359640225193
 20
-719.62132345077919
 30
0.0
 11
223.4359640225193
 21
-720.72131996058999
 31
0.0
  0
LINE
  5
1912E
  8
1PHANTOM
 10
217.9359605323269
 20
-722.22131065340625
 30
0.0
 11
221.9359605323269
 21
-722.22131996058579
 31
0.0
  0
ARC
  5
1912F
  8
1PHANTOM
 10
221.9359640225193
 20
-720.72131996058999
 30
0.0
 40
1.5
 50
269.99986668447059
 51
0.0
  0
TEXT
  5
19130
  8
1DIM1
 10
102.227630689186
 20
-914.12131530700651
 30
0.0
 40
17.5
  1
P180 
  0
LINE
  5
19131
  8
0
  6
BYBLOCK
 10
209.9359640225193
 20
-914.9418234070065
 30
0.0
 11
219.9359640225193
 21
-917.62131530700651
 31
0.0
  0
LINE
  5
19132
  8
0
  6
BYBLOCK
 10
219.9359640225193
 20
-917.62131530700651
 30
0.0
 11
209.9359640225193
 21
-920.30080720700653
 31
0.0
  0
LINE
  5
19133
  8
0
  6
BYBLOCK
 10
219.9359640225193
 20
-917.62131530700651
 30
0.0
 11
209.9359640225193
 21
-917.62131530700651
 31
0.0
  0
LINE
  5
19134
  8
0
  6
BYBLOCK
 10
49.935964022519329
 20
-920.30080720700653
 30
0.0
 11
39.935964022519329
 21
-917.62131530700651
 31
0.0
  0
LINE
  5
19135
  8
0
  6
BYBLOCK
 10
39.935964022519329
 20
-917.62131530700651
 30
0.0
 11
49.935964022519329
 21
-914.9418234070065
 31
0.0
  0
LINE
  5
19136
  8
0
  6
BYBLOCK
 10
39.935964022519329
 20
-917.62131530700651
 30
0.0
 11
49.935964022519329
 21
-917.62131530700651
 31
0.0
  0
TEXT
  5
19137
  8
1DIM1
 10
19.519297355852661
 20
-944.1213153070064
 30
0.0
 40
17.5
  1
600 
  0
LINE
  5
19138
  8
0
  6
BYBLOCK
 10
329.93596402251842
 20
-944.94182340700638
 30
0.0
 11
339.93596402251842
 21
-947.6213153070064
 31
0.0
  0
LINE
  5
19139
  8
0
  6
BYBLOCK
 10
339.93596402251842
 20
-947.6213153070064
 30
0.0
 11
329.93596402251842
 21
-950.30080720700641
 31
0.0
  0
LINE
  5
1913A
  8
0
  6
BYBLOCK
 10
339.93596402251842
 20
-947.6213153070064
 30
0.0
 11
329.93596402251842
 21
-947.6213153070064
 31
0.0
  0
LINE
  5
1913B
  8
0
  6
BYBLOCK
 10
-250.06403597747979
 20
-950.30080720700641
 30
0.0
 11
-260.06403597747982
 21
-947.6213153070064
 31
0.0
  0
LINE
  5
1913C
  8
0
  6
BYBLOCK
 10
-260.06403597747982
 20
-947.6213153070064
 30
0.0
 11
-250.06403597747979
 21
-944.94182340700638
 31
0.0
  0
LINE
  5
1913D
  8
0
  6
BYBLOCK
 10
-260.06403597747982
 20
-947.6213153070064
 30
0.0
 11
-250.06403597747979
 21
-947.6213153070064
 31
0.0
  0
TEXT
  5
1913E
  8
1DIM
 10
359.23596402251849
 20
-713.75464864033745
 30
0.0
 40
3.5
  1
7.5 
 50
90.0
  0
LINE
  5
1913F
  8
0
  6
BYBLOCK
 10
359.40006564251843
 20
-718.62131530700424
 30
0.0
 11
359.93596402251842
 21
-716.62131530700424
 31
0.0
  0
LINE
  5
19140
  8
0
  6
BYBLOCK
 10
359.93596402251842
 20
-716.62131530700424
 30
0.0
 11
360.47186240251841
 21
-718.62131530700424
 31
0.0
  0
LINE
  5
19141
  8
0
  6
BYBLOCK
 10
359.93596402251842
 20
-716.62131530700424
 30
0.0
 11
359.93596402251842
 21
-718.62131530700424
 31
0.0
  0
LINE
  5
19142
  8
0
  6
BYBLOCK
 10
360.47186240251841
 20
-722.12131530700458
 30
0.0
 11
359.93596402251842
 21
-724.12131530700469
 31
0.0
  0
LINE
  5
19143
  8
0
  6
BYBLOCK
 10
359.93596402251842
 20
-724.12131530700469
 30
0.0
 11
359.40006564251843
 21
-722.12131530700458
 31
0.0
  0
LINE
  5
19144
  8
0
  6
BYBLOCK
 10
359.93596402251842
 20
-724.12131530700469
 30
0.0
 11
359.93596402251842
 21
-722.12131530700458
 31
0.0
  0
TEXT
  5
19145
  8
1DIM
 10
359.23596402251849
 20
-782.32964864033784
 30
0.0
 40
3.5
  1
110 
 50
90.0
  0
LINE
  5
19146
  8
0
  6
BYBLOCK
 10
360.47186240251841
 20
-832.12131530700435
 30
0.0
 11
359.93596402251842
 21
-834.12131530700447
 31
0.0
  0
LINE
  5
19147
  8
0
  6
BYBLOCK
 10
359.93596402251842
 20
-834.12131530700447
 30
0.0
 11
359.40006564251843
 21
-832.12131530700435
 31
0.0
  0
LINE
  5
19148
  8
0
  6
BYBLOCK
 10
359.93596402251842
 20
-834.12131530700447
 30
0.0
 11
359.93596402251842
 21
-832.12131530700435
 31
0.0
  0
LINE
  5
19149
  8
0
  6
BYBLOCK
 10
359.40006564251843
 20
-726.12131530700458
 30
0.0
 11
359.93596402251842
 21
-724.12131530700469
 31
0.0
  0
LINE
  5
1914A
  8
0
  6
BYBLOCK
 10
359.93596402251842
 20
-724.12131530700469
 30
0.0
 11
360.47186240251841
 21
-726.12131530700458
 31
0.0
  0
LINE
  5
1914B
  8
0
  6
BYBLOCK
 10
359.93596402251842
 20
-724.12131530700469
 30
0.0
 11
359.93596402251842
 21
-726.12131530700458
 31
0.0
  0
TEXT
  5
1914C
  8
1DIM
 10
369.23596402251871
 20
-781.2046486403375
 30
0.0
 40
3.5
  1
117.5 
 50
90.0
  0
LINE
  5
1914D
  8
0
  6
BYBLOCK
 10
369.40006564251848
 20
-718.62131530700424
 30
0.0
 11
369.93596402251859
 21
-716.62131530700424
 31
0.0
  0
LINE
  5
1914E
  8
0
  6
BYBLOCK
 10
369.93596402251859
 20
-716.62131530700424
 30
0.0
 11
370.47186240251852
 21
-718.62131530700424
 31
0.0
  0
LINE
  5
1914F
  8
0
  6
BYBLOCK
 10
369.93596402251859
 20
-716.62131530700424
 30
0.0
 11
369.93596402251859
 21
-718.62131530700424
 31
0.0
  0
LINE
  5
19150
  8
0
  6
BYBLOCK
 10
370.47186240251852
 20
-832.12131530700435
 30
0.0
 11
369.93596402251859
 21
-834.12131530700447
 31
0.0
  0
LINE
  5
19151
  8
0
  6
BYBLOCK
 10
369.93596402251859
 20
-834.12131530700447
 30
0.0
 11
369.40006564251848
 21
-832.12131530700435
 31
0.0
  0
LINE
  5
19152
  8
0
  6
BYBLOCK
 10
369.93596402251859
 20
-834.12131530700447
 30
0.0
 11
369.93596402251859
 21
-832.12131530700435
 31
0.0
  0
TEXT
  5
19153
  8
1DIM1
 10
-77.772369310814014
 20
-914.12131530700651
 30
0.0
 40
17.5
  1
P180 
  0
LINE
  5
19154
  8
0
  6
BYBLOCK
 10
29.935964022519329
 20
-914.9418234070065
 30
0.0
 11
39.935964022519329
 21
-917.62131530700651
 31
0.0
  0
LINE
  5
19155
  8
0
  6
BYBLOCK
 10
39.935964022519329
 20
-917.62131530700651
 30
0.0
 11
29.935964022519329
 21
-920.30080720700653
 31
0.0
  0
LINE
  5
19156
  8
0
  6
BYBLOCK
 10
39.935964022519329
 20
-917.62131530700651
 30
0.0
 11
29.935964022519329
 21
-917.62131530700651
 31
0.0
  0
LINE
  5
19157
  8
0
  6
BYBLOCK
 10
-130.06403597748059
 20
-920.30080720700653
 30
0.0
 11
-140.06403597748059
 21
-917.62131530700651
 31
0.0
  0
LINE
  5
19158
  8
0
  6
BYBLOCK
 10
-140.06403597748059
 20
-917.62131530700651
 30
0.0
 11
-130.06403597748059
 21
-914.9418234070065
 31
0.0
  0
LINE
  5
19159
  8
0
  6
BYBLOCK
 10
-140.06403597748059
 20
-917.62131530700651
 30
0.0
 11
-130.06403597748059
 21
-917.62131530700651
 31
0.0
  0
LINE
  5
1915A
  8
1DIM
 10
487.10172978382479
 20
-890.50003964388225
 30
0.0
 11
470.53708011038998
 21
-932.39671502614931
 31
0.0
  0
LINE
  5
1915B
  8
1DIM
 10
470.53708011038998
 20
-932.39671502614931
 30
0.0
 11
414.17041344372331
 21
-932.39671502614931
 31
0.0
  0
TEXT
  5
1915C
  8
1DIM
 10
442.85263068918442
 20
-916.92131530700635
 30
0.0
 40
3.5
  1
117.5 
  0
LINE
  5
1915D
  8
0
  6
BYBLOCK
 10
505.435964022517
 20
-917.08541692700635
 30
0.0
 11
507.435964022517
 21
-917.62131530700651
 31
0.0
  0
LINE
  5
1915E
  8
0
  6
BYBLOCK
 10
507.435964022517
 20
-917.62131530700651
 30
0.0
 11
505.435964022517
 21
-918.15721368700656
 31
0.0
  0
LINE
  5
1915F
  8
0
  6
BYBLOCK
 10
507.435964022517
 20
-917.62131530700651
 30
0.0
 11
505.435964022517
 21
-917.62131530700651
 31
0.0
  0
LINE
  5
19160
  8
0
  6
BYBLOCK
 10
391.93596402251831
 20
-918.15721368700656
 30
0.0
 11
389.93596402251831
 21
-917.62131530700651
 31
0.0
  0
LINE
  5
19161
  8
0
  6
BYBLOCK
 10
389.93596402251831
 20
-917.62131530700651
 30
0.0
 11
391.93596402251831
 21
-917.08541692700635
 31
0.0
  0
LINE
  5
19162
  8
0
  6
BYBLOCK
 10
389.93596402251831
 20
-917.62131530700651
 30
0.0
 11
391.93596402251831
 21
-917.62131530700651
 31
0.0
  0
LINE
  5
19163
  8
1DIM
 10
521.75098819839457
 20
-827.36870947607883
 30
0.0
 11
516.55840975944784
 21
-814.78575351605662
 31
0.0
  0
LINE
  5
19164
  8
1DIM
 10
516.55840975944784
 20
-814.78575351605662
 30
0.0
 11
548.45840975944782
 21
-814.78575351605662
 31
0.0
  0
LINE
  5
19165
  8
1DIM
 10
513.66736359785625
 20
-827.29526334374589
 30
0.0
 11
510.39106526490917
 21
-808.78440749893275
 31
0.0
  0
LINE
  5
19166
  8
1DIM
 10
510.39106526490917
 20
-808.78440749893275
 30
0.0
 11
518.92439859824253
 21
-808.78440749893275
 31
0.0
  0
LINE
  5
19167
  8
1DIM
 10
442.61442797742211
 20
-878.76220958627141
 30
0.0
 11
426.47168068141968
 21
-901.51593955776104
 31
0.0
  0
LINE
  5
19168
  8
1DIM
 10
426.47168068141968
 20
-901.51593955776104
 30
0.0
 11
399.5050140147531
 21
-901.51593955776104
 31
0.0
  0
TEXT
  5
19169
  8
1DIM
 10
487.43596402251808
 20
-906.92131530700635
 30
0.0
 40
3.5
  1
29.5 
  0
LINE
  5
1916A
  8
0
  6
BYBLOCK
 10
479.9359640225191
 20
-908.15721368700645
 30
0.0
 11
477.93596402251922
 21
-907.62131530700663
 31
0.0
  0
LINE
  5
1916B
  8
0
  6
BYBLOCK
 10
477.93596402251922
 20
-907.62131530700663
 30
0.0
 11
479.9359640225191
 21
-907.08541692700646
 31
0.0
  0
LINE
  5
1916C
  8
0
  6
BYBLOCK
 10
477.93596402251922
 20
-907.62131530700663
 30
0.0
 11
479.9359640225191
 21
-907.62131530700663
 31
0.0
  0
LINE
  5
1916D
  8
0
  6
BYBLOCK
 10
505.435964022517
 20
-907.08541692700646
 30
0.0
 11
507.435964022517
 21
-907.62131530700663
 31
0.0
  0
LINE
  5
1916E
  8
0
  6
BYBLOCK
 10
507.435964022517
 20
-907.62131530700663
 30
0.0
 11
505.435964022517
 21
-908.15721368700645
 31
0.0
  0
LINE
  5
1916F
  8
0
  6
BYBLOCK
 10
507.435964022517
 20
-907.62131530700663
 30
0.0
 11
505.435964022517
 21
-907.62131530700663
 31
0.0
  0
TEXT
  5
19170
  8
1DIM
 10
546.73596402251712
 20
-869.91298197366928
 30
0.0
 40
3.5
  1
9 
 50
90.0
  0
LINE
  5
19171
  8
0
  6
BYBLOCK
 10
546.90006564251678
 20
-866.12131530699924
 30
0.0
 11
547.43596402251694
 21
-864.12131530699924
 31
0.0
  0
LINE
  5
19172
  8
0
  6
BYBLOCK
 10
547.43596402251694
 20
-864.12131530699924
 30
0.0
 11
547.97186240251699
 21
-866.12131530699924
 31
0.0
  0
LINE
  5
19173
  8
0
  6
BYBLOCK
 10
547.43596402251694
 20
-864.12131530699924
 30
0.0
 11
547.43596402251694
 21
-866.12131530699924
 31
0.0
  0
LINE
  5
19174
  8
0
  6
BYBLOCK
 10
547.97186240251699
 20
-871.37131530700651
 30
0.0
 11
547.43596402251694
 21
-873.3713153070064
 31
0.0
  0
LINE
  5
19175
  8
0
  6
BYBLOCK
 10
547.43596402251694
 20
-873.3713153070064
 30
0.0
 11
546.90006564251678
 21
-871.37131530700651
 31
0.0
  0
LINE
  5
19176
  8
0
  6
BYBLOCK
 10
547.43596402251694
 20
-873.3713153070064
 30
0.0
 11
547.43596402251694
 21
-871.37131530700651
 31
0.0
  0
TEXT
  5
19177
  8
1DIM
 10
369.23596402251849
 20
-881.12131530700628
 30
0.0
 40
3.5
  1
23.5 
 50
90.0
  0
LINE
  5
19178
  8
0
  6
BYBLOCK
 10
369.40006564251843
 20
-866.12131530700651
 30
0.0
 11
369.93596402251842
 21
-864.12131530700651
 31
0.0
  0
LINE
  5
19179
  8
0
  6
BYBLOCK
 10
369.93596402251842
 20
-864.12131530700651
 30
0.0
 11
370.47186240251841
 21
-866.12131530700651
 31
0.0
  0
LINE
  5
1917A
  8
0
  6
BYBLOCK
 10
369.93596402251842
 20
-864.12131530700651
 30
0.0
 11
369.93596402251842
 21
-866.12131530700651
 31
0.0
  0
LINE
  5
1917B
  8
0
  6
BYBLOCK
 10
370.47186240251841
 20
-885.62131530700651
 30
0.0
 11
369.93596402251842
 21
-887.6213153070064
 31
0.0
  0
LINE
  5
1917C
  8
0
  6
BYBLOCK
 10
369.93596402251842
 20
-887.6213153070064
 30
0.0
 11
369.40006564251843
 21
-885.62131530700651
 31
0.0
  0
LINE
  5
1917D
  8
0
  6
BYBLOCK
 10
369.93596402251842
 20
-887.6213153070064
 30
0.0
 11
369.93596402251842
 21
-885.62131530700651
 31
0.0
  0
TEXT
  5
1917E
  8
1DIM
 10
379.2359640225186
 20
-859.42131530700635
 30
0.0
 40
3.5
  1
5 
 50
90.0
  0
LINE
  5
1917F
  8
0
  6
BYBLOCK
 10
380.47186240251841
 20
-862.12131530700651
 30
0.0
 11
379.93596402251842
 21
-864.12131530700651
 31
0.0
  0
LINE
  5
19180
  8
0
  6
BYBLOCK
 10
379.93596402251842
 20
-864.12131530700651
 30
0.0
 11
379.40006564251843
 21
-862.12131530700651
 31
0.0
  0
LINE
  5
19181
  8
0
  6
BYBLOCK
 10
379.93596402251842
 20
-864.12131530700651
 30
0.0
 11
379.93596402251842
 21
-862.12131530700651
 31
0.0
  0
LINE
  5
19182
  8
0
  6
BYBLOCK
 10
379.40006564251843
 20
-871.12131530700651
 30
0.0
 11
379.93596402251842
 21
-869.1213153070064
 31
0.0
  0
LINE
  5
19183
  8
0
  6
BYBLOCK
 10
379.93596402251842
 20
-869.1213153070064
 30
0.0
 11
380.47186240251841
 21
-871.12131530700651
 31
0.0
  0
LINE
  5
19184
  8
0
  6
BYBLOCK
 10
379.93596402251842
 20
-869.1213153070064
 30
0.0
 11
379.93596402251842
 21
-871.12131530700651
 31
0.0
  0
TEXT
  5
19185
  8
1DIM
 10
379.2359640225186
 20
-874.28798197367303
 30
0.0
 40
3.5
  1
8 
 50
90.0
  0
LINE
  5
19186
  8
0
  6
BYBLOCK
 10
380.47186240251841
 20
-875.1213153070064
 30
0.0
 11
379.93596402251842
 21
-877.1213153070064
 31
0.0
  0
LINE
  5
19187
  8
0
  6
BYBLOCK
 10
379.93596402251842
 20
-877.1213153070064
 30
0.0
 11
379.40006564251843
 21
-875.1213153070064
 31
0.0
  0
LINE
  5
19188
  8
0
  6
BYBLOCK
 10
379.93596402251842
 20
-877.1213153070064
 30
0.0
 11
379.93596402251842
 21
-875.1213153070064
 31
0.0
  0
LINE
  5
19189
  8
0
  6
BYBLOCK
 10
379.40006564251843
 20
-871.12131530700651
 30
0.0
 11
379.93596402251842
 21
-869.1213153070064
 31
0.0
  0
LINE
  5
1918A
  8
0
  6
BYBLOCK
 10
379.93596402251842
 20
-869.1213153070064
 30
0.0
 11
380.47186240251841
 21
-871.12131530700651
 31
0.0
  0
LINE
  5
1918B
  8
0
  6
BYBLOCK
 10
379.93596402251842
 20
-869.1213153070064
 30
0.0
 11
379.93596402251842
 21
-871.12131530700651
 31
0.0
  0
TEXT
  5
1918C
  8
1DIM
 10
492.01929735584611
 20
-896.92131530700635
 30
0.0
 40
3.5
  1
21.5 
  0
LINE
  5
1918D
  8
0
  6
BYBLOCK
 10
487.9359640225191
 20
-898.15721368700645
 30
0.0
 11
485.93596402251922
 21
-897.6213153070064
 31
0.0
  0
LINE
  5
1918E
  8
0
  6
BYBLOCK
 10
485.93596402251922
 20
-897.6213153070064
 30
0.0
 11
487.9359640225191
 21
-897.08541692700646
 31
0.0
  0
LINE
  5
1918F
  8
0
  6
BYBLOCK
 10
485.93596402251922
 20
-897.6213153070064
 30
0.0
 11
487.9359640225191
 21
-897.6213153070064
 31
0.0
  0
LINE
  5
19190
  8
0
  6
BYBLOCK
 10
505.43596402250643
 20
-897.08541692700646
 30
0.0
 11
507.43596402250648
 21
-897.6213153070064
 31
0.0
  0
LINE
  5
19191
  8
0
  6
BYBLOCK
 10
507.43596402250648
 20
-897.6213153070064
 30
0.0
 11
505.43596402250643
 21
-898.15721368700645
 31
0.0
  0
LINE
  5
19192
  8
0
  6
BYBLOCK
 10
507.43596402250648
 20
-897.6213153070064
 30
0.0
 11
505.43596402250643
 21
-897.6213153070064
 31
0.0
  0
TEXT
  5
19193
  8
1DIM1
 10
18.060964022520238
 20
-673.12131530700424
 30
0.0
 40
17.5
  1
440 
  0
LINE
  5
19194
  8
0
  6
BYBLOCK
 10
249.9359640225193
 20
-673.94182340700422
 30
0.0
 11
259.93596402251927
 21
-676.62131530700424
 31
0.0
  0
LINE
  5
19195
  8
0
  6
BYBLOCK
 10
259.93596402251927
 20
-676.62131530700424
 30
0.0
 11
249.9359640225193
 21
-679.30080720700425
 31
0.0
  0
LINE
  5
19196
  8
0
  6
BYBLOCK
 10
259.93596402251927
 20
-676.62131530700424
 30
0.0
 11
249.9359640225193
 21
-676.62131530700424
 31
0.0
  0
LINE
  5
19197
  8
0
  6
BYBLOCK
 10
-170.0640359774788
 20
-679.30080720700425
 30
0.0
 11
-180.0640359774788
 21
-676.62131530700424
 31
0.0
  0
LINE
  5
19198
  8
0
  6
BYBLOCK
 10
-180.0640359774788
 20
-676.62131530700424
 30
0.0
 11
-170.0640359774788
 21
-673.94182340700422
 31
0.0
  0
LINE
  5
19199
  8
0
  6
BYBLOCK
 10
-180.0640359774788
 20
-676.62131530700424
 30
0.0
 11
-170.0640359774788
 21
-676.62131530700424
 31
0.0
  0
TEXT
  5
1919A
  8
1DIM1
 10
-233.18903597747931
 20
-673.12131530700424
 30
0.0
 40
17.5
  1
80 
  0
LINE
  5
1919B
  8
0
  6
BYBLOCK
 10
-190.0640359774788
 20
-673.94182340700422
 30
0.0
 11
-180.0640359774788
 21
-676.62131530700424
 31
0.0
  0
LINE
  5
1919C
  8
0
  6
BYBLOCK
 10
-180.0640359774788
 20
-676.62131530700424
 30
0.0
 11
-190.0640359774788
 21
-679.30080720700425
 31
0.0
  0
LINE
  5
1919D
  8
0
  6
BYBLOCK
 10
-180.0640359774788
 20
-676.62131530700424
 30
0.0
 11
-190.0640359774788
 21
-676.62131530700424
 31
0.0
  0
LINE
  5
1919E
  8
0
  6
BYBLOCK
 10
-250.06403597747979
 20
-679.30080720700425
 30
0.0
 11
-260.06403597747982
 21
-676.62131530700424
 31
0.0
  0
LINE
  5
1919F
  8
0
  6
BYBLOCK
 10
-260.06403597747982
 20
-676.62131530700424
 30
0.0
 11
-250.06403597747979
 21
-673.94182340700422
 31
0.0
  0
LINE
  5
191A0
  8
0
  6
BYBLOCK
 10
-260.06403597747982
 20
-676.62131530700424
 30
0.0
 11
-250.06403597747979
 21
-676.62131530700424
 31
0.0
  0
TEXT
  5
191A1
  8
1DIM1
 10
286.81096402251978
 20
-673.12131530700424
 30
0.0
 40
17.5
  1
80 
  0
LINE
  5
191A2
  8
0
  6
BYBLOCK
 10
269.93596402251927
 20
-679.30080720700425
 30
0.0
 11
259.93596402251927
 21
-676.62131530700424
 31
0.0
  0
LINE
  5
191A3
  8
0
  6
BYBLOCK
 10
259.93596402251927
 20
-676.62131530700424
 30
0.0
 11
269.93596402251927
 21
-673.94182340700422
 31
0.0
  0
LINE
  5
191A4
  8
0
  6
BYBLOCK
 10
259.93596402251927
 20
-676.62131530700424
 30
0.0
 11
269.93596402251927
 21
-676.62131530700424
 31
0.0
  0
LINE
  5
191A5
  8
0
  6
BYBLOCK
 10
329.9359640225203
 20
-673.94182340700422
 30
0.0
 11
339.9359640225203
 21
-676.62131530700424
 31
0.0
  0
LINE
  5
191A6
  8
0
  6
BYBLOCK
 10
339.9359640225203
 20
-676.62131530700424
 30
0.0
 11
329.9359640225203
 21
-679.30080720700425
 31
0.0
  0
LINE
  5
191A7
  8
0
  6
BYBLOCK
 10
339.9359640225203
 20
-676.62131530700424
 30
0.0
 11
329.9359640225203
 21
-676.62131530700424
 31
0.0
  0
VIEWPORT
  5
57
 67
     1
  8
0
 10
-12.73141056964354
 20
10.083731670551
 30
0.0
 40
426.49732989047362
 41
282.80698729109162
 68
     1
 69
     1
1001
ACAD
1000
MVIEW
1002
{
1070
    16
1010
0.0
1020
0.0
1030
0.0
1010
0.0
1020
0.0
1030
1.0
1040
0.0
1040
282.80698729109162
1040
-12.73141056964354
1040
10.083731670551
1040
50.0
1040
0.0
1040
0.0
1070
     0
1070
   100
1070
     1
1070
     1
1070
     0
1070
     0
1070
     0
1070
     0
1040
0.0
1040
0.0
1040
0.0
1040
10.0
1040
10.0
1040
10.0
1040
10.0
1070
     0
1002
{
1002
}
1002
}
  0
ENDSEC
  0
EOF
