  0
SECTION
  2
HEADER
  9
$ACADVER
  1
AC1009
  9
$INSBASE
 10
0.0
 20
0.0
 30
0.0
  9
$EXTMIN
 10
-361.09956988341253
 20
-952.62131530700651
 30
0.0
  9
$EXTMAX
 10
548.45840975944782
 20
-655.62131530700458
 30
0.0
  9
$LIMMIN
 10
0.0
 20
0.0
  9
$LIMMAX
 10
420.0
 20
297.0
  9
$ORTHOMODE
 70
     0
  9
$REGENMODE
 70
     1
  9
$FILLMODE
 70
     1
  9
$QTEXTMODE
 70
     0
  9
$MIRRTEXT
 70
     0
  9
$DRAGMODE
 70
     2
  9
$LTSCALE
 40
0.5
  9
$OSMODE
 70
  2173
  9
$ATTMODE
 70
     1
  9
$TEXTSIZE
 40
4.0
  9
$TRACEWID
 40
1.0
  9
$TEXTSTYLE
  7
STANDARD
  9
$CLAYER
  8
1TEXT
  9
$CELTYPE
  6
BYLAYER
  9
$CECOLOR
 62
   256
  9
$DIMSCALE
 40
1.0
  9
$DIMASZ
 40
2.0
  9
$DIMEXO
 40
0.0
  9
$DIMDLI
 40
7.0
  9
$DIMRND
 40
0.0
  9
$DIMDLE
 40
0.0
  9
$DIMEXE
 40
1.0
  9
$DIMTP
 40
0.0
  9
$DIMTM
 40
0.0
  9
$DIMTXT
 40
3.5
  9
$DIMCEN
 40
0.0
  9
$DIMTSZ
 40
0.0
  9
$DIMTOL
 70
     0
  9
$DIMLIM
 70
     0
  9
$DIMTIH
 70
     0
  9
$DIMTOH
 70
     0
  9
$DIMSE1
 70
     0
  9
$DIMSE2
 70
     0
  9
$DIMTAD
 70
     1
  9
$DIMZIN
 70
     8
  9
$DIMBLK
  1

  9
$DIMASO
 70
     1
  9
$DIMSHO
 70
     1
  9
$DIMPOST
  1
 
  9
$DIMAPOST
  1

  9
$DIMALT
 70
     0
  9
$DIMALTD
 70
     2
  9
$DIMALTF
 40
25.399999999999999
  9
$DIMLFAC
 40
1.0
  9
$DIMTOFL
 70
     1
  9
$DIMTVP
 40
0.0
  9
$DIMTIX
 70
     0
  9
$DIMSOXD
 70
     0
  9
$DIMSAH
 70
     1
  9
$DIMBLK1
  1
OPEN30
  9
$DIMBLK2
  1
OPEN30
  9
$DIMSTYLE
  2
NEWX10
  9
$DIMCLRD
 70
   256
  9
$DIMCLRE
 70
   256
  9
$DIMCLRT
 70
   201
  9
$DIMTFAC
 40
0.7
  9
$DIMGAP
 40
0.7
  9
$LUNITS
 70
     2
  9
$LUPREC
 70
     4
  9
$SKETCHINC
 40
1.0
  9
$FILLETRAD
 40
0.0
  9
$AUNITS
 70
     0
  9
$AUPREC
 70
     2
  9
$MENU
  1
acad
  9
$ELEVATION
 40
0.0
  9
$PELEVATION
 40
0.0
  9
$THICKNESS
 40
0.0
  9
$LIMCHECK
 70
     0
  9
$BLIPMODE
 70
     0
  9
$CHAMFERA
 40
10.0
  9
$CHAMFERB
 40
10.0
  9
$SKPOLY
 70
     0
  9
$TDCREATE
 40
2453033.7326634838
  9
$TDUPDATE
 40
2453605.74052897
  9
$TDINDWG
 40
1.7270491551
  9
$TDUSRTIMER
 40
1.7270491551
  9
$USRTIMER
 70
     1
  9
$ANGBASE
 50
0.0
  9
$ANGDIR
 70
     0
  9
$PDMODE
 70
     0
  9
$PDSIZE
 40
0.0
  9
$PLINEWID
 40
0.0
  9
$COORDS
 70
     2
  9
$SPLFRAME
 70
     0
  9
$SPLINETYPE
 70
     6
  9
$SPLINESEGS
 70
     8
  9
$ATTDIA
 70
     0
  9
$ATTREQ
 70
     1
  9
$HANDLING
 70
     1
  9
$HANDSEED
  5
1945F
  9
$SURFTAB1
 70
     6
  9
$SURFTAB2
 70
     6
  9
$SURFTYPE
 70
     6
  9
$SURFU
 70
     6
  9
$SURFV
 70
     6
  9
$UCSNAME
  2

  9
$UCSORG
 10
0.0
 20
0.0
 30
0.0
  9
$UCSXDIR
 10
1.0
 20
0.0
 30
0.0
  9
$UCSYDIR
 10
0.0
 20
1.0
 30
0.0
  9
$PUCSNAME
  2

  9
$PUCSORG
 10
0.0
 20
0.0
 30
0.0
  9
$PUCSXDIR
 10
1.0
 20
0.0
 30
0.0
  9
$PUCSYDIR
 10
0.0
 20
1.0
 30
0.0
  9
$USERI1
 70
     0
  9
$USERI2
 70
     0
  9
$USERI3
 70
     0
  9
$USERI4
 70
     0
  9
$USERI5
 70
     0
  9
$USERR1
 40
0.0
  9
$USERR2
 40
0.0
  9
$USERR3
 40
0.0
  9
$USERR4
 40
0.0
  9
$USERR5
 40
0.0
  9
$WORLDVIEW
 70
     1
  9
$SHADEDGE
 70
     3
  9
$SHADEDIF
 70
    70
  9
$TILEMODE
 70
     1
  9
$MAXACTVP
 70
    48
  9
$PLIMCHECK
 70
     0
  9
$PEXTMIN
 10
1.0000000000000000E+020
 20
1.0000000000000000E+020
 30
1.0000000000000000E+020
  9
$PEXTMAX
 10
-1.0000000000000000E+020
 20
-1.0000000000000000E+020
 30
-1.0000000000000000E+020
  9
$PLIMMIN
 10
0.0
 20
0.0
  9
$PLIMMAX
 10
420.0
 20
297.0
  9
$UNITMODE
 70
     0
  9
$VISRETAIN
 70
     1
  9
$PLINEGEN
 70
     0
  9
$PSLTSCALE
 70
     1
  0
ENDSEC
  0
SECTION
  2
TABLES
  0
TABLE
  2
VPORT
 70
     4
  0
VPORT
  2
*ACTIVE
 70
     0
 10
0.0
 20
0.0
 11
1.0
 21
1.0
 12
93.679422055747466
 22
-804.12200259417114
 13
0.0
 23
0.0
 14
10.0
 24
10.0
 15
10.0
 25
10.0
 16
0.0
 26
0.0
 36
1.0
 17
0.0
 27
0.0
 37
0.0
 40
638.30232553235214
 41
1.508086253369272
 42
50.0
 43
0.0
 44
0.0
 50
0.0
 51
0.0
 71
     0
 72
   100
 73
     1
 74
     1
 75
     0
 76
     0
 77
     0
 78
     0
  0
ENDTAB
  0
TABLE
  2
LTYPE
 70
    15
  0
LTYPE
  2
CONTINUOUS
 70
     0
  3
Solid line
 72
    65
 73
     0
 40
0.0
  0
LTYPE
  2
CENTER2
 70
     0
  3
Center (.5x) ___ _ ___ _ ___ _ ___ _ ___ _ ___
 72
    65
 73
     4
 40
28.574999999999999
 49
19.050000000000001
 49
-3.1749999999999989
 49
3.1749999999999989
 49
-3.1749999999999989
  0
LTYPE
  2
XREF1|CENTER2
 70
    48
  3
Center (.5x) ___ _ ___ _ ___ _ ___ _ ___ _ ___
 72
    65
 73
     4
 40
28.574999999999999
 49
19.050000000000001
 49
-3.1749999999999989
 49
3.1749999999999989
 49
-3.1749999999999989
  0
LTYPE
  2
PHANTOM2
 70
     0
  3
Phantom (.5x) ___ _ _ ___ _ _ ___ _ _ ___ _ _
 72
    65
 73
     6
 40
31.75
 49
15.875
 49
-3.1749999999999989
 49
3.1749999999999989
 49
-3.1749999999999989
 49
3.1749999999999989
 49
-3.1749999999999989
  0
LTYPE
  2
A3WAKUDAKE|CENTER2
 70
    48
  3
Center (.5x) ___ _ ___ _ ___ _ ___ _ ___ _ ___
 72
    65
 73
     4
 40
28.574999999999999
 49
19.050000000000001
 49
-3.1749999999999989
 49
3.1749999999999989
 49
-3.1749999999999989
  0
ENDTAB
  0
TABLE
  2
LAYER
 70
    44
  0
LAYER
  2
0
 70
     0
 62
     7
  6
CONTINUOUS
  0
LAYER
  2
1CENTER
 70
     0
 62
     7
  6
CENTER2
  0
LAYER
  2
1TEXT
 70
     0
 62
     7
  6
CONTINUOUS
  0
LAYER
  2
1DIM
 70
     0
 62
     7
  6
CONTINUOUS
  0
LAYER
  2
1PHANTOM
 70
     0
 62
     7
  6
PHANTOM2
  0
LAYER
  2
01
 70
     0
 62
     1
  6
CONTINUOUS
  0
LAYER
  2
1DIM1
 70
     0
 62
     7
  6
CONTINUOUS
  0
LAYER
  2
1HATCH
 70
     0
 62
     7
  6
CONTINUOUS
  0
LAYER
  2
XREF1|1CENTER
 70
    48
 62
     7
  6
XREF1|CENTER2
  0
LAYER
  2
A3WAKUDAKE|THICK
 70
    48
 62
     7
  6
CONTINUOUS
  0
LAYER
  2
A3WAKUDAKE|POINT
 70
    48
 62
     7
  6
CONTINUOUS
  0
LAYER
  2
A3WAKUDAKE|1CENTER
 70
    48
 62
     7
  6
A3WAKUDAKE|CENTER2
  0
LAYER
  2
A3WAKUDAKE|0-6
 70
    48
 62
     7
  6
CONTINUOUS
  0
LAYER
  2
A3WAKUDAKE|1DIM
 70
    48
 62
     7
  6
CONTINUOUS
  0
ENDTAB
  0
TABLE
  2
STYLE
 70
    22
  0
STYLE
  2
STANDARD
 70
     0
 40
0.0
 41
1.0
 50
0.0
 71
     0
 42
4.0
  3
txt.shx
  4
extfont.shx
  0
ENDTAB
  0
TABLE
  2
VIEW
 70
     0
  0
ENDTAB
  0
TABLE
  2
UCS
 70
     0
  0
ENDTAB
  0
TABLE
  2
APPID
 70
     9
  0
APPID
  2
ACAD
 70
     0
  0
APPID
  2
DRAWINGVARIABLESXDATA
 70
     0
  0
APPID
  2
CONTENTTABDATA
 70
     0
  0
APPID
  2
CONTENTCURRENTTAB
 70
     0
  0
APPID
  2
CONTENTBLOCKDESCRIPTION
 70
     0
  0
APPID
  2
CONTENTBLOCKICON
 70
     0
  0
APPID
  2
CONTENTLONGBLOCKNAME
 70
     0
  0
APPID
  2
ACAD_PSEXT
 70
     0
  0
APPID
  2
ACAD_DSTYLE_DIMTEXT_FILL
 70
     0
  0
ENDTAB
  0
TABLE
  2
DIMSTYLE
 70
     9
  0
DIMSTYLE
  2
NEWX10
 70
     0
  3
 
  4

  5

  6
OPEN30
  7
OPEN30
 40
1.0
 41
2.0
 42
0.0
 43
7.0
 44
1.0
 45
0.0
 46
0.0
 47
0.0
 48
0.0
140
3.5
141
0.0
142
0.0
143
25.399999999999999
144
1.0
145
0.0
146
0.7
147
0.7
 71
     0
 72
     0
 73
     0
 74
     0
 75
     0
 76
     0
 77
     1
 78
     8
170
     0
171
     2
172
     1
173
     1
174
     0
175
     0
176
   256
177
   256
178
   201
  0
ENDTAB
  0
ENDSEC
  0
SECTION
  2
BLOCKS
  0
BLOCK
  8
0
  2
$MODEL_SPACE
 70
     0
 10
0.0
 20
0.0
 30
0.0
  3
$MODEL_SPACE
  1

  0
ENDBLK
  5
1A
  8
0
  0
BLOCK
 67
     1
  8
0
  2
$PAPER_SPACE
 70
     0
 10
0.0
 20
0.0
 30
0.0
  3
$PAPER_SPACE
  1

  0
ENDBLK
  5
17
 67
     1
  8
0
  0
BLOCK
  8
0
  2
_OPEN30
 70
     0
 10
0.0
 20
0.0
 30
0.0
  3
_OPEN30
  1

  0
LINE
  5
44
  8
0
  6
BYBLOCK
 62
     0
 10
-1.0
 20
0.26794919
 30
0.0
 11
0.0
 21
0.0
 31
0.0
  0
LINE
  5
45
  8
0
  6
BYBLOCK
 62
     0
 10
0.0
 20
0.0
 30
0.0
 11
-1.0
 21
-0.26794919
 31
0.0
  0
LINE
  5
46
  8
0
  6
BYBLOCK
 62
     0
 10
0.0
 20
0.0
 30
0.0
 11
-1.0
 21
0.0
 31
0.0
  0
ENDBLK
  5
47
  8
0
  0
BLOCK
  8
0
  2
XREF1
 70
    36
 10
0.0
 20
0.0
 30
0.0
  3
XREF1
  1
D:\ACLT\FORMAT\KAWAJUN(9)図面用.dwg
  0
ENDBLK
  5
5D
  8
0
  0
BLOCK
  8
0
  2
A3WAKUDAKE
 70
    36
 10
0.0
 20
0.0
 30
0.0
  3
A3WAKUDAKE
  1
D:\ACLT\FORMAT\A3WAKUdake.dwg
  0
ENDBLK
  5
6DC
  8
0
  0
BLOCK
  8
0
  2
*U24
 70
     1
 10
0.0
 20
0.0
 30
0.0
  3
*U24
  1

  0
TEXT
  5
1941C
  8
1DIM1
 62
   201
 10
-177.77236931081401
 20
-914.12131530700628
 30
0.0
 40
17.5
  1
P140 
  0
ENDBLK
  5
1941E
  8
0
  0
BLOCK
  8
0
  2
*U25
 70
     1
 10
0.0
 20
0.0
 30
0.0
  3
*U25
  1

  0
TEXT
  5
19420
  8
1DIM1
 62
   201
 10
-37.772369310814007
 20
-914.12131530700651
 30
0.0
 40
17.5
  1
P140 
  0
ENDBLK
  5
19422
  8
0
  0
BLOCK
  8
0
  2
*U26
 70
     1
 10
0.0
 20
0.0
 30
0.0
  3
*U26
  1

  0
TEXT
  5
19424
  8
1DIM1
 62
   201
 10
102.227630689186
 20
-914.12131530700651
 30
0.0
 40
17.5
  1
P140 
  0
ENDBLK
  5
19426
  8
0
  0
BLOCK
  8
0
  2
*U27
 70
     1
 10
0.0
 20
0.0
 30
0.0
  3
*U27
  1

  0
TEXT
  5
19428
  8
1DIM1
 62
   201
 10
-30.480702644147339
 20
-944.1213153070064
 30
0.0
 40
17.5
  1
700 
  0
ENDBLK
  5
1942A
  8
0
  0
BLOCK
  8
0
  2
*U28
 70
     1
 10
0.0
 20
0.0
 30
0.0
  3
*U28
  1

  0
TEXT
  5
1942C
  8
1DIM
 62
   201
 10
359.23596402251849
 20
-713.7546486403379
 30
0.0
 40
3.5
  1
7.5 
 50
90.0
  0
ENDBLK
  5
1942E
  8
0
  0
BLOCK
  8
0
  2
*U29
 70
     1
 10
0.0
 20
0.0
 30
0.0
  3
*U29
  1

  0
TEXT
  5
19430
  8
1DIM
 62
   201
 10
359.23596402251849
 20
-782.32964864033784
 30
0.0
 40
3.5
  1
110 
 50
90.0
  0
ENDBLK
  5
19432
  8
0
  0
BLOCK
  8
0
  2
*U30
 70
     1
 10
0.0
 20
0.0
 30
0.0
  3
*U30
  1

  0
TEXT
  5
19434
  8
1DIM
 62
   201
 10
369.23596402251871
 20
-781.20464864033784
 30
0.0
 40
3.5
  1
117.5 
 50
90.0
  0
ENDBLK
  5
19436
  8
0
  0
BLOCK
  8
0
  2
*U31
 70
     1
 10
0.0
 20
0.0
 30
0.0
  3
*U31
  1

  0
TEXT
  5
19438
  8
1DIM
 62
   201
 10
442.85263068918442
 20
-916.92131530700635
 30
0.0
 40
3.5
  1
117.5 
  0
ENDBLK
  5
1943A
  8
0
  0
BLOCK
  8
0
  2
*U32
 70
     1
 10
0.0
 20
0.0
 30
0.0
  3
*U32
  1

  0
TEXT
  5
1943C
  8
1DIM
 62
   201
 10
487.43596402251808
 20
-906.92131530700635
 30
0.0
 40
3.5
  1
29.5 
  0
ENDBLK
  5
1943E
  8
0
  0
BLOCK
  8
0
  2
*U33
 70
     1
 10
0.0
 20
0.0
 30
0.0
  3
*U33
  1

  0
TEXT
  5
19440
  8
1DIM
 62
   201
 10
546.73596402251712
 20
-869.91298197366928
 30
0.0
 40
3.5
  1
9 
 50
90.0
  0
ENDBLK
  5
19442
  8
0
  0
BLOCK
  8
0
  2
*U34
 70
     1
 10
0.0
 20
0.0
 30
0.0
  3
*U34
  1

  0
TEXT
  5
19444
  8
1DIM
 62
   201
 10
369.23596402251849
 20
-881.12131530700628
 30
0.0
 40
3.5
  1
23.5 
 50
90.0
  0
ENDBLK
  5
19446
  8
0
  0
BLOCK
  8
0
  2
*U35
 70
     1
 10
0.0
 20
0.0
 30
0.0
  3
*U35
  1

  0
TEXT
  5
19448
  8
1DIM
 62
   201
 10
379.2359640225186
 20
-859.42131530700635
 30
0.0
 40
3.5
  1
5 
 50
90.0
  0
ENDBLK
  5
1944A
  8
0
  0
BLOCK
  8
0
  2
*U36
 70
     1
 10
0.0
 20
0.0
 30
0.0
  3
*U36
  1

  0
TEXT
  5
1944C
  8
1DIM
 62
   201
 10
379.2359640225186
 20
-874.28798197367303
 30
0.0
 40
3.5
  1
8 
 50
90.0
  0
ENDBLK
  5
1944E
  8
0
  0
BLOCK
  8
0
  2
*U37
 70
     1
 10
0.0
 20
0.0
 30
0.0
  3
*U37
  1

  0
TEXT
  5
19450
  8
1DIM
 62
   201
 10
492.01929735584611
 20
-896.92131530700635
 30
0.0
 40
3.5
  1
21.5 
  0
ENDBLK
  5
19452
  8
0
  0
BLOCK
  8
0
  2
*U38
 70
     1
 10
0.0
 20
0.0
 30
0.0
  3
*U38
  1

  0
TEXT
  5
19454
  8
1DIM1
 62
   201
 10
-30.480702644146429
 20
-673.12131530700458
 30
0.0
 40
17.5
  1
500 
  0
ENDBLK
  5
19456
  8
0
  0
BLOCK
  8
0
  2
*U39
 70
     1
 10
0.0
 20
0.0
 30
0.0
  3
*U39
  1

  0
TEXT
  5
19458
  8
1DIM1
 62
   201
 10
-327.56403597747931
 20
-673.12131530700458
 30
0.0
 40
17.5
  1
100 
  0
ENDBLK
  5
1945A
  8
0
  0
BLOCK
  8
0
  2
*U40
 70
     1
 10
0.0
 20
0.0
 30
0.0
  3
*U40
  1

  0
TEXT
  5
1945C
  8
1DIM1
 62
   201
 10
272.43596402251978
 20
-673.12131530700458
 30
0.0
 40
17.5
  1
100 
  0
ENDBLK
  5
1945E
  8
0
  0
ENDSEC
  0
SECTION
  2
ENTITIES
  0
LINE
  5
180D8
  8
1DIM
 10
427.435964022517
 20
-847.12131530700435
 30
0.0
 11
497.435964022517
 21
-847.12131530700435
 31
0.0
  0
TEXT
  5
180D9
  8
1TEXT
 10
434.18834497489752
 20
-845.62131530700447
 30
0.0
 40
4.0
  1
表面処理：
 72
     1
 11
444.83596402251669
 21
-845.62131530700447
 31
0.0
  0
LINE
  5
180DA
  8
1DIM
 10
427.435964022517
 20
-840.12131530700435
 30
0.0
 11
497.435964022517
 21
-840.12131530700435
 31
0.0
  0
LINE
  5
180DB
  8
1DIM
 10
427.435964022517
 20
-840.12131530700435
 30
0.0
 11
497.435964022517
 21
-840.12131530700435
 31
0.0
  0
LINE
  5
180DC
  8
1DIM
 10
462.435964022517
 20
-840.12131530700435
 30
0.0
 11
462.435964022517
 21
-854.12131530700435
 31
0.0
  0
TEXT
  5
180DD
  8
1TEXT
 10
473.03596402251668
 20
-845.62131530700447
 30
0.0
 40
4.0
  1
コード
 72
     1
 11
479.83596402251658
 21
-845.62131530700447
 31
0.0
  0
LINE
  5
180DE
  8
1DIM
 10
427.435964022517
 20
-854.12131530700435
 30
0.0
 11
497.435964022517
 21
-854.12131530700435
 31
0.0
  0
TEXT
  5
180DF
  8
1TEXT
 10
428.08929735585002
 20
-852.43222891857545
 30
0.0
 40
4.0
  1
ブラストアルマイト
 41
0.8
 72
     1
 11
444.83596402251669
 21
-852.43222891857545
 31
0.0
  0
TEXT
  5
180E0
  8
1TEXT
 10
465.16929735585092
 20
-852.83567229065375
 30
0.0
 40
4.0
  1
SA804S70
 72
     1
 11
479.8359640225176
 21
-852.83567229065375
 31
0.0
  0
LINE
  5
180E1
  8
1DIM
 10
427.435964022517
 20
-854.12131530700435
 30
0.0
 11
427.435964022517
 21
-840.12131530700435
 31
0.0
  0
LINE
  5
180E2
  8
1DIM
 10
497.435964022517
 20
-854.12131530700435
 30
0.0
 11
497.435964022517
 21
-840.12131530700435
 31
0.0
  0
TEXT
  5
180E3
  8
1TEXT
 10
427.435964022517
 20
-835.12131530700447
 30
0.0
 40
8.0
  1
SA804S70
  0
LINE
  5
180E5
  8
01
 10
525.43596402251706
 20
-830.62131530699821
 30
0.0
 11
525.43596402251706
 21
-910.62131530699776
 31
0.0
  0
LINE
  5
18CCF
  8
1CENTER
 10
199.9359640225193
 20
-686.66040071585098
 30
0.0
 11
199.9359640225193
 21
-723.29159171630602
 31
0.0
  0
LINE
  5
18CD0
  8
1PHANTOM
 10
198.84164020852421
 20
-691.72131276083735
 30
0.0
 11
200.80397529739969
 21
-690.92131732678638
 31
0.0
  0
LINE
  5
18CD1
  8
1PHANTOM
 10
200.80397529739969
 20
-690.92131732678638
 30
0.0
 11
200.2156987223573
 21
-690.60954747053427
 31
0.0
  0
LINE
  5
18CD2
  8
1PHANTOM
 10
197.93601055841719
 20
-714.12131065362735
 30
0.0
 11
201.93601055841719
 21
-713.32131996080909
 31
0.0
  0
LINE
  5
18CD3
  8
1PHANTOM
 10
197.93601055841719
 20
-702.92131065362287
 30
0.0
 11
201.93601055841719
 21
-702.12131996080041
 31
0.0
  0
LINE
  5
18CD4
  8
1PHANTOM
 10
197.93601055841719
 20
-699.72131065362294
 30
0.0
 11
201.93601055841719
 21
-698.92131996080025
 31
0.0
  0
LINE
  5
18CD5
  8
1PHANTOM
 10
201.93601055841719
 20
-698.92131996080025
 30
0.0
 11
201.43601055841719
 21
-698.82131879740314
 31
0.0
  0
LINE
  5
18CD6
  8
1PHANTOM
 10
198.43601055841719
 20
-698.22131181702014
 30
0.0
 11
197.93601055841719
 21
-698.12131065362291
 31
0.0
  0
LINE
  5
18CD7
  8
1PHANTOM
 10
201.93601055841719
 20
-702.12131996080041
 30
0.0
 11
201.43601055841719
 21
-702.02131879740307
 31
0.0
  0
LINE
  5
18CD8
  8
1PHANTOM
 10
201.93601055841719
 20
-700.52131996080016
 30
0.0
 11
201.43601055841719
 21
-700.42131879740305
 31
0.0
  0
LINE
  5
18CD9
  8
1PHANTOM
 10
198.43601055841719
 20
-699.82131181702005
 30
0.0
 11
197.93601055841719
 21
-699.72131065362294
 31
0.0
  0
LINE
  5
18CDA
  8
1PHANTOM
 10
198.43601055841719
 20
-701.42131181701996
 30
0.0
 11
197.93601055841719
 21
-701.32131065362285
 31
0.0
  0
LINE
  5
18CDB
  8
1PHANTOM
 10
197.93601055841719
 20
-701.32131065362285
 30
0.0
 11
201.93601055841719
 21
-700.52131996080016
 31
0.0
  0
LINE
  5
18CDC
  8
1PHANTOM
 10
201.25678940180649
 20
-692.5213183803919
 30
0.0
 11
200.70503993800321
 21
-692.33855423776401
 31
0.0
  0
LINE
  5
18CDD
  8
1PHANTOM
 10
201.93601055841719
 20
-695.72131996080032
 30
0.0
 11
201.43601055841719
 21
-695.62131879740309
 31
0.0
  0
LINE
  5
18CDE
  8
1PHANTOM
 10
201.93601055841719
 20
-697.32131996080034
 30
0.0
 11
201.43601055841719
 21
-697.22131879740334
 31
0.0
  0
LINE
  5
18CDF
  8
1PHANTOM
 10
201.70960350621331
 20
-694.12131943399766
 30
0.0
 11
201.17300977094209
 21
-693.99204873636779
 31
0.0
  0
LINE
  5
18CE0
  8
1PHANTOM
 10
198.8569251556259
 20
-693.43408121958316
 30
0.0
 11
198.38882670047599
 21
-693.32131170723312
 31
0.0
  0
LINE
  5
18CE1
  8
1PHANTOM
 10
198.43601055841719
 20
-696.62131181702
 30
0.0
 11
197.93601055841719
 21
-696.52131065362289
 31
0.0
  0
LINE
  5
18CE2
  8
1PHANTOM
 10
198.43601055841719
 20
-695.02131181702009
 30
0.0
 11
197.93601055841719
 21
-694.92131065362287
 31
0.0
  0
LINE
  5
18CE3
  8
1PHANTOM
 10
199.29881204915529
 20
-691.87274855727776
 30
0.0
 11
198.84164020852421
 21
-691.72131276083735
 31
0.0
  0
LINE
  5
18CE4
  8
1PHANTOM
 10
198.38882670047599
 20
-693.32131170723312
 30
0.0
 11
201.25678940180649
 21
-692.5213183803919
 31
0.0
  0
LINE
  5
18CE5
  8
1PHANTOM
 10
197.93601055841719
 20
-696.52131065362289
 30
0.0
 11
201.93601055841719
 21
-695.72131996080032
 31
0.0
  0
LINE
  5
18CE6
  8
1PHANTOM
 10
197.93601055841719
 20
-694.92131065362287
 30
0.0
 11
201.70960350621331
 21
-694.12131943399766
 31
0.0
  0
LINE
  5
18CE7
  8
1PHANTOM
 10
197.93601055841719
 20
-698.12131065362291
 30
0.0
 11
201.93601055841719
 21
-697.32131996080034
 31
0.0
  0
LINE
  5
18CE8
  8
1PHANTOM
 10
197.93601055841719
 20
-710.9213106536273
 30
0.0
 11
201.93601055841719
 21
-710.12131996080905
 31
0.0
  0
LINE
  5
18CE9
  8
1PHANTOM
 10
201.93601055841719
 20
-710.12131996080905
 30
0.0
 11
201.43601055841719
 21
-710.02131879741125
 31
0.0
  0
LINE
  5
18CEA
  8
1PHANTOM
 10
198.43601055841719
 20
-709.42131181702064
 30
0.0
 11
197.93601055841719
 21
-709.32131065362296
 31
0.0
  0
LINE
  5
18CEB
  8
1PHANTOM
 10
201.93601055841719
 20
-711.72131996080918
 30
0.0
 11
201.43601055841719
 21
-711.6213187974115
 31
0.0
  0
LINE
  5
18CEC
  8
1PHANTOM
 10
201.93601055841719
 20
-713.32131996080909
 30
0.0
 11
201.43601055841719
 21
-713.22131879741141
 31
0.0
  0
LINE
  5
18CED
  8
1PHANTOM
 10
198.43601055841719
 20
-711.02131181702498
 30
0.0
 11
197.93601055841719
 21
-710.9213106536273
 31
0.0
  0
LINE
  5
18CEE
  8
1PHANTOM
 10
198.43601055841719
 20
-712.62131181702512
 30
0.0
 11
197.93601055841719
 21
-712.52131065362744
 31
0.0
  0
LINE
  5
18CEF
  8
1PHANTOM
 10
197.93601055841719
 20
-712.52131065362744
 30
0.0
 11
201.93601055841719
 21
-711.72131996080918
 31
0.0
  0
LINE
  5
18CF0
  8
1PHANTOM
 10
201.93601055841719
 20
-705.32131996080454
 30
0.0
 11
201.43601055841719
 21
-705.22131879740698
 31
0.0
  0
LINE
  5
18CF1
  8
1PHANTOM
 10
201.93601055841719
 20
-703.72131996080032
 30
0.0
 11
201.43601055841719
 21
-703.62131879740309
 31
0.0
  0
LINE
  5
18CF2
  8
1PHANTOM
 10
201.93601055841719
 20
-708.52131996080459
 30
0.0
 11
201.43601055841719
 21
-708.42131879740703
 31
0.0
  0
LINE
  5
18CF3
  8
1PHANTOM
 10
201.93601055841719
 20
-706.92131996080468
 30
0.0
 11
201.43601055841719
 21
-706.82131879740712
 31
0.0
  0
LINE
  5
18CF4
  8
1PHANTOM
 10
198.43601055841719
 20
-703.02131181702009
 30
0.0
 11
197.93601055841719
 21
-702.92131065362287
 31
0.0
  0
LINE
  5
18CF5
  8
1PHANTOM
 10
198.43601055841719
 20
-704.62131181702057
 30
0.0
 11
197.93601055841719
 21
-704.52131065362289
 31
0.0
  0
LINE
  5
18CF6
  8
1PHANTOM
 10
198.43601055841719
 20
-707.82131181702073
 30
0.0
 11
197.93601055841719
 21
-707.72131065362305
 31
0.0
  0
LINE
  5
18CF7
  8
1PHANTOM
 10
198.43601055841719
 20
-706.22131181702048
 30
0.0
 11
197.93601055841719
 21
-706.12131065362291
 31
0.0
  0
LINE
  5
18CF8
  8
1PHANTOM
 10
197.93601055841719
 20
-706.12131065362291
 30
0.0
 11
201.93601055841719
 21
-705.32131996080454
 31
0.0
  0
LINE
  5
18CF9
  8
1PHANTOM
 10
197.93601055841719
 20
-704.52131065362289
 30
0.0
 11
201.93601055841719
 21
-703.72131996080032
 31
0.0
  0
LINE
  5
18CFA
  8
1PHANTOM
 10
197.93601055841719
 20
-707.72131065362305
 30
0.0
 11
201.93601055841719
 21
-706.92131996080468
 31
0.0
  0
LINE
  5
18CFB
  8
1PHANTOM
 10
197.93601055841719
 20
-709.32131065362296
 30
0.0
 11
201.93601055841719
 21
-708.52131996080459
 31
0.0
  0
LINE
  5
18CFC
  8
1PHANTOM
 10
201.43601055841719
 20
-719.62131879729782
 30
0.0
 11
198.43601055841751
 21
-719.62131181691313
 31
0.0
  0
LINE
  5
18CFD
  8
1PHANTOM
 10
198.43601055841719
 20
-719.02131181702919
 30
0.0
 11
197.93601055841719
 21
-718.92131065363151
 31
0.0
  0
LINE
  5
18CFE
  8
1PHANTOM
 10
197.93601055841719
 20
-718.92131065363151
 30
0.0
 11
201.93601055841719
 21
-718.12131996081325
 31
0.0
  0
LINE
  5
18CFF
  8
1PHANTOM
 10
201.93601055841719
 20
-718.12131996081325
 30
0.0
 11
201.43601055841719
 21
-718.02131879741546
 31
0.0
  0
LINE
  5
18D00
  8
1PHANTOM
 10
198.43601055841719
 20
-717.42131181702928
 30
0.0
 11
197.93601055841719
 21
-717.3213106536316
 31
0.0
  0
LINE
  5
18D01
  8
1PHANTOM
 10
198.43601055841719
 20
-715.82131181702925
 30
0.0
 11
197.93601055841719
 21
-715.72131065363169
 31
0.0
  0
LINE
  5
18D02
  8
1PHANTOM
 10
197.93601055841719
 20
-715.72131065363169
 30
0.0
 11
201.93601055841719
 21
-714.92131996081343
 31
0.0
  0
LINE
  5
18D03
  8
1PHANTOM
 10
201.93601055841719
 20
-716.52131996081334
 30
0.0
 11
201.43601055841719
 21
-716.42131879741555
 31
0.0
  0
LINE
  5
18D04
  8
1PHANTOM
 10
201.93601055841719
 20
-714.92131996081343
 30
0.0
 11
201.43601055841719
 21
-714.82131879741576
 31
0.0
  0
LINE
  5
18D05
  8
1PHANTOM
 10
197.93601055841719
 20
-717.3213106536316
 30
0.0
 11
201.93601055841719
 21
-716.52131996081334
 31
0.0
  0
LINE
  5
18D06
  8
1PHANTOM
 10
198.43601055841719
 20
-714.22131181702503
 30
0.0
 11
197.93601055841719
 21
-714.12131065362735
 31
0.0
  0
LINE
  5
18D07
  8
1PHANTOM
 10
196.13596402251929
 20
-719.62131530699719
 30
0.0
 11
196.13596402251929
 21
-718.62131530699719
 31
0.0
  0
LINE
  5
18D08
  8
1PHANTOM
 10
203.73596402251931
 20
-719.62131530699719
 30
0.0
 11
203.73596402251931
 21
-718.62131530699719
 31
0.0
  0
LINE
  5
18D09
  8
1PHANTOM
 10
200.4359638725193
 20
-719.62131530699719
 30
0.0
 11
199.43596417251931
 21
-718.62131530699719
 31
0.0
  0
LINE
  5
18D0A
  8
1PHANTOM
 10
203.73596402251931
 20
-719.62131530699719
 30
0.0
 11
196.13596402251929
 21
-719.62131530699719
 31
0.0
  0
LINE
  5
18D0B
  8
1PHANTOM
 10
203.73596402251931
 20
-718.62131530699719
 30
0.0
 11
196.13596402251929
 21
-718.62131530699719
 31
0.0
  0
LINE
  5
18D0E
  8
01
 10
339.9359640225203
 20
-725.12131530700469
 30
0.0
 11
339.9359640225203
 21
-829.12131530700435
 31
0.0
  0
LINE
  5
18D0F
  8
01
 10
-360.06403597747982
 20
-829.12131530700435
 30
0.0
 11
-360.06403597747982
 21
-725.12131530700401
 31
0.0
  0
LINE
  5
18D10
  8
01
 10
239.9359640225193
 20
-877.12131530700481
 30
0.0
 11
-359.06403597747891
 21
-877.12131530700526
 31
0.0
  0
LINE
  5
18D11
  8
01
 10
334.93596402252018
 20
-834.12131530700447
 30
0.0
 11
-355.0640359774797
 21
-834.12131530700447
 31
0.0
  0
LINE
  5
18D12
  8
01
 10
239.9359640225193
 20
-869.12131530700503
 30
0.0
 11
-359.06403597747948
 21
-869.12131530700481
 31
0.0
  0
LINE
  5
18D13
  8
01
 10
-259.06403597748158
 20
-887.62131530700537
 30
0.0
 11
229.9359640225193
 21
-887.62131530700469
 31
0.0
  0
LINE
  5
18D14
  8
01
 10
-260.06403597748073
 20
-877.62131530700435
 30
0.0
 11
229.9359640225193
 21
-877.62131530700469
 31
0.0
  0
LINE
  5
18D15
  8
01
 10
169.93596402251751
 20
-869.12131530700503
 30
0.0
 11
229.9359640225193
 21
-869.12131530700458
 31
0.0
  0
LINE
  5
18D16
  8
01
 10
-259.06403597747982
 20
-864.12131530700469
 30
0.0
 11
229.9359640225193
 21
-864.12131530700469
 31
0.0
  0
LINE
  5
18D17
  8
01
 10
-360.06403597747982
 20
-870.12131530700503
 30
0.0
 11
-360.06403597747982
 21
-876.12131530700481
 31
0.0
  0
LINE
  5
18D18
  8
01
 10
-360.06403597747982
 20
-876.12131530700481
 30
0.0
 11
-359.06403597747982
 21
-877.12131530700481
 31
0.0
  0
LINE
  5
18D19
  8
01
 10
-359.06403597747982
 20
-869.12131530700503
 30
0.0
 11
-360.06403597747982
 21
-870.12131530700503
 31
0.0
  0
LINE
  5
18D1A
  8
01
 10
-260.06403597748158
 20
-886.62131530700469
 30
0.0
 11
-260.06403597748039
 21
-877.12131530700481
 31
0.0
  0
LINE
  5
18D1B
  8
01
 10
-260.06403597747982
 20
-869.12131530700503
 30
0.0
 11
-260.06403597747982
 21
-865.12131530700469
 31
0.0
  0
ARC
  5
18D1C
  8
01
 10
-259.06403597748158
 20
-886.62131530700469
 30
0.0
 40
1.0
 50
179.9999999999967
 51
270.0
  0
ARC
  5
18D1D
  8
01
 10
-259.06403597747982
 20
-865.12131530700469
 30
0.0
 40
1.0
 50
90.0
 51
179.9999999999967
  0
ARC
  5
18D1E
  8
01
 10
-355.0640359774797
 20
-829.12131530700435
 30
0.0
 40
5.0
 50
180.0
 51
270.0
  0
LINE
  5
18D1F
  8
01
 10
239.9359640225193
 20
-877.12131530700481
 30
0.0
 11
338.93596402251842
 21
-877.12131530700481
 31
0.0
  0
LINE
  5
18D20
  8
01
 10
239.9359640225193
 20
-869.12131530700503
 30
0.0
 11
338.93596402251842
 21
-869.12131530700503
 31
0.0
  0
LINE
  5
18D21
  8
01
 10
239.935964022523
 20
-886.62131530700469
 30
0.0
 11
239.9359640225214
 21
-877.12131530700503
 31
0.0
  0
LINE
  5
18D22
  8
01
 10
239.93596402252001
 20
-869.12131530700503
 30
0.0
 11
239.9359640225193
 21
-865.12131530700435
 31
0.0
  0
LINE
  5
18D23
  8
01
 10
238.93596402252291
 20
-887.62131530700469
 30
0.0
 11
229.9359640225193
 21
-887.62131530700469
 31
0.0
  0
LINE
  5
18D24
  8
01
 10
239.9359640225214
 20
-877.62131530700469
 30
0.0
 11
229.9359640225193
 21
-877.62131530700469
 31
0.0
  0
LINE
  5
18D25
  8
01
 10
289.93596402252109
 20
-869.12131530700503
 30
0.0
 11
229.9359640225193
 21
-869.12131530700458
 31
0.0
  0
CIRCLE
  5
18D27
  8
01
 10
199.9359640225193
 20
-873.37131530700515
 30
0.0
 40
2.5
  0
ARC
  5
18D28
  8
01
 10
238.93596402252291
 20
-886.62131530700492
 30
0.0
 40
1.0
 50
270.0
 51
0.0000000000065138
  0
LINE
  5
18D29
  8
01
 10
238.9359640225193
 20
-864.12131530700458
 30
0.0
 11
229.9359640225193
 21
-864.12131530700469
 31
0.0
  0
ARC
  5
18D2A
  8
01
 10
238.9359640225193
 20
-865.12131530700435
 30
0.0
 40
1.0
 50
0.0000000000032569
 51
90.0
  0
LINE
  5
18D2B
  8
01
 10
339.93596402251842
 20
-870.12131530700503
 30
0.0
 11
339.93596402251842
 21
-876.12131530700481
 31
0.0
  0
LINE
  5
18D2C
  8
01
 10
339.93596402251842
 20
-876.12131530700481
 30
0.0
 11
338.93596402251842
 21
-877.12131530700481
 31
0.0
  0
LINE
  5
18D2D
  8
01
 10
338.93596402251842
 20
-869.12131530700503
 30
0.0
 11
339.93596402251842
 21
-870.12131530700503
 31
0.0
  0
ARC
  5
18D2E
  8
01
 10
334.93596402252018
 20
-829.12131530700435
 30
0.0
 40
5.0
 50
270.0
 51
0.0
  0
LINE
  5
18D2F
  8
01
 10
229.9359640225203
 20
-746.12131530700469
 30
0.0
 11
-259.06403597747982
 21
-746.12131530700469
 31
0.0
  0
LINE
  5
18D30
  8
01
 10
229.9359640225193
 20
-716.62131530700469
 30
0.0
 11
169.93596402251839
 21
-716.62131530700469
 31
0.0
  0
LINE
  5
18D31
  8
01
 10
-359.06403597747982
 20
-724.12131530700469
 30
0.0
 11
-260.06403597747908
 21
-724.12131530700469
 31
0.0
  0
LINE
  5
18D32
  8
01
 10
-360.06403597747982
 20
-725.12131530700469
 30
0.0
 11
-359.06403597747982
 21
-724.12131530700469
 31
0.0
  0
ARC
  5
18D33
  8
01
 10
-259.06403597747982
 20
-745.12131530700469
 30
0.0
 40
1.0
 50
180.0
 51
270.0
  0
LINE
  5
18D34
  8
01
 10
239.9359640225191
 20
-724.1213153070056
 30
0.0
 11
338.93596402252018
 21
-724.12131530700469
 31
0.0
  0
LINE
  5
18D35
  8
01
 10
239.93596402251839
 20
-745.12131530700469
 30
0.0
 11
239.9359640225193
 21
-716.62131530700401
 31
0.0
  0
LINE
  5
18D36
  8
01
 10
-260.06403597747982
 20
-745.12131530699833
 30
0.0
 11
-260.0640359774788
 21
-716.62131530699764
 31
0.0
  0
LINE
  5
18D37
  8
01
 10
229.93596402251839
 20
-746.12131530700469
 30
0.0
 11
238.93596402251839
 21
-746.12131530700469
 31
0.0
  0
ARC
  5
18D38
  8
01
 10
238.93596402251839
 20
-745.12131530700469
 30
0.0
 40
1.0
 50
270.0
 51
359.99999999999682
  0
LINE
  5
18D39
  8
01
 10
229.9359640225193
 20
-716.62131530700469
 30
0.0
 11
239.9359640225191
 21
-716.62131530700458
 31
0.0
  0
LINE
  5
18D3A
  8
01
 10
338.93596402252018
 20
-724.12131530700469
 30
0.0
 11
339.9359640225203
 21
-725.12131530700469
 31
0.0
  0
LINE
  5
18D3B
  8
01
 10
229.9359640225193
 20
-716.62131530700469
 30
0.0
 11
-260.06403597747908
 21
-716.62131530700401
 31
0.0
  0
LINE
  5
18D3C
  8
1CENTER
 10
199.9359640225193
 20
-876.37131530700503
 30
0.0
 11
199.9359640225193
 21
-870.37131530700515
 31
0.0
  0
LINE
  5
18D3D
  8
1CENTER
 10
196.9359640225193
 20
-873.37131530700503
 30
0.0
 11
202.9359640225193
 21
-873.37131530700503
 31
0.0
  0
LINE
  5
18D43
  8
1CENTER
 10
59.935964022519329
 20
-686.66040071585098
 30
0.0
 11
59.935964022519329
 21
-723.29159171630602
 31
0.0
  0
LINE
  5
18D44
  8
1PHANTOM
 10
58.841640208524268
 20
-691.72131276083735
 30
0.0
 11
60.803975297399681
 21
-690.92131732678638
 31
0.0
  0
LINE
  5
18D45
  8
1PHANTOM
 10
60.803975297399681
 20
-690.92131732678638
 30
0.0
 11
60.215698722357267
 21
-690.60954747053427
 31
0.0
  0
LINE
  5
18D46
  8
1PHANTOM
 10
57.936010558417252
 20
-714.12131065362735
 30
0.0
 11
61.936010558417252
 21
-713.32131996080909
 31
0.0
  0
LINE
  5
18D47
  8
1PHANTOM
 10
57.936010558417252
 20
-702.92131065362287
 30
0.0
 11
61.936010558417252
 21
-702.12131996080041
 31
0.0
  0
LINE
  5
18D48
  8
1PHANTOM
 10
57.936010558417252
 20
-699.72131065362294
 30
0.0
 11
61.936010558417252
 21
-698.92131996080025
 31
0.0
  0
LINE
  5
18D49
  8
1PHANTOM
 10
61.936010558417252
 20
-698.92131996080025
 30
0.0
 11
61.436010558417252
 21
-698.82131879740314
 31
0.0
  0
LINE
  5
18D4A
  8
1PHANTOM
 10
58.436010558417252
 20
-698.22131181702014
 30
0.0
 11
57.936010558417252
 21
-698.12131065362291
 31
0.0
  0
LINE
  5
18D4B
  8
1PHANTOM
 10
61.936010558417252
 20
-702.12131996080041
 30
0.0
 11
61.436010558417252
 21
-702.02131879740307
 31
0.0
  0
LINE
  5
18D4C
  8
1PHANTOM
 10
61.936010558417252
 20
-700.52131996080016
 30
0.0
 11
61.436010558417252
 21
-700.42131879740305
 31
0.0
  0
LINE
  5
18D4D
  8
1PHANTOM
 10
58.436010558417252
 20
-699.82131181702005
 30
0.0
 11
57.936010558417252
 21
-699.72131065362294
 31
0.0
  0
LINE
  5
18D4E
  8
1PHANTOM
 10
58.436010558417252
 20
-701.42131181701996
 30
0.0
 11
57.936010558417252
 21
-701.32131065362285
 31
0.0
  0
LINE
  5
18D4F
  8
1PHANTOM
 10
57.936010558417252
 20
-701.32131065362285
 30
0.0
 11
61.936010558417252
 21
-700.52131996080016
 31
0.0
  0
LINE
  5
18D50
  8
1PHANTOM
 10
61.256789401806479
 20
-692.5213183803919
 30
0.0
 11
60.70503993800321
 21
-692.33855423776401
 31
0.0
  0
LINE
  5
18D51
  8
1PHANTOM
 10
61.936010558417252
 20
-695.72131996080032
 30
0.0
 11
61.436010558417252
 21
-695.62131879740309
 31
0.0
  0
LINE
  5
18D52
  8
1PHANTOM
 10
61.936010558417252
 20
-697.32131996080034
 30
0.0
 11
61.436010558417252
 21
-697.22131879740334
 31
0.0
  0
LINE
  5
18D53
  8
1PHANTOM
 10
61.709603506213277
 20
-694.12131943399766
 30
0.0
 11
61.173009770942137
 21
-693.99204873636779
 31
0.0
  0
LINE
  5
18D54
  8
1PHANTOM
 10
58.856925155625952
 20
-693.43408121958316
 30
0.0
 11
58.388826700475988
 21
-693.32131170723312
 31
0.0
  0
LINE
  5
18D55
  8
1PHANTOM
 10
58.436010558417252
 20
-696.62131181702
 30
0.0
 11
57.936010558417252
 21
-696.52131065362289
 31
0.0
  0
LINE
  5
18D56
  8
1PHANTOM
 10
58.436010558417252
 20
-695.02131181702009
 30
0.0
 11
57.936010558417252
 21
-694.92131065362287
 31
0.0
  0
LINE
  5
18D57
  8
1PHANTOM
 10
59.298812049155352
 20
-691.87274855727776
 30
0.0
 11
58.841640208524268
 21
-691.72131276083735
 31
0.0
  0
LINE
  5
18D58
  8
1PHANTOM
 10
58.388826700475988
 20
-693.32131170723312
 30
0.0
 11
61.256789401806479
 21
-692.5213183803919
 31
0.0
  0
LINE
  5
18D59
  8
1PHANTOM
 10
57.936010558417252
 20
-696.52131065362289
 30
0.0
 11
61.936010558417252
 21
-695.72131996080032
 31
0.0
  0
LINE
  5
18D5A
  8
1PHANTOM
 10
57.936010558417252
 20
-694.92131065362287
 30
0.0
 11
61.709603506213277
 21
-694.12131943399766
 31
0.0
  0
LINE
  5
18D5B
  8
1PHANTOM
 10
57.936010558417252
 20
-698.12131065362291
 30
0.0
 11
61.936010558417252
 21
-697.32131996080034
 31
0.0
  0
LINE
  5
18D5C
  8
1PHANTOM
 10
57.936010558417252
 20
-710.9213106536273
 30
0.0
 11
61.936010558417252
 21
-710.12131996080905
 31
0.0
  0
LINE
  5
18D5D
  8
1PHANTOM
 10
61.936010558417252
 20
-710.12131996080905
 30
0.0
 11
61.436010558417252
 21
-710.02131879741125
 31
0.0
  0
LINE
  5
18D5E
  8
1PHANTOM
 10
58.436010558417252
 20
-709.42131181702064
 30
0.0
 11
57.936010558417252
 21
-709.32131065362296
 31
0.0
  0
LINE
  5
18D5F
  8
1PHANTOM
 10
61.936010558417252
 20
-711.72131996080918
 30
0.0
 11
61.436010558417252
 21
-711.6213187974115
 31
0.0
  0
LINE
  5
18D60
  8
1PHANTOM
 10
61.936010558417252
 20
-713.32131996080909
 30
0.0
 11
61.436010558417252
 21
-713.22131879741141
 31
0.0
  0
LINE
  5
18D61
  8
1PHANTOM
 10
58.436010558417252
 20
-711.02131181702498
 30
0.0
 11
57.936010558417252
 21
-710.9213106536273
 31
0.0
  0
LINE
  5
18D62
  8
1PHANTOM
 10
58.436010558417252
 20
-712.62131181702512
 30
0.0
 11
57.936010558417252
 21
-712.52131065362744
 31
0.0
  0
LINE
  5
18D63
  8
1PHANTOM
 10
57.936010558417252
 20
-712.52131065362744
 30
0.0
 11
61.936010558417252
 21
-711.72131996080918
 31
0.0
  0
LINE
  5
18D64
  8
1PHANTOM
 10
61.936010558417252
 20
-705.32131996080454
 30
0.0
 11
61.436010558417252
 21
-705.22131879740698
 31
0.0
  0
LINE
  5
18D65
  8
1PHANTOM
 10
61.936010558417252
 20
-703.72131996080032
 30
0.0
 11
61.436010558417252
 21
-703.62131879740309
 31
0.0
  0
LINE
  5
18D66
  8
1PHANTOM
 10
61.936010558417252
 20
-708.52131996080459
 30
0.0
 11
61.436010558417252
 21
-708.42131879740703
 31
0.0
  0
LINE
  5
18D67
  8
1PHANTOM
 10
61.936010558417252
 20
-706.92131996080468
 30
0.0
 11
61.436010558417252
 21
-706.82131879740712
 31
0.0
  0
LINE
  5
18D68
  8
1PHANTOM
 10
58.436010558417252
 20
-703.02131181702009
 30
0.0
 11
57.936010558417252
 21
-702.92131065362287
 31
0.0
  0
LINE
  5
18D69
  8
1PHANTOM
 10
58.436010558417252
 20
-704.62131181702057
 30
0.0
 11
57.936010558417252
 21
-704.52131065362289
 31
0.0
  0
LINE
  5
18D6A
  8
1PHANTOM
 10
58.436010558417252
 20
-707.82131181702073
 30
0.0
 11
57.936010558417252
 21
-707.72131065362305
 31
0.0
  0
LINE
  5
18D6B
  8
1PHANTOM
 10
58.436010558417252
 20
-706.22131181702048
 30
0.0
 11
57.936010558417252
 21
-706.12131065362291
 31
0.0
  0
LINE
  5
18D6C
  8
1PHANTOM
 10
57.936010558417252
 20
-706.12131065362291
 30
0.0
 11
61.936010558417252
 21
-705.32131996080454
 31
0.0
  0
LINE
  5
18D6D
  8
1PHANTOM
 10
57.936010558417252
 20
-704.52131065362289
 30
0.0
 11
61.936010558417252
 21
-703.72131996080032
 31
0.0
  0
LINE
  5
18D6E
  8
1PHANTOM
 10
57.936010558417252
 20
-707.72131065362305
 30
0.0
 11
61.936010558417252
 21
-706.92131996080468
 31
0.0
  0
LINE
  5
18D6F
  8
1PHANTOM
 10
57.936010558417252
 20
-709.32131065362296
 30
0.0
 11
61.936010558417252
 21
-708.52131996080459
 31
0.0
  0
LINE
  5
18D70
  8
1PHANTOM
 10
61.436010558417252
 20
-719.62131879729782
 30
0.0
 11
58.436010558417479
 21
-719.62131181691313
 31
0.0
  0
LINE
  5
18D71
  8
1PHANTOM
 10
58.436010558417252
 20
-719.02131181702919
 30
0.0
 11
57.936010558417252
 21
-718.92131065363151
 31
0.0
  0
LINE
  5
18D72
  8
1PHANTOM
 10
57.936010558417252
 20
-718.92131065363151
 30
0.0
 11
61.936010558417252
 21
-718.12131996081325
 31
0.0
  0
LINE
  5
18D73
  8
1PHANTOM
 10
61.936010558417252
 20
-718.12131996081325
 30
0.0
 11
61.436010558417252
 21
-718.02131879741546
 31
0.0
  0
LINE
  5
18D74
  8
1PHANTOM
 10
58.436010558417252
 20
-717.42131181702928
 30
0.0
 11
57.936010558417252
 21
-717.3213106536316
 31
0.0
  0
LINE
  5
18D75
  8
1PHANTOM
 10
58.436010558417252
 20
-715.82131181702925
 30
0.0
 11
57.936010558417252
 21
-715.72131065363169
 31
0.0
  0
LINE
  5
18D76
  8
1PHANTOM
 10
57.936010558417252
 20
-715.72131065363169
 30
0.0
 11
61.936010558417252
 21
-714.92131996081343
 31
0.0
  0
LINE
  5
18D77
  8
1PHANTOM
 10
61.936010558417252
 20
-716.52131996081334
 30
0.0
 11
61.436010558417252
 21
-716.42131879741555
 31
0.0
  0
LINE
  5
18D78
  8
1PHANTOM
 10
61.936010558417252
 20
-714.92131996081343
 30
0.0
 11
61.436010558417252
 21
-714.82131879741576
 31
0.0
  0
LINE
  5
18D79
  8
1PHANTOM
 10
57.936010558417252
 20
-717.3213106536316
 30
0.0
 11
61.936010558417252
 21
-716.52131996081334
 31
0.0
  0
LINE
  5
18D7A
  8
1PHANTOM
 10
58.436010558417252
 20
-714.22131181702503
 30
0.0
 11
57.936010558417252
 21
-714.12131065362735
 31
0.0
  0
LINE
  5
18D7B
  8
1PHANTOM
 10
56.135964022519367
 20
-719.62131530699719
 30
0.0
 11
56.135964022519367
 21
-718.62131530699719
 31
0.0
  0
LINE
  5
18D7C
  8
1PHANTOM
 10
63.735964022519283
 20
-719.62131530699719
 30
0.0
 11
63.735964022519283
 21
-718.62131530699719
 31
0.0
  0
LINE
  5
18D7D
  8
1PHANTOM
 10
60.435963872519316
 20
-719.62131530699719
 30
0.0
 11
59.435964172519327
 21
-718.62131530699719
 31
0.0
  0
LINE
  5
18D7E
  8
1PHANTOM
 10
63.735964022519283
 20
-719.62131530699719
 30
0.0
 11
56.135964022519367
 21
-719.62131530699719
 31
0.0
  0
LINE
  5
18D7F
  8
1PHANTOM
 10
63.735964022519283
 20
-718.62131530699719
 30
0.0
 11
56.135964022519367
 21
-718.62131530699719
 31
0.0
  0
LINE
  5
18D81
  8
1CENTER
 10
-80.064035977480657
 20
-686.66040071585098
 30
0.0
 11
-80.064035977480657
 21
-723.29159171630602
 31
0.0
  0
LINE
  5
18D82
  8
1PHANTOM
 10
-81.158359791475746
 20
-691.72131276083735
 30
0.0
 11
-79.196024702600425
 21
-690.92131732678638
 31
0.0
  0
LINE
  5
18D83
  8
1PHANTOM
 10
-79.196024702600425
 20
-690.92131732678638
 30
0.0
 11
-79.784301277642726
 21
-690.60954747053427
 31
0.0
  0
LINE
  5
18D84
  8
1PHANTOM
 10
-82.063989441582635
 20
-714.12131065362735
 30
0.0
 11
-78.063989441582635
 21
-713.32131996080909
 31
0.0
  0
LINE
  5
18D85
  8
1PHANTOM
 10
-82.063989441582635
 20
-702.92131065362287
 30
0.0
 11
-78.063989441582635
 21
-702.12131996080041
 31
0.0
  0
LINE
  5
18D86
  8
1PHANTOM
 10
-82.063989441582635
 20
-699.72131065362294
 30
0.0
 11
-78.063989441582635
 21
-698.92131996080025
 31
0.0
  0
LINE
  5
18D87
  8
1PHANTOM
 10
-78.063989441582635
 20
-698.92131996080025
 30
0.0
 11
-78.563989441582635
 21
-698.82131879740314
 31
0.0
  0
LINE
  5
18D88
  8
1PHANTOM
 10
-81.563989441582635
 20
-698.22131181702014
 30
0.0
 11
-82.063989441582635
 21
-698.12131065362291
 31
0.0
  0
LINE
  5
18D89
  8
1PHANTOM
 10
-78.063989441582635
 20
-702.12131996080041
 30
0.0
 11
-78.563989441582635
 21
-702.02131879740307
 31
0.0
  0
LINE
  5
18D8A
  8
1PHANTOM
 10
-78.063989441582635
 20
-700.52131996080016
 30
0.0
 11
-78.563989441582635
 21
-700.42131879740305
 31
0.0
  0
LINE
  5
18D8B
  8
1PHANTOM
 10
-81.563989441582635
 20
-699.82131181702005
 30
0.0
 11
-82.063989441582635
 21
-699.72131065362294
 31
0.0
  0
LINE
  5
18D8C
  8
1PHANTOM
 10
-81.563989441582635
 20
-701.42131181701996
 30
0.0
 11
-82.063989441582635
 21
-701.32131065362285
 31
0.0
  0
LINE
  5
18D8D
  8
1PHANTOM
 10
-82.063989441582635
 20
-701.32131065362285
 30
0.0
 11
-78.063989441582635
 21
-700.52131996080016
 31
0.0
  0
LINE
  5
18D8E
  8
1PHANTOM
 10
-78.7432105981934
 20
-692.5213183803919
 30
0.0
 11
-79.29496006199679
 21
-692.33855423776401
 31
0.0
  0
LINE
  5
18D8F
  8
1PHANTOM
 10
-78.063989441582635
 20
-695.72131996080032
 30
0.0
 11
-78.563989441582635
 21
-695.62131879740309
 31
0.0
  0
LINE
  5
18D90
  8
1PHANTOM
 10
-78.063989441582635
 20
-697.32131996080034
 30
0.0
 11
-78.563989441582635
 21
-697.22131879740334
 31
0.0
  0
LINE
  5
18D91
  8
1PHANTOM
 10
-78.29039649378683
 20
-694.12131943399766
 30
0.0
 11
-78.826990229057856
 21
-693.99204873636779
 31
0.0
  0
LINE
  5
18D92
  8
1PHANTOM
 10
-81.143074844374041
 20
-693.43408121958316
 30
0.0
 11
-81.611173299524125
 21
-693.32131170723312
 31
0.0
  0
LINE
  5
18D93
  8
1PHANTOM
 10
-81.563989441582635
 20
-696.62131181702
 30
0.0
 11
-82.063989441582635
 21
-696.52131065362289
 31
0.0
  0
LINE
  5
18D94
  8
1PHANTOM
 10
-81.563989441582635
 20
-695.02131181702009
 30
0.0
 11
-82.063989441582635
 21
-694.92131065362287
 31
0.0
  0
LINE
  5
18D95
  8
1PHANTOM
 10
-80.701187950844542
 20
-691.87274855727776
 30
0.0
 11
-81.158359791475746
 21
-691.72131276083735
 31
0.0
  0
LINE
  5
18D96
  8
1PHANTOM
 10
-81.611173299524125
 20
-693.32131170723312
 30
0.0
 11
-78.7432105981934
 21
-692.5213183803919
 31
0.0
  0
LINE
  5
18D97
  8
1PHANTOM
 10
-82.063989441582635
 20
-696.52131065362289
 30
0.0
 11
-78.063989441582635
 21
-695.72131996080032
 31
0.0
  0
LINE
  5
18D98
  8
1PHANTOM
 10
-82.063989441582635
 20
-694.92131065362287
 30
0.0
 11
-78.29039649378683
 21
-694.12131943399766
 31
0.0
  0
LINE
  5
18D99
  8
1PHANTOM
 10
-82.063989441582635
 20
-698.12131065362291
 30
0.0
 11
-78.063989441582635
 21
-697.32131996080034
 31
0.0
  0
LINE
  5
18D9A
  8
1PHANTOM
 10
-82.063989441582635
 20
-710.9213106536273
 30
0.0
 11
-78.063989441582635
 21
-710.12131996080905
 31
0.0
  0
LINE
  5
18D9B
  8
1PHANTOM
 10
-78.063989441582635
 20
-710.12131996080905
 30
0.0
 11
-78.563989441582635
 21
-710.02131879741125
 31
0.0
  0
LINE
  5
18D9C
  8
1PHANTOM
 10
-81.563989441582635
 20
-709.42131181702064
 30
0.0
 11
-82.063989441582635
 21
-709.32131065362296
 31
0.0
  0
LINE
  5
18D9D
  8
1PHANTOM
 10
-78.063989441582635
 20
-711.72131996080918
 30
0.0
 11
-78.563989441582635
 21
-711.6213187974115
 31
0.0
  0
LINE
  5
18D9E
  8
1PHANTOM
 10
-78.063989441582635
 20
-713.32131996080909
 30
0.0
 11
-78.563989441582635
 21
-713.22131879741141
 31
0.0
  0
LINE
  5
18D9F
  8
1PHANTOM
 10
-81.563989441582635
 20
-711.02131181702498
 30
0.0
 11
-82.063989441582635
 21
-710.9213106536273
 31
0.0
  0
LINE
  5
18DA0
  8
1PHANTOM
 10
-81.563989441582635
 20
-712.62131181702512
 30
0.0
 11
-82.063989441582635
 21
-712.52131065362744
 31
0.0
  0
LINE
  5
18DA1
  8
1PHANTOM
 10
-82.063989441582635
 20
-712.52131065362744
 30
0.0
 11
-78.063989441582635
 21
-711.72131996080918
 31
0.0
  0
LINE
  5
18DA2
  8
1PHANTOM
 10
-78.063989441582635
 20
-705.32131996080454
 30
0.0
 11
-78.563989441582635
 21
-705.22131879740698
 31
0.0
  0
LINE
  5
18DA3
  8
1PHANTOM
 10
-78.063989441582635
 20
-703.72131996080032
 30
0.0
 11
-78.563989441582635
 21
-703.62131879740309
 31
0.0
  0
LINE
  5
18DA4
  8
1PHANTOM
 10
-78.063989441582635
 20
-708.52131996080459
 30
0.0
 11
-78.563989441582635
 21
-708.42131879740703
 31
0.0
  0
LINE
  5
18DA5
  8
1PHANTOM
 10
-78.063989441582635
 20
-706.92131996080468
 30
0.0
 11
-78.563989441582635
 21
-706.82131879740712
 31
0.0
  0
LINE
  5
18DA6
  8
1PHANTOM
 10
-81.563989441582635
 20
-703.02131181702009
 30
0.0
 11
-82.063989441582635
 21
-702.92131065362287
 31
0.0
  0
LINE
  5
18DA7
  8
1PHANTOM
 10
-81.563989441582635
 20
-704.62131181702057
 30
0.0
 11
-82.063989441582635
 21
-704.52131065362289
 31
0.0
  0
LINE
  5
18DA8
  8
1PHANTOM
 10
-81.563989441582635
 20
-707.82131181702073
 30
0.0
 11
-82.063989441582635
 21
-707.72131065362305
 31
0.0
  0
LINE
  5
18DA9
  8
1PHANTOM
 10
-81.563989441582635
 20
-706.22131181702048
 30
0.0
 11
-82.063989441582635
 21
-706.12131065362291
 31
0.0
  0
LINE
  5
18DAA
  8
1PHANTOM
 10
-82.063989441582635
 20
-706.12131065362291
 30
0.0
 11
-78.063989441582635
 21
-705.32131996080454
 31
0.0
  0
LINE
  5
18DAB
  8
1PHANTOM
 10
-82.063989441582635
 20
-704.52131065362289
 30
0.0
 11
-78.063989441582635
 21
-703.72131996080032
 31
0.0
  0
LINE
  5
18DAC
  8
1PHANTOM
 10
-82.063989441582635
 20
-707.72131065362305
 30
0.0
 11
-78.063989441582635
 21
-706.92131996080468
 31
0.0
  0
LINE
  5
18DAD
  8
1PHANTOM
 10
-82.063989441582635
 20
-709.32131065362296
 30
0.0
 11
-78.063989441582635
 21
-708.52131996080459
 31
0.0
  0
LINE
  5
18DAE
  8
1PHANTOM
 10
-78.563989441582635
 20
-719.62131879729782
 30
0.0
 11
-81.563989441582635
 21
-719.62131181691313
 31
0.0
  0
LINE
  5
18DAF
  8
1PHANTOM
 10
-81.563989441582635
 20
-719.02131181702919
 30
0.0
 11
-82.063989441582635
 21
-718.92131065363151
 31
0.0
  0
LINE
  5
18DB0
  8
1PHANTOM
 10
-82.063989441582635
 20
-718.92131065363151
 30
0.0
 11
-78.063989441582635
 21
-718.12131996081325
 31
0.0
  0
LINE
  5
18DB1
  8
1PHANTOM
 10
-78.063989441582635
 20
-718.12131996081325
 30
0.0
 11
-78.563989441582635
 21
-718.02131879741546
 31
0.0
  0
LINE
  5
18DB2
  8
1PHANTOM
 10
-81.563989441582635
 20
-717.42131181702928
 30
0.0
 11
-82.063989441582635
 21
-717.3213106536316
 31
0.0
  0
LINE
  5
18DB3
  8
1PHANTOM
 10
-81.563989441582635
 20
-715.82131181702925
 30
0.0
 11
-82.063989441582635
 21
-715.72131065363169
 31
0.0
  0
LINE
  5
18DB4
  8
1PHANTOM
 10
-82.063989441582635
 20
-715.72131065363169
 30
0.0
 11
-78.063989441582635
 21
-714.92131996081343
 31
0.0
  0
LINE
  5
18DB5
  8
1PHANTOM
 10
-78.063989441582635
 20
-716.52131996081334
 30
0.0
 11
-78.563989441582635
 21
-716.42131879741555
 31
0.0
  0
LINE
  5
18DB6
  8
1PHANTOM
 10
-78.063989441582635
 20
-714.92131996081343
 30
0.0
 11
-78.563989441582635
 21
-714.82131879741576
 31
0.0
  0
LINE
  5
18DB7
  8
1PHANTOM
 10
-82.063989441582635
 20
-717.3213106536316
 30
0.0
 11
-78.063989441582635
 21
-716.52131996081334
 31
0.0
  0
LINE
  5
18DB8
  8
1PHANTOM
 10
-81.563989441582635
 20
-714.22131181702503
 30
0.0
 11
-82.063989441582635
 21
-714.12131065362735
 31
0.0
  0
LINE
  5
18DB9
  8
1PHANTOM
 10
-83.864035977480626
 20
-719.62131530699719
 30
0.0
 11
-83.864035977480626
 21
-718.62131530699719
 31
0.0
  0
LINE
  5
18DBA
  8
1PHANTOM
 10
-76.264035977480717
 20
-719.62131530699719
 30
0.0
 11
-76.264035977480717
 21
-718.62131530699719
 31
0.0
  0
LINE
  5
18DBB
  8
1PHANTOM
 10
-79.564036127480676
 20
-719.62131530699719
 30
0.0
 11
-80.564035827480666
 21
-718.62131530699719
 31
0.0
  0
LINE
  5
18DBC
  8
1PHANTOM
 10
-76.264035977480717
 20
-719.62131530699719
 30
0.0
 11
-83.864035977480626
 21
-719.62131530699719
 31
0.0
  0
LINE
  5
18DBD
  8
1PHANTOM
 10
-76.264035977480717
 20
-718.62131530699719
 30
0.0
 11
-83.864035977480626
 21
-718.62131530699719
 31
0.0
  0
LINE
  5
18DBF
  8
1CENTER
 10
-220.0640359774807
 20
-686.66040071585098
 30
0.0
 11
-220.0640359774807
 21
-723.29159171630602
 31
0.0
  0
LINE
  5
18DC0
  8
1PHANTOM
 10
-221.1583597914757
 20
-691.72131276083735
 30
0.0
 11
-219.1960247026004
 21
-690.92131732678638
 31
0.0
  0
LINE
  5
18DC1
  8
1PHANTOM
 10
-219.1960247026004
 20
-690.92131732678638
 30
0.0
 11
-219.7843012776427
 21
-690.60954747053427
 31
0.0
  0
LINE
  5
18DC2
  8
1PHANTOM
 10
-222.06398944158261
 20
-714.12131065362735
 30
0.0
 11
-218.06398944158261
 21
-713.32131996080909
 31
0.0
  0
LINE
  5
18DC3
  8
1PHANTOM
 10
-222.06398944158261
 20
-702.92131065362287
 30
0.0
 11
-218.06398944158261
 21
-702.12131996080041
 31
0.0
  0
LINE
  5
18DC4
  8
1PHANTOM
 10
-222.06398944158261
 20
-699.72131065362294
 30
0.0
 11
-218.06398944158261
 21
-698.92131996080025
 31
0.0
  0
LINE
  5
18DC5
  8
1PHANTOM
 10
-218.06398944158261
 20
-698.92131996080025
 30
0.0
 11
-218.56398944158261
 21
-698.82131879740314
 31
0.0
  0
LINE
  5
18DC6
  8
1PHANTOM
 10
-221.56398944158261
 20
-698.22131181702014
 30
0.0
 11
-222.06398944158261
 21
-698.12131065362291
 31
0.0
  0
LINE
  5
18DC7
  8
1PHANTOM
 10
-218.06398944158261
 20
-702.12131996080041
 30
0.0
 11
-218.56398944158261
 21
-702.02131879740307
 31
0.0
  0
LINE
  5
18DC8
  8
1PHANTOM
 10
-218.06398944158261
 20
-700.52131996080016
 30
0.0
 11
-218.56398944158261
 21
-700.42131879740305
 31
0.0
  0
LINE
  5
18DC9
  8
1PHANTOM
 10
-221.56398944158261
 20
-699.82131181702005
 30
0.0
 11
-222.06398944158261
 21
-699.72131065362294
 31
0.0
  0
LINE
  5
18DCA
  8
1PHANTOM
 10
-221.56398944158261
 20
-701.42131181701996
 30
0.0
 11
-222.06398944158261
 21
-701.32131065362285
 31
0.0
  0
LINE
  5
18DCB
  8
1PHANTOM
 10
-222.06398944158261
 20
-701.32131065362285
 30
0.0
 11
-218.06398944158261
 21
-700.52131996080016
 31
0.0
  0
LINE
  5
18DCC
  8
1PHANTOM
 10
-218.7432105981934
 20
-692.5213183803919
 30
0.0
 11
-219.29496006199679
 21
-692.33855423776401
 31
0.0
  0
LINE
  5
18DCD
  8
1PHANTOM
 10
-218.06398944158261
 20
-695.72131996080032
 30
0.0
 11
-218.56398944158261
 21
-695.62131879740309
 31
0.0
  0
LINE
  5
18DCE
  8
1PHANTOM
 10
-218.06398944158261
 20
-697.32131996080034
 30
0.0
 11
-218.56398944158261
 21
-697.22131879740334
 31
0.0
  0
LINE
  5
18DCF
  8
1PHANTOM
 10
-218.2903964937868
 20
-694.12131943399766
 30
0.0
 11
-218.82699022905791
 21
-693.99204873636779
 31
0.0
  0
LINE
  5
18DD0
  8
1PHANTOM
 10
-221.14307484437401
 20
-693.43408121958316
 30
0.0
 11
-221.6111732995241
 21
-693.32131170723312
 31
0.0
  0
LINE
  5
18DD1
  8
1PHANTOM
 10
-221.56398944158261
 20
-696.62131181702
 30
0.0
 11
-222.06398944158261
 21
-696.52131065362289
 31
0.0
  0
LINE
  5
18DD2
  8
1PHANTOM
 10
-221.56398944158261
 20
-695.02131181702009
 30
0.0
 11
-222.06398944158261
 21
-694.92131065362287
 31
0.0
  0
LINE
  5
18DD3
  8
1PHANTOM
 10
-220.7011879508446
 20
-691.87274855727776
 30
0.0
 11
-221.1583597914757
 21
-691.72131276083735
 31
0.0
  0
LINE
  5
18DD4
  8
1PHANTOM
 10
-221.6111732995241
 20
-693.32131170723312
 30
0.0
 11
-218.7432105981934
 21
-692.5213183803919
 31
0.0
  0
LINE
  5
18DD5
  8
1PHANTOM
 10
-222.06398944158261
 20
-696.52131065362289
 30
0.0
 11
-218.06398944158261
 21
-695.72131996080032
 31
0.0
  0
LINE
  5
18DD6
  8
1PHANTOM
 10
-222.06398944158261
 20
-694.92131065362287
 30
0.0
 11
-218.2903964937868
 21
-694.12131943399766
 31
0.0
  0
LINE
  5
18DD7
  8
1PHANTOM
 10
-222.06398944158261
 20
-698.12131065362291
 30
0.0
 11
-218.06398944158261
 21
-697.32131996080034
 31
0.0
  0
LINE
  5
18DD8
  8
1PHANTOM
 10
-222.06398944158261
 20
-710.9213106536273
 30
0.0
 11
-218.06398944158261
 21
-710.12131996080905
 31
0.0
  0
LINE
  5
18DD9
  8
1PHANTOM
 10
-218.06398944158261
 20
-710.12131996080905
 30
0.0
 11
-218.56398944158261
 21
-710.02131879741125
 31
0.0
  0
LINE
  5
18DDA
  8
1PHANTOM
 10
-221.56398944158261
 20
-709.42131181702064
 30
0.0
 11
-222.06398944158261
 21
-709.32131065362296
 31
0.0
  0
LINE
  5
18DDB
  8
1PHANTOM
 10
-218.06398944158261
 20
-711.72131996080918
 30
0.0
 11
-218.56398944158261
 21
-711.6213187974115
 31
0.0
  0
LINE
  5
18DDC
  8
1PHANTOM
 10
-218.06398944158261
 20
-713.32131996080909
 30
0.0
 11
-218.56398944158261
 21
-713.22131879741141
 31
0.0
  0
LINE
  5
18DDD
  8
1PHANTOM
 10
-221.56398944158261
 20
-711.02131181702498
 30
0.0
 11
-222.06398944158261
 21
-710.9213106536273
 31
0.0
  0
LINE
  5
18DDE
  8
1PHANTOM
 10
-221.56398944158261
 20
-712.62131181702512
 30
0.0
 11
-222.06398944158261
 21
-712.52131065362744
 31
0.0
  0
LINE
  5
18DDF
  8
1PHANTOM
 10
-222.06398944158261
 20
-712.52131065362744
 30
0.0
 11
-218.06398944158261
 21
-711.72131996080918
 31
0.0
  0
LINE
  5
18DE0
  8
1PHANTOM
 10
-218.06398944158261
 20
-705.32131996080454
 30
0.0
 11
-218.56398944158261
 21
-705.22131879740698
 31
0.0
  0
LINE
  5
18DE1
  8
1PHANTOM
 10
-218.06398944158261
 20
-703.72131996080032
 30
0.0
 11
-218.56398944158261
 21
-703.62131879740309
 31
0.0
  0
LINE
  5
18DE2
  8
1PHANTOM
 10
-218.06398944158261
 20
-708.52131996080459
 30
0.0
 11
-218.56398944158261
 21
-708.42131879740703
 31
0.0
  0
LINE
  5
18DE3
  8
1PHANTOM
 10
-218.06398944158261
 20
-706.92131996080468
 30
0.0
 11
-218.56398944158261
 21
-706.82131879740712
 31
0.0
  0
LINE
  5
18DE4
  8
1PHANTOM
 10
-221.56398944158261
 20
-703.02131181702009
 30
0.0
 11
-222.06398944158261
 21
-702.92131065362287
 31
0.0
  0
LINE
  5
18DE5
  8
1PHANTOM
 10
-221.56398944158261
 20
-704.62131181702057
 30
0.0
 11
-222.06398944158261
 21
-704.52131065362289
 31
0.0
  0
LINE
  5
18DE6
  8
1PHANTOM
 10
-221.56398944158261
 20
-707.82131181702073
 30
0.0
 11
-222.06398944158261
 21
-707.72131065362305
 31
0.0
  0
LINE
  5
18DE7
  8
1PHANTOM
 10
-221.56398944158261
 20
-706.22131181702048
 30
0.0
 11
-222.06398944158261
 21
-706.12131065362291
 31
0.0
  0
LINE
  5
18DE8
  8
1PHANTOM
 10
-222.06398944158261
 20
-706.12131065362291
 30
0.0
 11
-218.06398944158261
 21
-705.32131996080454
 31
0.0
  0
LINE
  5
18DE9
  8
1PHANTOM
 10
-222.06398944158261
 20
-704.52131065362289
 30
0.0
 11
-218.06398944158261
 21
-703.72131996080032
 31
0.0
  0
LINE
  5
18DEA
  8
1PHANTOM
 10
-222.06398944158261
 20
-707.72131065362305
 30
0.0
 11
-218.06398944158261
 21
-706.92131996080468
 31
0.0
  0
LINE
  5
18DEB
  8
1PHANTOM
 10
-222.06398944158261
 20
-709.32131065362296
 30
0.0
 11
-218.06398944158261
 21
-708.52131996080459
 31
0.0
  0
LINE
  5
18DEC
  8
1PHANTOM
 10
-218.56398944158261
 20
-719.62131879729782
 30
0.0
 11
-221.56398944158261
 21
-719.62131181691313
 31
0.0
  0
LINE
  5
18DED
  8
1PHANTOM
 10
-221.56398944158261
 20
-719.02131181702919
 30
0.0
 11
-222.06398944158261
 21
-718.92131065363151
 31
0.0
  0
LINE
  5
18DEE
  8
1PHANTOM
 10
-222.06398944158261
 20
-718.92131065363151
 30
0.0
 11
-218.06398944158261
 21
-718.12131996081325
 31
0.0
  0
LINE
  5
18DEF
  8
1PHANTOM
 10
-218.06398944158261
 20
-718.12131996081325
 30
0.0
 11
-218.56398944158261
 21
-718.02131879741546
 31
0.0
  0
LINE
  5
18DF0
  8
1PHANTOM
 10
-221.56398944158261
 20
-717.42131181702928
 30
0.0
 11
-222.06398944158261
 21
-717.3213106536316
 31
0.0
  0
LINE
  5
18DF1
  8
1PHANTOM
 10
-221.56398944158261
 20
-715.82131181702925
 30
0.0
 11
-222.06398944158261
 21
-715.72131065363169
 31
0.0
  0
LINE
  5
18DF2
  8
1PHANTOM
 10
-222.06398944158261
 20
-715.72131065363169
 30
0.0
 11
-218.06398944158261
 21
-714.92131996081343
 31
0.0
  0
LINE
  5
18DF3
  8
1PHANTOM
 10
-218.06398944158261
 20
-716.52131996081334
 30
0.0
 11
-218.56398944158261
 21
-716.42131879741555
 31
0.0
  0
LINE
  5
18DF4
  8
1PHANTOM
 10
-218.06398944158261
 20
-714.92131996081343
 30
0.0
 11
-218.56398944158261
 21
-714.82131879741576
 31
0.0
  0
LINE
  5
18DF5
  8
1PHANTOM
 10
-222.06398944158261
 20
-717.3213106536316
 30
0.0
 11
-218.06398944158261
 21
-716.52131996081334
 31
0.0
  0
LINE
  5
18DF6
  8
1PHANTOM
 10
-221.56398944158261
 20
-714.22131181702503
 30
0.0
 11
-222.06398944158261
 21
-714.12131065362735
 31
0.0
  0
LINE
  5
18DF7
  8
1PHANTOM
 10
-223.8640359774806
 20
-719.62131530699719
 30
0.0
 11
-223.8640359774806
 21
-718.62131530699719
 31
0.0
  0
LINE
  5
18DF8
  8
1PHANTOM
 10
-216.26403597748069
 20
-719.62131530699719
 30
0.0
 11
-216.26403597748069
 21
-718.62131530699719
 31
0.0
  0
LINE
  5
18DF9
  8
1PHANTOM
 10
-219.5640361274807
 20
-719.62131530699719
 30
0.0
 11
-220.56403582748061
 21
-718.62131530699719
 31
0.0
  0
LINE
  5
18DFA
  8
1PHANTOM
 10
-216.26403597748069
 20
-719.62131530699719
 30
0.0
 11
-223.8640359774806
 21
-719.62131530699719
 31
0.0
  0
LINE
  5
18DFB
  8
1PHANTOM
 10
-216.26403597748069
 20
-718.62131530699719
 30
0.0
 11
-223.8640359774806
 21
-718.62131530699719
 31
0.0
  0
CIRCLE
  5
18DFD
  8
01
 10
59.935964022519329
 20
-873.37131530700515
 30
0.0
 40
2.5
  0
LINE
  5
18DFE
  8
1CENTER
 10
59.935964022519329
 20
-876.37131530700503
 30
0.0
 11
59.935964022519329
 21
-870.37131530700515
 31
0.0
  0
LINE
  5
18DFF
  8
1CENTER
 10
56.935964022519329
 20
-873.37131530700503
 30
0.0
 11
62.935964022519329
 21
-873.37131530700503
 31
0.0
  0
CIRCLE
  5
18E01
  8
01
 10
-80.064035977480657
 20
-873.37131530700515
 30
0.0
 40
2.5
  0
LINE
  5
18E02
  8
1CENTER
 10
-80.064035977480657
 20
-876.37131530700503
 30
0.0
 11
-80.064035977480657
 21
-870.37131530700515
 31
0.0
  0
LINE
  5
18E03
  8
1CENTER
 10
-83.064035977480671
 20
-873.37131530700503
 30
0.0
 11
-77.064035977480671
 21
-873.37131530700503
 31
0.0
  0
CIRCLE
  5
18E05
  8
01
 10
-220.0640359774807
 20
-873.37131530700515
 30
0.0
 40
2.5
  0
LINE
  5
18E06
  8
1CENTER
 10
-220.0640359774807
 20
-876.37131530700503
 30
0.0
 11
-220.0640359774807
 21
-870.37131530700515
 31
0.0
  0
LINE
  5
18E07
  8
1CENTER
 10
-223.0640359774807
 20
-873.37131530700503
 30
0.0
 11
-217.0640359774807
 21
-873.37131530700503
 31
0.0
  0
LINE
  5
18FE6
  8
01
 10
516.43596402251706
 20
-830.62131530699821
 30
0.0
 11
516.43596402251706
 21
-910.62131530699776
 31
0.0
  0
LINE
  5
18FE8
  8
01
 10
507.435964022517
 20
-830.62131530699821
 30
0.0
 11
507.435964022517
 21
-910.62131530699776
 31
0.0
  0
LINE
  5
18FE9
  8
1CENTER
 10
509.43596402251819
 20
-873.37131530700685
 30
0.0
 11
527.43596402251831
 21
-873.37131530700685
 31
0.0
  0
LINE
  5
18FEA
  8
01
 10
498.93596402251922
 20
-877.1213153070064
 30
0.0
 11
390.93596402251831
 21
-877.1213153070064
 31
0.0
  0
LINE
  5
18FEB
  8
01
 10
498.93596402251922
 20
-869.1213153070064
 30
0.0
 11
390.93596402251922
 21
-869.1213153070064
 31
0.0
  0
LINE
  5
18FEC
  8
01
 10
389.93596402251831
 20
-870.12131530700663
 30
0.0
 11
389.93596402251831
 21
-876.12131530700731
 31
0.0
  0
LINE
  5
18FED
  8
01
 10
389.93596402251831
 20
-876.1213153070064
 30
0.0
 11
390.93596402251831
 21
-877.1213153070064
 31
0.0
  0
LINE
  5
18FEE
  8
01
 10
390.93596402251831
 20
-869.1213153070064
 30
0.0
 11
389.93596402251831
 21
-870.12131530700663
 31
0.0
  0
LINE
  5
18FEF
  8
01
 10
478.93596402251922
 20
-864.12131530700651
 30
0.0
 11
506.93596402252098
 21
-864.12131530699924
 31
0.0
  0
LINE
  5
18FF0
  8
1PHANTOM
 10
506.63596751249389
 20
-871.87136184290455
 30
0.0
 11
506.73596867589168
 21
-871.37136184290455
 31
0.0
  0
LINE
  5
18FF1
  8
1CENTER
 10
537.39687861367179
 20
-873.3713153070064
 30
0.0
 11
500.76568761321761
 21
-873.3713153070064
 31
0.0
  0
LINE
  5
18FF2
  8
1PHANTOM
 10
529.13596053211847
 20
-874.87136184290455
 30
0.0
 11
504.43596053222592
 21
-874.87136184290455
 31
0.0
  0
LINE
  5
18FF3
  8
1PHANTOM
 10
529.13596751250213
 20
-871.87136184290455
 30
0.0
 11
504.43596751261049
 21
-871.87136184290455
 31
0.0
  0
LINE
  5
18FF4
  8
01
 10
506.93596402250648
 20
-887.6213153070064
 30
0.0
 11
478.93596402251922
 21
-887.6213153070064
 31
0.0
  0
LINE
  5
18FF5
  8
01
 10
477.93596402251922
 20
-865.12131530700651
 30
0.0
 11
477.93596402251922
 21
-868.62131530700651
 31
0.0
  0
LINE
  5
18FF6
  8
01
 10
500.9359640225191
 20
-870.12131530700663
 30
0.0
 11
500.9359640225191
 21
-876.62131530700651
 31
0.0
  0
LINE
  5
18FF7
  8
1PHANTOM
 10
504.43597216630837
 20
-869.8713153070064
 30
0.0
 11
504.43596751261049
 21
-871.87136184290455
 31
0.0
  0
ARC
  5
18FF8
  8
1PHANTOM
 10
503.33596867611311
 20
-871.37131530700651
 30
0.0
 40
1.5
 50
90.0
 51
179.99986668446189
  0
LINE
  5
18FF9
  8
1PHANTOM
 10
505.43596402252638
 20
-869.5713153070036
 30
0.0
 11
505.43596402252638
 21
-870.8713153070064
 31
0.0
  0
LINE
  5
18FFA
  8
1PHANTOM
 10
505.43596402252638
 20
-877.17131530700658
 30
0.0
 11
505.43596402252638
 21
-869.57131530700622
 31
0.0
  0
LINE
  5
18FFB
  8
1PHANTOM
 10
504.43596402252638
 20
-877.17131530700658
 30
0.0
 11
504.43596402252638
 21
-869.57131530700622
 31
0.0
  0
LINE
  5
18FFC
  8
01
 10
499.93596402251922
 20
-877.62131530700651
 30
0.0
 11
478.43596402251922
 21
-877.62131530700651
 31
0.0
  0
ARC
  5
18FFD
  8
01
 10
478.43596402251922
 20
-878.12131530700663
 30
0.0
 40
0.5
 50
90.0
 51
180.0
  0
LINE
  5
18FFE
  8
1PHANTOM
 10
505.43596402252638
 20
-871.32131530700622
 30
0.0
 11
504.43596402252638
 21
-871.32131530700622
 31
0.0
  0
LINE
  5
18FFF
  8
1PHANTOM
 10
506.24147984046868
 20
-873.3713153070064
 30
0.0
 11
503.61237331451758
 21
-873.3713153070064
 31
0.0
  0
LINE
  5
19000
  8
1PHANTOM
 10
505.03596751249438
 20
-871.87136184290455
 30
0.0
 11
505.13596867589229
 21
-871.37136184290455
 31
0.0
  0
LINE
  5
19001
  8
1PHANTOM
 10
505.43596402252638
 20
-875.42131530700658
 30
0.0
 11
504.43596402252552
 21
-875.42131530700658
 31
0.0
  0
LINE
  5
19002
  8
1PHANTOM
 10
505.43596402252638
 20
-877.17131530700658
 30
0.0
 11
504.43596402252638
 21
-877.17131530700658
 31
0.0
  0
LINE
  5
19003
  8
1PHANTOM
 10
505.93595936871031
 20
-875.37136184290455
 30
0.0
 11
506.03596053210811
 21
-874.87136184290455
 31
0.0
  0
LINE
  5
19004
  8
1PHANTOM
 10
504.43596053222592
 20
-874.87136184290455
 30
0.0
 11
504.43595587874438
 21
-876.87131530700651
 31
0.0
  0
LINE
  5
19005
  8
1PHANTOM
 10
504.43595587874438
 20
-876.87131530700651
 30
0.0
 11
503.33595936893357
 21
-876.87131530700651
 31
0.0
  0
ARC
  5
19006
  8
1PHANTOM
 10
503.33595936893357
 20
-875.3713153070064
 30
0.0
 40
1.5
 50
179.99986668446189
 51
270.0
  0
ARC
  5
19007
  8
01
 10
499.93596402251922
 20
-876.62131530700651
 30
0.0
 40
1.0
 50
270.0
 51
0.0
  0
LINE
  5
19008
  8
1PHANTOM
 10
505.43596402252638
 20
-875.87131530700651
 30
0.0
 11
505.43596402252638
 21
-877.17131530700215
 31
0.0
  0
LINE
  5
19009
  8
01
 10
499.93596402251922
 20
-876.1213153070064
 30
0.0
 11
498.93596402251922
 21
-877.1213153070064
 31
0.0
  0
LINE
  5
1900A
  8
1PHANTOM
 10
504.43596053222592
 20
-874.87136184290455
 30
0.0
 11
504.43596751261049
 21
-871.87136184290455
 31
0.0
  0
LINE
  5
1900B
  8
1PHANTOM
 10
505.13596867589229
 20
-871.37136184290455
 30
0.0
 11
505.93595936871031
 21
-875.37136184290455
 31
0.0
  0
LINE
  5
1900C
  8
1PHANTOM
 10
501.83596867611669
 20
-871.37131181681423
 30
0.0
 11
501.83595936893732
 21
-875.37131181681434
 31
0.0
  0
LINE
  5
1900D
  8
01
 10
499.93596402251922
 20
-869.1213153070064
 30
0.0
 11
478.43596402251922
 21
-869.1213153070064
 31
0.0
  0
ARC
  5
1900E
  8
01
 10
478.43596402251922
 20
-868.62131530700651
 30
0.0
 40
0.5
 50
180.0
 51
270.0
  0
LINE
  5
1900F
  8
1PHANTOM
 10
505.43596402252638
 20
-869.57131530700622
 30
0.0
 11
504.43596402252638
 21
-869.57131530700622
 31
0.0
  0
LINE
  5
19010
  8
1PHANTOM
 10
504.43597216630837
 20
-869.8713153070064
 30
0.0
 11
503.33596867611311
 21
-869.8713153070064
 31
0.0
  0
ARC
  5
19011
  8
01
 10
499.93596402251922
 20
-870.12131530700663
 30
0.0
 40
1.0
 50
0.0
 51
90.0
  0
LINE
  5
19012
  8
01
 10
499.93596402251922
 20
-870.12131530700663
 30
0.0
 11
498.93596402251922
 21
-869.1213153070064
 31
0.0
  0
ARC
  5
19013
  8
01
 10
478.93596402251922
 20
-886.62131530700651
 30
0.0
 40
1.0
 50
180.0
 51
270.0
  0
LINE
  5
19014
  8
01
 10
477.93596402251922
 20
-878.12131530700663
 30
0.0
 11
477.93596402251922
 21
-886.62131530700651
 31
0.0
  0
ARC
  5
19015
  8
01
 10
478.93596402251922
 20
-865.12131530700651
 30
0.0
 40
1.0
 50
90.0
 51
180.0
  0
LINE
  5
19016
  8
01
 10
507.43596402252098
 20
-864.62131530699912
 30
0.0
 11
507.43596402250648
 21
-887.12131530700651
 31
0.0
  0
LINE
  5
19017
  8
1PHANTOM
 10
530.73596762229033
 20
-871.82417798496306
 30
0.0
 11
531.53596094913144
 21
-874.69214068629378
 31
0.0
  0
LINE
  5
19018
  8
1PHANTOM
 10
534.43596402236358
 20
-873.37136184290455
 30
0.0
 11
529.13596751250213
 21
-871.87136184290455
 31
0.0
  0
LINE
  5
19019
  8
1PHANTOM
 10
534.43596402236358
 20
-873.37136184290455
 30
0.0
 11
529.13596053211847
 21
-874.87136184290455
 31
0.0
  0
LINE
  5
1901A
  8
1PHANTOM
 10
517.93596867590065
 20
-871.37136184290455
 30
0.0
 11
518.73595936871868
 21
-875.37136184290455
 31
0.0
  0
LINE
  5
1901B
  8
1PHANTOM
 10
514.63596751250304
 20
-871.87136184290455
 30
0.0
 11
514.73596867590084
 21
-871.37136184290455
 31
0.0
  0
LINE
  5
1901C
  8
1PHANTOM
 10
516.23596751250238
 20
-871.87136184290455
 30
0.0
 11
516.33596867590029
 21
-871.37136184290455
 31
0.0
  0
LINE
  5
1901D
  8
1PHANTOM
 10
517.83596751250286
 20
-871.87136184290455
 30
0.0
 11
517.93596867590065
 21
-871.37136184290455
 31
0.0
  0
LINE
  5
1901E
  8
1PHANTOM
 10
513.93595936871395
 20
-875.37136184290455
 30
0.0
 11
514.03596053211174
 21
-874.87136184290455
 31
0.0
  0
LINE
  5
1901F
  8
1PHANTOM
 10
515.53595936871875
 20
-875.37136184290455
 30
0.0
 11
515.63596053211666
 21
-874.87136184290455
 31
0.0
  0
LINE
  5
19020
  8
1PHANTOM
 10
517.13595936871832
 20
-875.37136184290455
 30
0.0
 11
517.23596053211611
 21
-874.87136184290455
 31
0.0
  0
LINE
  5
19021
  8
1PHANTOM
 10
516.33596867590029
 20
-871.37136184290455
 30
0.0
 11
517.13595936871832
 21
-875.37136184290455
 31
0.0
  0
LINE
  5
19022
  8
1PHANTOM
 10
514.73596867590084
 20
-871.37136184290455
 30
0.0
 11
515.53595936871875
 21
-875.37136184290455
 31
0.0
  0
LINE
  5
19023
  8
1PHANTOM
 10
513.03596751249813
 20
-871.87136184290455
 30
0.0
 11
513.13596867589592
 21
-871.37136184290455
 31
0.0
  0
LINE
  5
19024
  8
1PHANTOM
 10
511.43596751249862
 20
-871.87136184290455
 30
0.0
 11
511.53596867589562
 21
-871.37136184290455
 31
0.0
  0
LINE
  5
19025
  8
1PHANTOM
 10
512.3359593687145
 20
-875.37136184290455
 30
0.0
 11
512.43596053211229
 21
-874.87136184290455
 31
0.0
  0
LINE
  5
19026
  8
1PHANTOM
 10
510.73595936871408
 20
-875.37136184290455
 30
0.0
 11
510.83596053211193
 21
-874.87136184290455
 31
0.0
  0
LINE
  5
19027
  8
1PHANTOM
 10
509.93596867589611
 20
-871.37136184290455
 30
0.0
 11
510.73595936871408
 21
-875.37136184290455
 31
0.0
  0
LINE
  5
19028
  8
1PHANTOM
 10
511.53596867589562
 20
-871.37136184290455
 30
0.0
 11
512.3359593687145
 21
-875.37136184290455
 31
0.0
  0
LINE
  5
19029
  8
1PHANTOM
 10
513.13596867589592
 20
-871.37136184290455
 30
0.0
 11
513.93595936871395
 21
-875.37136184290455
 31
0.0
  0
LINE
  5
1902A
  8
1PHANTOM
 10
519.4359675125022
 20
-871.87136184290455
 30
0.0
 11
519.53596867590011
 21
-871.37136184290455
 31
0.0
  0
LINE
  5
1902B
  8
1PHANTOM
 10
524.23596751250341
 20
-871.87136184290455
 30
0.0
 11
524.33596867590029
 21
-871.37136184290455
 31
0.0
  0
LINE
  5
1902C
  8
1PHANTOM
 10
522.63596751250304
 20
-871.87136184290455
 30
0.0
 11
522.73596867590084
 21
-871.37136184290455
 31
0.0
  0
LINE
  5
1902D
  8
1PHANTOM
 10
521.03596751250359
 20
-871.87136184290455
 30
0.0
 11
521.13596867590047
 21
-871.37136184290455
 31
0.0
  0
LINE
  5
1902E
  8
1PHANTOM
 10
518.73595936871868
 20
-875.37136184290455
 30
0.0
 11
518.83596053211636
 21
-874.87136184290455
 31
0.0
  0
LINE
  5
1902F
  8
1PHANTOM
 10
520.33595936872268
 20
-875.37136184290455
 30
0.0
 11
520.43596053212036
 21
-874.87136184290455
 31
0.0
  0
LINE
  5
19030
  8
1PHANTOM
 10
521.93595936872305
 20
-875.37136184290455
 30
0.0
 11
522.03596053211993
 21
-874.87136184290455
 31
0.0
  0
LINE
  5
19031
  8
1PHANTOM
 10
523.53595936872341
 20
-875.37136184290455
 30
0.0
 11
523.63596053212029
 21
-874.87136184290455
 31
0.0
  0
LINE
  5
19032
  8
1PHANTOM
 10
519.53596867590011
 20
-871.37136184290455
 30
0.0
 11
520.33595936872268
 21
-875.37136184290455
 31
0.0
  0
LINE
  5
19033
  8
1PHANTOM
 10
521.13596867590047
 20
-871.37136184290455
 30
0.0
 11
521.93595936872305
 21
-875.37136184290455
 31
0.0
  0
LINE
  5
19034
  8
1PHANTOM
 10
524.33596867590029
 20
-871.37136184290455
 30
0.0
 11
525.13595936872287
 21
-875.37136184290455
 31
0.0
  0
LINE
  5
19035
  8
1PHANTOM
 10
522.73596867590084
 20
-871.37136184290455
 30
0.0
 11
523.53595936872341
 21
-875.37136184290455
 31
0.0
  0
LINE
  5
19036
  8
1PHANTOM
 10
525.13595936872287
 20
-875.37136184290455
 30
0.0
 11
525.23596053212054
 21
-874.87136184290455
 31
0.0
  0
LINE
  5
19037
  8
1PHANTOM
 10
525.83596751250275
 20
-871.87136184290455
 30
0.0
 11
525.93596867590065
 21
-871.37136184290455
 31
0.0
  0
LINE
  5
19038
  8
1PHANTOM
 10
528.33595936872268
 20
-875.37136184290455
 30
0.0
 11
528.43596053212036
 21
-874.87136184290455
 31
0.0
  0
LINE
  5
19039
  8
1PHANTOM
 10
526.73595936872323
 20
-875.37136184290455
 30
0.0
 11
526.83596053212011
 21
-874.87136184290455
 31
0.0
  0
LINE
  5
1903A
  8
1PHANTOM
 10
529.93595989552603
 20
-875.14495479070035
 30
0.0
 11
530.06523059315521
 21
-874.60836105542955
 31
0.0
  0
LINE
  5
1903B
  8
1PHANTOM
 10
530.62319810993984
 20
-872.29227644011269
 30
0.0
 11
530.73596762229033
 21
-871.82417798496306
 31
0.0
  0
LINE
  5
1903C
  8
1PHANTOM
 10
527.43596751250323
 20
-871.87136184290455
 30
0.0
 11
527.53596867590011
 21
-871.37136184290455
 31
0.0
  0
LINE
  5
1903D
  8
1PHANTOM
 10
529.03596751250359
 20
-871.87136184290455
 30
0.0
 11
529.13596867590047
 21
-871.37136184290455
 31
0.0
  0
LINE
  5
1903E
  8
1PHANTOM
 10
527.53596867590011
 20
-871.37136184290455
 30
0.0
 11
528.33595936872268
 21
-875.37136184290455
 31
0.0
  0
LINE
  5
1903F
  8
1PHANTOM
 10
529.13596867590047
 20
-871.37136184290455
 30
0.0
 11
529.93595989552603
 21
-875.14495479070035
 31
0.0
  0
LINE
  5
19040
  8
1PHANTOM
 10
525.93596867590065
 20
-871.37136184290455
 30
0.0
 11
526.73595936872323
 21
-875.37136184290455
 31
0.0
  0
LINE
  5
19041
  8
1PHANTOM
 10
533.13596200273685
 20
-874.2393265818863
 30
0.0
 11
533.44773185898873
 21
-873.65105000684423
 31
0.0
  0
LINE
  5
19042
  8
1PHANTOM
 10
531.53596094913144
 20
-874.69214068629378
 30
0.0
 11
531.71872509175944
 21
-874.14039122249028
 31
0.0
  0
LINE
  5
19043
  8
1PHANTOM
 10
532.18453077224592
 20
-872.73416333364253
 30
0.0
 11
532.33596656868565
 21
-872.27699149301111
 31
0.0
  0
LINE
  5
19044
  8
1PHANTOM
 10
532.33596656868565
 20
-872.27699149301111
 30
0.0
 11
533.13596200273685
 21
-874.2393265818863
 31
0.0
  0
LINE
  5
19045
  8
1PHANTOM
 10
509.13595936871008
 20
-875.37136184290455
 30
0.0
 11
509.23596053210792
 21
-874.87136184290455
 31
0.0
  0
LINE
  5
19046
  8
1PHANTOM
 10
508.2359675124942
 20
-871.87136184290455
 30
0.0
 11
508.3359686758921
 21
-871.37136184290455
 31
0.0
  0
LINE
  5
19047
  8
1PHANTOM
 10
507.53595936870971
 20
-875.37136184290455
 30
0.0
 11
507.6359605321075
 21
-874.87136184290455
 31
0.0
  0
LINE
  5
19048
  8
1PHANTOM
 10
506.73596867589168
 20
-871.37136184290455
 30
0.0
 11
507.53595936870971
 21
-875.37136184290455
 31
0.0
  0
LINE
  5
19049
  8
1PHANTOM
 10
508.3359686758921
 20
-871.37136184290455
 30
0.0
 11
509.13595936871008
 21
-875.37136184290455
 31
0.0
  0
ARC
  5
1904A
  8
01
 10
506.93596402250648
 20
-887.12131530700651
 30
0.0
 40
0.5
 50
270.0
 51
359.99999999996089
  0
ARC
  5
1904C
  8
01
 10
506.93596402252098
 20
-864.62131530699912
 30
0.0
 40
0.5
 50
359.99999999996089
 51
90.000000000026048
  0
LINE
  5
19053
  8
01
 10
499.93596402251922
 20
-876.1213153070064
 30
0.0
 11
499.93596402251922
 21
-870.12131530700663
 31
0.0
  0
LINE
  5
19059
  8
1PHANTOM
 10
482.7359640225194
 20
-877.12131530700685
 30
0.0
 11
489.13596402251898
 21
-877.12131530700594
 31
0.0
  0
LINE
  5
1905A
  8
1PHANTOM
 10
482.56596402251932
 20
-879.12131530700685
 30
0.0
 11
489.30596402251911
 21
-879.12131530700685
 31
0.0
  0
LINE
  5
1905B
  8
1PHANTOM
 10
482.7359640225194
 20
-877.12131530700685
 30
0.0
 11
482.7359640225194
 21
-879.12131530700685
 31
0.0
  0
LINE
  5
1905C
  8
1PHANTOM
 10
489.13596402251898
 20
-877.12131530700685
 30
0.0
 11
489.13596402251898
 21
-879.12131530700685
 31
0.0
  0
LINE
  5
1905D
  8
1PHANTOM
 10
481.93596402251922
 20
-879.75131530700696
 30
0.0
 11
489.93596402251922
 21
-879.75131530700696
 31
0.0
  0
LINE
  5
1905E
  8
1PHANTOM
 10
482.56596402251932
 20
-887.12131530700685
 30
0.0
 11
489.30596402251911
 21
-887.12131530700685
 31
0.0
  0
LINE
  5
1905F
  8
1PHANTOM
 10
481.93596402251922
 20
-886.49131530700674
 30
0.0
 11
489.93596402251922
 21
-886.49131530700674
 31
0.0
  0
LINE
  5
19060
  8
1PHANTOM
 10
482.56596402251932
 20
-887.12131530700685
 30
0.0
 11
481.93596402251922
 21
-886.49131530700674
 31
0.0
  0
LINE
  5
19061
  8
1PHANTOM
 10
481.93596402251922
 20
-879.75131530700696
 30
0.0
 11
481.93596402251922
 21
-886.49131530700504
 31
0.0
  0
LINE
  5
19062
  8
1PHANTOM
 10
481.93596402251922
 20
-879.75131530700696
 30
0.0
 11
481.93596402251922
 21
-886.49131530700674
 31
0.0
  0
LINE
  5
19063
  8
1PHANTOM
 10
489.30596402251911
 20
-887.12131530700685
 30
0.0
 11
489.93596402251922
 21
-886.49131530700674
 31
0.0
  0
LINE
  5
19064
  8
1PHANTOM
 10
489.93596402251922
 20
-879.75131530700696
 30
0.0
 11
489.93596402251922
 21
-886.49131530700504
 31
0.0
  0
LINE
  5
19065
  8
1PHANTOM
 10
489.93596402251922
 20
-879.75131530700696
 30
0.0
 11
489.93596402251922
 21
-886.49131530700674
 31
0.0
  0
LINE
  5
19066
  8
1PHANTOM
 10
482.56596402251932
 20
-879.12131530700685
 30
0.0
 11
481.93596402251922
 21
-879.75131530700696
 31
0.0
  0
LINE
  5
19067
  8
1PHANTOM
 10
482.56596402251932
 20
-879.12131530700685
 30
0.0
 11
482.56596402251932
 21
-887.12131530700685
 31
0.0
  0
LINE
  5
19068
  8
1PHANTOM
 10
489.93596402251922
 20
-879.75131530700696
 30
0.0
 11
489.30596402251911
 21
-879.12131530700685
 31
0.0
  0
LINE
  5
19069
  8
1CENTER
 10
485.93596402251922
 20
-876.35676465013182
 30
0.0
 11
485.93596402251922
 21
-887.90926038573275
 31
0.0
  0
LINE
  5
1906A
  8
1PHANTOM
 10
489.30596402251911
 20
-879.12131530700685
 30
0.0
 11
489.30596402251911
 21
-887.12131530700685
 31
0.0
  0
LINE
  5
192E9
  8
1DIM1
 10
339.9359640225203
 20
-725.12131530700401
 30
0.0
 11
339.9359640225203
 21
-671.62131530700469
 31
0.0
  0
LINE
  5
192EA
  8
1DIM1
 10
239.9359640225193
 20
-716.62131530699764
 30
0.0
 11
239.9359640225193
 21
-671.62131530700469
 31
0.0
  0
LINE
  5
192EB
  8
1DIM1
 10
329.9359640225203
 20
-676.62131530700458
 30
0.0
 11
249.9359640225193
 21
-676.62131530700458
 31
0.0
  0
LINE
  5
192EF
  8
1DIM1
 10
-360.06403597747982
 20
-725.12131530700401
 30
0.0
 11
-360.06403597747982
 21
-671.62131530700469
 31
0.0
  0
LINE
  5
192F0
  8
1DIM1
 10
-260.0640359774788
 20
-716.62131530699764
 30
0.0
 11
-260.0640359774788
 21
-671.62131530700469
 31
0.0
  0
LINE
  5
192F1
  8
1DIM1
 10
-350.06403597747982
 20
-676.62131530700458
 30
0.0
 11
-270.06403597747891
 21
-676.62131530700458
 31
0.0
  0
LINE
  5
192F5
  8
1DIM1
 10
-260.0640359774788
 20
-716.62131530699764
 30
0.0
 11
-260.0640359774788
 21
-671.62131530700469
 31
0.0
  0
LINE
  5
192F6
  8
1DIM1
 10
239.9359640225193
 20
-716.62131530700401
 30
0.0
 11
239.9359640225193
 21
-671.62131530700469
 31
0.0
  0
LINE
  5
192F7
  8
1DIM1
 10
-250.0640359774788
 20
-676.62131530700458
 30
0.0
 11
229.9359640225193
 21
-676.62131530700458
 31
0.0
  0
LINE
  5
192FB
  8
1DIM
 10
507.43596402250648
 20
-887.12131530700651
 30
0.0
 11
507.43596402250648
 21
-898.62131530700663
 31
0.0
  0
LINE
  5
192FC
  8
1DIM
 10
485.93596402251922
 20
-887.90926038573275
 30
0.0
 11
485.93596402251922
 21
-898.62131530700663
 31
0.0
  0
LINE
  5
192FD
  8
1DIM
 10
505.43596402250643
 20
-897.6213153070064
 30
0.0
 11
487.9359640225191
 21
-897.6213153070064
 31
0.0
  0
LINE
  5
19301
  8
1DIM
 10
390.93596402251831
 20
-869.1213153070064
 30
0.0
 11
378.93596402251842
 21
-869.1213153070064
 31
0.0
  0
LINE
  5
19302
  8
1DIM
 10
390.93596402251831
 20
-877.1213153070064
 30
0.0
 11
378.93596402251842
 21
-877.1213153070064
 31
0.0
  0
LINE
  5
19303
  8
1DIM
 10
379.93596402251842
 20
-871.12131530700651
 30
0.0
 11
379.93596402251842
 21
-875.1213153070064
 31
0.0
  0
LINE
  5
19307
  8
1DIM
 10
390.93596402251831
 20
-869.1213153070064
 30
0.0
 11
378.93596402251842
 21
-869.1213153070064
 31
0.0
  0
LINE
  5
19308
  8
1DIM
 10
478.93596402251882
 20
-864.12131530700651
 30
0.0
 11
378.93596402251842
 21
-864.12131530700651
 31
0.0
  0
LINE
  5
19309
  8
1DIM
 10
379.93596402251842
 20
-871.12131530700651
 30
0.0
 11
379.93596402251842
 21
-873.12131530700651
 31
0.0
  0
LINE
  5
1930A
  8
1DIM
 10
379.93596402251842
 20
-862.12131530700651
 30
0.0
 11
379.93596402251842
 21
-856.38798197367305
 31
0.0
  0
LINE
  5
1930B
  8
1DIM
 10
379.93596402251842
 20
-869.1213153070064
 30
0.0
 11
379.93596402251842
 21
-864.12131530700651
 31
0.0
  0
LINE
  5
1930F
  8
1DIM
 10
478.93596402251922
 20
-887.6213153070064
 30
0.0
 11
368.93596402251842
 21
-887.6213153070064
 31
0.0
  0
LINE
  5
19310
  8
1DIM
 10
478.93596402251882
 20
-864.12131530700651
 30
0.0
 11
368.93596402251842
 21
-864.12131530700651
 31
0.0
  0
LINE
  5
19311
  8
1DIM
 10
369.93596402251842
 20
-885.62131530700651
 30
0.0
 11
369.93596402251842
 21
-866.12131530700651
 31
0.0
  0
LINE
  5
19315
  8
1DIM
 10
537.39687861367179
 20
-873.3713153070064
 30
0.0
 11
548.43596402251694
 21
-873.3713153070064
 31
0.0
  0
LINE
  5
19316
  8
1DIM
 10
506.93596402252081
 20
-864.12131530699924
 30
0.0
 11
548.43596402251694
 21
-864.12131530699924
 31
0.0
  0
LINE
  5
19317
  8
1DIM
 10
547.43596402251694
 20
-871.37131530700651
 30
0.0
 11
547.43596402251694
 21
-866.12131530699924
 31
0.0
  0
LINE
  5
1931B
  8
1DIM
 10
507.435964022517
 20
-910.62131530699776
 30
0.0
 11
507.435964022517
 21
-906.6213153070064
 31
0.0
  0
LINE
  5
1931C
  8
1DIM
 10
477.93596402251922
 20
-886.62131530700651
 30
0.0
 11
477.93596402251922
 21
-908.62131530700651
 31
0.0
  0
LINE
  5
1931D
  8
1DIM
 10
505.435964022517
 20
-907.62131530700663
 30
0.0
 11
479.9359640225191
 21
-907.62131530700663
 31
0.0
  0
TEXT
  5
19321
  8
1DIM
 10
399.97168068141968
 20
-900.815939557761
 30
0.0
 40
3.5
  1
材質：ガラス
  0
SOLID
  5
19322
  8
1DIM
 10
442.34256372519059
 20
-878.56933413560489
 30
0.0
 11
443.7716806814197
 21
-877.13102407288227
 31
0.0
 12
442.88629222965358
 22
-878.95508503693759
 32
0.0
 13
442.88629222965358
 23
-878.95508503693759
 33
0.0
  0
TEXT
  5
19324
  8
1DIM
 10
513.09106526490928
 20
-808.08440749893271
 30
0.0
 40
3.5
  1
PB
  0
SOLID
  5
19325
  8
1DIM
 10
513.99559537655227
 20
-827.23716850262247
 30
0.0
 11
514.01593264459643
 21
-829.26465401592213
 31
0.0
 12
513.33913181916023
 22
-827.35335818486919
 32
0.0
 13
513.33913181916023
 23
-827.35335818486919
 33
0.0
  0
SOLID
  5
19327
  8
1DIM
 10
522.05911618908306
 20
-827.24155503272175
 30
0.0
 11
522.51391485853765
 21
-829.21747742020898
 31
0.0
 12
521.44286020770619
 22
-827.49586391943615
 32
0.0
 13
521.44286020770619
 23
-827.49586391943615
 33
0.0
  0
TEXT
  5
19329
  8
1DIM
 10
519.25840975944789
 20
-814.08575351605657
 30
0.0
 40
3.5
  1
合板9mm以上
  0
LINE
  5
1932A
  8
1HATCH
 10
509.3552881115528
 20
-873.72494120225474
 30
0.0
 11
509.3552881115528
 21
-873.72494120225474
 31
0.0
  0
LINE
  5
1932B
  8
1HATCH
 10
505.71189154679269
 20
-885.91573554055981
 30
0.0
 11
505.71189154679269
 21
-885.91573554055981
 31
0.0
  0
LINE
  5
1932C
  8
1DIM
 10
389.93596402251831
 20
-876.1213153070064
 30
0.0
 11
389.93596402251831
 21
-918.62131530700651
 31
0.0
  0
LINE
  5
1932D
  8
1DIM
 10
507.435964022517
 20
-887.12131530700651
 30
0.0
 11
507.435964022517
 21
-918.62131530700651
 31
0.0
  0
LINE
  5
1932E
  8
1DIM
 10
391.93596402251831
 20
-917.62131530700651
 30
0.0
 11
505.435964022517
 21
-917.62131530700651
 31
0.0
  0
TEXT
  5
19332
  8
1DIM
 10
444.50374677705668
 20
-925.86338169281601
 30
0.0
 40
3.5
  1
材質：アルミ
  0
TEXT
  5
19333
  8
1DIM
 10
414.87041344372329
 20
-931.69671502614926
 30
0.0
 40
3.5
  1
仕上げ：ブラストアルマイト
  0
SOLID
  5
19334
  8
1DIM
 10
486.79174502177909
 20
-890.37748125612154
 30
0.0
 11
487.83708011038999
 21
-888.6401310716077
 31
0.0
 12
487.41171454587061
 22
-890.62259803164307
 32
0.0
 13
487.41171454587061
 23
-890.62259803164307
 33
0.0
  0
LINE
  5
19336
  8
1DIM1
 10
-220.0640359774807
 20
-876.37131530700503
 30
0.0
 11
-220.0640359774807
 21
-922.6213153070064
 31
0.0
  0
LINE
  5
19337
  8
1DIM1
 10
-80.064035977480657
 20
-876.37131530700503
 30
0.0
 11
-80.064035977480657
 21
-922.6213153070064
 31
0.0
  0
LINE
  5
19338
  8
1DIM1
 10
-210.0640359774807
 20
-917.62131530700628
 30
0.0
 11
-90.064035977480657
 21
-917.62131530700628
 31
0.0
  0
LINE
  5
1933C
  8
1PHANTOM
 10
-220.06398944158261
 20
-689.62131530715953
 30
0.0
 11
-221.56398944158261
 21
-694.92131181702121
 31
0.0
  0
LINE
  5
1933D
  8
1PHANTOM
 10
-221.56398944158261
 20
-694.92131181702121
 30
0.0
 11
-221.56398944158261
 21
-719.62131181691313
 31
0.0
  0
LINE
  5
1933E
  8
1PHANTOM
 10
-220.06398944158261
 20
-689.62131530715953
 30
0.0
 11
-218.56398944158261
 21
-694.92131879740487
 31
0.0
  0
LINE
  5
1933F
  8
1PHANTOM
 10
-223.5640359774807
 20
-719.62130716321508
 30
0.0
 11
-221.56398944158261
 21
-719.62131181691313
 31
0.0
  0
LINE
  5
19340
  8
1PHANTOM
 10
-218.56398944158261
 20
-694.92131879740487
 30
0.0
 11
-218.56398944158261
 21
-719.62131879729782
 31
0.0
  0
LINE
  5
19341
  8
1PHANTOM
 10
-223.5640359774807
 20
-719.62130716321508
 30
0.0
 11
-223.5640359774807
 21
-720.72131065341034
 31
0.0
  0
LINE
  5
19342
  8
1PHANTOM
 10
-218.56398944158261
 20
-719.62131879729782
 30
0.0
 11
-216.5640359774807
 21
-719.62132345077919
 31
0.0
  0
ARC
  5
19343
  8
1PHANTOM
 10
-222.0640359774807
 20
-720.72131065341034
 30
0.0
 40
1.5
 50
180.0
 51
269.99986668447491
  0
LINE
  5
19344
  8
1PHANTOM
 10
-216.5640359774807
 20
-719.62132345077919
 30
0.0
 11
-216.5640359774807
 21
-720.72131996058999
 31
0.0
  0
LINE
  5
19345
  8
1PHANTOM
 10
-222.0640394676729
 20
-722.22131065340625
 30
0.0
 11
-218.0640394676729
 21
-722.22131996058579
 31
0.0
  0
ARC
  5
19346
  8
1PHANTOM
 10
-218.0640359774807
 20
-720.72131996058999
 30
0.0
 40
1.5
 50
269.99986668447491
 51
0.0
  0
LINE
  5
19347
  8
1PHANTOM
 10
-80.063989441582635
 20
-689.62131530715953
 30
0.0
 11
-81.563989441582635
 21
-694.92131181702121
 31
0.0
  0
LINE
  5
19348
  8
1PHANTOM
 10
-81.563989441582635
 20
-694.92131181702121
 30
0.0
 11
-81.563989441582635
 21
-719.62131181691313
 31
0.0
  0
LINE
  5
19349
  8
1PHANTOM
 10
-80.063989441582635
 20
-689.62131530715953
 30
0.0
 11
-78.563989441582635
 21
-694.92131879740487
 31
0.0
  0
LINE
  5
1934A
  8
1PHANTOM
 10
-83.564035977480685
 20
-719.62130716321508
 30
0.0
 11
-81.563989441582635
 21
-719.62131181691313
 31
0.0
  0
LINE
  5
1934B
  8
1PHANTOM
 10
-78.563989441582635
 20
-694.92131879740487
 30
0.0
 11
-78.563989441582635
 21
-719.62131879729782
 31
0.0
  0
LINE
  5
1934C
  8
1PHANTOM
 10
-83.564035977480685
 20
-719.62130716321508
 30
0.0
 11
-83.564035977480685
 21
-720.72131065341034
 31
0.0
  0
LINE
  5
1934D
  8
1PHANTOM
 10
-78.563989441582635
 20
-719.62131879729782
 30
0.0
 11
-76.564035977480671
 21
-719.62132345077919
 31
0.0
  0
ARC
  5
1934E
  8
1PHANTOM
 10
-82.064035977480671
 20
-720.72131065341034
 30
0.0
 40
1.5
 50
180.0
 51
269.99986668447491
  0
LINE
  5
1934F
  8
1PHANTOM
 10
-76.564035977480671
 20
-719.62132345077919
 30
0.0
 11
-76.564035977480671
 21
-720.72131996058999
 31
0.0
  0
LINE
  5
19350
  8
1PHANTOM
 10
-82.064039467672956
 20
-722.22131065340625
 30
0.0
 11
-78.064039467672956
 21
-722.22131996058579
 31
0.0
  0
ARC
  5
19351
  8
1PHANTOM
 10
-78.064035977480671
 20
-720.72131996058999
 30
0.0
 40
1.5
 50
269.99986668447491
 51
0.0
  0
LINE
  5
19352
  8
1PHANTOM
 10
59.936010558417252
 20
-689.62131530715953
 30
0.0
 11
58.436010558417252
 21
-694.92131181702121
 31
0.0
  0
LINE
  5
19353
  8
1PHANTOM
 10
58.436010558417252
 20
-694.92131181702121
 30
0.0
 11
58.436010558417479
 21
-719.62131181691313
 31
0.0
  0
LINE
  5
19354
  8
1PHANTOM
 10
59.936010558417252
 20
-689.62131530715953
 30
0.0
 11
61.436010558417358
 21
-694.92131879740487
 31
0.0
  0
LINE
  5
19355
  8
1PHANTOM
 10
56.435964022519443
 20
-719.62130716321508
 30
0.0
 11
58.436010558417479
 21
-719.62131181691313
 31
0.0
  0
LINE
  5
19356
  8
1PHANTOM
 10
61.436010558417358
 20
-694.92131879740487
 30
0.0
 11
61.436010558417252
 21
-719.62131879729782
 31
0.0
  0
LINE
  5
19357
  8
1PHANTOM
 10
56.435964022519443
 20
-719.62130716321508
 30
0.0
 11
56.435964022519329
 21
-720.72131065341034
 31
0.0
  0
LINE
  5
19358
  8
1PHANTOM
 10
61.436010558417252
 20
-719.62131879729782
 30
0.0
 11
63.435964022519322
 21
-719.62132345077919
 31
0.0
  0
ARC
  5
19359
  8
1PHANTOM
 10
57.935964022519329
 20
-720.72131065341034
 30
0.0
 40
1.5
 50
180.0
 51
269.99986668447059
  0
LINE
  5
1935A
  8
1PHANTOM
 10
63.435964022519322
 20
-719.62132345077919
 30
0.0
 11
63.435964022519322
 21
-720.72131996058999
 31
0.0
  0
LINE
  5
1935B
  8
1PHANTOM
 10
57.935960532326931
 20
-722.22131065340625
 30
0.0
 11
61.935960532326931
 21
-722.22131996058579
 31
0.0
  0
ARC
  5
1935C
  8
1PHANTOM
 10
61.935964022519329
 20
-720.72131996058999
 30
0.0
 40
1.5
 50
269.99986668447059
 51
0.0
  0
LINE
  5
1935D
  8
1DIM1
 10
-80.064035977480657
 20
-876.37131530700503
 30
0.0
 11
-80.064035977480657
 21
-922.6213153070064
 31
0.0
  0
LINE
  5
1935E
  8
1DIM1
 10
59.935964022519329
 20
-876.37131530700503
 30
0.0
 11
59.935964022519329
 21
-922.6213153070064
 31
0.0
  0
LINE
  5
1935F
  8
1DIM1
 10
-70.064035977480671
 20
-917.62131530700651
 30
0.0
 11
49.935964022519329
 21
-917.62131530700651
 31
0.0
  0
LINE
  5
19363
  8
1DIM
 10
334.93596402252018
 20
-834.12131530700447
 30
0.0
 11
370.93596402251848
 21
-834.12131530700447
 31
0.0
  0
LINE
  5
19364
  8
1DIM
 10
239.9359640225193
 20
-716.62131530700458
 30
0.0
 11
370.93596402251848
 21
-716.62131530700469
 31
0.0
  0
LINE
  5
19365
  8
1DIM
 10
369.93596402251859
 20
-832.12131530700435
 30
0.0
 11
369.93596402251859
 21
-718.62131530700458
 31
0.0
  0
LINE
  5
19369
  8
1DIM
 10
338.93596402252018
 20
-724.12131530700469
 30
0.0
 11
360.93596402251842
 21
-724.12131530700469
 31
0.0
  0
LINE
  5
1936A
  8
1DIM
 10
334.93596402252018
 20
-834.12131530700447
 30
0.0
 11
360.93596402251842
 21
-834.12131530700447
 31
0.0
  0
LINE
  5
1936B
  8
1DIM
 10
359.93596402251842
 20
-726.12131530700458
 30
0.0
 11
359.93596402251842
 21
-832.12131530700435
 31
0.0
  0
LINE
  5
1936F
  8
1DIM
 10
338.93596402252018
 20
-724.12131530700469
 30
0.0
 11
360.93596402251842
 21
-724.12131530700469
 31
0.0
  0
LINE
  5
19370
  8
1DIM
 10
239.9359640225193
 20
-716.62131530700458
 30
0.0
 11
360.93596402251842
 21
-716.62131530700469
 31
0.0
  0
LINE
  5
19371
  8
1DIM
 10
359.93596402251842
 20
-722.12131530700458
 30
0.0
 11
359.93596402251842
 21
-718.62131530700458
 31
0.0
  0
LINE
  5
19372
  8
1DIM
 10
359.93596402251842
 20
-716.62131530700469
 30
0.0
 11
359.93596402251842
 21
-705.88798197367134
 31
0.0
  0
LINE
  5
19376
  8
1DIM1
 10
-360.06403597747982
 20
-876.12131530700481
 30
0.0
 11
-360.06403597747982
 21
-952.62131530700651
 31
0.0
  0
LINE
  5
19377
  8
1DIM1
 10
339.93596402251842
 20
-876.12131530700481
 30
0.0
 11
339.93596402251842
 21
-952.62131530700651
 31
0.0
  0
LINE
  5
19378
  8
1DIM1
 10
-350.06403597747982
 20
-947.6213153070064
 30
0.0
 11
329.93596402251842
 21
-947.6213153070064
 31
0.0
  0
LINE
  5
1937C
  8
1DIM1
 10
59.935964022519329
 20
-876.37131530700503
 30
0.0
 11
59.935964022519329
 21
-922.6213153070064
 31
0.0
  0
LINE
  5
1937D
  8
1DIM1
 10
199.9359640225193
 20
-876.37131530700503
 30
0.0
 11
199.9359640225193
 21
-922.6213153070064
 31
0.0
  0
LINE
  5
1937E
  8
1DIM1
 10
69.935964022519329
 20
-917.62131530700651
 30
0.0
 11
189.9359640225193
 21
-917.62131530700651
 31
0.0
  0
LINE
  5
19382
  8
1PHANTOM
 10
199.93601055841719
 20
-689.62131530715953
 30
0.0
 11
198.43601055841719
 21
-694.92131181702121
 31
0.0
  0
LINE
  5
19383
  8
1PHANTOM
 10
198.43601055841719
 20
-694.92131181702121
 30
0.0
 11
198.43601055841751
 21
-719.62131181691313
 31
0.0
  0
LINE
  5
19384
  8
1PHANTOM
 10
199.93601055841719
 20
-689.62131530715953
 30
0.0
 11
201.43601055841739
 21
-694.92131879740487
 31
0.0
  0
LINE
  5
19385
  8
1PHANTOM
 10
196.43596402251941
 20
-719.62130716321508
 30
0.0
 11
198.43601055841751
 21
-719.62131181691313
 31
0.0
  0
LINE
  5
19386
  8
1PHANTOM
 10
201.43601055841739
 20
-694.92131879740487
 30
0.0
 11
201.43601055841719
 21
-719.62131879729782
 31
0.0
  0
LINE
  5
19387
  8
1PHANTOM
 10
196.43596402251941
 20
-719.62130716321508
 30
0.0
 11
196.4359640225193
 21
-720.72131065341034
 31
0.0
  0
LINE
  5
19388
  8
1PHANTOM
 10
201.43601055841719
 20
-719.62131879729782
 30
0.0
 11
203.4359640225193
 21
-719.62132345077919
 31
0.0
  0
ARC
  5
19389
  8
1PHANTOM
 10
197.9359640225193
 20
-720.72131065341034
 30
0.0
 40
1.5
 50
180.0
 51
269.99986668447059
  0
LINE
  5
1938A
  8
1PHANTOM
 10
203.4359640225193
 20
-719.62132345077919
 30
0.0
 11
203.4359640225193
 21
-720.72131996058999
 31
0.0
  0
LINE
  5
1938B
  8
1PHANTOM
 10
197.9359605323269
 20
-722.22131065340625
 30
0.0
 11
201.9359605323269
 21
-722.22131996058579
 31
0.0
  0
ARC
  5
1938C
  8
1PHANTOM
 10
201.9359640225193
 20
-720.72131996058999
 30
0.0
 40
1.5
 50
269.99986668447059
 51
0.0
  0
TEXT
  5
1938D
  8
1DIM1
 10
102.227630689186
 20
-914.12131530700651
 30
0.0
 40
17.5
  1
P140 
  0
LINE
  5
1938E
  8
0
  6
BYBLOCK
 10
189.9359640225193
 20
-914.9418234070065
 30
0.0
 11
199.9359640225193
 21
-917.62131530700651
 31
0.0
  0
LINE
  5
1938F
  8
0
  6
BYBLOCK
 10
199.9359640225193
 20
-917.62131530700651
 30
0.0
 11
189.9359640225193
 21
-920.30080720700653
 31
0.0
  0
LINE
  5
19390
  8
0
  6
BYBLOCK
 10
199.9359640225193
 20
-917.62131530700651
 30
0.0
 11
189.9359640225193
 21
-917.62131530700651
 31
0.0
  0
LINE
  5
19391
  8
0
  6
BYBLOCK
 10
69.935964022519329
 20
-920.30080720700653
 30
0.0
 11
59.935964022519329
 21
-917.62131530700651
 31
0.0
  0
LINE
  5
19392
  8
0
  6
BYBLOCK
 10
59.935964022519329
 20
-917.62131530700651
 30
0.0
 11
69.935964022519329
 21
-914.9418234070065
 31
0.0
  0
LINE
  5
19393
  8
0
  6
BYBLOCK
 10
59.935964022519329
 20
-917.62131530700651
 30
0.0
 11
69.935964022519329
 21
-917.62131530700651
 31
0.0
  0
TEXT
  5
19394
  8
1DIM1
 10
-30.480702644147339
 20
-944.1213153070064
 30
0.0
 40
17.5
  1
700 
  0
LINE
  5
19395
  8
0
  6
BYBLOCK
 10
329.93596402251842
 20
-944.94182340700638
 30
0.0
 11
339.93596402251842
 21
-947.6213153070064
 31
0.0
  0
LINE
  5
19396
  8
0
  6
BYBLOCK
 10
339.93596402251842
 20
-947.6213153070064
 30
0.0
 11
329.93596402251842
 21
-950.30080720700641
 31
0.0
  0
LINE
  5
19397
  8
0
  6
BYBLOCK
 10
339.93596402251842
 20
-947.6213153070064
 30
0.0
 11
329.93596402251842
 21
-947.6213153070064
 31
0.0
  0
LINE
  5
19398
  8
0
  6
BYBLOCK
 10
-350.06403597747982
 20
-950.30080720700641
 30
0.0
 11
-360.06403597747982
 21
-947.6213153070064
 31
0.0
  0
LINE
  5
19399
  8
0
  6
BYBLOCK
 10
-360.06403597747982
 20
-947.6213153070064
 30
0.0
 11
-350.06403597747982
 21
-944.94182340700638
 31
0.0
  0
LINE
  5
1939A
  8
0
  6
BYBLOCK
 10
-360.06403597747982
 20
-947.6213153070064
 30
0.0
 11
-350.06403597747982
 21
-947.6213153070064
 31
0.0
  0
TEXT
  5
1939B
  8
1DIM
 10
359.23596402251849
 20
-713.7546486403379
 30
0.0
 40
3.5
  1
7.5 
 50
90.0
  0
LINE
  5
1939C
  8
0
  6
BYBLOCK
 10
359.40006564251843
 20
-718.62131530700458
 30
0.0
 11
359.93596402251842
 21
-716.62131530700469
 31
0.0
  0
LINE
  5
1939D
  8
0
  6
BYBLOCK
 10
359.93596402251842
 20
-716.62131530700469
 30
0.0
 11
360.47186240251841
 21
-718.62131530700458
 31
0.0
  0
LINE
  5
1939E
  8
0
  6
BYBLOCK
 10
359.93596402251842
 20
-716.62131530700469
 30
0.0
 11
359.93596402251842
 21
-718.62131530700458
 31
0.0
  0
LINE
  5
1939F
  8
0
  6
BYBLOCK
 10
360.47186240251841
 20
-722.12131530700458
 30
0.0
 11
359.93596402251842
 21
-724.12131530700469
 31
0.0
  0
LINE
  5
193A0
  8
0
  6
BYBLOCK
 10
359.93596402251842
 20
-724.12131530700469
 30
0.0
 11
359.40006564251843
 21
-722.12131530700458
 31
0.0
  0
LINE
  5
193A1
  8
0
  6
BYBLOCK
 10
359.93596402251842
 20
-724.12131530700469
 30
0.0
 11
359.93596402251842
 21
-722.12131530700458
 31
0.0
  0
TEXT
  5
193A2
  8
1DIM
 10
359.23596402251849
 20
-782.32964864033784
 30
0.0
 40
3.5
  1
110 
 50
90.0
  0
LINE
  5
193A3
  8
0
  6
BYBLOCK
 10
360.47186240251841
 20
-832.12131530700435
 30
0.0
 11
359.93596402251842
 21
-834.12131530700447
 31
0.0
  0
LINE
  5
193A4
  8
0
  6
BYBLOCK
 10
359.93596402251842
 20
-834.12131530700447
 30
0.0
 11
359.40006564251843
 21
-832.12131530700435
 31
0.0
  0
LINE
  5
193A5
  8
0
  6
BYBLOCK
 10
359.93596402251842
 20
-834.12131530700447
 30
0.0
 11
359.93596402251842
 21
-832.12131530700435
 31
0.0
  0
LINE
  5
193A6
  8
0
  6
BYBLOCK
 10
359.40006564251843
 20
-726.12131530700458
 30
0.0
 11
359.93596402251842
 21
-724.12131530700469
 31
0.0
  0
LINE
  5
193A7
  8
0
  6
BYBLOCK
 10
359.93596402251842
 20
-724.12131530700469
 30
0.0
 11
360.47186240251841
 21
-726.12131530700458
 31
0.0
  0
LINE
  5
193A8
  8
0
  6
BYBLOCK
 10
359.93596402251842
 20
-724.12131530700469
 30
0.0
 11
359.93596402251842
 21
-726.12131530700458
 31
0.0
  0
TEXT
  5
193A9
  8
1DIM
 10
369.23596402251871
 20
-781.20464864033784
 30
0.0
 40
3.5
  1
117.5 
 50
90.0
  0
LINE
  5
193AA
  8
0
  6
BYBLOCK
 10
369.40006564251848
 20
-718.62131530700458
 30
0.0
 11
369.93596402251859
 21
-716.62131530700469
 31
0.0
  0
LINE
  5
193AB
  8
0
  6
BYBLOCK
 10
369.93596402251859
 20
-716.62131530700469
 30
0.0
 11
370.47186240251852
 21
-718.62131530700458
 31
0.0
  0
LINE
  5
193AC
  8
0
  6
BYBLOCK
 10
369.93596402251859
 20
-716.62131530700469
 30
0.0
 11
369.93596402251859
 21
-718.62131530700458
 31
0.0
  0
LINE
  5
193AD
  8
0
  6
BYBLOCK
 10
370.47186240251852
 20
-832.12131530700435
 30
0.0
 11
369.93596402251859
 21
-834.12131530700447
 31
0.0
  0
LINE
  5
193AE
  8
0
  6
BYBLOCK
 10
369.93596402251859
 20
-834.12131530700447
 30
0.0
 11
369.40006564251848
 21
-832.12131530700435
 31
0.0
  0
LINE
  5
193AF
  8
0
  6
BYBLOCK
 10
369.93596402251859
 20
-834.12131530700447
 30
0.0
 11
369.93596402251859
 21
-832.12131530700435
 31
0.0
  0
TEXT
  5
193B0
  8
1DIM1
 10
-37.772369310814007
 20
-914.12131530700651
 30
0.0
 40
17.5
  1
P140 
  0
LINE
  5
193B1
  8
0
  6
BYBLOCK
 10
49.935964022519329
 20
-914.9418234070065
 30
0.0
 11
59.935964022519329
 21
-917.62131530700651
 31
0.0
  0
LINE
  5
193B2
  8
0
  6
BYBLOCK
 10
59.935964022519329
 20
-917.62131530700651
 30
0.0
 11
49.935964022519329
 21
-920.30080720700653
 31
0.0
  0
LINE
  5
193B3
  8
0
  6
BYBLOCK
 10
59.935964022519329
 20
-917.62131530700651
 30
0.0
 11
49.935964022519329
 21
-917.62131530700651
 31
0.0
  0
LINE
  5
193B4
  8
0
  6
BYBLOCK
 10
-70.064035977480671
 20
-920.30080720700653
 30
0.0
 11
-80.064035977480657
 21
-917.62131530700651
 31
0.0
  0
LINE
  5
193B5
  8
0
  6
BYBLOCK
 10
-80.064035977480657
 20
-917.62131530700651
 30
0.0
 11
-70.064035977480671
 21
-914.9418234070065
 31
0.0
  0
LINE
  5
193B6
  8
0
  6
BYBLOCK
 10
-80.064035977480657
 20
-917.62131530700651
 30
0.0
 11
-70.064035977480671
 21
-917.62131530700651
 31
0.0
  0
TEXT
  5
193B7
  8
1DIM1
 10
-177.77236931081401
 20
-914.12131530700628
 30
0.0
 40
17.5
  1
P140 
  0
LINE
  5
193B8
  8
0
  6
BYBLOCK
 10
-90.064035977480657
 20
-914.94182340700627
 30
0.0
 11
-80.064035977480657
 21
-917.62131530700628
 31
0.0
  0
LINE
  5
193B9
  8
0
  6
BYBLOCK
 10
-80.064035977480657
 20
-917.62131530700628
 30
0.0
 11
-90.064035977480657
 21
-920.30080720700641
 31
0.0
  0
LINE
  5
193BA
  8
0
  6
BYBLOCK
 10
-80.064035977480657
 20
-917.62131530700628
 30
0.0
 11
-90.064035977480657
 21
-917.62131530700628
 31
0.0
  0
LINE
  5
193BB
  8
0
  6
BYBLOCK
 10
-210.0640359774807
 20
-920.30080720700641
 30
0.0
 11
-220.0640359774807
 21
-917.62131530700628
 31
0.0
  0
LINE
  5
193BC
  8
0
  6
BYBLOCK
 10
-220.0640359774807
 20
-917.62131530700628
 30
0.0
 11
-210.0640359774807
 21
-914.94182340700627
 31
0.0
  0
LINE
  5
193BD
  8
0
  6
BYBLOCK
 10
-220.0640359774807
 20
-917.62131530700628
 30
0.0
 11
-210.0640359774807
 21
-917.62131530700628
 31
0.0
  0
LINE
  5
193BE
  8
1DIM
 10
487.10172978382479
 20
-890.50003964388225
 30
0.0
 11
470.53708011038998
 21
-932.39671502614931
 31
0.0
  0
LINE
  5
193BF
  8
1DIM
 10
470.53708011038998
 20
-932.39671502614931
 30
0.0
 11
414.17041344372331
 21
-932.39671502614931
 31
0.0
  0
TEXT
  5
193C0
  8
1DIM
 10
442.85263068918442
 20
-916.92131530700635
 30
0.0
 40
3.5
  1
117.5 
  0
LINE
  5
193C1
  8
0
  6
BYBLOCK
 10
505.435964022517
 20
-917.08541692700635
 30
0.0
 11
507.435964022517
 21
-917.62131530700651
 31
0.0
  0
LINE
  5
193C2
  8
0
  6
BYBLOCK
 10
507.435964022517
 20
-917.62131530700651
 30
0.0
 11
505.435964022517
 21
-918.15721368700656
 31
0.0
  0
LINE
  5
193C3
  8
0
  6
BYBLOCK
 10
507.435964022517
 20
-917.62131530700651
 30
0.0
 11
505.435964022517
 21
-917.62131530700651
 31
0.0
  0
LINE
  5
193C4
  8
0
  6
BYBLOCK
 10
391.93596402251831
 20
-918.15721368700656
 30
0.0
 11
389.93596402251831
 21
-917.62131530700651
 31
0.0
  0
LINE
  5
193C5
  8
0
  6
BYBLOCK
 10
389.93596402251831
 20
-917.62131530700651
 30
0.0
 11
391.93596402251831
 21
-917.08541692700635
 31
0.0
  0
LINE
  5
193C6
  8
0
  6
BYBLOCK
 10
389.93596402251831
 20
-917.62131530700651
 30
0.0
 11
391.93596402251831
 21
-917.62131530700651
 31
0.0
  0
LINE
  5
193C7
  8
1DIM
 10
521.75098819839457
 20
-827.36870947607883
 30
0.0
 11
516.55840975944784
 21
-814.78575351605662
 31
0.0
  0
LINE
  5
193C8
  8
1DIM
 10
516.55840975944784
 20
-814.78575351605662
 30
0.0
 11
548.45840975944782
 21
-814.78575351605662
 31
0.0
  0
LINE
  5
193C9
  8
1DIM
 10
513.66736359785625
 20
-827.29526334374589
 30
0.0
 11
510.39106526490917
 21
-808.78440749893275
 31
0.0
  0
LINE
  5
193CA
  8
1DIM
 10
510.39106526490917
 20
-808.78440749893275
 30
0.0
 11
518.92439859824253
 21
-808.78440749893275
 31
0.0
  0
LINE
  5
193CB
  8
1DIM
 10
442.61442797742211
 20
-878.76220958627141
 30
0.0
 11
426.47168068141968
 21
-901.51593955776104
 31
0.0
  0
LINE
  5
193CC
  8
1DIM
 10
426.47168068141968
 20
-901.51593955776104
 30
0.0
 11
399.5050140147531
 21
-901.51593955776104
 31
0.0
  0
TEXT
  5
193CD
  8
1DIM
 10
487.43596402251808
 20
-906.92131530700635
 30
0.0
 40
3.5
  1
29.5 
  0
LINE
  5
193CE
  8
0
  6
BYBLOCK
 10
479.9359640225191
 20
-908.15721368700645
 30
0.0
 11
477.93596402251922
 21
-907.62131530700663
 31
0.0
  0
LINE
  5
193CF
  8
0
  6
BYBLOCK
 10
477.93596402251922
 20
-907.62131530700663
 30
0.0
 11
479.9359640225191
 21
-907.08541692700646
 31
0.0
  0
LINE
  5
193D0
  8
0
  6
BYBLOCK
 10
477.93596402251922
 20
-907.62131530700663
 30
0.0
 11
479.9359640225191
 21
-907.62131530700663
 31
0.0
  0
LINE
  5
193D1
  8
0
  6
BYBLOCK
 10
505.435964022517
 20
-907.08541692700646
 30
0.0
 11
507.435964022517
 21
-907.62131530700663
 31
0.0
  0
LINE
  5
193D2
  8
0
  6
BYBLOCK
 10
507.435964022517
 20
-907.62131530700663
 30
0.0
 11
505.435964022517
 21
-908.15721368700645
 31
0.0
  0
LINE
  5
193D3
  8
0
  6
BYBLOCK
 10
507.435964022517
 20
-907.62131530700663
 30
0.0
 11
505.435964022517
 21
-907.62131530700663
 31
0.0
  0
TEXT
  5
193D4
  8
1DIM
 10
546.73596402251712
 20
-869.91298197366928
 30
0.0
 40
3.5
  1
9 
 50
90.0
  0
LINE
  5
193D5
  8
0
  6
BYBLOCK
 10
546.90006564251678
 20
-866.12131530699924
 30
0.0
 11
547.43596402251694
 21
-864.12131530699924
 31
0.0
  0
LINE
  5
193D6
  8
0
  6
BYBLOCK
 10
547.43596402251694
 20
-864.12131530699924
 30
0.0
 11
547.97186240251699
 21
-866.12131530699924
 31
0.0
  0
LINE
  5
193D7
  8
0
  6
BYBLOCK
 10
547.43596402251694
 20
-864.12131530699924
 30
0.0
 11
547.43596402251694
 21
-866.12131530699924
 31
0.0
  0
LINE
  5
193D8
  8
0
  6
BYBLOCK
 10
547.97186240251699
 20
-871.37131530700651
 30
0.0
 11
547.43596402251694
 21
-873.3713153070064
 31
0.0
  0
LINE
  5
193D9
  8
0
  6
BYBLOCK
 10
547.43596402251694
 20
-873.3713153070064
 30
0.0
 11
546.90006564251678
 21
-871.37131530700651
 31
0.0
  0
LINE
  5
193DA
  8
0
  6
BYBLOCK
 10
547.43596402251694
 20
-873.3713153070064
 30
0.0
 11
547.43596402251694
 21
-871.37131530700651
 31
0.0
  0
TEXT
  5
193DB
  8
1DIM
 10
369.23596402251849
 20
-881.12131530700628
 30
0.0
 40
3.5
  1
23.5 
 50
90.0
  0
LINE
  5
193DC
  8
0
  6
BYBLOCK
 10
369.40006564251843
 20
-866.12131530700651
 30
0.0
 11
369.93596402251842
 21
-864.12131530700651
 31
0.0
  0
LINE
  5
193DD
  8
0
  6
BYBLOCK
 10
369.93596402251842
 20
-864.12131530700651
 30
0.0
 11
370.47186240251841
 21
-866.12131530700651
 31
0.0
  0
LINE
  5
193DE
  8
0
  6
BYBLOCK
 10
369.93596402251842
 20
-864.12131530700651
 30
0.0
 11
369.93596402251842
 21
-866.12131530700651
 31
0.0
  0
LINE
  5
193DF
  8
0
  6
BYBLOCK
 10
370.47186240251841
 20
-885.62131530700651
 30
0.0
 11
369.93596402251842
 21
-887.6213153070064
 31
0.0
  0
LINE
  5
193E0
  8
0
  6
BYBLOCK
 10
369.93596402251842
 20
-887.6213153070064
 30
0.0
 11
369.40006564251843
 21
-885.62131530700651
 31
0.0
  0
LINE
  5
193E1
  8
0
  6
BYBLOCK
 10
369.93596402251842
 20
-887.6213153070064
 30
0.0
 11
369.93596402251842
 21
-885.62131530700651
 31
0.0
  0
TEXT
  5
193E2
  8
1DIM
 10
379.2359640225186
 20
-859.42131530700635
 30
0.0
 40
3.5
  1
5 
 50
90.0
  0
LINE
  5
193E3
  8
0
  6
BYBLOCK
 10
380.47186240251841
 20
-862.12131530700651
 30
0.0
 11
379.93596402251842
 21
-864.12131530700651
 31
0.0
  0
LINE
  5
193E4
  8
0
  6
BYBLOCK
 10
379.93596402251842
 20
-864.12131530700651
 30
0.0
 11
379.40006564251843
 21
-862.12131530700651
 31
0.0
  0
LINE
  5
193E5
  8
0
  6
BYBLOCK
 10
379.93596402251842
 20
-864.12131530700651
 30
0.0
 11
379.93596402251842
 21
-862.12131530700651
 31
0.0
  0
LINE
  5
193E6
  8
0
  6
BYBLOCK
 10
379.40006564251843
 20
-871.12131530700651
 30
0.0
 11
379.93596402251842
 21
-869.1213153070064
 31
0.0
  0
LINE
  5
193E7
  8
0
  6
BYBLOCK
 10
379.93596402251842
 20
-869.1213153070064
 30
0.0
 11
380.47186240251841
 21
-871.12131530700651
 31
0.0
  0
LINE
  5
193E8
  8
0
  6
BYBLOCK
 10
379.93596402251842
 20
-869.1213153070064
 30
0.0
 11
379.93596402251842
 21
-871.12131530700651
 31
0.0
  0
TEXT
  5
193E9
  8
1DIM
 10
379.2359640225186
 20
-874.28798197367303
 30
0.0
 40
3.5
  1
8 
 50
90.0
  0
LINE
  5
193EA
  8
0
  6
BYBLOCK
 10
380.47186240251841
 20
-875.1213153070064
 30
0.0
 11
379.93596402251842
 21
-877.1213153070064
 31
0.0
  0
LINE
  5
193EB
  8
0
  6
BYBLOCK
 10
379.93596402251842
 20
-877.1213153070064
 30
0.0
 11
379.40006564251843
 21
-875.1213153070064
 31
0.0
  0
LINE
  5
193EC
  8
0
  6
BYBLOCK
 10
379.93596402251842
 20
-877.1213153070064
 30
0.0
 11
379.93596402251842
 21
-875.1213153070064
 31
0.0
  0
LINE
  5
193ED
  8
0
  6
BYBLOCK
 10
379.40006564251843
 20
-871.12131530700651
 30
0.0
 11
379.93596402251842
 21
-869.1213153070064
 31
0.0
  0
LINE
  5
193EE
  8
0
  6
BYBLOCK
 10
379.93596402251842
 20
-869.1213153070064
 30
0.0
 11
380.47186240251841
 21
-871.12131530700651
 31
0.0
  0
LINE
  5
193EF
  8
0
  6
BYBLOCK
 10
379.93596402251842
 20
-869.1213153070064
 30
0.0
 11
379.93596402251842
 21
-871.12131530700651
 31
0.0
  0
TEXT
  5
193F0
  8
1DIM
 10
492.01929735584611
 20
-896.92131530700635
 30
0.0
 40
3.5
  1
21.5 
  0
LINE
  5
193F1
  8
0
  6
BYBLOCK
 10
487.9359640225191
 20
-898.15721368700645
 30
0.0
 11
485.93596402251922
 21
-897.6213153070064
 31
0.0
  0
LINE
  5
193F2
  8
0
  6
BYBLOCK
 10
485.93596402251922
 20
-897.6213153070064
 30
0.0
 11
487.9359640225191
 21
-897.08541692700646
 31
0.0
  0
LINE
  5
193F3
  8
0
  6
BYBLOCK
 10
485.93596402251922
 20
-897.6213153070064
 30
0.0
 11
487.9359640225191
 21
-897.6213153070064
 31
0.0
  0
LINE
  5
193F4
  8
0
  6
BYBLOCK
 10
505.43596402250643
 20
-897.08541692700646
 30
0.0
 11
507.43596402250648
 21
-897.6213153070064
 31
0.0
  0
LINE
  5
193F5
  8
0
  6
BYBLOCK
 10
507.43596402250648
 20
-897.6213153070064
 30
0.0
 11
505.43596402250643
 21
-898.15721368700645
 31
0.0
  0
LINE
  5
193F6
  8
0
  6
BYBLOCK
 10
507.43596402250648
 20
-897.6213153070064
 30
0.0
 11
505.43596402250643
 21
-897.6213153070064
 31
0.0
  0
TEXT
  5
193F7
  8
1DIM1
 10
-30.480702644146429
 20
-673.12131530700458
 30
0.0
 40
17.5
  1
500 
  0
LINE
  5
193F8
  8
0
  6
BYBLOCK
 10
229.9359640225193
 20
-673.94182340700456
 30
0.0
 11
239.9359640225193
 21
-676.62131530700458
 31
0.0
  0
LINE
  5
193F9
  8
0
  6
BYBLOCK
 10
239.9359640225193
 20
-676.62131530700458
 30
0.0
 11
229.9359640225193
 21
-679.30080720700471
 31
0.0
  0
LINE
  5
193FA
  8
0
  6
BYBLOCK
 10
239.9359640225193
 20
-676.62131530700458
 30
0.0
 11
229.9359640225193
 21
-676.62131530700458
 31
0.0
  0
LINE
  5
193FB
  8
0
  6
BYBLOCK
 10
-250.0640359774788
 20
-679.30080720700471
 30
0.0
 11
-260.0640359774788
 21
-676.62131530700458
 31
0.0
  0
LINE
  5
193FC
  8
0
  6
BYBLOCK
 10
-260.0640359774788
 20
-676.62131530700458
 30
0.0
 11
-250.0640359774788
 21
-673.94182340700456
 31
0.0
  0
LINE
  5
193FD
  8
0
  6
BYBLOCK
 10
-260.0640359774788
 20
-676.62131530700458
 30
0.0
 11
-250.0640359774788
 21
-676.62131530700458
 31
0.0
  0
TEXT
  5
193FE
  8
1DIM1
 10
-327.56403597747931
 20
-673.12131530700458
 30
0.0
 40
17.5
  1
100 
  0
LINE
  5
193FF
  8
0
  6
BYBLOCK
 10
-270.06403597747891
 20
-673.94182340700456
 30
0.0
 11
-260.0640359774788
 21
-676.62131530700458
 31
0.0
  0
LINE
  5
19400
  8
0
  6
BYBLOCK
 10
-260.0640359774788
 20
-676.62131530700458
 30
0.0
 11
-270.06403597747891
 21
-679.30080720700471
 31
0.0
  0
LINE
  5
19401
  8
0
  6
BYBLOCK
 10
-260.0640359774788
 20
-676.62131530700458
 30
0.0
 11
-270.06403597747891
 21
-676.62131530700458
 31
0.0
  0
LINE
  5
19402
  8
0
  6
BYBLOCK
 10
-350.06403597747982
 20
-679.30080720700471
 30
0.0
 11
-360.06403597747982
 21
-676.62131530700458
 31
0.0
  0
LINE
  5
19403
  8
0
  6
BYBLOCK
 10
-360.06403597747982
 20
-676.62131530700458
 30
0.0
 11
-350.06403597747982
 21
-673.94182340700456
 31
0.0
  0
LINE
  5
19404
  8
0
  6
BYBLOCK
 10
-360.06403597747982
 20
-676.62131530700458
 30
0.0
 11
-350.06403597747982
 21
-676.62131530700458
 31
0.0
  0
TEXT
  5
19405
  8
1DIM1
 10
272.43596402251978
 20
-673.12131530700458
 30
0.0
 40
17.5
  1
100 
  0
LINE
  5
19406
  8
0
  6
BYBLOCK
 10
249.9359640225193
 20
-679.30080720700471
 30
0.0
 11
239.9359640225193
 21
-676.62131530700458
 31
0.0
  0
LINE
  5
19407
  8
0
  6
BYBLOCK
 10
239.9359640225193
 20
-676.62131530700458
 30
0.0
 11
249.9359640225193
 21
-673.94182340700456
 31
0.0
  0
LINE
  5
19408
  8
0
  6
BYBLOCK
 10
239.9359640225193
 20
-676.62131530700458
 30
0.0
 11
249.9359640225193
 21
-676.62131530700458
 31
0.0
  0
LINE
  5
19409
  8
0
  6
BYBLOCK
 10
329.9359640225203
 20
-673.94182340700456
 30
0.0
 11
339.9359640225203
 21
-676.62131530700458
 31
0.0
  0
LINE
  5
1940A
  8
0
  6
BYBLOCK
 10
339.9359640225203
 20
-676.62131530700458
 30
0.0
 11
329.9359640225203
 21
-679.30080720700471
 31
0.0
  0
LINE
  5
1940B
  8
0
  6
BYBLOCK
 10
339.9359640225203
 20
-676.62131530700458
 30
0.0
 11
329.9359640225203
 21
-676.62131530700458
 31
0.0
  0
VIEWPORT
  5
57
 67
     1
  8
0
 10
-12.73141056964354
 20
10.083731670551
 30
0.0
 40
426.49732989047362
 41
282.80698729109162
 68
     1
 69
     1
1001
ACAD
1000
MVIEW
1002
{
1070
    16
1010
0.0
1020
0.0
1030
0.0
1010
0.0
1020
0.0
1030
1.0
1040
0.0
1040
282.80698729109162
1040
-12.73141056964354
1040
10.083731670551
1040
50.0
1040
0.0
1040
0.0
1070
     0
1070
   100
1070
     1
1070
     1
1070
     0
1070
     0
1070
     0
1070
     0
1040
0.0
1040
0.0
1040
0.0
1040
10.0
1040
10.0
1040
10.0
1040
10.0
1070
     0
1002
{
1002
}
1002
}
  0
ENDSEC
  0
EOF
