  0
SECTION
  2
HEADER
  9
$ACADVER
  1
AC1009
  9
$INSBASE
 10
0.0
 20
0.0
 30
0.0
  9
$EXTMIN
 10
-168.1968709158339
 20
-952.62131530700651
 30
0.0
  9
$EXTMAX
 10
841.36110872702625
 20
-655.6213153070039
 30
0.0
  9
$LIMMIN
 10
0.0
 20
0.0
  9
$LIMMAX
 10
420.0
 20
297.0
  9
$ORTHOMODE
 70
     0
  9
$REGENMODE
 70
     1
  9
$FILLMODE
 70
     1
  9
$QTEXTMODE
 70
     0
  9
$MIRRTEXT
 70
     0
  9
$DRAGMODE
 70
     2
  9
$LTSCALE
 40
0.5
  9
$OSMODE
 70
  2173
  9
$ATTMODE
 70
     1
  9
$TEXTSIZE
 40
4.0
  9
$TRACEWID
 40
1.0
  9
$TEXTSTYLE
  7
STANDARD
  9
$CLAYER
  8
1TEXT
  9
$CELTYPE
  6
BYLAYER
  9
$CECOLOR
 62
   256
  9
$DIMSCALE
 40
1.0
  9
$DIMASZ
 40
2.0
  9
$DIMEXO
 40
0.0
  9
$DIMDLI
 40
7.0
  9
$DIMRND
 40
0.0
  9
$DIMDLE
 40
0.0
  9
$DIMEXE
 40
1.0
  9
$DIMTP
 40
0.0
  9
$DIMTM
 40
0.0
  9
$DIMTXT
 40
3.5
  9
$DIMCEN
 40
0.0
  9
$DIMTSZ
 40
0.0
  9
$DIMTOL
 70
     0
  9
$DIMLIM
 70
     0
  9
$DIMTIH
 70
     0
  9
$DIMTOH
 70
     0
  9
$DIMSE1
 70
     0
  9
$DIMSE2
 70
     0
  9
$DIMTAD
 70
     1
  9
$DIMZIN
 70
     8
  9
$DIMBLK
  1

  9
$DIMASO
 70
     1
  9
$DIMSHO
 70
     1
  9
$DIMPOST
  1
 
  9
$DIMAPOST
  1

  9
$DIMALT
 70
     0
  9
$DIMALTD
 70
     2
  9
$DIMALTF
 40
25.399999999999999
  9
$DIMLFAC
 40
1.0
  9
$DIMTOFL
 70
     1
  9
$DIMTVP
 40
0.0
  9
$DIMTIX
 70
     0
  9
$DIMSOXD
 70
     0
  9
$DIMSAH
 70
     1
  9
$DIMBLK1
  1
OPEN30
  9
$DIMBLK2
  1
OPEN30
  9
$DIMSTYLE
  2
NEWX10
  9
$DIMCLRD
 70
   256
  9
$DIMCLRE
 70
   256
  9
$DIMCLRT
 70
   201
  9
$DIMTFAC
 40
0.7
  9
$DIMGAP
 40
0.7
  9
$LUNITS
 70
     2
  9
$LUPREC
 70
     4
  9
$SKETCHINC
 40
1.0
  9
$FILLETRAD
 40
0.0
  9
$AUNITS
 70
     0
  9
$AUPREC
 70
     2
  9
$MENU
  1
acad
  9
$ELEVATION
 40
0.0
  9
$PELEVATION
 40
0.0
  9
$THICKNESS
 40
0.0
  9
$LIMCHECK
 70
     0
  9
$BLIPMODE
 70
     0
  9
$CHAMFERA
 40
10.0
  9
$CHAMFERB
 40
10.0
  9
$SKPOLY
 70
     0
  9
$TDCREATE
 40
2453033.7326634838
  9
$TDUPDATE
 40
2453605.7403238891
  9
$TDINDWG
 40
1.7333288079
  9
$TDUSRTIMER
 40
1.7333288079
  9
$USRTIMER
 70
     1
  9
$ANGBASE
 50
0.0
  9
$ANGDIR
 70
     0
  9
$PDMODE
 70
     0
  9
$PDSIZE
 40
0.0
  9
$PLINEWID
 40
0.0
  9
$COORDS
 70
     2
  9
$SPLFRAME
 70
     0
  9
$SPLINETYPE
 70
     6
  9
$SPLINESEGS
 70
     8
  9
$ATTDIA
 70
     0
  9
$ATTREQ
 70
     1
  9
$HANDLING
 70
     1
  9
$HANDSEED
  5
197FF
  9
$SURFTAB1
 70
     6
  9
$SURFTAB2
 70
     6
  9
$SURFTYPE
 70
     6
  9
$SURFU
 70
     6
  9
$SURFV
 70
     6
  9
$UCSNAME
  2

  9
$UCSORG
 10
0.0
 20
0.0
 30
0.0
  9
$UCSXDIR
 10
1.0
 20
0.0
 30
0.0
  9
$UCSYDIR
 10
0.0
 20
1.0
 30
0.0
  9
$PUCSNAME
  2

  9
$PUCSORG
 10
0.0
 20
0.0
 30
0.0
  9
$PUCSXDIR
 10
1.0
 20
0.0
 30
0.0
  9
$PUCSYDIR
 10
0.0
 20
1.0
 30
0.0
  9
$USERI1
 70
     0
  9
$USERI2
 70
     0
  9
$USERI3
 70
     0
  9
$USERI4
 70
     0
  9
$USERI5
 70
     0
  9
$USERR1
 40
0.0
  9
$USERR2
 40
0.0
  9
$USERR3
 40
0.0
  9
$USERR4
 40
0.0
  9
$USERR5
 40
0.0
  9
$WORLDVIEW
 70
     1
  9
$SHADEDGE
 70
     3
  9
$SHADEDIF
 70
    70
  9
$TILEMODE
 70
     1
  9
$MAXACTVP
 70
    48
  9
$PLIMCHECK
 70
     0
  9
$PEXTMIN
 10
1.0000000000000000E+020
 20
1.0000000000000000E+020
 30
1.0000000000000000E+020
  9
$PEXTMAX
 10
-1.0000000000000000E+020
 20
-1.0000000000000000E+020
 30
-1.0000000000000000E+020
  9
$PLIMMIN
 10
0.0
 20
0.0
  9
$PLIMMAX
 10
420.0
 20
297.0
  9
$UNITMODE
 70
     0
  9
$VISRETAIN
 70
     1
  9
$PLINEGEN
 70
     0
  9
$PSLTSCALE
 70
     1
  0
ENDSEC
  0
SECTION
  2
TABLES
  0
TABLE
  2
VPORT
 70
     4
  0
VPORT
  2
*ACTIVE
 70
     0
 10
0.0
 20
0.0
 11
1.0
 21
1.0
 12
336.582121256157
 22
-804.12200259417125
 13
0.0
 23
0.0
 14
10.0
 24
10.0
 15
10.0
 25
10.0
 16
0.0
 26
0.0
 36
1.0
 17
0.0
 27
0.0
 37
0.0
 40
708.47952586684721
 41
1.508086253369272
 42
50.0
 43
0.0
 44
0.0
 50
0.0
 51
0.0
 71
     0
 72
   100
 73
     1
 74
     1
 75
     0
 76
     0
 77
     0
 78
     0
  0
ENDTAB
  0
TABLE
  2
LTYPE
 70
    15
  0
LTYPE
  2
CONTINUOUS
 70
     0
  3
Solid line
 72
    65
 73
     0
 40
0.0
  0
LTYPE
  2
CENTER2
 70
     0
  3
Center (.5x) ___ _ ___ _ ___ _ ___ _ ___ _ ___
 72
    65
 73
     4
 40
28.574999999999999
 49
19.050000000000001
 49
-3.1749999999999989
 49
3.1749999999999989
 49
-3.1749999999999989
  0
LTYPE
  2
XREF1|CENTER2
 70
    48
  3
Center (.5x) ___ _ ___ _ ___ _ ___ _ ___ _ ___
 72
    65
 73
     4
 40
28.574999999999999
 49
19.050000000000001
 49
-3.1749999999999989
 49
3.1749999999999989
 49
-3.1749999999999989
  0
LTYPE
  2
PHANTOM2
 70
     0
  3
Phantom (.5x) ___ _ _ ___ _ _ ___ _ _ ___ _ _
 72
    65
 73
     6
 40
31.75
 49
15.875
 49
-3.1749999999999989
 49
3.1749999999999989
 49
-3.1749999999999989
 49
3.1749999999999989
 49
-3.1749999999999989
  0
LTYPE
  2
A3WAKUDAKE|CENTER2
 70
    48
  3
Center (.5x) ___ _ ___ _ ___ _ ___ _ ___ _ ___
 72
    65
 73
     4
 40
28.574999999999999
 49
19.050000000000001
 49
-3.1749999999999989
 49
3.1749999999999989
 49
-3.1749999999999989
  0
ENDTAB
  0
TABLE
  2
LAYER
 70
    44
  0
LAYER
  2
0
 70
     0
 62
     7
  6
CONTINUOUS
  0
LAYER
  2
1CENTER
 70
     0
 62
     7
  6
CENTER2
  0
LAYER
  2
1TEXT
 70
     0
 62
     7
  6
CONTINUOUS
  0
LAYER
  2
1DIM
 70
     0
 62
     7
  6
CONTINUOUS
  0
LAYER
  2
1PHANTOM
 70
     0
 62
     7
  6
PHANTOM2
  0
LAYER
  2
01
 70
     0
 62
     1
  6
CONTINUOUS
  0
LAYER
  2
1DIM1
 70
     0
 62
     7
  6
CONTINUOUS
  0
LAYER
  2
1HATCH
 70
     0
 62
     7
  6
CONTINUOUS
  0
LAYER
  2
XREF1|1CENTER
 70
    48
 62
     7
  6
XREF1|CENTER2
  0
LAYER
  2
A3WAKUDAKE|THICK
 70
    48
 62
     7
  6
CONTINUOUS
  0
LAYER
  2
A3WAKUDAKE|POINT
 70
    48
 62
     7
  6
CONTINUOUS
  0
LAYER
  2
A3WAKUDAKE|1CENTER
 70
    48
 62
     7
  6
A3WAKUDAKE|CENTER2
  0
LAYER
  2
A3WAKUDAKE|0-6
 70
    48
 62
     7
  6
CONTINUOUS
  0
LAYER
  2
A3WAKUDAKE|1DIM
 70
    48
 62
     7
  6
CONTINUOUS
  0
ENDTAB
  0
TABLE
  2
STYLE
 70
    22
  0
STYLE
  2
STANDARD
 70
     0
 40
0.0
 41
1.0
 50
0.0
 71
     0
 42
4.0
  3
txt.shx
  4
extfont.shx
  0
ENDTAB
  0
TABLE
  2
VIEW
 70
     0
  0
ENDTAB
  0
TABLE
  2
UCS
 70
     0
  0
ENDTAB
  0
TABLE
  2
APPID
 70
     9
  0
APPID
  2
ACAD
 70
     0
  0
APPID
  2
DRAWINGVARIABLESXDATA
 70
     0
  0
APPID
  2
CONTENTTABDATA
 70
     0
  0
APPID
  2
CONTENTCURRENTTAB
 70
     0
  0
APPID
  2
CONTENTBLOCKDESCRIPTION
 70
     0
  0
APPID
  2
CONTENTBLOCKICON
 70
     0
  0
APPID
  2
CONTENTLONGBLOCKNAME
 70
     0
  0
APPID
  2
ACAD_PSEXT
 70
     0
  0
APPID
  2
ACAD_DSTYLE_DIMTEXT_FILL
 70
     0
  0
ENDTAB
  0
TABLE
  2
DIMSTYLE
 70
     9
  0
DIMSTYLE
  2
NEWX10
 70
     0
  3
 
  4

  5

  6
OPEN30
  7
OPEN30
 40
1.0
 41
2.0
 42
0.0
 43
7.0
 44
1.0
 45
0.0
 46
0.0
 47
0.0
 48
0.0
140
3.5
141
0.0
142
0.0
143
25.399999999999999
144
1.0
145
0.0
146
0.7
147
0.7
 71
     0
 72
     0
 73
     0
 74
     0
 75
     0
 76
     0
 77
     1
 78
     8
170
     0
171
     2
172
     1
173
     1
174
     0
175
     0
176
   256
177
   256
178
   201
  0
ENDTAB
  0
ENDSEC
  0
SECTION
  2
BLOCKS
  0
BLOCK
  8
0
  2
$MODEL_SPACE
 70
     0
 10
0.0
 20
0.0
 30
0.0
  3
$MODEL_SPACE
  1

  0
ENDBLK
  5
1A
  8
0
  0
BLOCK
 67
     1
  8
0
  2
$PAPER_SPACE
 70
     0
 10
0.0
 20
0.0
 30
0.0
  3
$PAPER_SPACE
  1

  0
ENDBLK
  5
17
 67
     1
  8
0
  0
BLOCK
  8
0
  2
_OPEN30
 70
     0
 10
0.0
 20
0.0
 30
0.0
  3
_OPEN30
  1

  0
LINE
  5
44
  8
0
  6
BYBLOCK
 62
     0
 10
-1.0
 20
0.26794919
 30
0.0
 11
0.0
 21
0.0
 31
0.0
  0
LINE
  5
45
  8
0
  6
BYBLOCK
 62
     0
 10
0.0
 20
0.0
 30
0.0
 11
-1.0
 21
-0.26794919
 31
0.0
  0
LINE
  5
46
  8
0
  6
BYBLOCK
 62
     0
 10
0.0
 20
0.0
 30
0.0
 11
-1.0
 21
0.0
 31
0.0
  0
ENDBLK
  5
47
  8
0
  0
BLOCK
  8
0
  2
XREF1
 70
    36
 10
0.0
 20
0.0
 30
0.0
  3
XREF1
  1
D:\ACLT\FORMAT\KAWAJUN(9)図面用.dwg
  0
ENDBLK
  5
5D
  8
0
  0
BLOCK
  8
0
  2
A3WAKUDAKE
 70
    36
 10
0.0
 20
0.0
 30
0.0
  3
A3WAKUDAKE
  1
D:\ACLT\FORMAT\A3WAKUdake.dwg
  0
ENDBLK
  5
6DC
  8
0
  0
BLOCK
  8
0
  2
*U24
 70
     1
 10
0.0
 20
0.0
 30
0.0
  3
*U24
  1

  0
TEXT
  5
197BC
  8
1DIM1
 62
   201
 10
35.130329656764552
 20
-914.12131530700628
 30
0.0
 40
17.5
  1
P170 
  0
ENDBLK
  5
197BE
  8
0
  0
BLOCK
  8
0
  2
*U25
 70
     1
 10
0.0
 20
0.0
 30
0.0
  3
*U25
  1

  0
TEXT
  5
197C0
  8
1DIM1
 62
   201
 10
205.1303296567645
 20
-914.12131530700651
 30
0.0
 40
17.5
  1
P170 
  0
ENDBLK
  5
197C2
  8
0
  0
BLOCK
  8
0
  2
*U26
 70
     1
 10
0.0
 20
0.0
 30
0.0
  3
*U26
  1

  0
TEXT
  5
197C4
  8
1DIM1
 62
   201
 10
375.13032965676462
 20
-914.12131530700651
 30
0.0
 40
17.5
  1
P170 
  0
ENDBLK
  5
197C6
  8
0
  0
BLOCK
  8
0
  2
*U27
 70
     1
 10
0.0
 20
0.0
 30
0.0
  3
*U27
  1

  0
TEXT
  5
197C8
  8
1DIM1
 62
   201
 10
212.42199632343119
 20
-944.1213153070064
 30
0.0
 40
17.5
  1
800 
  0
ENDBLK
  5
197CA
  8
0
  0
BLOCK
  8
0
  2
*U28
 70
     1
 10
0.0
 20
0.0
 30
0.0
  3
*U28
  1

  0
TEXT
  5
197CC
  8
1DIM
 62
   201
 10
652.13866299009703
 20
-713.75464864033779
 30
0.0
 40
3.5
  1
7.5 
 50
90.0
  0
ENDBLK
  5
197CE
  8
0
  0
BLOCK
  8
0
  2
*U29
 70
     1
 10
0.0
 20
0.0
 30
0.0
  3
*U29
  1

  0
TEXT
  5
197D0
  8
1DIM
 62
   201
 10
652.13866299009715
 20
-782.32964864033784
 30
0.0
 40
3.5
  1
110 
 50
90.0
  0
ENDBLK
  5
197D2
  8
0
  0
BLOCK
  8
0
  2
*U30
 70
     1
 10
0.0
 20
0.0
 30
0.0
  3
*U30
  1

  0
TEXT
  5
197D4
  8
1DIM
 62
   201
 10
662.13866299009715
 20
-781.20464864033772
 30
0.0
 40
3.5
  1
117.5 
 50
90.0
  0
ENDBLK
  5
197D6
  8
0
  0
BLOCK
  8
0
  2
*U31
 70
     1
 10
0.0
 20
0.0
 30
0.0
  3
*U31
  1

  0
TEXT
  5
197D8
  8
1DIM
 62
   201
 10
735.75532965676291
 20
-916.92131530700635
 30
0.0
 40
3.5
  1
117.5 
  0
ENDBLK
  5
197DA
  8
0
  0
BLOCK
  8
0
  2
*U32
 70
     1
 10
0.0
 20
0.0
 30
0.0
  3
*U32
  1

  0
TEXT
  5
197DC
  8
1DIM
 62
   201
 10
780.33866299009674
 20
-906.92131530700635
 30
0.0
 40
3.5
  1
29.5 
  0
ENDBLK
  5
197DE
  8
0
  0
BLOCK
  8
0
  2
*U33
 70
     1
 10
0.0
 20
0.0
 30
0.0
  3
*U33
  1

  0
TEXT
  5
197E0
  8
1DIM
 62
   201
 10
839.63866299009555
 20
-869.91298197366928
 30
0.0
 40
3.5
  1
9 
 50
90.0
  0
ENDBLK
  5
197E2
  8
0
  0
BLOCK
  8
0
  2
*U34
 70
     1
 10
0.0
 20
0.0
 30
0.0
  3
*U34
  1

  0
TEXT
  5
197E4
  8
1DIM
 62
   201
 10
662.13866299009715
 20
-881.12131530700628
 30
0.0
 40
3.5
  1
23.5 
 50
90.0
  0
ENDBLK
  5
197E6
  8
0
  0
BLOCK
  8
0
  2
*U35
 70
     1
 10
0.0
 20
0.0
 30
0.0
  3
*U35
  1

  0
TEXT
  5
197E8
  8
1DIM
 62
   201
 10
672.13866299009715
 20
-859.42131530700635
 30
0.0
 40
3.5
  1
5 
 50
90.0
  0
ENDBLK
  5
197EA
  8
0
  0
BLOCK
  8
0
  2
*U36
 70
     1
 10
0.0
 20
0.0
 30
0.0
  3
*U36
  1

  0
TEXT
  5
197EC
  8
1DIM
 62
   201
 10
672.13866299009715
 20
-874.28798197367303
 30
0.0
 40
3.5
  1
8 
 50
90.0
  0
ENDBLK
  5
197EE
  8
0
  0
BLOCK
  8
0
  2
*U37
 70
     1
 10
0.0
 20
0.0
 30
0.0
  3
*U37
  1

  0
TEXT
  5
197F0
  8
1DIM
 62
   201
 10
784.92199632342465
 20
-896.92131530700635
 30
0.0
 40
3.5
  1
21.5 
  0
ENDBLK
  5
197F2
  8
0
  0
BLOCK
  8
0
  2
*U38
 70
     1
 10
0.0
 20
0.0
 30
0.0
  3
*U38
  1

  0
TEXT
  5
197F4
  8
1DIM1
 62
   201
 10
207.4219963234321
 20
-673.12131530700412
 30
0.0
 40
17.5
  1
600 
  0
ENDBLK
  5
197F6
  8
0
  0
BLOCK
  8
0
  2
*U39
 70
     1
 10
0.0
 20
0.0
 30
0.0
  3
*U39
  1

  0
TEXT
  5
197F8
  8
1DIM1
 62
   201
 10
-134.66133700990071
 20
-673.12131530700412
 30
0.0
 40
17.5
  1
100 
  0
ENDBLK
  5
197FA
  8
0
  0
BLOCK
  8
0
  2
*U40
 70
     1
 10
0.0
 20
0.0
 30
0.0
  3
*U40
  1

  0
TEXT
  5
197FC
  8
1DIM1
 62
   201
 10
565.33866299009765
 20
-673.12131530700401
 30
0.0
 40
17.5
  1
100 
  0
ENDBLK
  5
197FE
  8
0
  0
ENDSEC
  0
SECTION
  2
ENTITIES
  0
LINE
  5
180D8
  8
1DIM
 10
720.3386629900956
 20
-847.12131530700435
 30
0.0
 11
790.3386629900956
 21
-847.12131530700435
 31
0.0
  0
TEXT
  5
180D9
  8
1TEXT
 10
727.09104394247618
 20
-845.62131530700447
 30
0.0
 40
4.0
  1
表面処理：
 72
     1
 11
737.73866299009524
 21
-845.62131530700447
 31
0.0
  0
LINE
  5
180DA
  8
1DIM
 10
720.3386629900956
 20
-840.12131530700435
 30
0.0
 11
790.3386629900956
 21
-840.12131530700435
 31
0.0
  0
LINE
  5
180DB
  8
1DIM
 10
720.3386629900956
 20
-840.12131530700435
 30
0.0
 11
790.3386629900956
 21
-840.12131530700435
 31
0.0
  0
LINE
  5
180DC
  8
1DIM
 10
755.33866299009549
 20
-840.12131530700435
 30
0.0
 11
755.33866299009549
 21
-854.12131530700435
 31
0.0
  0
TEXT
  5
180DD
  8
1TEXT
 10
765.93866299009528
 20
-845.62131530700447
 30
0.0
 40
4.0
  1
コード
 72
     1
 11
772.73866299009524
 21
-845.62131530700447
 31
0.0
  0
LINE
  5
180DE
  8
1DIM
 10
720.3386629900956
 20
-854.12131530700435
 30
0.0
 11
790.3386629900956
 21
-854.12131530700435
 31
0.0
  0
TEXT
  5
180DF
  8
1TEXT
 10
720.99199632342845
 20
-852.43222891857545
 30
0.0
 40
4.0
  1
ブラストアルマイト
 41
0.8
 72
     1
 11
737.73866299009524
 21
-852.43222891857545
 31
0.0
  0
TEXT
  5
180E0
  8
1TEXT
 10
758.07199632342952
 20
-852.83567229065375
 30
0.0
 40
4.0
  1
SA804S80
 72
     1
 11
772.73866299009615
 21
-852.83567229065375
 31
0.0
  0
LINE
  5
180E1
  8
1DIM
 10
720.3386629900956
 20
-854.12131530700435
 30
0.0
 11
720.3386629900956
 21
-840.12131530700435
 31
0.0
  0
LINE
  5
180E2
  8
1DIM
 10
790.3386629900956
 20
-854.12131530700435
 30
0.0
 11
790.3386629900956
 21
-840.12131530700435
 31
0.0
  0
TEXT
  5
180E3
  8
1TEXT
 10
720.3386629900956
 20
-835.12131530700447
 30
0.0
 40
8.0
  1
SA804S80
  0
LINE
  5
180E5
  8
01
 10
818.3386629900956
 20
-830.62131530699821
 30
0.0
 11
818.3386629900956
 21
-910.62131530699776
 31
0.0
  0
LINE
  5
18F9A
  8
1CENTER
 10
487.83866299009787
 20
-686.66040071585098
 30
0.0
 11
487.83866299009787
 21
-723.29159171630602
 31
0.0
  0
LINE
  5
18F9B
  8
1PHANTOM
 10
486.7443391761027
 20
-691.72131276083735
 30
0.0
 11
488.70667426497812
 21
-690.92131732678638
 31
0.0
  0
LINE
  5
18F9C
  8
1PHANTOM
 10
488.70667426497812
 20
-690.92131732678638
 30
0.0
 11
488.1183976899357
 21
-690.60954747053427
 31
0.0
  0
LINE
  5
18F9D
  8
1PHANTOM
 10
485.83870952599591
 20
-714.12131065362735
 30
0.0
 11
489.83870952599591
 21
-713.32131996080909
 31
0.0
  0
LINE
  5
18F9E
  8
1PHANTOM
 10
485.83870952599591
 20
-702.92131065362287
 30
0.0
 11
489.83870952599591
 21
-702.12131996080041
 31
0.0
  0
LINE
  5
18F9F
  8
1PHANTOM
 10
485.83870952599591
 20
-699.72131065362294
 30
0.0
 11
489.83870952599591
 21
-698.92131996080025
 31
0.0
  0
LINE
  5
18FA0
  8
1PHANTOM
 10
489.83870952599591
 20
-698.92131996080025
 30
0.0
 11
489.33870952599591
 21
-698.82131879740314
 31
0.0
  0
LINE
  5
18FA1
  8
1PHANTOM
 10
486.33870952599591
 20
-698.22131181702014
 30
0.0
 11
485.83870952599591
 21
-698.12131065362291
 31
0.0
  0
LINE
  5
18FA2
  8
1PHANTOM
 10
489.83870952599591
 20
-702.12131996080041
 30
0.0
 11
489.33870952599591
 21
-702.02131879740307
 31
0.0
  0
LINE
  5
18FA3
  8
1PHANTOM
 10
489.83870952599591
 20
-700.52131996080016
 30
0.0
 11
489.33870952599591
 21
-700.42131879740305
 31
0.0
  0
LINE
  5
18FA4
  8
1PHANTOM
 10
486.33870952599591
 20
-699.82131181702005
 30
0.0
 11
485.83870952599591
 21
-699.72131065362294
 31
0.0
  0
LINE
  5
18FA5
  8
1PHANTOM
 10
486.33870952599591
 20
-701.42131181701996
 30
0.0
 11
485.83870952599591
 21
-701.32131065362285
 31
0.0
  0
LINE
  5
18FA6
  8
1PHANTOM
 10
485.83870952599591
 20
-701.32131065362285
 30
0.0
 11
489.83870952599591
 21
-700.52131996080016
 31
0.0
  0
LINE
  5
18FA7
  8
1PHANTOM
 10
489.15948836938509
 20
-692.5213183803919
 30
0.0
 11
488.60773890558181
 21
-692.33855423776401
 31
0.0
  0
LINE
  5
18FA8
  8
1PHANTOM
 10
489.83870952599591
 20
-695.72131996080032
 30
0.0
 11
489.33870952599591
 21
-695.62131879740309
 31
0.0
  0
LINE
  5
18FA9
  8
1PHANTOM
 10
489.83870952599591
 20
-697.32131996080034
 30
0.0
 11
489.33870952599591
 21
-697.22131879740334
 31
0.0
  0
LINE
  5
18FAA
  8
1PHANTOM
 10
489.6123024737916
 20
-694.12131943399766
 30
0.0
 11
489.07570873852069
 21
-693.99204873636779
 31
0.0
  0
LINE
  5
18FAB
  8
1PHANTOM
 10
486.75962412320439
 20
-693.43408121958316
 30
0.0
 11
486.29152566805442
 21
-693.32131170723312
 31
0.0
  0
LINE
  5
18FAC
  8
1PHANTOM
 10
486.33870952599591
 20
-696.62131181702
 30
0.0
 11
485.83870952599591
 21
-696.52131065362289
 31
0.0
  0
LINE
  5
18FAD
  8
1PHANTOM
 10
486.33870952599591
 20
-695.02131181702009
 30
0.0
 11
485.83870952599591
 21
-694.92131065362287
 31
0.0
  0
LINE
  5
18FAE
  8
1PHANTOM
 10
487.201511016734
 20
-691.87274855727776
 30
0.0
 11
486.7443391761027
 21
-691.72131276083735
 31
0.0
  0
LINE
  5
18FAF
  8
1PHANTOM
 10
486.29152566805442
 20
-693.32131170723312
 30
0.0
 11
489.15948836938509
 21
-692.5213183803919
 31
0.0
  0
LINE
  5
18FB0
  8
1PHANTOM
 10
485.83870952599591
 20
-696.52131065362289
 30
0.0
 11
489.83870952599591
 21
-695.72131996080032
 31
0.0
  0
LINE
  5
18FB1
  8
1PHANTOM
 10
485.83870952599591
 20
-694.92131065362287
 30
0.0
 11
489.6123024737916
 21
-694.12131943399766
 31
0.0
  0
LINE
  5
18FB2
  8
1PHANTOM
 10
485.83870952599591
 20
-698.12131065362291
 30
0.0
 11
489.83870952599591
 21
-697.32131996080034
 31
0.0
  0
LINE
  5
18FB3
  8
1PHANTOM
 10
485.83870952599591
 20
-710.9213106536273
 30
0.0
 11
489.83870952599591
 21
-710.12131996080905
 31
0.0
  0
LINE
  5
18FB4
  8
1PHANTOM
 10
489.83870952599591
 20
-710.12131996080905
 30
0.0
 11
489.33870952599591
 21
-710.02131879741125
 31
0.0
  0
LINE
  5
18FB5
  8
1PHANTOM
 10
486.33870952599591
 20
-709.42131181702064
 30
0.0
 11
485.83870952599591
 21
-709.32131065362296
 31
0.0
  0
LINE
  5
18FB6
  8
1PHANTOM
 10
489.83870952599591
 20
-711.72131996080918
 30
0.0
 11
489.33870952599591
 21
-711.6213187974115
 31
0.0
  0
LINE
  5
18FB7
  8
1PHANTOM
 10
489.83870952599591
 20
-713.32131996080909
 30
0.0
 11
489.33870952599591
 21
-713.22131879741141
 31
0.0
  0
LINE
  5
18FB8
  8
1PHANTOM
 10
486.33870952599591
 20
-711.02131181702498
 30
0.0
 11
485.83870952599591
 21
-710.9213106536273
 31
0.0
  0
LINE
  5
18FB9
  8
1PHANTOM
 10
486.33870952599591
 20
-712.62131181702512
 30
0.0
 11
485.83870952599591
 21
-712.52131065362744
 31
0.0
  0
LINE
  5
18FBA
  8
1PHANTOM
 10
485.83870952599591
 20
-712.52131065362744
 30
0.0
 11
489.83870952599591
 21
-711.72131996080918
 31
0.0
  0
LINE
  5
18FBB
  8
1PHANTOM
 10
489.83870952599591
 20
-705.32131996080454
 30
0.0
 11
489.33870952599591
 21
-705.22131879740698
 31
0.0
  0
LINE
  5
18FBC
  8
1PHANTOM
 10
489.83870952599591
 20
-703.72131996080032
 30
0.0
 11
489.33870952599591
 21
-703.62131879740309
 31
0.0
  0
LINE
  5
18FBD
  8
1PHANTOM
 10
489.83870952599591
 20
-708.52131996080459
 30
0.0
 11
489.33870952599591
 21
-708.42131879740703
 31
0.0
  0
LINE
  5
18FBE
  8
1PHANTOM
 10
489.83870952599591
 20
-706.92131996080468
 30
0.0
 11
489.33870952599591
 21
-706.82131879740712
 31
0.0
  0
LINE
  5
18FBF
  8
1PHANTOM
 10
486.33870952599591
 20
-703.02131181702009
 30
0.0
 11
485.83870952599591
 21
-702.92131065362287
 31
0.0
  0
LINE
  5
18FC0
  8
1PHANTOM
 10
486.33870952599591
 20
-704.62131181702057
 30
0.0
 11
485.83870952599591
 21
-704.52131065362289
 31
0.0
  0
LINE
  5
18FC1
  8
1PHANTOM
 10
486.33870952599591
 20
-707.82131181702073
 30
0.0
 11
485.83870952599591
 21
-707.72131065362305
 31
0.0
  0
LINE
  5
18FC2
  8
1PHANTOM
 10
486.33870952599591
 20
-706.22131181702048
 30
0.0
 11
485.83870952599591
 21
-706.12131065362291
 31
0.0
  0
LINE
  5
18FC3
  8
1PHANTOM
 10
485.83870952599591
 20
-706.12131065362291
 30
0.0
 11
489.83870952599591
 21
-705.32131996080454
 31
0.0
  0
LINE
  5
18FC4
  8
1PHANTOM
 10
485.83870952599591
 20
-704.52131065362289
 30
0.0
 11
489.83870952599591
 21
-703.72131996080032
 31
0.0
  0
LINE
  5
18FC5
  8
1PHANTOM
 10
485.83870952599591
 20
-707.72131065362305
 30
0.0
 11
489.83870952599591
 21
-706.92131996080468
 31
0.0
  0
LINE
  5
18FC6
  8
1PHANTOM
 10
485.83870952599591
 20
-709.32131065362296
 30
0.0
 11
489.83870952599591
 21
-708.52131996080459
 31
0.0
  0
LINE
  5
18FC7
  8
1PHANTOM
 10
489.33870952599591
 20
-719.62131879729782
 30
0.0
 11
486.33870952599591
 21
-719.62131181691313
 31
0.0
  0
LINE
  5
18FC8
  8
1PHANTOM
 10
486.33870952599591
 20
-719.02131181702919
 30
0.0
 11
485.83870952599591
 21
-718.92131065363151
 31
0.0
  0
LINE
  5
18FC9
  8
1PHANTOM
 10
485.83870952599591
 20
-718.92131065363151
 30
0.0
 11
489.83870952599591
 21
-718.12131996081325
 31
0.0
  0
LINE
  5
18FCA
  8
1PHANTOM
 10
489.83870952599591
 20
-718.12131996081325
 30
0.0
 11
489.33870952599591
 21
-718.02131879741546
 31
0.0
  0
LINE
  5
18FCB
  8
1PHANTOM
 10
486.33870952599591
 20
-717.42131181702928
 30
0.0
 11
485.83870952599591
 21
-717.3213106536316
 31
0.0
  0
LINE
  5
18FCC
  8
1PHANTOM
 10
486.33870952599591
 20
-715.82131181702925
 30
0.0
 11
485.83870952599591
 21
-715.72131065363169
 31
0.0
  0
LINE
  5
18FCD
  8
1PHANTOM
 10
485.83870952599591
 20
-715.72131065363169
 30
0.0
 11
489.83870952599591
 21
-714.92131996081343
 31
0.0
  0
LINE
  5
18FCE
  8
1PHANTOM
 10
489.83870952599591
 20
-716.52131996081334
 30
0.0
 11
489.33870952599591
 21
-716.42131879741555
 31
0.0
  0
LINE
  5
18FCF
  8
1PHANTOM
 10
489.83870952599591
 20
-714.92131996081343
 30
0.0
 11
489.33870952599591
 21
-714.82131879741576
 31
0.0
  0
LINE
  5
18FD0
  8
1PHANTOM
 10
485.83870952599591
 20
-717.3213106536316
 30
0.0
 11
489.83870952599591
 21
-716.52131996081334
 31
0.0
  0
LINE
  5
18FD1
  8
1PHANTOM
 10
486.33870952599591
 20
-714.22131181702503
 30
0.0
 11
485.83870952599591
 21
-714.12131065362735
 31
0.0
  0
LINE
  5
18FD2
  8
1PHANTOM
 10
484.03866299009792
 20
-719.62131530699719
 30
0.0
 11
484.03866299009792
 21
-718.62131530699719
 31
0.0
  0
LINE
  5
18FD3
  8
1PHANTOM
 10
491.63866299009783
 20
-719.62131530699719
 30
0.0
 11
491.63866299009783
 21
-718.62131530699719
 31
0.0
  0
LINE
  5
18FD4
  8
1PHANTOM
 10
488.33866284009792
 20
-719.62131530699719
 30
0.0
 11
487.33866314009782
 21
-718.62131530699719
 31
0.0
  0
LINE
  5
18FD5
  8
1PHANTOM
 10
491.63866299009783
 20
-719.62131530699719
 30
0.0
 11
484.03866299009792
 21
-719.62131530699719
 31
0.0
  0
LINE
  5
18FD6
  8
1PHANTOM
 10
491.63866299009783
 20
-718.62131530699719
 30
0.0
 11
484.03866299009792
 21
-718.62131530699719
 31
0.0
  0
LINE
  5
18FD9
  8
01
 10
632.83866299009878
 20
-725.12131530700469
 30
0.0
 11
632.83866299009878
 21
-829.12131530700435
 31
0.0
  0
LINE
  5
18FDA
  8
01
 10
-167.16133700990119
 20
-829.12131530700435
 30
0.0
 11
-167.16133700990119
 21
-725.12131530700401
 31
0.0
  0
LINE
  5
18FDB
  8
01
 10
532.83866299009776
 20
-877.12131530700481
 30
0.0
 11
-166.16133700990071
 21
-877.12131530700549
 31
0.0
  0
LINE
  5
18FDC
  8
01
 10
627.83866299009867
 20
-834.12131530700447
 30
0.0
 11
-162.16133700990119
 21
-834.12131530700447
 31
0.0
  0
LINE
  5
18FDD
  8
01
 10
532.83866299009776
 20
-869.12131530700503
 30
0.0
 11
-166.16133700990099
 21
-869.12131530700458
 31
0.0
  0
LINE
  5
18FDE
  8
01
 10
-66.161337009903036
 20
-887.62131530700537
 30
0.0
 11
522.83866299009776
 21
-887.62131530700469
 31
0.0
  0
LINE
  5
18FDF
  8
01
 10
-67.161337009901899
 20
-877.62131530700435
 30
0.0
 11
522.83866299009776
 21
-877.62131530700469
 31
0.0
  0
LINE
  5
18FE0
  8
01
 10
462.838662990096
 20
-869.12131530700503
 30
0.0
 11
522.83866299009776
 21
-869.12131530700458
 31
0.0
  0
LINE
  5
18FE1
  8
01
 10
-66.161337009901217
 20
-864.12131530700469
 30
0.0
 11
522.83866299009776
 21
-864.12131530700469
 31
0.0
  0
LINE
  5
18FE2
  8
01
 10
-167.16133700990119
 20
-870.12131530700503
 30
0.0
 11
-167.16133700990119
 21
-876.12131530700481
 31
0.0
  0
LINE
  5
18FE3
  8
01
 10
-167.16133700990119
 20
-876.12131530700481
 30
0.0
 11
-166.16133700990119
 21
-877.12131530700481
 31
0.0
  0
LINE
  5
18FE4
  8
01
 10
-166.16133700990119
 20
-869.12131530700503
 30
0.0
 11
-167.16133700990119
 21
-870.12131530700503
 31
0.0
  0
LINE
  5
18FE5
  8
01
 10
-67.161337009903036
 20
-886.62131530700469
 30
0.0
 11
-67.161337009901899
 21
-877.12131530700481
 31
0.0
  0
LINE
  5
18FE6
  8
01
 10
-67.161337009901217
 20
-869.12131530700503
 30
0.0
 11
-67.161337009901217
 21
-865.12131530700469
 31
0.0
  0
ARC
  5
18FE7
  8
01
 10
-66.161337009903036
 20
-886.62131530700469
 30
0.0
 40
1.0
 50
179.9999999999967
 51
270.0
  0
ARC
  5
18FE8
  8
01
 10
-66.161337009901217
 20
-865.12131530700469
 30
0.0
 40
1.0
 50
90.0
 51
179.9999999999967
  0
ARC
  5
18FE9
  8
01
 10
-162.16133700990119
 20
-829.12131530700435
 30
0.0
 40
5.0
 50
180.0
 51
270.0
  0
LINE
  5
18FEA
  8
01
 10
532.83866299009776
 20
-877.12131530700481
 30
0.0
 11
631.83866299009685
 21
-877.12131530700481
 31
0.0
  0
LINE
  5
18FEB
  8
01
 10
532.83866299009776
 20
-869.12131530700503
 30
0.0
 11
631.83866299009685
 21
-869.12131530700503
 31
0.0
  0
LINE
  5
18FEC
  8
01
 10
532.8386629901014
 20
-886.62131530700469
 30
0.0
 11
532.83866299009981
 21
-877.12131530700503
 31
0.0
  0
LINE
  5
18FED
  8
01
 10
532.83866299009856
 20
-869.12131530700503
 30
0.0
 11
532.83866299009776
 21
-865.12131530700435
 31
0.0
  0
LINE
  5
18FEE
  8
01
 10
531.83866299010151
 20
-887.62131530700469
 30
0.0
 11
522.83866299009776
 21
-887.62131530700469
 31
0.0
  0
LINE
  5
18FEF
  8
01
 10
532.83866299009981
 20
-877.62131530700469
 30
0.0
 11
522.83866299009776
 21
-877.62131530700469
 31
0.0
  0
LINE
  5
18FF0
  8
01
 10
582.83866299009969
 20
-869.12131530700503
 30
0.0
 11
522.83866299009776
 21
-869.12131530700458
 31
0.0
  0
CIRCLE
  5
18FF2
  8
01
 10
487.83866299009787
 20
-873.37131530700515
 30
0.0
 40
2.5
  0
ARC
  5
18FF3
  8
01
 10
531.83866299010151
 20
-886.62131530700492
 30
0.0
 40
1.0
 50
270.0
 51
0.0000000000065138
  0
LINE
  5
18FF4
  8
01
 10
531.83866299009776
 20
-864.12131530700458
 30
0.0
 11
522.83866299009776
 21
-864.12131530700469
 31
0.0
  0
ARC
  5
18FF5
  8
01
 10
531.83866299009776
 20
-865.12131530700435
 30
0.0
 40
1.0
 50
0.0000000000032569
 51
90.0
  0
LINE
  5
18FF6
  8
01
 10
632.83866299009685
 20
-870.12131530700503
 30
0.0
 11
632.83866299009685
 21
-876.12131530700481
 31
0.0
  0
LINE
  5
18FF7
  8
01
 10
632.83866299009685
 20
-876.12131530700481
 30
0.0
 11
631.83866299009685
 21
-877.12131530700481
 31
0.0
  0
LINE
  5
18FF8
  8
01
 10
631.83866299009685
 20
-869.12131530700503
 30
0.0
 11
632.83866299009685
 21
-870.12131530700503
 31
0.0
  0
ARC
  5
18FF9
  8
01
 10
627.83866299009867
 20
-829.12131530700435
 30
0.0
 40
5.0
 50
270.0
 51
0.0
  0
LINE
  5
18FFA
  8
01
 10
522.83866299009867
 20
-746.12131530700469
 30
0.0
 11
-66.161337009901217
 21
-746.12131530700469
 31
0.0
  0
LINE
  5
18FFB
  8
01
 10
522.83866299009776
 20
-716.62131530700469
 30
0.0
 11
462.83866299009691
 21
-716.62131530700469
 31
0.0
  0
LINE
  5
18FFC
  8
01
 10
-166.16133700990119
 20
-724.12131530700469
 30
0.0
 11
-67.161337009900535
 21
-724.12131530700469
 31
0.0
  0
LINE
  5
18FFD
  8
01
 10
-167.16133700990119
 20
-725.12131530700469
 30
0.0
 11
-166.16133700990119
 21
-724.12131530700469
 31
0.0
  0
ARC
  5
18FFE
  8
01
 10
-66.161337009901217
 20
-745.12131530700469
 30
0.0
 40
1.0
 50
180.0
 51
270.0
  0
LINE
  5
18FFF
  8
01
 10
532.83866299009765
 20
-724.1213153070056
 30
0.0
 11
631.83866299009867
 21
-724.12131530700469
 31
0.0
  0
LINE
  5
19000
  8
01
 10
532.83866299009685
 20
-745.12131530700469
 30
0.0
 11
532.83866299009776
 21
-716.62131530700401
 31
0.0
  0
LINE
  5
19001
  8
01
 10
-67.161337009901217
 20
-745.12131530699833
 30
0.0
 11
-67.161337009900308
 21
-716.62131530699764
 31
0.0
  0
LINE
  5
19002
  8
01
 10
522.83866299009696
 20
-746.12131530700469
 30
0.0
 11
531.83866299009685
 21
-746.12131530700469
 31
0.0
  0
ARC
  5
19003
  8
01
 10
531.83866299009685
 20
-745.12131530700469
 30
0.0
 40
1.0
 50
270.0
 51
359.99999999999682
  0
LINE
  5
19004
  8
01
 10
522.83866299009776
 20
-716.62131530700469
 30
0.0
 11
532.83866299009765
 21
-716.62131530700458
 31
0.0
  0
LINE
  5
19005
  8
01
 10
631.83866299009867
 20
-724.12131530700469
 30
0.0
 11
632.83866299009878
 21
-725.12131530700469
 31
0.0
  0
LINE
  5
19006
  8
01
 10
522.83866299009776
 20
-716.62131530700469
 30
0.0
 11
-67.161337009900535
 21
-716.62131530700356
 31
0.0
  0
LINE
  5
19007
  8
1CENTER
 10
487.83866299009787
 20
-876.37131530700503
 30
0.0
 11
487.83866299009787
 21
-870.37131530700515
 31
0.0
  0
LINE
  5
19008
  8
1CENTER
 10
484.83866299009787
 20
-873.37131530700503
 30
0.0
 11
490.83866299009782
 21
-873.37131530700503
 31
0.0
  0
LINE
  5
1900E
  8
1CENTER
 10
-22.16133700990213
 20
-686.66040071585098
 30
0.0
 11
-22.16133700990213
 21
-723.29159171630602
 31
0.0
  0
LINE
  5
1900F
  8
1PHANTOM
 10
-23.255660823897191
 20
-691.72131276083735
 30
0.0
 11
-21.293325735021881
 21
-690.92131732678638
 31
0.0
  0
LINE
  5
19010
  8
1PHANTOM
 10
-21.293325735021881
 20
-690.92131732678638
 30
0.0
 11
-21.881602310064181
 21
-690.60954747053427
 31
0.0
  0
LINE
  5
19011
  8
1PHANTOM
 10
-24.16129047400409
 20
-714.12131065362735
 30
0.0
 11
-20.16129047400409
 21
-713.32131996080909
 31
0.0
  0
LINE
  5
19012
  8
1PHANTOM
 10
-24.16129047400409
 20
-702.92131065362287
 30
0.0
 11
-20.16129047400409
 21
-702.12131996080041
 31
0.0
  0
LINE
  5
19013
  8
1PHANTOM
 10
-24.16129047400409
 20
-699.72131065362294
 30
0.0
 11
-20.16129047400409
 21
-698.92131996080025
 31
0.0
  0
LINE
  5
19014
  8
1PHANTOM
 10
-20.16129047400409
 20
-698.92131996080025
 30
0.0
 11
-20.66129047400409
 21
-698.82131879740314
 31
0.0
  0
LINE
  5
19015
  8
1PHANTOM
 10
-23.66129047400409
 20
-698.22131181702014
 30
0.0
 11
-24.16129047400409
 21
-698.12131065362291
 31
0.0
  0
LINE
  5
19016
  8
1PHANTOM
 10
-20.16129047400409
 20
-702.12131996080041
 30
0.0
 11
-20.66129047400409
 21
-702.02131879740307
 31
0.0
  0
LINE
  5
19017
  8
1PHANTOM
 10
-20.16129047400409
 20
-700.52131996080016
 30
0.0
 11
-20.66129047400409
 21
-700.42131879740305
 31
0.0
  0
LINE
  5
19018
  8
1PHANTOM
 10
-23.66129047400409
 20
-699.82131181702005
 30
0.0
 11
-24.16129047400409
 21
-699.72131065362294
 31
0.0
  0
LINE
  5
19019
  8
1PHANTOM
 10
-23.66129047400409
 20
-701.42131181701996
 30
0.0
 11
-24.16129047400409
 21
-701.32131065362285
 31
0.0
  0
LINE
  5
1901A
  8
1PHANTOM
 10
-24.16129047400409
 20
-701.32131065362285
 30
0.0
 11
-20.16129047400409
 21
-700.52131996080016
 31
0.0
  0
LINE
  5
1901B
  8
1PHANTOM
 10
-20.840511630614859
 20
-692.5213183803919
 30
0.0
 11
-21.392261094418249
 21
-692.33855423776401
 31
0.0
  0
LINE
  5
1901C
  8
1PHANTOM
 10
-20.16129047400409
 20
-695.72131996080032
 30
0.0
 11
-20.66129047400409
 21
-695.62131879740309
 31
0.0
  0
LINE
  5
1901D
  8
1PHANTOM
 10
-20.16129047400409
 20
-697.32131996080034
 30
0.0
 11
-20.66129047400409
 21
-697.22131879740334
 31
0.0
  0
LINE
  5
1901E
  8
1PHANTOM
 10
-20.387697526208289
 20
-694.12131943399766
 30
0.0
 11
-20.924291261479311
 21
-693.99204873636779
 31
0.0
  0
LINE
  5
1901F
  8
1PHANTOM
 10
-23.2403758767955
 20
-693.43408121958316
 30
0.0
 11
-23.708474331945581
 21
-693.32131170723312
 31
0.0
  0
LINE
  5
19020
  8
1PHANTOM
 10
-23.66129047400409
 20
-696.62131181702
 30
0.0
 11
-24.16129047400409
 21
-696.52131065362289
 31
0.0
  0
LINE
  5
19021
  8
1PHANTOM
 10
-23.66129047400409
 20
-695.02131181702009
 30
0.0
 11
-24.16129047400409
 21
-694.92131065362287
 31
0.0
  0
LINE
  5
19022
  8
1PHANTOM
 10
-22.798488983266001
 20
-691.87274855727776
 30
0.0
 11
-23.255660823897191
 21
-691.72131276083735
 31
0.0
  0
LINE
  5
19023
  8
1PHANTOM
 10
-23.708474331945581
 20
-693.32131170723312
 30
0.0
 11
-20.840511630614859
 21
-692.5213183803919
 31
0.0
  0
LINE
  5
19024
  8
1PHANTOM
 10
-24.16129047400409
 20
-696.52131065362289
 30
0.0
 11
-20.16129047400409
 21
-695.72131996080032
 31
0.0
  0
LINE
  5
19025
  8
1PHANTOM
 10
-24.16129047400409
 20
-694.92131065362287
 30
0.0
 11
-20.387697526208289
 21
-694.12131943399766
 31
0.0
  0
LINE
  5
19026
  8
1PHANTOM
 10
-24.16129047400409
 20
-698.12131065362291
 30
0.0
 11
-20.16129047400409
 21
-697.32131996080034
 31
0.0
  0
LINE
  5
19027
  8
1PHANTOM
 10
-24.16129047400409
 20
-710.9213106536273
 30
0.0
 11
-20.16129047400409
 21
-710.12131996080905
 31
0.0
  0
LINE
  5
19028
  8
1PHANTOM
 10
-20.16129047400409
 20
-710.12131996080905
 30
0.0
 11
-20.66129047400409
 21
-710.02131879741125
 31
0.0
  0
LINE
  5
19029
  8
1PHANTOM
 10
-23.66129047400409
 20
-709.42131181702064
 30
0.0
 11
-24.16129047400409
 21
-709.32131065362296
 31
0.0
  0
LINE
  5
1902A
  8
1PHANTOM
 10
-20.16129047400409
 20
-711.72131996080918
 30
0.0
 11
-20.66129047400409
 21
-711.6213187974115
 31
0.0
  0
LINE
  5
1902B
  8
1PHANTOM
 10
-20.16129047400409
 20
-713.32131996080909
 30
0.0
 11
-20.66129047400409
 21
-713.22131879741141
 31
0.0
  0
LINE
  5
1902C
  8
1PHANTOM
 10
-23.66129047400409
 20
-711.02131181702498
 30
0.0
 11
-24.16129047400409
 21
-710.9213106536273
 31
0.0
  0
LINE
  5
1902D
  8
1PHANTOM
 10
-23.66129047400409
 20
-712.62131181702512
 30
0.0
 11
-24.16129047400409
 21
-712.52131065362744
 31
0.0
  0
LINE
  5
1902E
  8
1PHANTOM
 10
-24.16129047400409
 20
-712.52131065362744
 30
0.0
 11
-20.16129047400409
 21
-711.72131996080918
 31
0.0
  0
LINE
  5
1902F
  8
1PHANTOM
 10
-20.16129047400409
 20
-705.32131996080454
 30
0.0
 11
-20.66129047400409
 21
-705.22131879740698
 31
0.0
  0
LINE
  5
19030
  8
1PHANTOM
 10
-20.16129047400409
 20
-703.72131996080032
 30
0.0
 11
-20.66129047400409
 21
-703.62131879740309
 31
0.0
  0
LINE
  5
19031
  8
1PHANTOM
 10
-20.16129047400409
 20
-708.52131996080459
 30
0.0
 11
-20.66129047400409
 21
-708.42131879740703
 31
0.0
  0
LINE
  5
19032
  8
1PHANTOM
 10
-20.16129047400409
 20
-706.92131996080468
 30
0.0
 11
-20.66129047400409
 21
-706.82131879740712
 31
0.0
  0
LINE
  5
19033
  8
1PHANTOM
 10
-23.66129047400409
 20
-703.02131181702009
 30
0.0
 11
-24.16129047400409
 21
-702.92131065362287
 31
0.0
  0
LINE
  5
19034
  8
1PHANTOM
 10
-23.66129047400409
 20
-704.62131181702057
 30
0.0
 11
-24.16129047400409
 21
-704.52131065362289
 31
0.0
  0
LINE
  5
19035
  8
1PHANTOM
 10
-23.66129047400409
 20
-707.82131181702073
 30
0.0
 11
-24.16129047400409
 21
-707.72131065362305
 31
0.0
  0
LINE
  5
19036
  8
1PHANTOM
 10
-23.66129047400409
 20
-706.22131181702048
 30
0.0
 11
-24.16129047400409
 21
-706.12131065362291
 31
0.0
  0
LINE
  5
19037
  8
1PHANTOM
 10
-24.16129047400409
 20
-706.12131065362291
 30
0.0
 11
-20.16129047400409
 21
-705.32131996080454
 31
0.0
  0
LINE
  5
19038
  8
1PHANTOM
 10
-24.16129047400409
 20
-704.52131065362289
 30
0.0
 11
-20.16129047400409
 21
-703.72131996080032
 31
0.0
  0
LINE
  5
19039
  8
1PHANTOM
 10
-24.16129047400409
 20
-707.72131065362305
 30
0.0
 11
-20.16129047400409
 21
-706.92131996080468
 31
0.0
  0
LINE
  5
1903A
  8
1PHANTOM
 10
-24.16129047400409
 20
-709.32131065362296
 30
0.0
 11
-20.16129047400409
 21
-708.52131996080459
 31
0.0
  0
LINE
  5
1903B
  8
1PHANTOM
 10
-20.66129047400409
 20
-719.62131879729782
 30
0.0
 11
-23.66129047400409
 21
-719.62131181691313
 31
0.0
  0
LINE
  5
1903C
  8
1PHANTOM
 10
-23.66129047400409
 20
-719.02131181702919
 30
0.0
 11
-24.16129047400409
 21
-718.92131065363151
 31
0.0
  0
LINE
  5
1903D
  8
1PHANTOM
 10
-24.16129047400409
 20
-718.92131065363151
 30
0.0
 11
-20.16129047400409
 21
-718.12131996081325
 31
0.0
  0
LINE
  5
1903E
  8
1PHANTOM
 10
-20.16129047400409
 20
-718.12131996081325
 30
0.0
 11
-20.66129047400409
 21
-718.02131879741546
 31
0.0
  0
LINE
  5
1903F
  8
1PHANTOM
 10
-23.66129047400409
 20
-717.42131181702928
 30
0.0
 11
-24.16129047400409
 21
-717.3213106536316
 31
0.0
  0
LINE
  5
19040
  8
1PHANTOM
 10
-23.66129047400409
 20
-715.82131181702925
 30
0.0
 11
-24.16129047400409
 21
-715.72131065363169
 31
0.0
  0
LINE
  5
19041
  8
1PHANTOM
 10
-24.16129047400409
 20
-715.72131065363169
 30
0.0
 11
-20.16129047400409
 21
-714.92131996081343
 31
0.0
  0
LINE
  5
19042
  8
1PHANTOM
 10
-20.16129047400409
 20
-716.52131996081334
 30
0.0
 11
-20.66129047400409
 21
-716.42131879741555
 31
0.0
  0
LINE
  5
19043
  8
1PHANTOM
 10
-20.16129047400409
 20
-714.92131996081343
 30
0.0
 11
-20.66129047400409
 21
-714.82131879741576
 31
0.0
  0
LINE
  5
19044
  8
1PHANTOM
 10
-24.16129047400409
 20
-717.3213106536316
 30
0.0
 11
-20.16129047400409
 21
-716.52131996081334
 31
0.0
  0
LINE
  5
19045
  8
1PHANTOM
 10
-23.66129047400409
 20
-714.22131181702503
 30
0.0
 11
-24.16129047400409
 21
-714.12131065362735
 31
0.0
  0
LINE
  5
19046
  8
1PHANTOM
 10
-25.961337009902081
 20
-719.62131530699719
 30
0.0
 11
-25.961337009902081
 21
-718.62131530699719
 31
0.0
  0
LINE
  5
19047
  8
1PHANTOM
 10
-18.361337009902169
 20
-719.62131530699719
 30
0.0
 11
-18.361337009902169
 21
-718.62131530699719
 31
0.0
  0
LINE
  5
19048
  8
1PHANTOM
 10
-21.661337159902128
 20
-719.62131530699719
 30
0.0
 11
-22.661336859902121
 21
-718.62131530699719
 31
0.0
  0
LINE
  5
19049
  8
1PHANTOM
 10
-18.361337009902169
 20
-719.62131530699719
 30
0.0
 11
-25.961337009902081
 21
-719.62131530699719
 31
0.0
  0
LINE
  5
1904A
  8
1PHANTOM
 10
-18.361337009902169
 20
-718.62131530699719
 30
0.0
 11
-25.961337009902081
 21
-718.62131530699719
 31
0.0
  0
CIRCLE
  5
1904C
  8
01
 10
-22.16133700990213
 20
-873.37131530700515
 30
0.0
 40
2.5
  0
LINE
  5
1904D
  8
1CENTER
 10
-22.16133700990213
 20
-876.37131530700503
 30
0.0
 11
-22.16133700990213
 21
-870.37131530700515
 31
0.0
  0
LINE
  5
1904E
  8
1CENTER
 10
-25.16133700990213
 20
-873.37131530700503
 30
0.0
 11
-19.16133700990213
 21
-873.37131530700503
 31
0.0
  0
LINE
  5
19051
  8
1CENTER
 10
147.83866299009779
 20
-686.66040071585098
 30
0.0
 11
147.83866299009779
 21
-723.29159171630602
 31
0.0
  0
LINE
  5
19052
  8
1PHANTOM
 10
146.74433917610281
 20
-691.72131276083735
 30
0.0
 11
148.70667426497809
 21
-690.92131732678638
 31
0.0
  0
LINE
  5
19053
  8
1PHANTOM
 10
148.70667426497809
 20
-690.92131732678638
 30
0.0
 11
148.11839768993579
 21
-690.60954747053427
 31
0.0
  0
LINE
  5
19054
  8
1PHANTOM
 10
145.83870952599591
 20
-714.12131065362735
 30
0.0
 11
149.83870952599591
 21
-713.32131996080909
 31
0.0
  0
LINE
  5
19055
  8
1PHANTOM
 10
145.83870952599591
 20
-702.92131065362287
 30
0.0
 11
149.83870952599591
 21
-702.12131996080041
 31
0.0
  0
LINE
  5
19056
  8
1PHANTOM
 10
145.83870952599591
 20
-699.72131065362294
 30
0.0
 11
149.83870952599591
 21
-698.92131996080025
 31
0.0
  0
LINE
  5
19057
  8
1PHANTOM
 10
149.83870952599591
 20
-698.92131996080025
 30
0.0
 11
149.33870952599591
 21
-698.82131879740314
 31
0.0
  0
LINE
  5
19058
  8
1PHANTOM
 10
146.33870952599591
 20
-698.22131181702014
 30
0.0
 11
145.83870952599591
 21
-698.12131065362291
 31
0.0
  0
LINE
  5
19059
  8
1PHANTOM
 10
149.83870952599591
 20
-702.12131996080041
 30
0.0
 11
149.33870952599591
 21
-702.02131879740307
 31
0.0
  0
LINE
  5
1905A
  8
1PHANTOM
 10
149.83870952599591
 20
-700.52131996080016
 30
0.0
 11
149.33870952599591
 21
-700.42131879740305
 31
0.0
  0
LINE
  5
1905B
  8
1PHANTOM
 10
146.33870952599591
 20
-699.82131181702005
 30
0.0
 11
145.83870952599591
 21
-699.72131065362294
 31
0.0
  0
LINE
  5
1905C
  8
1PHANTOM
 10
146.33870952599591
 20
-701.42131181701996
 30
0.0
 11
145.83870952599591
 21
-701.32131065362285
 31
0.0
  0
LINE
  5
1905D
  8
1PHANTOM
 10
145.83870952599591
 20
-701.32131065362285
 30
0.0
 11
149.83870952599591
 21
-700.52131996080016
 31
0.0
  0
LINE
  5
1905E
  8
1PHANTOM
 10
149.15948836938509
 20
-692.5213183803919
 30
0.0
 11
148.6077389055817
 21
-692.33855423776401
 31
0.0
  0
LINE
  5
1905F
  8
1PHANTOM
 10
149.83870952599591
 20
-695.72131996080032
 30
0.0
 11
149.33870952599591
 21
-695.62131879740309
 31
0.0
  0
LINE
  5
19060
  8
1PHANTOM
 10
149.83870952599591
 20
-697.32131996080034
 30
0.0
 11
149.33870952599591
 21
-697.22131879740334
 31
0.0
  0
LINE
  5
19061
  8
1PHANTOM
 10
149.61230247379169
 20
-694.12131943399766
 30
0.0
 11
149.07570873852069
 21
-693.99204873636779
 31
0.0
  0
LINE
  5
19062
  8
1PHANTOM
 10
146.7596241232045
 20
-693.43408121958316
 30
0.0
 11
146.29152566805439
 21
-693.32131170723312
 31
0.0
  0
LINE
  5
19063
  8
1PHANTOM
 10
146.33870952599591
 20
-696.62131181702
 30
0.0
 11
145.83870952599591
 21
-696.52131065362289
 31
0.0
  0
LINE
  5
19064
  8
1PHANTOM
 10
146.33870952599591
 20
-695.02131181702009
 30
0.0
 11
145.83870952599591
 21
-694.92131065362287
 31
0.0
  0
LINE
  5
19065
  8
1PHANTOM
 10
147.201511016734
 20
-691.87274855727776
 30
0.0
 11
146.74433917610281
 21
-691.72131276083735
 31
0.0
  0
LINE
  5
19066
  8
1PHANTOM
 10
146.29152566805439
 20
-693.32131170723312
 30
0.0
 11
149.15948836938509
 21
-692.5213183803919
 31
0.0
  0
LINE
  5
19067
  8
1PHANTOM
 10
145.83870952599591
 20
-696.52131065362289
 30
0.0
 11
149.83870952599591
 21
-695.72131996080032
 31
0.0
  0
LINE
  5
19068
  8
1PHANTOM
 10
145.83870952599591
 20
-694.92131065362287
 30
0.0
 11
149.61230247379169
 21
-694.12131943399766
 31
0.0
  0
LINE
  5
19069
  8
1PHANTOM
 10
145.83870952599591
 20
-698.12131065362291
 30
0.0
 11
149.83870952599591
 21
-697.32131996080034
 31
0.0
  0
LINE
  5
1906A
  8
1PHANTOM
 10
145.83870952599591
 20
-710.9213106536273
 30
0.0
 11
149.83870952599591
 21
-710.12131996080905
 31
0.0
  0
LINE
  5
1906B
  8
1PHANTOM
 10
149.83870952599591
 20
-710.12131996080905
 30
0.0
 11
149.33870952599591
 21
-710.02131879741125
 31
0.0
  0
LINE
  5
1906C
  8
1PHANTOM
 10
146.33870952599591
 20
-709.42131181702064
 30
0.0
 11
145.83870952599591
 21
-709.32131065362296
 31
0.0
  0
LINE
  5
1906D
  8
1PHANTOM
 10
149.83870952599591
 20
-711.72131996080918
 30
0.0
 11
149.33870952599591
 21
-711.6213187974115
 31
0.0
  0
LINE
  5
1906E
  8
1PHANTOM
 10
149.83870952599591
 20
-713.32131996080909
 30
0.0
 11
149.33870952599591
 21
-713.22131879741141
 31
0.0
  0
LINE
  5
1906F
  8
1PHANTOM
 10
146.33870952599591
 20
-711.02131181702498
 30
0.0
 11
145.83870952599591
 21
-710.9213106536273
 31
0.0
  0
LINE
  5
19070
  8
1PHANTOM
 10
146.33870952599591
 20
-712.62131181702512
 30
0.0
 11
145.83870952599591
 21
-712.52131065362744
 31
0.0
  0
LINE
  5
19071
  8
1PHANTOM
 10
145.83870952599591
 20
-712.52131065362744
 30
0.0
 11
149.83870952599591
 21
-711.72131996080918
 31
0.0
  0
LINE
  5
19072
  8
1PHANTOM
 10
149.83870952599591
 20
-705.32131996080454
 30
0.0
 11
149.33870952599591
 21
-705.22131879740698
 31
0.0
  0
LINE
  5
19073
  8
1PHANTOM
 10
149.83870952599591
 20
-703.72131996080032
 30
0.0
 11
149.33870952599591
 21
-703.62131879740309
 31
0.0
  0
LINE
  5
19074
  8
1PHANTOM
 10
149.83870952599591
 20
-708.52131996080459
 30
0.0
 11
149.33870952599591
 21
-708.42131879740703
 31
0.0
  0
LINE
  5
19075
  8
1PHANTOM
 10
149.83870952599591
 20
-706.92131996080468
 30
0.0
 11
149.33870952599591
 21
-706.82131879740712
 31
0.0
  0
LINE
  5
19076
  8
1PHANTOM
 10
146.33870952599591
 20
-703.02131181702009
 30
0.0
 11
145.83870952599591
 21
-702.92131065362287
 31
0.0
  0
LINE
  5
19077
  8
1PHANTOM
 10
146.33870952599591
 20
-704.62131181702057
 30
0.0
 11
145.83870952599591
 21
-704.52131065362289
 31
0.0
  0
LINE
  5
19078
  8
1PHANTOM
 10
146.33870952599591
 20
-707.82131181702073
 30
0.0
 11
145.83870952599591
 21
-707.72131065362305
 31
0.0
  0
LINE
  5
19079
  8
1PHANTOM
 10
146.33870952599591
 20
-706.22131181702048
 30
0.0
 11
145.83870952599591
 21
-706.12131065362291
 31
0.0
  0
LINE
  5
1907A
  8
1PHANTOM
 10
145.83870952599591
 20
-706.12131065362291
 30
0.0
 11
149.83870952599591
 21
-705.32131996080454
 31
0.0
  0
LINE
  5
1907B
  8
1PHANTOM
 10
145.83870952599591
 20
-704.52131065362289
 30
0.0
 11
149.83870952599591
 21
-703.72131996080032
 31
0.0
  0
LINE
  5
1907C
  8
1PHANTOM
 10
145.83870952599591
 20
-707.72131065362305
 30
0.0
 11
149.83870952599591
 21
-706.92131996080468
 31
0.0
  0
LINE
  5
1907D
  8
1PHANTOM
 10
145.83870952599591
 20
-709.32131065362296
 30
0.0
 11
149.83870952599591
 21
-708.52131996080459
 31
0.0
  0
LINE
  5
1907E
  8
1PHANTOM
 10
149.33870952599591
 20
-719.62131879729782
 30
0.0
 11
146.33870952599591
 21
-719.62131181691313
 31
0.0
  0
LINE
  5
1907F
  8
1PHANTOM
 10
146.33870952599591
 20
-719.02131181702919
 30
0.0
 11
145.83870952599591
 21
-718.92131065363151
 31
0.0
  0
LINE
  5
19080
  8
1PHANTOM
 10
145.83870952599591
 20
-718.92131065363151
 30
0.0
 11
149.83870952599591
 21
-718.12131996081325
 31
0.0
  0
LINE
  5
19081
  8
1PHANTOM
 10
149.83870952599591
 20
-718.12131996081325
 30
0.0
 11
149.33870952599591
 21
-718.02131879741546
 31
0.0
  0
LINE
  5
19082
  8
1PHANTOM
 10
146.33870952599591
 20
-717.42131181702928
 30
0.0
 11
145.83870952599591
 21
-717.3213106536316
 31
0.0
  0
LINE
  5
19083
  8
1PHANTOM
 10
146.33870952599591
 20
-715.82131181702925
 30
0.0
 11
145.83870952599591
 21
-715.72131065363169
 31
0.0
  0
LINE
  5
19084
  8
1PHANTOM
 10
145.83870952599591
 20
-715.72131065363169
 30
0.0
 11
149.83870952599591
 21
-714.92131996081343
 31
0.0
  0
LINE
  5
19085
  8
1PHANTOM
 10
149.83870952599591
 20
-716.52131996081334
 30
0.0
 11
149.33870952599591
 21
-716.42131879741555
 31
0.0
  0
LINE
  5
19086
  8
1PHANTOM
 10
149.83870952599591
 20
-714.92131996081343
 30
0.0
 11
149.33870952599591
 21
-714.82131879741576
 31
0.0
  0
LINE
  5
19087
  8
1PHANTOM
 10
145.83870952599591
 20
-717.3213106536316
 30
0.0
 11
149.83870952599591
 21
-716.52131996081334
 31
0.0
  0
LINE
  5
19088
  8
1PHANTOM
 10
146.33870952599591
 20
-714.22131181702503
 30
0.0
 11
145.83870952599591
 21
-714.12131065362735
 31
0.0
  0
LINE
  5
19089
  8
1PHANTOM
 10
144.03866299009789
 20
-719.62131530699719
 30
0.0
 11
144.03866299009789
 21
-718.62131530699719
 31
0.0
  0
LINE
  5
1908A
  8
1PHANTOM
 10
151.6386629900978
 20
-719.62131530699719
 30
0.0
 11
151.6386629900978
 21
-718.62131530699719
 31
0.0
  0
LINE
  5
1908B
  8
1PHANTOM
 10
148.33866284009781
 20
-719.62131530699719
 30
0.0
 11
147.33866314009791
 21
-718.62131530699719
 31
0.0
  0
LINE
  5
1908C
  8
1PHANTOM
 10
151.6386629900978
 20
-719.62131530699719
 30
0.0
 11
144.03866299009789
 21
-719.62131530699719
 31
0.0
  0
LINE
  5
1908D
  8
1PHANTOM
 10
151.6386629900978
 20
-718.62131530699719
 30
0.0
 11
144.03866299009789
 21
-718.62131530699719
 31
0.0
  0
LINE
  5
1908F
  8
1CENTER
 10
317.83866299009787
 20
-686.66040071585098
 30
0.0
 11
317.83866299009787
 21
-723.29159171630602
 31
0.0
  0
LINE
  5
19090
  8
1PHANTOM
 10
316.74433917610281
 20
-691.72131276083735
 30
0.0
 11
318.70667426497812
 21
-690.92131732678638
 31
0.0
  0
LINE
  5
19091
  8
1PHANTOM
 10
318.70667426497812
 20
-690.92131732678638
 30
0.0
 11
318.11839768993582
 21
-690.60954747053427
 31
0.0
  0
LINE
  5
19092
  8
1PHANTOM
 10
315.83870952599591
 20
-714.12131065362735
 30
0.0
 11
319.83870952599591
 21
-713.32131996080909
 31
0.0
  0
LINE
  5
19093
  8
1PHANTOM
 10
315.83870952599591
 20
-702.92131065362287
 30
0.0
 11
319.83870952599591
 21
-702.12131996080041
 31
0.0
  0
LINE
  5
19094
  8
1PHANTOM
 10
315.83870952599591
 20
-699.72131065362294
 30
0.0
 11
319.83870952599591
 21
-698.92131996080025
 31
0.0
  0
LINE
  5
19095
  8
1PHANTOM
 10
319.83870952599591
 20
-698.92131996080025
 30
0.0
 11
319.33870952599591
 21
-698.82131879740314
 31
0.0
  0
LINE
  5
19096
  8
1PHANTOM
 10
316.33870952599591
 20
-698.22131181702014
 30
0.0
 11
315.83870952599591
 21
-698.12131065362291
 31
0.0
  0
LINE
  5
19097
  8
1PHANTOM
 10
319.83870952599591
 20
-702.12131996080041
 30
0.0
 11
319.33870952599591
 21
-702.02131879740307
 31
0.0
  0
LINE
  5
19098
  8
1PHANTOM
 10
319.83870952599591
 20
-700.52131996080016
 30
0.0
 11
319.33870952599591
 21
-700.42131879740305
 31
0.0
  0
LINE
  5
19099
  8
1PHANTOM
 10
316.33870952599591
 20
-699.82131181702005
 30
0.0
 11
315.83870952599591
 21
-699.72131065362294
 31
0.0
  0
LINE
  5
1909A
  8
1PHANTOM
 10
316.33870952599591
 20
-701.42131181701996
 30
0.0
 11
315.83870952599591
 21
-701.32131065362285
 31
0.0
  0
LINE
  5
1909B
  8
1PHANTOM
 10
315.83870952599591
 20
-701.32131065362285
 30
0.0
 11
319.83870952599591
 21
-700.52131996080016
 31
0.0
  0
LINE
  5
1909C
  8
1PHANTOM
 10
319.1594883693852
 20
-692.5213183803919
 30
0.0
 11
318.60773890558181
 21
-692.33855423776401
 31
0.0
  0
LINE
  5
1909D
  8
1PHANTOM
 10
319.83870952599591
 20
-695.72131996080032
 30
0.0
 11
319.33870952599591
 21
-695.62131879740309
 31
0.0
  0
LINE
  5
1909E
  8
1PHANTOM
 10
319.83870952599591
 20
-697.32131996080034
 30
0.0
 11
319.33870952599591
 21
-697.22131879740334
 31
0.0
  0
LINE
  5
1909F
  8
1PHANTOM
 10
319.61230247379171
 20
-694.12131943399766
 30
0.0
 11
319.07570873852069
 21
-693.99204873636779
 31
0.0
  0
LINE
  5
190A0
  8
1PHANTOM
 10
316.7596241232045
 20
-693.43408121958316
 30
0.0
 11
316.29152566805442
 21
-693.32131170723312
 31
0.0
  0
LINE
  5
190A1
  8
1PHANTOM
 10
316.33870952599591
 20
-696.62131181702
 30
0.0
 11
315.83870952599591
 21
-696.52131065362289
 31
0.0
  0
LINE
  5
190A2
  8
1PHANTOM
 10
316.33870952599591
 20
-695.02131181702009
 30
0.0
 11
315.83870952599591
 21
-694.92131065362287
 31
0.0
  0
LINE
  5
190A3
  8
1PHANTOM
 10
317.201511016734
 20
-691.87274855727776
 30
0.0
 11
316.74433917610281
 21
-691.72131276083735
 31
0.0
  0
LINE
  5
190A4
  8
1PHANTOM
 10
316.29152566805442
 20
-693.32131170723312
 30
0.0
 11
319.1594883693852
 21
-692.5213183803919
 31
0.0
  0
LINE
  5
190A5
  8
1PHANTOM
 10
315.83870952599591
 20
-696.52131065362289
 30
0.0
 11
319.83870952599591
 21
-695.72131996080032
 31
0.0
  0
LINE
  5
190A6
  8
1PHANTOM
 10
315.83870952599591
 20
-694.92131065362287
 30
0.0
 11
319.61230247379171
 21
-694.12131943399766
 31
0.0
  0
LINE
  5
190A7
  8
1PHANTOM
 10
315.83870952599591
 20
-698.12131065362291
 30
0.0
 11
319.83870952599591
 21
-697.32131996080034
 31
0.0
  0
LINE
  5
190A8
  8
1PHANTOM
 10
315.83870952599591
 20
-710.9213106536273
 30
0.0
 11
319.83870952599591
 21
-710.12131996080905
 31
0.0
  0
LINE
  5
190A9
  8
1PHANTOM
 10
319.83870952599591
 20
-710.12131996080905
 30
0.0
 11
319.33870952599591
 21
-710.02131879741125
 31
0.0
  0
LINE
  5
190AA
  8
1PHANTOM
 10
316.33870952599591
 20
-709.42131181702064
 30
0.0
 11
315.83870952599591
 21
-709.32131065362296
 31
0.0
  0
LINE
  5
190AB
  8
1PHANTOM
 10
319.83870952599591
 20
-711.72131996080918
 30
0.0
 11
319.33870952599591
 21
-711.6213187974115
 31
0.0
  0
LINE
  5
190AC
  8
1PHANTOM
 10
319.83870952599591
 20
-713.32131996080909
 30
0.0
 11
319.33870952599591
 21
-713.22131879741141
 31
0.0
  0
LINE
  5
190AD
  8
1PHANTOM
 10
316.33870952599591
 20
-711.02131181702498
 30
0.0
 11
315.83870952599591
 21
-710.9213106536273
 31
0.0
  0
LINE
  5
190AE
  8
1PHANTOM
 10
316.33870952599591
 20
-712.62131181702512
 30
0.0
 11
315.83870952599591
 21
-712.52131065362744
 31
0.0
  0
LINE
  5
190AF
  8
1PHANTOM
 10
315.83870952599591
 20
-712.52131065362744
 30
0.0
 11
319.83870952599591
 21
-711.72131996080918
 31
0.0
  0
LINE
  5
190B0
  8
1PHANTOM
 10
319.83870952599591
 20
-705.32131996080454
 30
0.0
 11
319.33870952599591
 21
-705.22131879740698
 31
0.0
  0
LINE
  5
190B1
  8
1PHANTOM
 10
319.83870952599591
 20
-703.72131996080032
 30
0.0
 11
319.33870952599591
 21
-703.62131879740309
 31
0.0
  0
LINE
  5
190B2
  8
1PHANTOM
 10
319.83870952599591
 20
-708.52131996080459
 30
0.0
 11
319.33870952599591
 21
-708.42131879740703
 31
0.0
  0
LINE
  5
190B3
  8
1PHANTOM
 10
319.83870952599591
 20
-706.92131996080468
 30
0.0
 11
319.33870952599591
 21
-706.82131879740712
 31
0.0
  0
LINE
  5
190B4
  8
1PHANTOM
 10
316.33870952599591
 20
-703.02131181702009
 30
0.0
 11
315.83870952599591
 21
-702.92131065362287
 31
0.0
  0
LINE
  5
190B5
  8
1PHANTOM
 10
316.33870952599591
 20
-704.62131181702057
 30
0.0
 11
315.83870952599591
 21
-704.52131065362289
 31
0.0
  0
LINE
  5
190B6
  8
1PHANTOM
 10
316.33870952599591
 20
-707.82131181702073
 30
0.0
 11
315.83870952599591
 21
-707.72131065362305
 31
0.0
  0
LINE
  5
190B7
  8
1PHANTOM
 10
316.33870952599591
 20
-706.22131181702048
 30
0.0
 11
315.83870952599591
 21
-706.12131065362291
 31
0.0
  0
LINE
  5
190B8
  8
1PHANTOM
 10
315.83870952599591
 20
-706.12131065362291
 30
0.0
 11
319.83870952599591
 21
-705.32131996080454
 31
0.0
  0
LINE
  5
190B9
  8
1PHANTOM
 10
315.83870952599591
 20
-704.52131065362289
 30
0.0
 11
319.83870952599591
 21
-703.72131996080032
 31
0.0
  0
LINE
  5
190BA
  8
1PHANTOM
 10
315.83870952599591
 20
-707.72131065362305
 30
0.0
 11
319.83870952599591
 21
-706.92131996080468
 31
0.0
  0
LINE
  5
190BB
  8
1PHANTOM
 10
315.83870952599591
 20
-709.32131065362296
 30
0.0
 11
319.83870952599591
 21
-708.52131996080459
 31
0.0
  0
LINE
  5
190BC
  8
1PHANTOM
 10
319.33870952599591
 20
-719.62131879729782
 30
0.0
 11
316.33870952599591
 21
-719.62131181691313
 31
0.0
  0
LINE
  5
190BD
  8
1PHANTOM
 10
316.33870952599591
 20
-719.02131181702919
 30
0.0
 11
315.83870952599591
 21
-718.92131065363151
 31
0.0
  0
LINE
  5
190BE
  8
1PHANTOM
 10
315.83870952599591
 20
-718.92131065363151
 30
0.0
 11
319.83870952599591
 21
-718.12131996081325
 31
0.0
  0
LINE
  5
190BF
  8
1PHANTOM
 10
319.83870952599591
 20
-718.12131996081325
 30
0.0
 11
319.33870952599591
 21
-718.02131879741546
 31
0.0
  0
LINE
  5
190C0
  8
1PHANTOM
 10
316.33870952599591
 20
-717.42131181702928
 30
0.0
 11
315.83870952599591
 21
-717.3213106536316
 31
0.0
  0
LINE
  5
190C1
  8
1PHANTOM
 10
316.33870952599591
 20
-715.82131181702925
 30
0.0
 11
315.83870952599591
 21
-715.72131065363169
 31
0.0
  0
LINE
  5
190C2
  8
1PHANTOM
 10
315.83870952599591
 20
-715.72131065363169
 30
0.0
 11
319.83870952599591
 21
-714.92131996081343
 31
0.0
  0
LINE
  5
190C3
  8
1PHANTOM
 10
319.83870952599591
 20
-716.52131996081334
 30
0.0
 11
319.33870952599591
 21
-716.42131879741555
 31
0.0
  0
LINE
  5
190C4
  8
1PHANTOM
 10
319.83870952599591
 20
-714.92131996081343
 30
0.0
 11
319.33870952599591
 21
-714.82131879741576
 31
0.0
  0
LINE
  5
190C5
  8
1PHANTOM
 10
315.83870952599591
 20
-717.3213106536316
 30
0.0
 11
319.83870952599591
 21
-716.52131996081334
 31
0.0
  0
LINE
  5
190C6
  8
1PHANTOM
 10
316.33870952599591
 20
-714.22131181702503
 30
0.0
 11
315.83870952599591
 21
-714.12131065362735
 31
0.0
  0
LINE
  5
190C7
  8
1PHANTOM
 10
314.03866299009792
 20
-719.62131530699719
 30
0.0
 11
314.03866299009792
 21
-718.62131530699719
 31
0.0
  0
LINE
  5
190C8
  8
1PHANTOM
 10
321.63866299009783
 20
-719.62131530699719
 30
0.0
 11
321.63866299009783
 21
-718.62131530699719
 31
0.0
  0
LINE
  5
190C9
  8
1PHANTOM
 10
318.33866284009792
 20
-719.62131530699719
 30
0.0
 11
317.33866314009788
 21
-718.62131530699719
 31
0.0
  0
LINE
  5
190CA
  8
1PHANTOM
 10
321.63866299009783
 20
-719.62131530699719
 30
0.0
 11
314.03866299009792
 21
-719.62131530699719
 31
0.0
  0
LINE
  5
190CB
  8
1PHANTOM
 10
321.63866299009783
 20
-718.62131530699719
 30
0.0
 11
314.03866299009792
 21
-718.62131530699719
 31
0.0
  0
CIRCLE
  5
190CD
  8
01
 10
147.83866299009779
 20
-873.37131530700515
 30
0.0
 40
2.5
  0
LINE
  5
190CE
  8
1CENTER
 10
147.83866299009779
 20
-876.37131530700503
 30
0.0
 11
147.83866299009779
 21
-870.37131530700515
 31
0.0
  0
LINE
  5
190CF
  8
1CENTER
 10
144.83866299009779
 20
-873.37131530700503
 30
0.0
 11
150.83866299009779
 21
-873.37131530700503
 31
0.0
  0
CIRCLE
  5
190D1
  8
01
 10
317.83866299009787
 20
-873.37131530700515
 30
0.0
 40
2.5
  0
LINE
  5
190D2
  8
1CENTER
 10
317.83866299009787
 20
-876.37131530700503
 30
0.0
 11
317.83866299009787
 21
-870.37131530700515
 31
0.0
  0
LINE
  5
190D3
  8
1CENTER
 10
314.83866299009787
 20
-873.37131530700503
 30
0.0
 11
320.83866299009787
 21
-873.37131530700503
 31
0.0
  0
LINE
  5
19373
  8
01
 10
809.3386629900956
 20
-830.62131530699821
 30
0.0
 11
809.3386629900956
 21
-910.62131530699776
 31
0.0
  0
LINE
  5
19375
  8
01
 10
800.33866299009549
 20
-830.62131530699821
 30
0.0
 11
800.33866299009549
 21
-910.62131530699776
 31
0.0
  0
LINE
  5
19376
  8
1CENTER
 10
802.33866299009685
 20
-873.37131530700685
 30
0.0
 11
820.33866299009685
 21
-873.37131530700685
 31
0.0
  0
LINE
  5
19377
  8
01
 10
791.83866299009765
 20
-877.1213153070064
 30
0.0
 11
683.83866299009685
 21
-877.1213153070064
 31
0.0
  0
LINE
  5
19378
  8
01
 10
791.83866299009765
 20
-869.1213153070064
 30
0.0
 11
683.83866299009765
 21
-869.1213153070064
 31
0.0
  0
LINE
  5
19379
  8
01
 10
682.83866299009685
 20
-870.12131530700663
 30
0.0
 11
682.83866299009685
 21
-876.12131530700731
 31
0.0
  0
LINE
  5
1937A
  8
01
 10
682.83866299009685
 20
-876.1213153070064
 30
0.0
 11
683.83866299009685
 21
-877.1213153070064
 31
0.0
  0
LINE
  5
1937B
  8
01
 10
683.83866299009685
 20
-869.1213153070064
 30
0.0
 11
682.83866299009685
 21
-870.12131530700663
 31
0.0
  0
LINE
  5
1937C
  8
01
 10
771.83866299009765
 20
-864.12131530700651
 30
0.0
 11
799.83866299009958
 21
-864.12131530699924
 31
0.0
  0
LINE
  5
1937D
  8
1PHANTOM
 10
799.53866648007249
 20
-871.87136184290455
 30
0.0
 11
799.63866764347028
 21
-871.37136184290455
 31
0.0
  0
LINE
  5
1937E
  8
1CENTER
 10
830.29957758125045
 20
-873.3713153070064
 30
0.0
 11
793.66838658079621
 21
-873.3713153070064
 31
0.0
  0
LINE
  5
1937F
  8
1PHANTOM
 10
822.03865949969702
 20
-874.87136184290455
 30
0.0
 11
797.33865949980452
 21
-874.87136184290455
 31
0.0
  0
LINE
  5
19380
  8
1PHANTOM
 10
822.03866648008068
 20
-871.87136184290455
 30
0.0
 11
797.33866648018909
 21
-871.87136184290455
 31
0.0
  0
LINE
  5
19381
  8
01
 10
799.83866299008503
 20
-887.6213153070064
 30
0.0
 11
771.83866299009765
 21
-887.6213153070064
 31
0.0
  0
LINE
  5
19382
  8
01
 10
770.83866299009765
 20
-865.12131530700651
 30
0.0
 11
770.83866299009765
 21
-868.62131530700651
 31
0.0
  0
LINE
  5
19383
  8
01
 10
793.83866299009765
 20
-870.12131530700663
 30
0.0
 11
793.83866299009765
 21
-876.62131530700651
 31
0.0
  0
LINE
  5
19384
  8
1PHANTOM
 10
797.33867113388703
 20
-869.8713153070064
 30
0.0
 11
797.33866648018909
 21
-871.87136184290455
 31
0.0
  0
ARC
  5
19385
  8
1PHANTOM
 10
796.23866764369166
 20
-871.37131530700651
 30
0.0
 40
1.5
 50
90.0
 51
179.99986668446189
  0
LINE
  5
19386
  8
1PHANTOM
 10
798.33866299010504
 20
-869.5713153070036
 30
0.0
 11
798.33866299010504
 21
-870.8713153070064
 31
0.0
  0
LINE
  5
19387
  8
1PHANTOM
 10
798.33866299010504
 20
-877.17131530700658
 30
0.0
 11
798.33866299010504
 21
-869.57131530700622
 31
0.0
  0
LINE
  5
19388
  8
1PHANTOM
 10
797.33866299010504
 20
-877.17131530700658
 30
0.0
 11
797.33866299010504
 21
-869.57131530700622
 31
0.0
  0
LINE
  5
19389
  8
01
 10
792.83866299009776
 20
-877.62131530700651
 30
0.0
 11
771.33866299009765
 21
-877.62131530700651
 31
0.0
  0
ARC
  5
1938A
  8
01
 10
771.33866299009765
 20
-878.12131530700663
 30
0.0
 40
0.5
 50
90.0
 51
180.0
  0
LINE
  5
1938B
  8
1PHANTOM
 10
798.33866299010504
 20
-871.32131530700622
 30
0.0
 11
797.33866299010504
 21
-871.32131530700622
 31
0.0
  0
LINE
  5
1938C
  8
1PHANTOM
 10
799.14417880804717
 20
-873.3713153070064
 30
0.0
 11
796.51507228209607
 21
-873.3713153070064
 31
0.0
  0
LINE
  5
1938D
  8
1PHANTOM
 10
797.93866648007304
 20
-871.87136184290455
 30
0.0
 11
798.03866764347083
 21
-871.37136184290455
 31
0.0
  0
LINE
  5
1938E
  8
1PHANTOM
 10
798.33866299010504
 20
-875.42131530700658
 30
0.0
 11
797.33866299010413
 21
-875.42131530700658
 31
0.0
  0
LINE
  5
1938F
  8
1PHANTOM
 10
798.33866299010504
 20
-877.17131530700658
 30
0.0
 11
797.33866299010504
 21
-877.17131530700658
 31
0.0
  0
LINE
  5
19390
  8
1PHANTOM
 10
798.83865833628874
 20
-875.37136184290455
 30
0.0
 11
798.93865949968665
 21
-874.87136184290455
 31
0.0
  0
LINE
  5
19391
  8
1PHANTOM
 10
797.33865949980452
 20
-874.87136184290455
 30
0.0
 11
797.33865484632304
 21
-876.87131530700651
 31
0.0
  0
LINE
  5
19392
  8
1PHANTOM
 10
797.33865484632304
 20
-876.87131530700651
 30
0.0
 11
796.23865833651223
 21
-876.87131530700651
 31
0.0
  0
ARC
  5
19393
  8
1PHANTOM
 10
796.23865833651223
 20
-875.3713153070064
 30
0.0
 40
1.5
 50
179.99986668446189
 51
270.0
  0
ARC
  5
19394
  8
01
 10
792.83866299009776
 20
-876.62131530700651
 30
0.0
 40
1.0
 50
270.0
 51
0.0
  0
LINE
  5
19395
  8
1PHANTOM
 10
798.33866299010504
 20
-875.87131530700651
 30
0.0
 11
798.33866299010504
 21
-877.17131530700215
 31
0.0
  0
LINE
  5
19396
  8
01
 10
792.83866299009776
 20
-876.1213153070064
 30
0.0
 11
791.83866299009765
 21
-877.1213153070064
 31
0.0
  0
LINE
  5
19397
  8
1PHANTOM
 10
797.33865949980452
 20
-874.87136184290455
 30
0.0
 11
797.33866648018909
 21
-871.87136184290455
 31
0.0
  0
LINE
  5
19398
  8
1PHANTOM
 10
798.03866764347083
 20
-871.37136184290455
 30
0.0
 11
798.83865833628874
 21
-875.37136184290455
 31
0.0
  0
LINE
  5
19399
  8
1PHANTOM
 10
794.73866764369529
 20
-871.37131181681423
 30
0.0
 11
794.73865833651575
 21
-875.37131181681434
 31
0.0
  0
LINE
  5
1939A
  8
01
 10
792.83866299009776
 20
-869.1213153070064
 30
0.0
 11
771.33866299009765
 21
-869.1213153070064
 31
0.0
  0
ARC
  5
1939B
  8
01
 10
771.33866299009765
 20
-868.62131530700651
 30
0.0
 40
0.5
 50
180.0
 51
270.0
  0
LINE
  5
1939C
  8
1PHANTOM
 10
798.33866299010504
 20
-869.57131530700622
 30
0.0
 11
797.33866299010504
 21
-869.57131530700622
 31
0.0
  0
LINE
  5
1939D
  8
1PHANTOM
 10
797.33867113388703
 20
-869.8713153070064
 30
0.0
 11
796.23866764369166
 21
-869.8713153070064
 31
0.0
  0
ARC
  5
1939E
  8
01
 10
792.83866299009776
 20
-870.12131530700663
 30
0.0
 40
1.0
 50
0.0
 51
90.0
  0
LINE
  5
1939F
  8
01
 10
792.83866299009776
 20
-870.12131530700663
 30
0.0
 11
791.83866299009765
 21
-869.1213153070064
 31
0.0
  0
ARC
  5
193A0
  8
01
 10
771.83866299009765
 20
-886.62131530700651
 30
0.0
 40
1.0
 50
180.0
 51
270.0
  0
LINE
  5
193A1
  8
01
 10
770.83866299009765
 20
-878.12131530700663
 30
0.0
 11
770.83866299009765
 21
-886.62131530700651
 31
0.0
  0
ARC
  5
193A2
  8
01
 10
771.83866299009765
 20
-865.12131530700651
 30
0.0
 40
1.0
 50
90.0
 51
180.0
  0
LINE
  5
193A3
  8
01
 10
800.33866299009958
 20
-864.62131530699912
 30
0.0
 11
800.33866299008503
 21
-887.12131530700651
 31
0.0
  0
LINE
  5
193A4
  8
1PHANTOM
 10
823.63866658986876
 20
-871.82417798496306
 30
0.0
 11
824.43865991670998
 21
-874.69214068629378
 31
0.0
  0
LINE
  5
193A5
  8
1PHANTOM
 10
827.33866298994212
 20
-873.37136184290455
 30
0.0
 11
822.03866648008068
 21
-871.87136184290455
 31
0.0
  0
LINE
  5
193A6
  8
1PHANTOM
 10
827.33866298994212
 20
-873.37136184290455
 30
0.0
 11
822.03865949969702
 21
-874.87136184290455
 31
0.0
  0
LINE
  5
193A7
  8
1PHANTOM
 10
810.8386676434792
 20
-871.37136184290455
 30
0.0
 11
811.63865833629723
 21
-875.37136184290455
 31
0.0
  0
LINE
  5
193A8
  8
1PHANTOM
 10
807.53866648008147
 20
-871.87136184290455
 30
0.0
 11
807.63866764347927
 21
-871.37136184290455
 31
0.0
  0
LINE
  5
193A9
  8
1PHANTOM
 10
809.13866648008093
 20
-871.87136184290455
 30
0.0
 11
809.23866764347883
 21
-871.37136184290455
 31
0.0
  0
LINE
  5
193AA
  8
1PHANTOM
 10
810.73866648008129
 20
-871.87136184290455
 30
0.0
 11
810.8386676434792
 21
-871.37136184290455
 31
0.0
  0
LINE
  5
193AB
  8
1PHANTOM
 10
806.83865833629238
 20
-875.37136184290455
 30
0.0
 11
806.93865949969029
 21
-874.87136184290455
 31
0.0
  0
LINE
  5
193AC
  8
1PHANTOM
 10
808.43865833629741
 20
-875.37136184290455
 30
0.0
 11
808.5386594996952
 21
-874.87136184290455
 31
0.0
  0
LINE
  5
193AD
  8
1PHANTOM
 10
810.03865833629675
 20
-875.37136184290455
 30
0.0
 11
810.13865949969465
 21
-874.87136184290455
 31
0.0
  0
LINE
  5
193AE
  8
1PHANTOM
 10
809.23866764347883
 20
-871.37136184290455
 30
0.0
 11
810.03865833629675
 21
-875.37136184290455
 31
0.0
  0
LINE
  5
193AF
  8
1PHANTOM
 10
807.63866764347927
 20
-871.37136184290455
 30
0.0
 11
808.43865833629741
 21
-875.37136184290455
 31
0.0
  0
LINE
  5
193B0
  8
1PHANTOM
 10
805.93866648007668
 20
-871.87136184290455
 30
0.0
 11
806.03866764347435
 21
-871.37136184290455
 31
0.0
  0
LINE
  5
193B1
  8
1PHANTOM
 10
804.33866648007722
 20
-871.87136184290455
 30
0.0
 11
804.43866764347399
 21
-871.37136184290455
 31
0.0
  0
LINE
  5
193B2
  8
1PHANTOM
 10
805.23865833629293
 20
-875.37136184290455
 30
0.0
 11
805.33865949969083
 21
-874.87136184290455
 31
0.0
  0
LINE
  5
193B3
  8
1PHANTOM
 10
803.63865833629256
 20
-875.37136184290455
 30
0.0
 11
803.73865949969036
 21
-874.87136184290455
 31
0.0
  0
LINE
  5
193B4
  8
1PHANTOM
 10
802.83866764347454
 20
-871.37136184290455
 30
0.0
 11
803.63865833629256
 21
-875.37136184290455
 31
0.0
  0
LINE
  5
193B5
  8
1PHANTOM
 10
804.43866764347399
 20
-871.37136184290455
 30
0.0
 11
805.23865833629293
 21
-875.37136184290455
 31
0.0
  0
LINE
  5
193B6
  8
1PHANTOM
 10
806.03866764347435
 20
-871.37136184290455
 30
0.0
 11
806.83865833629238
 21
-875.37136184290455
 31
0.0
  0
LINE
  5
193B7
  8
1PHANTOM
 10
812.33866648008075
 20
-871.87136184290455
 30
0.0
 11
812.43866764347865
 21
-871.37136184290455
 31
0.0
  0
LINE
  5
193B8
  8
1PHANTOM
 10
817.13866648008184
 20
-871.87136184290455
 30
0.0
 11
817.23866764347883
 21
-871.37136184290455
 31
0.0
  0
LINE
  5
193B9
  8
1PHANTOM
 10
815.53866648008147
 20
-871.87136184290455
 30
0.0
 11
815.63866764347927
 21
-871.37136184290455
 31
0.0
  0
LINE
  5
193BA
  8
1PHANTOM
 10
813.93866648008202
 20
-871.87136184290455
 30
0.0
 11
814.03866764347902
 21
-871.37136184290455
 31
0.0
  0
LINE
  5
193BB
  8
1PHANTOM
 10
811.63865833629723
 20
-875.37136184290455
 30
0.0
 11
811.73865949969513
 21
-874.87136184290455
 31
0.0
  0
LINE
  5
193BC
  8
1PHANTOM
 10
813.23865833630111
 20
-875.37136184290455
 30
0.0
 11
813.33865949969902
 21
-874.87136184290455
 31
0.0
  0
LINE
  5
193BD
  8
1PHANTOM
 10
814.83865833630159
 20
-875.37136184290455
 30
0.0
 11
814.93865949969836
 21
-874.87136184290455
 31
0.0
  0
LINE
  5
193BE
  8
1PHANTOM
 10
816.43865833630196
 20
-875.37136184290455
 30
0.0
 11
816.53865949969884
 21
-874.87136184290455
 31
0.0
  0
LINE
  5
193BF
  8
1PHANTOM
 10
812.43866764347865
 20
-871.37136184290455
 30
0.0
 11
813.23865833630111
 21
-875.37136184290455
 31
0.0
  0
LINE
  5
193C0
  8
1PHANTOM
 10
814.03866764347902
 20
-871.37136184290455
 30
0.0
 11
814.83865833630159
 21
-875.37136184290455
 31
0.0
  0
LINE
  5
193C1
  8
1PHANTOM
 10
817.23866764347883
 20
-871.37136184290455
 30
0.0
 11
818.0386583363013
 21
-875.37136184290455
 31
0.0
  0
LINE
  5
193C2
  8
1PHANTOM
 10
815.63866764347927
 20
-871.37136184290455
 30
0.0
 11
816.43865833630196
 21
-875.37136184290455
 31
0.0
  0
LINE
  5
193C3
  8
1PHANTOM
 10
818.0386583363013
 20
-875.37136184290455
 30
0.0
 11
818.13865949969909
 21
-874.87136184290455
 31
0.0
  0
LINE
  5
193C4
  8
1PHANTOM
 10
818.73866648008129
 20
-871.87136184290455
 30
0.0
 11
818.8386676434792
 21
-871.37136184290455
 31
0.0
  0
LINE
  5
193C5
  8
1PHANTOM
 10
821.23865833630111
 20
-875.37136184290455
 30
0.0
 11
821.33865949969902
 21
-874.87136184290455
 31
0.0
  0
LINE
  5
193C6
  8
1PHANTOM
 10
819.63865833630177
 20
-875.37136184290455
 30
0.0
 11
819.73865949969866
 21
-874.87136184290455
 31
0.0
  0
LINE
  5
193C7
  8
1PHANTOM
 10
822.83865886310457
 20
-875.14495479070035
 30
0.0
 11
822.96792956073364
 21
-874.60836105542955
 31
0.0
  0
LINE
  5
193C8
  8
1PHANTOM
 10
823.52589707751838
 20
-872.29227644011269
 30
0.0
 11
823.63866658986876
 21
-871.82417798496306
 31
0.0
  0
LINE
  5
193C9
  8
1PHANTOM
 10
820.33866648008166
 20
-871.87136184290455
 30
0.0
 11
820.43866764347865
 21
-871.37136184290455
 31
0.0
  0
LINE
  5
193CA
  8
1PHANTOM
 10
821.93866648008202
 20
-871.87136184290455
 30
0.0
 11
822.03866764347902
 21
-871.37136184290455
 31
0.0
  0
LINE
  5
193CB
  8
1PHANTOM
 10
820.43866764347865
 20
-871.37136184290455
 30
0.0
 11
821.23865833630111
 21
-875.37136184290455
 31
0.0
  0
LINE
  5
193CC
  8
1PHANTOM
 10
822.03866764347902
 20
-871.37136184290455
 30
0.0
 11
822.83865886310457
 21
-875.14495479070035
 31
0.0
  0
LINE
  5
193CD
  8
1PHANTOM
 10
818.8386676434792
 20
-871.37136184290455
 30
0.0
 11
819.63865833630177
 21
-875.37136184290455
 31
0.0
  0
LINE
  5
193CE
  8
1PHANTOM
 10
826.03866097031539
 20
-874.2393265818863
 30
0.0
 11
826.35043082656728
 21
-873.65105000684423
 31
0.0
  0
LINE
  5
193CF
  8
1PHANTOM
 10
824.43865991670998
 20
-874.69214068629378
 30
0.0
 11
824.62142405933798
 21
-874.14039122249028
 31
0.0
  0
LINE
  5
193D0
  8
1PHANTOM
 10
825.08722973982435
 20
-872.73416333364253
 30
0.0
 11
825.23866553626408
 21
-872.27699149301111
 31
0.0
  0
LINE
  5
193D1
  8
1PHANTOM
 10
825.23866553626408
 20
-872.27699149301111
 30
0.0
 11
826.03866097031539
 21
-874.2393265818863
 31
0.0
  0
LINE
  5
193D2
  8
1PHANTOM
 10
802.03865833628868
 20
-875.37136184290455
 30
0.0
 11
802.13865949968647
 21
-874.87136184290455
 31
0.0
  0
LINE
  5
193D3
  8
1PHANTOM
 10
801.13866648007286
 20
-871.87136184290455
 30
0.0
 11
801.23866764347065
 21
-871.37136184290455
 31
0.0
  0
LINE
  5
193D4
  8
1PHANTOM
 10
800.43865833628831
 20
-875.37136184290455
 30
0.0
 11
800.53865949968599
 21
-874.87136184290455
 31
0.0
  0
LINE
  5
193D5
  8
1PHANTOM
 10
799.63866764347028
 20
-871.37136184290455
 30
0.0
 11
800.43865833628831
 21
-875.37136184290455
 31
0.0
  0
LINE
  5
193D6
  8
1PHANTOM
 10
801.23866764347065
 20
-871.37136184290455
 30
0.0
 11
802.03865833628868
 21
-875.37136184290455
 31
0.0
  0
ARC
  5
193D7
  8
01
 10
799.83866299008503
 20
-887.12131530700651
 30
0.0
 40
0.5
 50
270.0
 51
359.99999999996089
  0
ARC
  5
193D9
  8
01
 10
799.83866299009958
 20
-864.62131530699912
 30
0.0
 40
0.5
 50
359.99999999996089
 51
90.000000000026048
  0
LINE
  5
193E0
  8
01
 10
792.83866299009776
 20
-876.1213153070064
 30
0.0
 11
792.83866299009776
 21
-870.12131530700663
 31
0.0
  0
LINE
  5
193E6
  8
1PHANTOM
 10
775.63866299009794
 20
-877.12131530700685
 30
0.0
 11
782.03866299009746
 21
-877.12131530700594
 31
0.0
  0
LINE
  5
193E7
  8
1PHANTOM
 10
775.46866299009776
 20
-879.12131530700685
 30
0.0
 11
782.20866299009765
 21
-879.12131530700685
 31
0.0
  0
LINE
  5
193E8
  8
1PHANTOM
 10
775.63866299009794
 20
-877.12131530700685
 30
0.0
 11
775.63866299009794
 21
-879.12131530700685
 31
0.0
  0
LINE
  5
193E9
  8
1PHANTOM
 10
782.03866299009746
 20
-877.12131530700685
 30
0.0
 11
782.03866299009746
 21
-879.12131530700685
 31
0.0
  0
LINE
  5
193EA
  8
1PHANTOM
 10
774.83866299009765
 20
-879.75131530700696
 30
0.0
 11
782.83866299009765
 21
-879.75131530700696
 31
0.0
  0
LINE
  5
193EB
  8
1PHANTOM
 10
775.46866299009776
 20
-887.12131530700685
 30
0.0
 11
782.20866299009765
 21
-887.12131530700685
 31
0.0
  0
LINE
  5
193EC
  8
1PHANTOM
 10
774.83866299009765
 20
-886.49131530700674
 30
0.0
 11
782.83866299009765
 21
-886.49131530700674
 31
0.0
  0
LINE
  5
193ED
  8
1PHANTOM
 10
775.46866299009776
 20
-887.12131530700685
 30
0.0
 11
774.83866299009765
 21
-886.49131530700674
 31
0.0
  0
LINE
  5
193EE
  8
1PHANTOM
 10
774.83866299009765
 20
-879.75131530700696
 30
0.0
 11
774.83866299009765
 21
-886.49131530700504
 31
0.0
  0
LINE
  5
193EF
  8
1PHANTOM
 10
774.83866299009765
 20
-879.75131530700696
 30
0.0
 11
774.83866299009765
 21
-886.49131530700674
 31
0.0
  0
LINE
  5
193F0
  8
1PHANTOM
 10
782.20866299009765
 20
-887.12131530700685
 30
0.0
 11
782.83866299009765
 21
-886.49131530700674
 31
0.0
  0
LINE
  5
193F1
  8
1PHANTOM
 10
782.83866299009765
 20
-879.75131530700696
 30
0.0
 11
782.83866299009765
 21
-886.49131530700504
 31
0.0
  0
LINE
  5
193F2
  8
1PHANTOM
 10
782.83866299009765
 20
-879.75131530700696
 30
0.0
 11
782.83866299009765
 21
-886.49131530700674
 31
0.0
  0
LINE
  5
193F3
  8
1PHANTOM
 10
775.46866299009776
 20
-879.12131530700685
 30
0.0
 11
774.83866299009765
 21
-879.75131530700696
 31
0.0
  0
LINE
  5
193F4
  8
1PHANTOM
 10
775.46866299009776
 20
-879.12131530700685
 30
0.0
 11
775.46866299009776
 21
-887.12131530700685
 31
0.0
  0
LINE
  5
193F5
  8
1PHANTOM
 10
782.83866299009765
 20
-879.75131530700696
 30
0.0
 11
782.20866299009765
 21
-879.12131530700685
 31
0.0
  0
LINE
  5
193F6
  8
1CENTER
 10
778.83866299009765
 20
-876.35676465013182
 30
0.0
 11
778.83866299009765
 21
-887.90926038573275
 31
0.0
  0
LINE
  5
193F7
  8
1PHANTOM
 10
782.20866299009765
 20
-879.12131530700685
 30
0.0
 11
782.20866299009765
 21
-887.12131530700685
 31
0.0
  0
LINE
  5
19689
  8
1DIM1
 10
632.83866299009821
 20
-725.12131530700458
 30
0.0
 11
632.83866299009821
 21
-671.6213153070039
 31
0.0
  0
LINE
  5
1968A
  8
1DIM1
 10
532.8386629900973
 20
-716.62131530699753
 30
0.0
 11
532.8386629900973
 21
-671.6213153070039
 31
0.0
  0
LINE
  5
1968B
  8
1DIM1
 10
622.83866299009821
 20
-676.62131530700401
 30
0.0
 11
542.83866299009719
 21
-676.62131530700401
 31
0.0
  0
LINE
  5
1968F
  8
1DIM1
 10
-167.16133700990119
 20
-725.12131530700469
 30
0.0
 11
-167.16133700990119
 21
-671.62131530700412
 31
0.0
  0
LINE
  5
19690
  8
1DIM1
 10
-67.161337009900308
 20
-716.62131530699764
 30
0.0
 11
-67.161337009900308
 21
-671.62131530700412
 31
0.0
  0
LINE
  5
19691
  8
1DIM1
 10
-157.16133700990119
 20
-676.62131530700412
 30
0.0
 11
-77.161337009900308
 21
-676.62131530700412
 31
0.0
  0
LINE
  5
19695
  8
1DIM1
 10
-67.161337009900308
 20
-716.62131530699764
 30
0.0
 11
-67.161337009900308
 21
-671.62131530700412
 31
0.0
  0
LINE
  5
19696
  8
1DIM1
 10
532.83866299009776
 20
-716.62131530700401
 30
0.0
 11
532.83866299009776
 21
-671.62131530700412
 31
0.0
  0
LINE
  5
19697
  8
1DIM1
 10
-57.161337009900308
 20
-676.62131530700412
 30
0.0
 11
522.83866299009776
 21
-676.62131530700412
 31
0.0
  0
LINE
  5
1969B
  8
1DIM
 10
800.33866299008503
 20
-887.12131530700651
 30
0.0
 11
800.33866299008503
 21
-898.62131530700663
 31
0.0
  0
LINE
  5
1969C
  8
1DIM
 10
778.83866299009765
 20
-887.90926038573275
 30
0.0
 11
778.83866299009765
 21
-898.62131530700663
 31
0.0
  0
LINE
  5
1969D
  8
1DIM
 10
798.33866299008503
 20
-897.6213153070064
 30
0.0
 11
780.83866299009776
 21
-897.6213153070064
 31
0.0
  0
LINE
  5
196A1
  8
1DIM
 10
683.83866299009685
 20
-869.1213153070064
 30
0.0
 11
671.83866299009685
 21
-869.1213153070064
 31
0.0
  0
LINE
  5
196A2
  8
1DIM
 10
683.83866299009685
 20
-877.1213153070064
 30
0.0
 11
671.83866299009685
 21
-877.1213153070064
 31
0.0
  0
LINE
  5
196A3
  8
1DIM
 10
672.83866299009696
 20
-871.12131530700651
 30
0.0
 11
672.83866299009696
 21
-875.1213153070064
 31
0.0
  0
LINE
  5
196A7
  8
1DIM
 10
683.83866299009685
 20
-869.1213153070064
 30
0.0
 11
671.83866299009685
 21
-869.1213153070064
 31
0.0
  0
LINE
  5
196A8
  8
1DIM
 10
771.83866299009742
 20
-864.12131530700651
 30
0.0
 11
671.83866299009685
 21
-864.12131530700628
 31
0.0
  0
LINE
  5
196A9
  8
1DIM
 10
672.83866299009696
 20
-871.12131530700651
 30
0.0
 11
672.83866299009696
 21
-873.12131530700651
 31
0.0
  0
LINE
  5
196AA
  8
1DIM
 10
672.83866299009696
 20
-862.1213153070064
 30
0.0
 11
672.83866299009696
 21
-856.38798197367305
 31
0.0
  0
LINE
  5
196AB
  8
1DIM
 10
672.83866299009696
 20
-869.1213153070064
 30
0.0
 11
672.83866299009696
 21
-864.12131530700628
 31
0.0
  0
LINE
  5
196AF
  8
1DIM
 10
771.83866299009765
 20
-887.6213153070064
 30
0.0
 11
661.83866299009685
 21
-887.6213153070064
 31
0.0
  0
LINE
  5
196B0
  8
1DIM
 10
771.83866299009742
 20
-864.12131530700651
 30
0.0
 11
661.83866299009685
 21
-864.12131530700628
 31
0.0
  0
LINE
  5
196B1
  8
1DIM
 10
662.83866299009685
 20
-885.62131530700628
 30
0.0
 11
662.83866299009685
 21
-866.12131530700628
 31
0.0
  0
LINE
  5
196B5
  8
1DIM
 10
830.29957758125045
 20
-873.3713153070064
 30
0.0
 11
841.33866299009549
 21
-873.3713153070064
 31
0.0
  0
LINE
  5
196B6
  8
1DIM
 10
799.83866299009935
 20
-864.12131530699924
 30
0.0
 11
841.33866299009549
 21
-864.12131530699924
 31
0.0
  0
LINE
  5
196B7
  8
1DIM
 10
840.33866299009549
 20
-871.37131530700651
 30
0.0
 11
840.33866299009549
 21
-866.12131530699924
 31
0.0
  0
LINE
  5
196BB
  8
1DIM
 10
800.33866299009549
 20
-910.62131530699776
 30
0.0
 11
800.33866299009549
 21
-906.6213153070064
 31
0.0
  0
LINE
  5
196BC
  8
1DIM
 10
770.83866299009765
 20
-886.62131530700651
 30
0.0
 11
770.83866299009765
 21
-908.62131530700651
 31
0.0
  0
LINE
  5
196BD
  8
1DIM
 10
798.3386629900956
 20
-907.62131530700663
 30
0.0
 11
772.83866299009776
 21
-907.62131530700663
 31
0.0
  0
TEXT
  5
196C1
  8
1DIM
 10
692.87437964899823
 20
-900.815939557761
 30
0.0
 40
3.5
  1
材質：ガラス
  0
SOLID
  5
196C2
  8
1DIM
 10
735.24526269276919
 20
-878.56933413560489
 30
0.0
 11
736.67437964899818
 21
-877.13102407288227
 31
0.0
 12
735.78899119723212
 22
-878.95508503693759
 32
0.0
 13
735.78899119723212
 23
-878.95508503693759
 33
0.0
  0
TEXT
  5
196C4
  8
1DIM
 10
805.99376423248793
 20
-808.08440749893271
 30
0.0
 40
3.5
  1
PB
  0
SOLID
  5
196C5
  8
1DIM
 10
806.89829434413093
 20
-827.23716850262247
 30
0.0
 11
806.91863161217486
 21
-829.26465401592213
 31
0.0
 12
806.24183078673866
 22
-827.35335818486919
 32
0.0
 13
806.24183078673866
 23
-827.35335818486919
 33
0.0
  0
SOLID
  5
196C7
  8
1DIM
 10
814.96181515666149
 20
-827.24155503272175
 30
0.0
 11
815.41661382611619
 21
-829.21747742020898
 31
0.0
 12
814.34555917528485
 22
-827.49586391943615
 32
0.0
 13
814.34555917528485
 23
-827.49586391943615
 33
0.0
  0
TEXT
  5
196C9
  8
1DIM
 10
812.16110872702632
 20
-814.08575351605657
 30
0.0
 40
3.5
  1
合板9mm以上
  0
LINE
  5
196CA
  8
1HATCH
 10
802.25798707913145
 20
-873.72494120225474
 30
0.0
 11
802.25798707913145
 21
-873.72494120225474
 31
0.0
  0
LINE
  5
196CB
  8
1HATCH
 10
798.61459051437123
 20
-885.91573554055981
 30
0.0
 11
798.61459051437123
 21
-885.91573554055981
 31
0.0
  0
LINE
  5
196CC
  8
1DIM
 10
682.83866299009685
 20
-876.1213153070064
 30
0.0
 11
682.83866299009685
 21
-918.62131530700651
 31
0.0
  0
LINE
  5
196CD
  8
1DIM
 10
800.33866299009549
 20
-887.12131530700651
 30
0.0
 11
800.33866299009549
 21
-918.62131530700651
 31
0.0
  0
LINE
  5
196CE
  8
1DIM
 10
684.83866299009685
 20
-917.62131530700651
 30
0.0
 11
798.3386629900956
 21
-917.62131530700651
 31
0.0
  0
TEXT
  5
196D2
  8
1DIM
 10
737.40644574463522
 20
-925.86338169281601
 30
0.0
 40
3.5
  1
材質：アルミ
  0
TEXT
  5
196D3
  8
1DIM
 10
707.7731124113019
 20
-931.69671502614926
 30
0.0
 40
3.5
  1
仕上げ：ブラストアルマイト
  0
SOLID
  5
196D4
  8
1DIM
 10
779.69444398935764
 20
-890.37748125612154
 30
0.0
 11
780.73977907796859
 21
-888.6401310716077
 31
0.0
 12
780.31441351344915
 22
-890.62259803164307
 32
0.0
 13
780.31441351344915
 23
-890.62259803164307
 33
0.0
  0
LINE
  5
196D6
  8
1PHANTOM
 10
317.8387095259958
 20
-689.62131530715953
 30
0.0
 11
316.3387095259958
 21
-694.92131181702121
 31
0.0
  0
LINE
  5
196D7
  8
1PHANTOM
 10
316.3387095259958
 20
-694.92131181702121
 30
0.0
 11
316.33870952599602
 21
-719.62131181691313
 31
0.0
  0
LINE
  5
196D8
  8
1PHANTOM
 10
317.8387095259958
 20
-689.62131530715953
 30
0.0
 11
319.33870952599591
 21
-694.92131879740487
 31
0.0
  0
LINE
  5
196D9
  8
1PHANTOM
 10
314.33866299009799
 20
-719.62130716321508
 30
0.0
 11
316.33870952599602
 21
-719.62131181691313
 31
0.0
  0
LINE
  5
196DA
  8
1PHANTOM
 10
319.33870952599591
 20
-694.92131879740487
 30
0.0
 11
319.3387095259958
 21
-719.62131879729782
 31
0.0
  0
LINE
  5
196DB
  8
1PHANTOM
 10
314.33866299009799
 20
-719.62130716321508
 30
0.0
 11
314.33866299009787
 21
-720.72131065341034
 31
0.0
  0
LINE
  5
196DC
  8
1PHANTOM
 10
319.3387095259958
 20
-719.62131879729782
 30
0.0
 11
321.33866299009787
 21
-719.62132345077919
 31
0.0
  0
ARC
  5
196DD
  8
1PHANTOM
 10
315.83866299009787
 20
-720.72131065341034
 30
0.0
 40
1.5
 50
180.0
 51
269.99986668447059
  0
LINE
  5
196DE
  8
1PHANTOM
 10
321.33866299009787
 20
-719.62132345077919
 30
0.0
 11
321.33866299009787
 21
-720.72131996058999
 31
0.0
  0
LINE
  5
196DF
  8
1PHANTOM
 10
315.83865949990548
 20
-722.22131065340625
 30
0.0
 11
319.83865949990548
 21
-722.22131996058579
 31
0.0
  0
ARC
  5
196E0
  8
1PHANTOM
 10
319.83866299009787
 20
-720.72131996058999
 30
0.0
 40
1.5
 50
269.99986668447059
 51
0.0
  0
LINE
  5
196E1
  8
1PHANTOM
 10
147.83870952599591
 20
-689.62131530715953
 30
0.0
 11
146.33870952599591
 21
-694.92131181702121
 31
0.0
  0
LINE
  5
196E2
  8
1PHANTOM
 10
146.33870952599591
 20
-694.92131181702121
 30
0.0
 11
146.33870952599591
 21
-719.62131181691313
 31
0.0
  0
LINE
  5
196E3
  8
1PHANTOM
 10
147.83870952599591
 20
-689.62131530715953
 30
0.0
 11
149.33870952599591
 21
-694.92131879740487
 31
0.0
  0
LINE
  5
196E4
  8
1PHANTOM
 10
144.33866299009779
 20
-719.62130716321508
 30
0.0
 11
146.33870952599591
 21
-719.62131181691313
 31
0.0
  0
LINE
  5
196E5
  8
1PHANTOM
 10
149.33870952599591
 20
-694.92131879740487
 30
0.0
 11
149.33870952599591
 21
-719.62131879729782
 31
0.0
  0
LINE
  5
196E6
  8
1PHANTOM
 10
144.33866299009779
 20
-719.62130716321508
 30
0.0
 11
144.33866299009779
 21
-720.72131065341034
 31
0.0
  0
LINE
  5
196E7
  8
1PHANTOM
 10
149.33870952599591
 20
-719.62131879729782
 30
0.0
 11
151.3386629900979
 21
-719.62132345077919
 31
0.0
  0
ARC
  5
196E8
  8
1PHANTOM
 10
145.83866299009779
 20
-720.72131065341034
 30
0.0
 40
1.5
 50
180.0
 51
269.99986668447491
  0
LINE
  5
196E9
  8
1PHANTOM
 10
151.3386629900979
 20
-719.62132345077919
 30
0.0
 11
151.3386629900979
 21
-720.72131996058999
 31
0.0
  0
LINE
  5
196EA
  8
1PHANTOM
 10
145.83865949990559
 20
-722.22131065340625
 30
0.0
 11
149.83865949990559
 21
-722.22131996058579
 31
0.0
  0
ARC
  5
196EB
  8
1PHANTOM
 10
149.83866299009779
 20
-720.72131996058999
 30
0.0
 40
1.5
 50
269.99986668447491
 51
0.0
  0
LINE
  5
196EC
  8
1DIM1
 10
-22.16133700990213
 20
-876.37131530700503
 30
0.0
 11
-22.16133700990213
 21
-922.6213153070064
 31
0.0
  0
LINE
  5
196ED
  8
1DIM1
 10
147.83866299009779
 20
-876.37131530700503
 30
0.0
 11
147.83866299009779
 21
-922.6213153070064
 31
0.0
  0
LINE
  5
196EE
  8
1DIM1
 10
-12.16133700990213
 20
-917.62131530700628
 30
0.0
 11
137.8386629900979
 21
-917.62131530700628
 31
0.0
  0
LINE
  5
196F2
  8
1PHANTOM
 10
-22.16129047400409
 20
-689.62131530715953
 30
0.0
 11
-23.66129047400409
 21
-694.92131181702121
 31
0.0
  0
LINE
  5
196F3
  8
1PHANTOM
 10
-23.66129047400409
 20
-694.92131181702121
 30
0.0
 11
-23.66129047400409
 21
-719.62131181691313
 31
0.0
  0
LINE
  5
196F4
  8
1PHANTOM
 10
-22.16129047400409
 20
-689.62131530715953
 30
0.0
 11
-20.66129047400409
 21
-694.92131879740487
 31
0.0
  0
LINE
  5
196F5
  8
1PHANTOM
 10
-25.66133700990213
 20
-719.62130716321508
 30
0.0
 11
-23.66129047400409
 21
-719.62131181691313
 31
0.0
  0
LINE
  5
196F6
  8
1PHANTOM
 10
-20.66129047400409
 20
-694.92131879740487
 30
0.0
 11
-20.66129047400409
 21
-719.62131879729782
 31
0.0
  0
LINE
  5
196F7
  8
1PHANTOM
 10
-25.66133700990213
 20
-719.62130716321508
 30
0.0
 11
-25.66133700990213
 21
-720.72131065341034
 31
0.0
  0
LINE
  5
196F8
  8
1PHANTOM
 10
-20.66129047400409
 20
-719.62131879729782
 30
0.0
 11
-18.66133700990213
 21
-719.62132345077919
 31
0.0
  0
ARC
  5
196F9
  8
1PHANTOM
 10
-24.16133700990213
 20
-720.72131065341034
 30
0.0
 40
1.5
 50
180.0
 51
269.99986668447491
  0
LINE
  5
196FA
  8
1PHANTOM
 10
-18.66133700990213
 20
-719.62132345077919
 30
0.0
 11
-18.66133700990213
 21
-720.72131996058999
 31
0.0
  0
LINE
  5
196FB
  8
1PHANTOM
 10
-24.161340500094411
 20
-722.22131065340625
 30
0.0
 11
-20.161340500094411
 21
-722.22131996058579
 31
0.0
  0
ARC
  5
196FC
  8
1PHANTOM
 10
-20.16133700990213
 20
-720.72131996058999
 30
0.0
 40
1.5
 50
269.99986668447491
 51
0.0
  0
LINE
  5
196FD
  8
1DIM1
 10
147.83866299009779
 20
-876.37131530700503
 30
0.0
 11
147.83866299009779
 21
-922.6213153070064
 31
0.0
  0
LINE
  5
196FE
  8
1DIM1
 10
317.83866299009787
 20
-876.37131530700503
 30
0.0
 11
317.83866299009787
 21
-922.6213153070064
 31
0.0
  0
LINE
  5
196FF
  8
1DIM1
 10
157.83866299009779
 20
-917.62131530700651
 30
0.0
 11
307.83866299009787
 21
-917.62131530700651
 31
0.0
  0
LINE
  5
19703
  8
1DIM
 10
627.83866299009867
 20
-834.12131530700447
 30
0.0
 11
663.83866299009696
 21
-834.12131530700447
 31
0.0
  0
LINE
  5
19704
  8
1DIM
 10
532.83866299009776
 20
-716.62131530700458
 30
0.0
 11
663.83866299009708
 21
-716.62131530700458
 31
0.0
  0
LINE
  5
19705
  8
1DIM
 10
662.83866299009685
 20
-832.12131530700435
 30
0.0
 11
662.83866299009708
 21
-718.62131530700447
 31
0.0
  0
LINE
  5
19709
  8
1DIM
 10
631.83866299009867
 20
-724.12131530700469
 30
0.0
 11
653.83866299009696
 21
-724.12131530700469
 31
0.0
  0
LINE
  5
1970A
  8
1DIM
 10
627.83866299009867
 20
-834.12131530700447
 30
0.0
 11
653.83866299009685
 21
-834.12131530700447
 31
0.0
  0
LINE
  5
1970B
  8
1DIM
 10
652.83866299009696
 20
-726.12131530700458
 30
0.0
 11
652.83866299009685
 21
-832.12131530700435
 31
0.0
  0
LINE
  5
1970F
  8
1DIM
 10
631.83866299009867
 20
-724.12131530700469
 30
0.0
 11
653.83866299009685
 21
-724.12131530700469
 31
0.0
  0
LINE
  5
19710
  8
1DIM
 10
532.83866299009776
 20
-716.62131530700458
 30
0.0
 11
653.83866299009685
 21
-716.62131530700458
 31
0.0
  0
LINE
  5
19711
  8
1DIM
 10
652.83866299009685
 20
-722.12131530700458
 30
0.0
 11
652.83866299009685
 21
-718.62131530700447
 31
0.0
  0
LINE
  5
19712
  8
1DIM
 10
652.83866299009685
 20
-716.62131530700458
 30
0.0
 11
652.83866299009685
 21
-705.88798197367123
 31
0.0
  0
LINE
  5
19716
  8
1DIM1
 10
-167.16133700990119
 20
-876.12131530700481
 30
0.0
 11
-167.16133700990119
 21
-952.62131530700651
 31
0.0
  0
LINE
  5
19717
  8
1DIM1
 10
632.83866299009685
 20
-876.12131530700481
 30
0.0
 11
632.83866299009685
 21
-952.62131530700651
 31
0.0
  0
LINE
  5
19718
  8
1DIM1
 10
-157.16133700990119
 20
-947.6213153070064
 30
0.0
 11
622.83866299009696
 21
-947.6213153070064
 31
0.0
  0
LINE
  5
1971C
  8
1DIM1
 10
317.83866299009787
 20
-876.37131530700503
 30
0.0
 11
317.83866299009787
 21
-922.6213153070064
 31
0.0
  0
LINE
  5
1971D
  8
1DIM1
 10
487.83866299009787
 20
-876.37131530700503
 30
0.0
 11
487.83866299009787
 21
-922.6213153070064
 31
0.0
  0
LINE
  5
1971E
  8
1DIM1
 10
327.83866299009787
 20
-917.62131530700651
 30
0.0
 11
477.83866299009782
 21
-917.62131530700651
 31
0.0
  0
LINE
  5
19722
  8
1PHANTOM
 10
487.8387095259958
 20
-689.62131530715953
 30
0.0
 11
486.3387095259958
 21
-694.92131181702121
 31
0.0
  0
LINE
  5
19723
  8
1PHANTOM
 10
486.3387095259958
 20
-694.92131181702121
 30
0.0
 11
486.33870952599602
 21
-719.62131181691313
 31
0.0
  0
LINE
  5
19724
  8
1PHANTOM
 10
487.8387095259958
 20
-689.62131530715953
 30
0.0
 11
489.33870952599591
 21
-694.92131879740487
 31
0.0
  0
LINE
  5
19725
  8
1PHANTOM
 10
484.33866299009799
 20
-719.62130716321508
 30
0.0
 11
486.33870952599602
 21
-719.62131181691313
 31
0.0
  0
LINE
  5
19726
  8
1PHANTOM
 10
489.33870952599591
 20
-694.92131879740487
 30
0.0
 11
489.33870952599568
 21
-719.62131879729782
 31
0.0
  0
LINE
  5
19727
  8
1PHANTOM
 10
484.33866299009799
 20
-719.62130716321508
 30
0.0
 11
484.33866299009787
 21
-720.72131065341034
 31
0.0
  0
LINE
  5
19728
  8
1PHANTOM
 10
489.33870952599568
 20
-719.62131879729782
 30
0.0
 11
491.33866299009782
 21
-719.62132345077919
 31
0.0
  0
ARC
  5
19729
  8
1PHANTOM
 10
485.83866299009782
 20
-720.72131065341034
 30
0.0
 40
1.5
 50
180.0
 51
269.99986668447059
  0
LINE
  5
1972A
  8
1PHANTOM
 10
491.33866299009782
 20
-719.62132345077919
 30
0.0
 11
491.33866299009782
 21
-720.72131996058999
 31
0.0
  0
LINE
  5
1972B
  8
1PHANTOM
 10
485.83865949990542
 20
-722.22131065340625
 30
0.0
 11
489.83865949990542
 21
-722.22131996058579
 31
0.0
  0
ARC
  5
1972C
  8
1PHANTOM
 10
489.83866299009782
 20
-720.72131996058999
 30
0.0
 40
1.5
 50
269.99986668447059
 51
0.0
  0
TEXT
  5
1972D
  8
1DIM1
 10
375.13032965676462
 20
-914.12131530700651
 30
0.0
 40
17.5
  1
P170 
  0
LINE
  5
1972E
  8
0
  6
BYBLOCK
 10
477.83866299009782
 20
-914.9418234070065
 30
0.0
 11
487.83866299009787
 21
-917.62131530700651
 31
0.0
  0
LINE
  5
1972F
  8
0
  6
BYBLOCK
 10
487.83866299009787
 20
-917.62131530700651
 30
0.0
 11
477.83866299009782
 21
-920.30080720700653
 31
0.0
  0
LINE
  5
19730
  8
0
  6
BYBLOCK
 10
487.83866299009787
 20
-917.62131530700651
 30
0.0
 11
477.83866299009782
 21
-917.62131530700651
 31
0.0
  0
LINE
  5
19731
  8
0
  6
BYBLOCK
 10
327.83866299009787
 20
-920.30080720700653
 30
0.0
 11
317.83866299009787
 21
-917.62131530700651
 31
0.0
  0
LINE
  5
19732
  8
0
  6
BYBLOCK
 10
317.83866299009787
 20
-917.62131530700651
 30
0.0
 11
327.83866299009787
 21
-914.9418234070065
 31
0.0
  0
LINE
  5
19733
  8
0
  6
BYBLOCK
 10
317.83866299009787
 20
-917.62131530700651
 30
0.0
 11
327.83866299009787
 21
-917.62131530700651
 31
0.0
  0
TEXT
  5
19734
  8
1DIM1
 10
212.42199632343119
 20
-944.1213153070064
 30
0.0
 40
17.5
  1
800 
  0
LINE
  5
19735
  8
0
  6
BYBLOCK
 10
622.83866299009696
 20
-944.94182340700638
 30
0.0
 11
632.83866299009685
 21
-947.6213153070064
 31
0.0
  0
LINE
  5
19736
  8
0
  6
BYBLOCK
 10
632.83866299009685
 20
-947.6213153070064
 30
0.0
 11
622.83866299009696
 21
-950.30080720700641
 31
0.0
  0
LINE
  5
19737
  8
0
  6
BYBLOCK
 10
632.83866299009685
 20
-947.6213153070064
 30
0.0
 11
622.83866299009696
 21
-947.6213153070064
 31
0.0
  0
LINE
  5
19738
  8
0
  6
BYBLOCK
 10
-157.16133700990119
 20
-950.30080720700641
 30
0.0
 11
-167.16133700990119
 21
-947.6213153070064
 31
0.0
  0
LINE
  5
19739
  8
0
  6
BYBLOCK
 10
-167.16133700990119
 20
-947.6213153070064
 30
0.0
 11
-157.16133700990119
 21
-944.94182340700638
 31
0.0
  0
LINE
  5
1973A
  8
0
  6
BYBLOCK
 10
-167.16133700990119
 20
-947.6213153070064
 30
0.0
 11
-157.16133700990119
 21
-947.6213153070064
 31
0.0
  0
TEXT
  5
1973B
  8
1DIM
 10
652.13866299009703
 20
-713.75464864033779
 30
0.0
 40
3.5
  1
7.5 
 50
90.0
  0
LINE
  5
1973C
  8
0
  6
BYBLOCK
 10
652.30276461009692
 20
-718.62131530700447
 30
0.0
 11
652.83866299009685
 21
-716.62131530700458
 31
0.0
  0
LINE
  5
1973D
  8
0
  6
BYBLOCK
 10
652.83866299009685
 20
-716.62131530700458
 30
0.0
 11
653.37456137009701
 21
-718.62131530700447
 31
0.0
  0
LINE
  5
1973E
  8
0
  6
BYBLOCK
 10
652.83866299009685
 20
-716.62131530700458
 30
0.0
 11
652.83866299009685
 21
-718.62131530700447
 31
0.0
  0
LINE
  5
1973F
  8
0
  6
BYBLOCK
 10
653.37456137009701
 20
-722.12131530700458
 30
0.0
 11
652.83866299009685
 21
-724.12131530700469
 31
0.0
  0
LINE
  5
19740
  8
0
  6
BYBLOCK
 10
652.83866299009685
 20
-724.12131530700469
 30
0.0
 11
652.30276461009692
 21
-722.12131530700458
 31
0.0
  0
LINE
  5
19741
  8
0
  6
BYBLOCK
 10
652.83866299009685
 20
-724.12131530700469
 30
0.0
 11
652.83866299009685
 21
-722.12131530700458
 31
0.0
  0
TEXT
  5
19742
  8
1DIM
 10
652.13866299009715
 20
-782.32964864033784
 30
0.0
 40
3.5
  1
110 
 50
90.0
  0
LINE
  5
19743
  8
0
  6
BYBLOCK
 10
653.37456137009701
 20
-832.12131530700435
 30
0.0
 11
652.83866299009685
 21
-834.12131530700447
 31
0.0
  0
LINE
  5
19744
  8
0
  6
BYBLOCK
 10
652.83866299009685
 20
-834.12131530700447
 30
0.0
 11
652.30276461009692
 21
-832.12131530700435
 31
0.0
  0
LINE
  5
19745
  8
0
  6
BYBLOCK
 10
652.83866299009685
 20
-834.12131530700447
 30
0.0
 11
652.83866299009685
 21
-832.12131530700435
 31
0.0
  0
LINE
  5
19746
  8
0
  6
BYBLOCK
 10
652.30276461009703
 20
-726.12131530700458
 30
0.0
 11
652.83866299009696
 21
-724.12131530700469
 31
0.0
  0
LINE
  5
19747
  8
0
  6
BYBLOCK
 10
652.83866299009696
 20
-724.12131530700469
 30
0.0
 11
653.37456137009713
 21
-726.12131530700458
 31
0.0
  0
LINE
  5
19748
  8
0
  6
BYBLOCK
 10
652.83866299009696
 20
-724.12131530700469
 30
0.0
 11
652.83866299009696
 21
-726.12131530700458
 31
0.0
  0
TEXT
  5
19749
  8
1DIM
 10
662.13866299009715
 20
-781.20464864033772
 30
0.0
 40
3.5
  1
117.5 
 50
90.0
  0
LINE
  5
1974A
  8
0
  6
BYBLOCK
 10
662.30276461009703
 20
-718.62131530700447
 30
0.0
 11
662.83866299009708
 21
-716.62131530700458
 31
0.0
  0
LINE
  5
1974B
  8
0
  6
BYBLOCK
 10
662.83866299009708
 20
-716.62131530700458
 30
0.0
 11
663.37456137009713
 21
-718.62131530700447
 31
0.0
  0
LINE
  5
1974C
  8
0
  6
BYBLOCK
 10
662.83866299009708
 20
-716.62131530700458
 30
0.0
 11
662.83866299009708
 21
-718.62131530700447
 31
0.0
  0
LINE
  5
1974D
  8
0
  6
BYBLOCK
 10
663.37456137009701
 20
-832.12131530700435
 30
0.0
 11
662.83866299009685
 21
-834.12131530700447
 31
0.0
  0
LINE
  5
1974E
  8
0
  6
BYBLOCK
 10
662.83866299009685
 20
-834.12131530700447
 30
0.0
 11
662.30276461009692
 21
-832.12131530700435
 31
0.0
  0
LINE
  5
1974F
  8
0
  6
BYBLOCK
 10
662.83866299009685
 20
-834.12131530700447
 30
0.0
 11
662.83866299009685
 21
-832.12131530700435
 31
0.0
  0
TEXT
  5
19750
  8
1DIM1
 10
205.1303296567645
 20
-914.12131530700651
 30
0.0
 40
17.5
  1
P170 
  0
LINE
  5
19751
  8
0
  6
BYBLOCK
 10
307.83866299009787
 20
-914.9418234070065
 30
0.0
 11
317.83866299009787
 21
-917.62131530700651
 31
0.0
  0
LINE
  5
19752
  8
0
  6
BYBLOCK
 10
317.83866299009787
 20
-917.62131530700651
 30
0.0
 11
307.83866299009787
 21
-920.30080720700653
 31
0.0
  0
LINE
  5
19753
  8
0
  6
BYBLOCK
 10
317.83866299009787
 20
-917.62131530700651
 30
0.0
 11
307.83866299009787
 21
-917.62131530700651
 31
0.0
  0
LINE
  5
19754
  8
0
  6
BYBLOCK
 10
157.83866299009779
 20
-920.30080720700653
 30
0.0
 11
147.83866299009779
 21
-917.62131530700651
 31
0.0
  0
LINE
  5
19755
  8
0
  6
BYBLOCK
 10
147.83866299009779
 20
-917.62131530700651
 30
0.0
 11
157.83866299009779
 21
-914.9418234070065
 31
0.0
  0
LINE
  5
19756
  8
0
  6
BYBLOCK
 10
147.83866299009779
 20
-917.62131530700651
 30
0.0
 11
157.83866299009779
 21
-917.62131530700651
 31
0.0
  0
TEXT
  5
19757
  8
1DIM1
 10
35.130329656764552
 20
-914.12131530700628
 30
0.0
 40
17.5
  1
P170 
  0
LINE
  5
19758
  8
0
  6
BYBLOCK
 10
137.8386629900979
 20
-914.94182340700627
 30
0.0
 11
147.83866299009779
 21
-917.62131530700628
 31
0.0
  0
LINE
  5
19759
  8
0
  6
BYBLOCK
 10
147.83866299009779
 20
-917.62131530700628
 30
0.0
 11
137.8386629900979
 21
-920.30080720700641
 31
0.0
  0
LINE
  5
1975A
  8
0
  6
BYBLOCK
 10
147.83866299009779
 20
-917.62131530700628
 30
0.0
 11
137.8386629900979
 21
-917.62131530700628
 31
0.0
  0
LINE
  5
1975B
  8
0
  6
BYBLOCK
 10
-12.16133700990213
 20
-920.30080720700641
 30
0.0
 11
-22.16133700990213
 21
-917.62131530700628
 31
0.0
  0
LINE
  5
1975C
  8
0
  6
BYBLOCK
 10
-22.16133700990213
 20
-917.62131530700628
 30
0.0
 11
-12.16133700990213
 21
-914.94182340700627
 31
0.0
  0
LINE
  5
1975D
  8
0
  6
BYBLOCK
 10
-22.16133700990213
 20
-917.62131530700628
 30
0.0
 11
-12.16133700990213
 21
-917.62131530700628
 31
0.0
  0
LINE
  5
1975E
  8
1DIM
 10
780.00442875140334
 20
-890.50003964388225
 30
0.0
 11
763.43977907796875
 21
-932.39671502614931
 31
0.0
  0
LINE
  5
1975F
  8
1DIM
 10
763.43977907796875
 20
-932.39671502614931
 30
0.0
 11
707.07311241130196
 21
-932.39671502614931
 31
0.0
  0
TEXT
  5
19760
  8
1DIM
 10
735.75532965676291
 20
-916.92131530700635
 30
0.0
 40
3.5
  1
117.5 
  0
LINE
  5
19761
  8
0
  6
BYBLOCK
 10
798.3386629900956
 20
-917.08541692700635
 30
0.0
 11
800.33866299009549
 21
-917.62131530700651
 31
0.0
  0
LINE
  5
19762
  8
0
  6
BYBLOCK
 10
800.33866299009549
 20
-917.62131530700651
 30
0.0
 11
798.3386629900956
 21
-918.15721368700656
 31
0.0
  0
LINE
  5
19763
  8
0
  6
BYBLOCK
 10
800.33866299009549
 20
-917.62131530700651
 30
0.0
 11
798.3386629900956
 21
-917.62131530700651
 31
0.0
  0
LINE
  5
19764
  8
0
  6
BYBLOCK
 10
684.83866299009685
 20
-918.15721368700656
 30
0.0
 11
682.83866299009685
 21
-917.62131530700651
 31
0.0
  0
LINE
  5
19765
  8
0
  6
BYBLOCK
 10
682.83866299009685
 20
-917.62131530700651
 30
0.0
 11
684.83866299009685
 21
-917.08541692700635
 31
0.0
  0
LINE
  5
19766
  8
0
  6
BYBLOCK
 10
682.83866299009685
 20
-917.62131530700651
 30
0.0
 11
684.83866299009685
 21
-917.62131530700651
 31
0.0
  0
LINE
  5
19767
  8
1DIM
 10
814.65368716597322
 20
-827.36870947607883
 30
0.0
 11
809.46110872702639
 21
-814.78575351605662
 31
0.0
  0
LINE
  5
19768
  8
1DIM
 10
809.46110872702639
 20
-814.78575351605662
 30
0.0
 11
841.36110872702625
 21
-814.78575351605662
 31
0.0
  0
LINE
  5
19769
  8
1DIM
 10
806.57006256543468
 20
-827.29526334374589
 30
0.0
 11
803.29376423248777
 21
-808.78440749893275
 31
0.0
  0
LINE
  5
1976A
  8
1DIM
 10
803.29376423248777
 20
-808.78440749893275
 30
0.0
 11
811.82709756582096
 21
-808.78440749893275
 31
0.0
  0
LINE
  5
1976B
  8
1DIM
 10
735.51712694500065
 20
-878.76220958627141
 30
0.0
 11
719.37437964899834
 21
-901.51593955776104
 31
0.0
  0
LINE
  5
1976C
  8
1DIM
 10
719.37437964899834
 20
-901.51593955776104
 30
0.0
 11
692.40771298233165
 21
-901.51593955776104
 31
0.0
  0
TEXT
  5
1976D
  8
1DIM
 10
780.33866299009674
 20
-906.92131530700635
 30
0.0
 40
3.5
  1
29.5 
  0
LINE
  5
1976E
  8
0
  6
BYBLOCK
 10
772.83866299009776
 20
-908.15721368700645
 30
0.0
 11
770.83866299009765
 21
-907.62131530700663
 31
0.0
  0
LINE
  5
1976F
  8
0
  6
BYBLOCK
 10
770.83866299009765
 20
-907.62131530700663
 30
0.0
 11
772.83866299009776
 21
-907.08541692700646
 31
0.0
  0
LINE
  5
19770
  8
0
  6
BYBLOCK
 10
770.83866299009765
 20
-907.62131530700663
 30
0.0
 11
772.83866299009776
 21
-907.62131530700663
 31
0.0
  0
LINE
  5
19771
  8
0
  6
BYBLOCK
 10
798.3386629900956
 20
-907.08541692700646
 30
0.0
 11
800.33866299009549
 21
-907.62131530700663
 31
0.0
  0
LINE
  5
19772
  8
0
  6
BYBLOCK
 10
800.33866299009549
 20
-907.62131530700663
 30
0.0
 11
798.3386629900956
 21
-908.15721368700645
 31
0.0
  0
LINE
  5
19773
  8
0
  6
BYBLOCK
 10
800.33866299009549
 20
-907.62131530700663
 30
0.0
 11
798.3386629900956
 21
-907.62131530700663
 31
0.0
  0
TEXT
  5
19774
  8
1DIM
 10
839.63866299009555
 20
-869.91298197366928
 30
0.0
 40
3.5
  1
9 
 50
90.0
  0
LINE
  5
19775
  8
0
  6
BYBLOCK
 10
839.80276461009544
 20
-866.12131530699924
 30
0.0
 11
840.33866299009549
 21
-864.12131530699924
 31
0.0
  0
LINE
  5
19776
  8
0
  6
BYBLOCK
 10
840.33866299009549
 20
-864.12131530699924
 30
0.0
 11
840.87456137009542
 21
-866.12131530699924
 31
0.0
  0
LINE
  5
19777
  8
0
  6
BYBLOCK
 10
840.33866299009549
 20
-864.12131530699924
 30
0.0
 11
840.33866299009549
 21
-866.12131530699924
 31
0.0
  0
LINE
  5
19778
  8
0
  6
BYBLOCK
 10
840.87456137009542
 20
-871.37131530700651
 30
0.0
 11
840.33866299009549
 21
-873.3713153070064
 31
0.0
  0
LINE
  5
19779
  8
0
  6
BYBLOCK
 10
840.33866299009549
 20
-873.3713153070064
 30
0.0
 11
839.80276461009544
 21
-871.37131530700651
 31
0.0
  0
LINE
  5
1977A
  8
0
  6
BYBLOCK
 10
840.33866299009549
 20
-873.3713153070064
 30
0.0
 11
840.33866299009549
 21
-871.37131530700651
 31
0.0
  0
TEXT
  5
1977B
  8
1DIM
 10
662.13866299009715
 20
-881.12131530700628
 30
0.0
 40
3.5
  1
23.5 
 50
90.0
  0
LINE
  5
1977C
  8
0
  6
BYBLOCK
 10
662.30276461009692
 20
-866.12131530700628
 30
0.0
 11
662.83866299009685
 21
-864.12131530700628
 31
0.0
  0
LINE
  5
1977D
  8
0
  6
BYBLOCK
 10
662.83866299009685
 20
-864.12131530700628
 30
0.0
 11
663.37456137009701
 21
-866.12131530700628
 31
0.0
  0
LINE
  5
1977E
  8
0
  6
BYBLOCK
 10
662.83866299009685
 20
-864.12131530700628
 30
0.0
 11
662.83866299009685
 21
-866.12131530700628
 31
0.0
  0
LINE
  5
1977F
  8
0
  6
BYBLOCK
 10
663.37456137009701
 20
-885.62131530700628
 30
0.0
 11
662.83866299009685
 21
-887.6213153070064
 31
0.0
  0
LINE
  5
19780
  8
0
  6
BYBLOCK
 10
662.83866299009685
 20
-887.6213153070064
 30
0.0
 11
662.30276461009692
 21
-885.62131530700628
 31
0.0
  0
LINE
  5
19781
  8
0
  6
BYBLOCK
 10
662.83866299009685
 20
-887.6213153070064
 30
0.0
 11
662.83866299009685
 21
-885.62131530700628
 31
0.0
  0
TEXT
  5
19782
  8
1DIM
 10
672.13866299009715
 20
-859.42131530700635
 30
0.0
 40
3.5
  1
5 
 50
90.0
  0
LINE
  5
19783
  8
0
  6
BYBLOCK
 10
673.3745613700969
 20
-862.1213153070064
 30
0.0
 11
672.83866299009696
 21
-864.12131530700628
 31
0.0
  0
LINE
  5
19784
  8
0
  6
BYBLOCK
 10
672.83866299009696
 20
-864.12131530700628
 30
0.0
 11
672.30276461009692
 21
-862.1213153070064
 31
0.0
  0
LINE
  5
19785
  8
0
  6
BYBLOCK
 10
672.83866299009696
 20
-864.12131530700628
 30
0.0
 11
672.83866299009696
 21
-862.1213153070064
 31
0.0
  0
LINE
  5
19786
  8
0
  6
BYBLOCK
 10
672.30276461009692
 20
-871.12131530700651
 30
0.0
 11
672.83866299009696
 21
-869.1213153070064
 31
0.0
  0
LINE
  5
19787
  8
0
  6
BYBLOCK
 10
672.83866299009696
 20
-869.1213153070064
 30
0.0
 11
673.3745613700969
 21
-871.12131530700651
 31
0.0
  0
LINE
  5
19788
  8
0
  6
BYBLOCK
 10
672.83866299009696
 20
-869.1213153070064
 30
0.0
 11
672.83866299009696
 21
-871.12131530700651
 31
0.0
  0
TEXT
  5
19789
  8
1DIM
 10
672.13866299009715
 20
-874.28798197367303
 30
0.0
 40
3.5
  1
8 
 50
90.0
  0
LINE
  5
1978A
  8
0
  6
BYBLOCK
 10
673.3745613700969
 20
-875.1213153070064
 30
0.0
 11
672.83866299009696
 21
-877.1213153070064
 31
0.0
  0
LINE
  5
1978B
  8
0
  6
BYBLOCK
 10
672.83866299009696
 20
-877.1213153070064
 30
0.0
 11
672.30276461009692
 21
-875.1213153070064
 31
0.0
  0
LINE
  5
1978C
  8
0
  6
BYBLOCK
 10
672.83866299009696
 20
-877.1213153070064
 30
0.0
 11
672.83866299009696
 21
-875.1213153070064
 31
0.0
  0
LINE
  5
1978D
  8
0
  6
BYBLOCK
 10
672.30276461009692
 20
-871.12131530700651
 30
0.0
 11
672.83866299009696
 21
-869.1213153070064
 31
0.0
  0
LINE
  5
1978E
  8
0
  6
BYBLOCK
 10
672.83866299009696
 20
-869.1213153070064
 30
0.0
 11
673.3745613700969
 21
-871.12131530700651
 31
0.0
  0
LINE
  5
1978F
  8
0
  6
BYBLOCK
 10
672.83866299009696
 20
-869.1213153070064
 30
0.0
 11
672.83866299009696
 21
-871.12131530700651
 31
0.0
  0
TEXT
  5
19790
  8
1DIM
 10
784.92199632342465
 20
-896.92131530700635
 30
0.0
 40
3.5
  1
21.5 
  0
LINE
  5
19791
  8
0
  6
BYBLOCK
 10
780.83866299009776
 20
-898.15721368700645
 30
0.0
 11
778.83866299009765
 21
-897.6213153070064
 31
0.0
  0
LINE
  5
19792
  8
0
  6
BYBLOCK
 10
778.83866299009765
 20
-897.6213153070064
 30
0.0
 11
780.83866299009776
 21
-897.08541692700646
 31
0.0
  0
LINE
  5
19793
  8
0
  6
BYBLOCK
 10
778.83866299009765
 20
-897.6213153070064
 30
0.0
 11
780.83866299009776
 21
-897.6213153070064
 31
0.0
  0
LINE
  5
19794
  8
0
  6
BYBLOCK
 10
798.33866299008503
 20
-897.08541692700646
 30
0.0
 11
800.33866299008503
 21
-897.6213153070064
 31
0.0
  0
LINE
  5
19795
  8
0
  6
BYBLOCK
 10
800.33866299008503
 20
-897.6213153070064
 30
0.0
 11
798.33866299008503
 21
-898.15721368700645
 31
0.0
  0
LINE
  5
19796
  8
0
  6
BYBLOCK
 10
800.33866299008503
 20
-897.6213153070064
 30
0.0
 11
798.33866299008503
 21
-897.6213153070064
 31
0.0
  0
TEXT
  5
19797
  8
1DIM1
 10
207.4219963234321
 20
-673.12131530700412
 30
0.0
 40
17.5
  1
600 
  0
LINE
  5
19798
  8
0
  6
BYBLOCK
 10
522.83866299009776
 20
-673.94182340700411
 30
0.0
 11
532.83866299009776
 21
-676.62131530700412
 31
0.0
  0
LINE
  5
19799
  8
0
  6
BYBLOCK
 10
532.83866299009776
 20
-676.62131530700412
 30
0.0
 11
522.83866299009776
 21
-679.30080720700414
 31
0.0
  0
LINE
  5
1979A
  8
0
  6
BYBLOCK
 10
532.83866299009776
 20
-676.62131530700412
 30
0.0
 11
522.83866299009776
 21
-676.62131530700412
 31
0.0
  0
LINE
  5
1979B
  8
0
  6
BYBLOCK
 10
-57.161337009900308
 20
-679.30080720700414
 30
0.0
 11
-67.161337009900308
 21
-676.62131530700412
 31
0.0
  0
LINE
  5
1979C
  8
0
  6
BYBLOCK
 10
-67.161337009900308
 20
-676.62131530700412
 30
0.0
 11
-57.161337009900308
 21
-673.94182340700411
 31
0.0
  0
LINE
  5
1979D
  8
0
  6
BYBLOCK
 10
-67.161337009900308
 20
-676.62131530700412
 30
0.0
 11
-57.161337009900308
 21
-676.62131530700412
 31
0.0
  0
TEXT
  5
1979E
  8
1DIM1
 10
-134.66133700990071
 20
-673.12131530700412
 30
0.0
 40
17.5
  1
100 
  0
LINE
  5
1979F
  8
0
  6
BYBLOCK
 10
-77.161337009900308
 20
-673.94182340700411
 30
0.0
 11
-67.161337009900308
 21
-676.62131530700412
 31
0.0
  0
LINE
  5
197A0
  8
0
  6
BYBLOCK
 10
-67.161337009900308
 20
-676.62131530700412
 30
0.0
 11
-77.161337009900308
 21
-679.30080720700414
 31
0.0
  0
LINE
  5
197A1
  8
0
  6
BYBLOCK
 10
-67.161337009900308
 20
-676.62131530700412
 30
0.0
 11
-77.161337009900308
 21
-676.62131530700412
 31
0.0
  0
LINE
  5
197A2
  8
0
  6
BYBLOCK
 10
-157.16133700990119
 20
-679.30080720700414
 30
0.0
 11
-167.16133700990119
 21
-676.62131530700412
 31
0.0
  0
LINE
  5
197A3
  8
0
  6
BYBLOCK
 10
-167.16133700990119
 20
-676.62131530700412
 30
0.0
 11
-157.16133700990119
 21
-673.94182340700411
 31
0.0
  0
LINE
  5
197A4
  8
0
  6
BYBLOCK
 10
-167.16133700990119
 20
-676.62131530700412
 30
0.0
 11
-157.16133700990119
 21
-676.62131530700412
 31
0.0
  0
TEXT
  5
197A5
  8
1DIM1
 10
565.33866299009765
 20
-673.12131530700401
 30
0.0
 40
17.5
  1
100 
  0
LINE
  5
197A6
  8
0
  6
BYBLOCK
 10
542.83866299009719
 20
-679.30080720700403
 30
0.0
 11
532.8386629900973
 21
-676.62131530700401
 31
0.0
  0
LINE
  5
197A7
  8
0
  6
BYBLOCK
 10
532.8386629900973
 20
-676.62131530700401
 30
0.0
 11
542.83866299009719
 21
-673.94182340700399
 31
0.0
  0
LINE
  5
197A8
  8
0
  6
BYBLOCK
 10
532.8386629900973
 20
-676.62131530700401
 30
0.0
 11
542.83866299009719
 21
-676.62131530700401
 31
0.0
  0
LINE
  5
197A9
  8
0
  6
BYBLOCK
 10
622.83866299009821
 20
-673.94182340700399
 30
0.0
 11
632.83866299009821
 21
-676.62131530700401
 31
0.0
  0
LINE
  5
197AA
  8
0
  6
BYBLOCK
 10
632.83866299009821
 20
-676.62131530700401
 30
0.0
 11
622.83866299009821
 21
-679.30080720700403
 31
0.0
  0
LINE
  5
197AB
  8
0
  6
BYBLOCK
 10
632.83866299009821
 20
-676.62131530700401
 30
0.0
 11
622.83866299009821
 21
-676.62131530700401
 31
0.0
  0
VIEWPORT
  5
57
 67
     1
  8
0
 10
-12.73141056964354
 20
10.083731670551
 30
0.0
 40
426.49732989047362
 41
282.80698729109162
 68
     1
 69
     1
1001
ACAD
1000
MVIEW
1002
{
1070
    16
1010
0.0
1020
0.0
1030
0.0
1010
0.0
1020
0.0
1030
1.0
1040
0.0
1040
282.80698729109162
1040
-12.73141056964354
1040
10.083731670551
1040
50.0
1040
0.0
1040
0.0
1070
     0
1070
   100
1070
     1
1070
     1
1070
     0
1070
     0
1070
     0
1070
     0
1040
0.0
1040
0.0
1040
0.0
1040
10.0
1040
10.0
1040
10.0
1040
10.0
1070
     0
1002
{
1002
}
1002
}
  0
ENDSEC
  0
EOF
