  0
SECTION
  2
HEADER
  9
$ACADVER
  1
AC1009
  9
$INSBASE
 10
0.0
 20
0.0
 30
0.0
  9
$EXTMIN
 10
-268.19687091583398
 20
-952.62131530700651
 30
0.0
  9
$EXTMAX
 10
841.36110872702625
 20
-655.62131530700378
 30
0.0
  9
$LIMMIN
 10
0.0
 20
0.0
  9
$LIMMAX
 10
420.0
 20
297.0
  9
$ORTHOMODE
 70
     0
  9
$REGENMODE
 70
     1
  9
$FILLMODE
 70
     1
  9
$QTEXTMODE
 70
     0
  9
$MIRRTEXT
 70
     0
  9
$DRAGMODE
 70
     2
  9
$LTSCALE
 40
0.5
  9
$OSMODE
 70
  2173
  9
$ATTMODE
 70
     1
  9
$TEXTSIZE
 40
4.0
  9
$TRACEWID
 40
1.0
  9
$TEXTSTYLE
  7
STANDARD
  9
$CLAYER
  8
1TEXT
  9
$CELTYPE
  6
BYLAYER
  9
$CECOLOR
 62
   256
  9
$DIMSCALE
 40
1.0
  9
$DIMASZ
 40
2.0
  9
$DIMEXO
 40
0.0
  9
$DIMDLI
 40
7.0
  9
$DIMRND
 40
0.0
  9
$DIMDLE
 40
0.0
  9
$DIMEXE
 40
1.0
  9
$DIMTP
 40
0.0
  9
$DIMTM
 40
0.0
  9
$DIMTXT
 40
3.5
  9
$DIMCEN
 40
0.0
  9
$DIMTSZ
 40
0.0
  9
$DIMTOL
 70
     0
  9
$DIMLIM
 70
     0
  9
$DIMTIH
 70
     0
  9
$DIMTOH
 70
     0
  9
$DIMSE1
 70
     0
  9
$DIMSE2
 70
     0
  9
$DIMTAD
 70
     1
  9
$DIMZIN
 70
     8
  9
$DIMBLK
  1

  9
$DIMASO
 70
     1
  9
$DIMSHO
 70
     1
  9
$DIMPOST
  1
 
  9
$DIMAPOST
  1

  9
$DIMALT
 70
     0
  9
$DIMALTD
 70
     2
  9
$DIMALTF
 40
25.399999999999999
  9
$DIMLFAC
 40
1.0
  9
$DIMTOFL
 70
     1
  9
$DIMTVP
 40
0.0
  9
$DIMTIX
 70
     0
  9
$DIMSOXD
 70
     0
  9
$DIMSAH
 70
     1
  9
$DIMBLK1
  1
OPEN30
  9
$DIMBLK2
  1
OPEN30
  9
$DIMSTYLE
  2
NEWX10
  9
$DIMCLRD
 70
   256
  9
$DIMCLRE
 70
   256
  9
$DIMCLRT
 70
   201
  9
$DIMTFAC
 40
0.7
  9
$DIMGAP
 40
0.7
  9
$LUNITS
 70
     2
  9
$LUPREC
 70
     4
  9
$SKETCHINC
 40
1.0
  9
$FILLETRAD
 40
0.0
  9
$AUNITS
 70
     0
  9
$AUPREC
 70
     2
  9
$MENU
  1
acad
  9
$ELEVATION
 40
0.0
  9
$PELEVATION
 40
0.0
  9
$THICKNESS
 40
0.0
  9
$LIMCHECK
 70
     0
  9
$BLIPMODE
 70
     0
  9
$CHAMFERA
 40
10.0
  9
$CHAMFERB
 40
10.0
  9
$SKPOLY
 70
     0
  9
$TDCREATE
 40
2453033.7326634838
  9
$TDUPDATE
 40
2453605.7401110302
  9
$TDINDWG
 40
1.7372679630000001
  9
$TDUSRTIMER
 40
1.7372679630000001
  9
$USRTIMER
 70
     1
  9
$ANGBASE
 50
0.0
  9
$ANGDIR
 70
     0
  9
$PDMODE
 70
     0
  9
$PDSIZE
 40
0.0
  9
$PLINEWID
 40
0.0
  9
$COORDS
 70
     2
  9
$SPLFRAME
 70
     0
  9
$SPLINETYPE
 70
     6
  9
$SPLINESEGS
 70
     8
  9
$ATTDIA
 70
     0
  9
$ATTREQ
 70
     1
  9
$HANDLING
 70
     1
  9
$HANDSEED
  5
1991B
  9
$SURFTAB1
 70
     6
  9
$SURFTAB2
 70
     6
  9
$SURFTYPE
 70
     6
  9
$SURFU
 70
     6
  9
$SURFV
 70
     6
  9
$UCSNAME
  2

  9
$UCSORG
 10
0.0
 20
0.0
 30
0.0
  9
$UCSXDIR
 10
1.0
 20
0.0
 30
0.0
  9
$UCSYDIR
 10
0.0
 20
1.0
 30
0.0
  9
$PUCSNAME
  2

  9
$PUCSORG
 10
0.0
 20
0.0
 30
0.0
  9
$PUCSXDIR
 10
1.0
 20
0.0
 30
0.0
  9
$PUCSYDIR
 10
0.0
 20
1.0
 30
0.0
  9
$USERI1
 70
     0
  9
$USERI2
 70
     0
  9
$USERI3
 70
     0
  9
$USERI4
 70
     0
  9
$USERI5
 70
     0
  9
$USERR1
 40
0.0
  9
$USERR2
 40
0.0
  9
$USERR3
 40
0.0
  9
$USERR4
 40
0.0
  9
$USERR5
 40
0.0
  9
$WORLDVIEW
 70
     1
  9
$SHADEDGE
 70
     3
  9
$SHADEDIF
 70
    70
  9
$TILEMODE
 70
     1
  9
$MAXACTVP
 70
    48
  9
$PLIMCHECK
 70
     0
  9
$PEXTMIN
 10
1.0000000000000000E+020
 20
1.0000000000000000E+020
 30
1.0000000000000000E+020
  9
$PEXTMAX
 10
-1.0000000000000000E+020
 20
-1.0000000000000000E+020
 30
-1.0000000000000000E+020
  9
$PLIMMIN
 10
0.0
 20
0.0
  9
$PLIMMAX
 10
420.0
 20
297.0
  9
$UNITMODE
 70
     0
  9
$VISRETAIN
 70
     1
  9
$PLINEGEN
 70
     0
  9
$PSLTSCALE
 70
     1
  0
ENDSEC
  0
SECTION
  2
TABLES
  0
TABLE
  2
VPORT
 70
     4
  0
VPORT
  2
*ACTIVE
 70
     0
 10
0.0
 20
0.0
 11
1.0
 21
1.0
 12
286.5821214889877
 22
-804.12200259417114
 13
0.0
 23
0.0
 14
10.0
 24
10.0
 15
10.0
 25
10.0
 16
0.0
 26
0.0
 36
1.0
 17
0.0
 27
0.0
 37
0.0
 40
778.65672620134205
 41
1.508086253369272
 42
50.0
 43
0.0
 44
0.0
 50
0.0
 51
0.0
 71
     0
 72
   100
 73
     1
 74
     1
 75
     0
 76
     0
 77
     0
 78
     0
  0
ENDTAB
  0
TABLE
  2
LTYPE
 70
    15
  0
LTYPE
  2
CONTINUOUS
 70
     0
  3
Solid line
 72
    65
 73
     0
 40
0.0
  0
LTYPE
  2
CENTER2
 70
     0
  3
Center (.5x) ___ _ ___ _ ___ _ ___ _ ___ _ ___
 72
    65
 73
     4
 40
28.574999999999999
 49
19.050000000000001
 49
-3.1749999999999989
 49
3.1749999999999989
 49
-3.1749999999999989
  0
LTYPE
  2
XREF1|CENTER2
 70
    48
  3
Center (.5x) ___ _ ___ _ ___ _ ___ _ ___ _ ___
 72
    65
 73
     4
 40
28.574999999999999
 49
19.050000000000001
 49
-3.1749999999999989
 49
3.1749999999999989
 49
-3.1749999999999989
  0
LTYPE
  2
PHANTOM2
 70
     0
  3
Phantom (.5x) ___ _ _ ___ _ _ ___ _ _ ___ _ _
 72
    65
 73
     6
 40
31.75
 49
15.875
 49
-3.1749999999999989
 49
3.1749999999999989
 49
-3.1749999999999989
 49
3.1749999999999989
 49
-3.1749999999999989
  0
LTYPE
  2
A3WAKUDAKE|CENTER2
 70
    48
  3
Center (.5x) ___ _ ___ _ ___ _ ___ _ ___ _ ___
 72
    65
 73
     4
 40
28.574999999999999
 49
19.050000000000001
 49
-3.1749999999999989
 49
3.1749999999999989
 49
-3.1749999999999989
  0
ENDTAB
  0
TABLE
  2
LAYER
 70
    44
  0
LAYER
  2
0
 70
     0
 62
     7
  6
CONTINUOUS
  0
LAYER
  2
1CENTER
 70
     0
 62
     7
  6
CENTER2
  0
LAYER
  2
1TEXT
 70
     0
 62
     7
  6
CONTINUOUS
  0
LAYER
  2
1DIM
 70
     0
 62
     7
  6
CONTINUOUS
  0
LAYER
  2
1PHANTOM
 70
     0
 62
     7
  6
PHANTOM2
  0
LAYER
  2
01
 70
     0
 62
     1
  6
CONTINUOUS
  0
LAYER
  2
1DIM1
 70
     0
 62
     7
  6
CONTINUOUS
  0
LAYER
  2
1HATCH
 70
     0
 62
     7
  6
CONTINUOUS
  0
LAYER
  2
XREF1|1CENTER
 70
    48
 62
     7
  6
XREF1|CENTER2
  0
LAYER
  2
A3WAKUDAKE|THICK
 70
    48
 62
     7
  6
CONTINUOUS
  0
LAYER
  2
A3WAKUDAKE|POINT
 70
    48
 62
     7
  6
CONTINUOUS
  0
LAYER
  2
A3WAKUDAKE|1CENTER
 70
    48
 62
     7
  6
A3WAKUDAKE|CENTER2
  0
LAYER
  2
A3WAKUDAKE|0-6
 70
    48
 62
     7
  6
CONTINUOUS
  0
LAYER
  2
A3WAKUDAKE|1DIM
 70
    48
 62
     7
  6
CONTINUOUS
  0
ENDTAB
  0
TABLE
  2
STYLE
 70
    22
  0
STYLE
  2
STANDARD
 70
     0
 40
0.0
 41
1.0
 50
0.0
 71
     0
 42
4.0
  3
txt.shx
  4
extfont.shx
  0
ENDTAB
  0
TABLE
  2
VIEW
 70
     0
  0
ENDTAB
  0
TABLE
  2
UCS
 70
     0
  0
ENDTAB
  0
TABLE
  2
APPID
 70
     9
  0
APPID
  2
ACAD
 70
     0
  0
APPID
  2
DRAWINGVARIABLESXDATA
 70
     0
  0
APPID
  2
CONTENTTABDATA
 70
     0
  0
APPID
  2
CONTENTCURRENTTAB
 70
     0
  0
APPID
  2
CONTENTBLOCKDESCRIPTION
 70
     0
  0
APPID
  2
CONTENTBLOCKICON
 70
     0
  0
APPID
  2
CONTENTLONGBLOCKNAME
 70
     0
  0
APPID
  2
ACAD_PSEXT
 70
     0
  0
APPID
  2
ACAD_DSTYLE_DIMTEXT_FILL
 70
     0
  0
ENDTAB
  0
TABLE
  2
DIMSTYLE
 70
     9
  0
DIMSTYLE
  2
NEWX10
 70
     0
  3
 
  4

  5

  6
OPEN30
  7
OPEN30
 40
1.0
 41
2.0
 42
0.0
 43
7.0
 44
1.0
 45
0.0
 46
0.0
 47
0.0
 48
0.0
140
3.5
141
0.0
142
0.0
143
25.399999999999999
144
1.0
145
0.0
146
0.7
147
0.7
 71
     0
 72
     0
 73
     0
 74
     0
 75
     0
 76
     0
 77
     1
 78
     8
170
     0
171
     2
172
     1
173
     1
174
     0
175
     0
176
   256
177
   256
178
   201
  0
ENDTAB
  0
ENDSEC
  0
SECTION
  2
BLOCKS
  0
BLOCK
  8
0
  2
$MODEL_SPACE
 70
     0
 10
0.0
 20
0.0
 30
0.0
  3
$MODEL_SPACE
  1

  0
ENDBLK
  5
1A
  8
0
  0
BLOCK
 67
     1
  8
0
  2
$PAPER_SPACE
 70
     0
 10
0.0
 20
0.0
 30
0.0
  3
$PAPER_SPACE
  1

  0
ENDBLK
  5
17
 67
     1
  8
0
  0
BLOCK
  8
0
  2
_OPEN30
 70
     0
 10
0.0
 20
0.0
 30
0.0
  3
_OPEN30
  1

  0
LINE
  5
44
  8
0
  6
BYBLOCK
 62
     0
 10
-1.0
 20
0.26794919
 30
0.0
 11
0.0
 21
0.0
 31
0.0
  0
LINE
  5
45
  8
0
  6
BYBLOCK
 62
     0
 10
0.0
 20
0.0
 30
0.0
 11
-1.0
 21
-0.26794919
 31
0.0
  0
LINE
  5
46
  8
0
  6
BYBLOCK
 62
     0
 10
0.0
 20
0.0
 30
0.0
 11
-1.0
 21
0.0
 31
0.0
  0
ENDBLK
  5
47
  8
0
  0
BLOCK
  8
0
  2
XREF1
 70
    36
 10
0.0
 20
0.0
 30
0.0
  3
XREF1
  1
D:\ACLT\FORMAT\KAWAJUN(9)図面用.dwg
  0
ENDBLK
  5
5D
  8
0
  0
BLOCK
  8
0
  2
A3WAKUDAKE
 70
    36
 10
0.0
 20
0.0
 30
0.0
  3
A3WAKUDAKE
  1
D:\ACLT\FORMAT\A3WAKUdake.dwg
  0
ENDBLK
  5
6DC
  8
0
  0
BLOCK
  8
0
  2
*U24
 70
     1
 10
0.0
 20
0.0
 30
0.0
  3
*U24
  1

  0
TEXT
  5
198D8
  8
1DIM1
 62
   201
 10
-46.328003676568791
 20
-914.12131530700628
 30
0.0
 40
17.5
  1
P200 
  0
ENDBLK
  5
198DA
  8
0
  0
BLOCK
  8
0
  2
*U25
 70
     1
 10
0.0
 20
0.0
 30
0.0
  3
*U25
  1

  0
TEXT
  5
198DC
  8
1DIM1
 62
   201
 10
153.67199632343119
 20
-914.12131530700651
 30
0.0
 40
17.5
  1
P200 
  0
ENDBLK
  5
198DE
  8
0
  0
BLOCK
  8
0
  2
*U26
 70
     1
 10
0.0
 20
0.0
 30
0.0
  3
*U26
  1

  0
TEXT
  5
198E0
  8
1DIM1
 62
   201
 10
353.67199632343119
 20
-914.12131530700651
 30
0.0
 40
17.5
  1
P200 
  0
ENDBLK
  5
198E2
  8
0
  0
BLOCK
  8
0
  2
*U27
 70
     1
 10
0.0
 20
0.0
 30
0.0
  3
*U27
  1

  0
TEXT
  5
198E4
  8
1DIM1
 62
   201
 10
162.42199632343119
 20
-944.1213153070064
 30
0.0
 40
17.5
  1
900 
  0
ENDBLK
  5
198E6
  8
0
  0
BLOCK
  8
0
  2
*U28
 70
     1
 10
0.0
 20
0.0
 30
0.0
  3
*U28
  1

  0
TEXT
  5
198E8
  8
1DIM
 62
   201
 10
652.13866299009703
 20
-713.75464864033779
 30
0.0
 40
3.5
  1
7.5 
 50
90.0
  0
ENDBLK
  5
198EA
  8
0
  0
BLOCK
  8
0
  2
*U29
 70
     1
 10
0.0
 20
0.0
 30
0.0
  3
*U29
  1

  0
TEXT
  5
198EC
  8
1DIM
 62
   201
 10
652.13866299009715
 20
-782.32964864033784
 30
0.0
 40
3.5
  1
110 
 50
90.0
  0
ENDBLK
  5
198EE
  8
0
  0
BLOCK
  8
0
  2
*U30
 70
     1
 10
0.0
 20
0.0
 30
0.0
  3
*U30
  1

  0
TEXT
  5
198F0
  8
1DIM
 62
   201
 10
662.13866299009715
 20
-781.20464864033772
 30
0.0
 40
3.5
  1
117.5 
 50
90.0
  0
ENDBLK
  5
198F2
  8
0
  0
BLOCK
  8
0
  2
*U31
 70
     1
 10
0.0
 20
0.0
 30
0.0
  3
*U31
  1

  0
TEXT
  5
198F4
  8
1DIM
 62
   201
 10
735.75532965676291
 20
-916.92131530700635
 30
0.0
 40
3.5
  1
117.5 
  0
ENDBLK
  5
198F6
  8
0
  0
BLOCK
  8
0
  2
*U32
 70
     1
 10
0.0
 20
0.0
 30
0.0
  3
*U32
  1

  0
TEXT
  5
198F8
  8
1DIM
 62
   201
 10
780.33866299009674
 20
-906.92131530700635
 30
0.0
 40
3.5
  1
29.5 
  0
ENDBLK
  5
198FA
  8
0
  0
BLOCK
  8
0
  2
*U33
 70
     1
 10
0.0
 20
0.0
 30
0.0
  3
*U33
  1

  0
TEXT
  5
198FC
  8
1DIM
 62
   201
 10
839.63866299009555
 20
-869.91298197366928
 30
0.0
 40
3.5
  1
9 
 50
90.0
  0
ENDBLK
  5
198FE
  8
0
  0
BLOCK
  8
0
  2
*U34
 70
     1
 10
0.0
 20
0.0
 30
0.0
  3
*U34
  1

  0
TEXT
  5
19900
  8
1DIM
 62
   201
 10
662.13866299009715
 20
-881.12131530700628
 30
0.0
 40
3.5
  1
23.5 
 50
90.0
  0
ENDBLK
  5
19902
  8
0
  0
BLOCK
  8
0
  2
*U35
 70
     1
 10
0.0
 20
0.0
 30
0.0
  3
*U35
  1

  0
TEXT
  5
19904
  8
1DIM
 62
   201
 10
672.13866299009715
 20
-859.42131530700635
 30
0.0
 40
3.5
  1
5 
 50
90.0
  0
ENDBLK
  5
19906
  8
0
  0
BLOCK
  8
0
  2
*U36
 70
     1
 10
0.0
 20
0.0
 30
0.0
  3
*U36
  1

  0
TEXT
  5
19908
  8
1DIM
 62
   201
 10
672.13866299009715
 20
-874.28798197367303
 30
0.0
 40
3.5
  1
8 
 50
90.0
  0
ENDBLK
  5
1990A
  8
0
  0
BLOCK
  8
0
  2
*U37
 70
     1
 10
0.0
 20
0.0
 30
0.0
  3
*U37
  1

  0
TEXT
  5
1990C
  8
1DIM
 62
   201
 10
784.92199632342465
 20
-896.92131530700635
 30
0.0
 40
3.5
  1
21.5 
  0
ENDBLK
  5
1990E
  8
0
  0
BLOCK
  8
0
  2
*U38
 70
     1
 10
0.0
 20
0.0
 30
0.0
  3
*U38
  1

  0
TEXT
  5
19910
  8
1DIM1
 62
   201
 10
162.42199632343201
 20
-673.12131530700378
 30
0.0
 40
17.5
  1
700 
  0
ENDBLK
  5
19912
  8
0
  0
BLOCK
  8
0
  2
*U39
 70
     1
 10
0.0
 20
0.0
 30
0.0
  3
*U39
  1

  0
TEXT
  5
19914
  8
1DIM1
 62
   201
 10
-234.66133700990071
 20
-673.12131530700378
 30
0.0
 40
17.5
  1
100 
  0
ENDBLK
  5
19916
  8
0
  0
BLOCK
  8
0
  2
*U40
 70
     1
 10
0.0
 20
0.0
 30
0.0
  3
*U40
  1

  0
TEXT
  5
19918
  8
1DIM1
 62
   201
 10
565.3386629900981
 20
-673.12131530700367
 30
0.0
 40
17.5
  1
100 
  0
ENDBLK
  5
1991A
  8
0
  0
ENDSEC
  0
SECTION
  2
ENTITIES
  0
LINE
  5
180D8
  8
1DIM
 10
720.3386629900956
 20
-847.12131530700435
 30
0.0
 11
790.3386629900956
 21
-847.12131530700435
 31
0.0
  0
TEXT
  5
180D9
  8
1TEXT
 10
727.09104394247618
 20
-845.62131530700447
 30
0.0
 40
4.0
  1
表面処理：
 72
     1
 11
737.73866299009524
 21
-845.62131530700447
 31
0.0
  0
LINE
  5
180DA
  8
1DIM
 10
720.3386629900956
 20
-840.12131530700435
 30
0.0
 11
790.3386629900956
 21
-840.12131530700435
 31
0.0
  0
LINE
  5
180DB
  8
1DIM
 10
720.3386629900956
 20
-840.12131530700435
 30
0.0
 11
790.3386629900956
 21
-840.12131530700435
 31
0.0
  0
LINE
  5
180DC
  8
1DIM
 10
755.33866299009549
 20
-840.12131530700435
 30
0.0
 11
755.33866299009549
 21
-854.12131530700435
 31
0.0
  0
TEXT
  5
180DD
  8
1TEXT
 10
765.93866299009528
 20
-845.62131530700447
 30
0.0
 40
4.0
  1
コード
 72
     1
 11
772.73866299009524
 21
-845.62131530700447
 31
0.0
  0
LINE
  5
180DE
  8
1DIM
 10
720.3386629900956
 20
-854.12131530700435
 30
0.0
 11
790.3386629900956
 21
-854.12131530700435
 31
0.0
  0
TEXT
  5
180DF
  8
1TEXT
 10
720.99199632342845
 20
-852.43222891857545
 30
0.0
 40
4.0
  1
ブラストアルマイト
 41
0.8
 72
     1
 11
737.73866299009524
 21
-852.43222891857545
 31
0.0
  0
TEXT
  5
180E0
  8
1TEXT
 10
758.07199632342952
 20
-852.83567229065375
 30
0.0
 40
4.0
  1
SA804S90
 72
     1
 11
772.73866299009615
 21
-852.83567229065375
 31
0.0
  0
LINE
  5
180E1
  8
1DIM
 10
720.3386629900956
 20
-854.12131530700435
 30
0.0
 11
720.3386629900956
 21
-840.12131530700435
 31
0.0
  0
LINE
  5
180E2
  8
1DIM
 10
790.3386629900956
 20
-854.12131530700435
 30
0.0
 11
790.3386629900956
 21
-840.12131530700435
 31
0.0
  0
TEXT
  5
180E3
  8
1TEXT
 10
720.3386629900956
 20
-835.12131530700447
 30
0.0
 40
8.0
  1
SA804S90
  0
LINE
  5
180E5
  8
01
 10
818.3386629900956
 20
-830.62131530699821
 30
0.0
 11
818.3386629900956
 21
-910.62131530699776
 31
0.0
  0
LINE
  5
18F9A
  8
1CENTER
 10
482.83866299009782
 20
-686.66040071585098
 30
0.0
 11
482.83866299009782
 21
-723.29159171630602
 31
0.0
  0
LINE
  5
18F9B
  8
1PHANTOM
 10
481.7443391761027
 20
-691.72131276083735
 30
0.0
 11
483.70667426497801
 21
-690.92131732678638
 31
0.0
  0
LINE
  5
18F9C
  8
1PHANTOM
 10
483.70667426497801
 20
-690.92131732678638
 30
0.0
 11
483.11839768993582
 21
-690.60954747053427
 31
0.0
  0
LINE
  5
18F9D
  8
1PHANTOM
 10
480.8387095259958
 20
-714.12131065362735
 30
0.0
 11
484.8387095259958
 21
-713.32131996080909
 31
0.0
  0
LINE
  5
18F9E
  8
1PHANTOM
 10
480.8387095259958
 20
-702.92131065362287
 30
0.0
 11
484.8387095259958
 21
-702.12131996080041
 31
0.0
  0
LINE
  5
18F9F
  8
1PHANTOM
 10
480.8387095259958
 20
-699.72131065362294
 30
0.0
 11
484.8387095259958
 21
-698.92131996080025
 31
0.0
  0
LINE
  5
18FA0
  8
1PHANTOM
 10
484.8387095259958
 20
-698.92131996080025
 30
0.0
 11
484.3387095259958
 21
-698.82131879740314
 31
0.0
  0
LINE
  5
18FA1
  8
1PHANTOM
 10
481.33870952599591
 20
-698.22131181702014
 30
0.0
 11
480.8387095259958
 21
-698.12131065362291
 31
0.0
  0
LINE
  5
18FA2
  8
1PHANTOM
 10
484.8387095259958
 20
-702.12131996080041
 30
0.0
 11
484.3387095259958
 21
-702.02131879740307
 31
0.0
  0
LINE
  5
18FA3
  8
1PHANTOM
 10
484.8387095259958
 20
-700.52131996080016
 30
0.0
 11
484.3387095259958
 21
-700.42131879740305
 31
0.0
  0
LINE
  5
18FA4
  8
1PHANTOM
 10
481.33870952599591
 20
-699.82131181702005
 30
0.0
 11
480.8387095259958
 21
-699.72131065362294
 31
0.0
  0
LINE
  5
18FA5
  8
1PHANTOM
 10
481.33870952599591
 20
-701.42131181701996
 30
0.0
 11
480.8387095259958
 21
-701.32131065362285
 31
0.0
  0
LINE
  5
18FA6
  8
1PHANTOM
 10
480.8387095259958
 20
-701.32131065362285
 30
0.0
 11
484.8387095259958
 21
-700.52131996080016
 31
0.0
  0
LINE
  5
18FA7
  8
1PHANTOM
 10
484.15948836938509
 20
-692.5213183803919
 30
0.0
 11
483.6077389055817
 21
-692.33855423776401
 31
0.0
  0
LINE
  5
18FA8
  8
1PHANTOM
 10
484.8387095259958
 20
-695.72131996080032
 30
0.0
 11
484.3387095259958
 21
-695.62131879740309
 31
0.0
  0
LINE
  5
18FA9
  8
1PHANTOM
 10
484.8387095259958
 20
-697.32131996080034
 30
0.0
 11
484.3387095259958
 21
-697.22131879740334
 31
0.0
  0
LINE
  5
18FAA
  8
1PHANTOM
 10
484.61230247379171
 20
-694.12131943399766
 30
0.0
 11
484.07570873852058
 21
-693.99204873636779
 31
0.0
  0
LINE
  5
18FAB
  8
1PHANTOM
 10
481.75962412320439
 20
-693.43408121958316
 30
0.0
 11
481.29152566805442
 21
-693.32131170723312
 31
0.0
  0
LINE
  5
18FAC
  8
1PHANTOM
 10
481.33870952599591
 20
-696.62131181702
 30
0.0
 11
480.8387095259958
 21
-696.52131065362289
 31
0.0
  0
LINE
  5
18FAD
  8
1PHANTOM
 10
481.33870952599591
 20
-695.02131181702009
 30
0.0
 11
480.8387095259958
 21
-694.92131065362287
 31
0.0
  0
LINE
  5
18FAE
  8
1PHANTOM
 10
482.201511016734
 20
-691.87274855727776
 30
0.0
 11
481.7443391761027
 21
-691.72131276083735
 31
0.0
  0
LINE
  5
18FAF
  8
1PHANTOM
 10
481.29152566805442
 20
-693.32131170723312
 30
0.0
 11
484.15948836938509
 21
-692.5213183803919
 31
0.0
  0
LINE
  5
18FB0
  8
1PHANTOM
 10
480.8387095259958
 20
-696.52131065362289
 30
0.0
 11
484.8387095259958
 21
-695.72131996080032
 31
0.0
  0
LINE
  5
18FB1
  8
1PHANTOM
 10
480.8387095259958
 20
-694.92131065362287
 30
0.0
 11
484.61230247379171
 21
-694.12131943399766
 31
0.0
  0
LINE
  5
18FB2
  8
1PHANTOM
 10
480.8387095259958
 20
-698.12131065362291
 30
0.0
 11
484.8387095259958
 21
-697.32131996080034
 31
0.0
  0
LINE
  5
18FB3
  8
1PHANTOM
 10
480.8387095259958
 20
-710.9213106536273
 30
0.0
 11
484.8387095259958
 21
-710.12131996080905
 31
0.0
  0
LINE
  5
18FB4
  8
1PHANTOM
 10
484.8387095259958
 20
-710.12131996080905
 30
0.0
 11
484.3387095259958
 21
-710.02131879741125
 31
0.0
  0
LINE
  5
18FB5
  8
1PHANTOM
 10
481.33870952599591
 20
-709.42131181702064
 30
0.0
 11
480.8387095259958
 21
-709.32131065362296
 31
0.0
  0
LINE
  5
18FB6
  8
1PHANTOM
 10
484.8387095259958
 20
-711.72131996080918
 30
0.0
 11
484.3387095259958
 21
-711.6213187974115
 31
0.0
  0
LINE
  5
18FB7
  8
1PHANTOM
 10
484.8387095259958
 20
-713.32131996080909
 30
0.0
 11
484.3387095259958
 21
-713.22131879741141
 31
0.0
  0
LINE
  5
18FB8
  8
1PHANTOM
 10
481.33870952599591
 20
-711.02131181702498
 30
0.0
 11
480.8387095259958
 21
-710.9213106536273
 31
0.0
  0
LINE
  5
18FB9
  8
1PHANTOM
 10
481.33870952599591
 20
-712.62131181702512
 30
0.0
 11
480.8387095259958
 21
-712.52131065362744
 31
0.0
  0
LINE
  5
18FBA
  8
1PHANTOM
 10
480.8387095259958
 20
-712.52131065362744
 30
0.0
 11
484.8387095259958
 21
-711.72131996080918
 31
0.0
  0
LINE
  5
18FBB
  8
1PHANTOM
 10
484.8387095259958
 20
-705.32131996080454
 30
0.0
 11
484.3387095259958
 21
-705.22131879740698
 31
0.0
  0
LINE
  5
18FBC
  8
1PHANTOM
 10
484.8387095259958
 20
-703.72131996080032
 30
0.0
 11
484.3387095259958
 21
-703.62131879740309
 31
0.0
  0
LINE
  5
18FBD
  8
1PHANTOM
 10
484.8387095259958
 20
-708.52131996080459
 30
0.0
 11
484.3387095259958
 21
-708.42131879740703
 31
0.0
  0
LINE
  5
18FBE
  8
1PHANTOM
 10
484.8387095259958
 20
-706.92131996080468
 30
0.0
 11
484.3387095259958
 21
-706.82131879740712
 31
0.0
  0
LINE
  5
18FBF
  8
1PHANTOM
 10
481.33870952599591
 20
-703.02131181702009
 30
0.0
 11
480.8387095259958
 21
-702.92131065362287
 31
0.0
  0
LINE
  5
18FC0
  8
1PHANTOM
 10
481.33870952599591
 20
-704.62131181702057
 30
0.0
 11
480.8387095259958
 21
-704.52131065362289
 31
0.0
  0
LINE
  5
18FC1
  8
1PHANTOM
 10
481.33870952599591
 20
-707.82131181702073
 30
0.0
 11
480.8387095259958
 21
-707.72131065362305
 31
0.0
  0
LINE
  5
18FC2
  8
1PHANTOM
 10
481.33870952599591
 20
-706.22131181702048
 30
0.0
 11
480.8387095259958
 21
-706.12131065362291
 31
0.0
  0
LINE
  5
18FC3
  8
1PHANTOM
 10
480.8387095259958
 20
-706.12131065362291
 30
0.0
 11
484.8387095259958
 21
-705.32131996080454
 31
0.0
  0
LINE
  5
18FC4
  8
1PHANTOM
 10
480.8387095259958
 20
-704.52131065362289
 30
0.0
 11
484.8387095259958
 21
-703.72131996080032
 31
0.0
  0
LINE
  5
18FC5
  8
1PHANTOM
 10
480.8387095259958
 20
-707.72131065362305
 30
0.0
 11
484.8387095259958
 21
-706.92131996080468
 31
0.0
  0
LINE
  5
18FC6
  8
1PHANTOM
 10
480.8387095259958
 20
-709.32131065362296
 30
0.0
 11
484.8387095259958
 21
-708.52131996080459
 31
0.0
  0
LINE
  5
18FC7
  8
1PHANTOM
 10
484.3387095259958
 20
-719.62131879729782
 30
0.0
 11
481.33870952599591
 21
-719.62131181691313
 31
0.0
  0
LINE
  5
18FC8
  8
1PHANTOM
 10
481.33870952599591
 20
-719.02131181702919
 30
0.0
 11
480.8387095259958
 21
-718.92131065363151
 31
0.0
  0
LINE
  5
18FC9
  8
1PHANTOM
 10
480.8387095259958
 20
-718.92131065363151
 30
0.0
 11
484.8387095259958
 21
-718.12131996081325
 31
0.0
  0
LINE
  5
18FCA
  8
1PHANTOM
 10
484.8387095259958
 20
-718.12131996081325
 30
0.0
 11
484.3387095259958
 21
-718.02131879741546
 31
0.0
  0
LINE
  5
18FCB
  8
1PHANTOM
 10
481.33870952599591
 20
-717.42131181702928
 30
0.0
 11
480.8387095259958
 21
-717.3213106536316
 31
0.0
  0
LINE
  5
18FCC
  8
1PHANTOM
 10
481.33870952599591
 20
-715.82131181702925
 30
0.0
 11
480.8387095259958
 21
-715.72131065363169
 31
0.0
  0
LINE
  5
18FCD
  8
1PHANTOM
 10
480.8387095259958
 20
-715.72131065363169
 30
0.0
 11
484.8387095259958
 21
-714.92131996081343
 31
0.0
  0
LINE
  5
18FCE
  8
1PHANTOM
 10
484.8387095259958
 20
-716.52131996081334
 30
0.0
 11
484.3387095259958
 21
-716.42131879741555
 31
0.0
  0
LINE
  5
18FCF
  8
1PHANTOM
 10
484.8387095259958
 20
-714.92131996081343
 30
0.0
 11
484.3387095259958
 21
-714.82131879741576
 31
0.0
  0
LINE
  5
18FD0
  8
1PHANTOM
 10
480.8387095259958
 20
-717.3213106536316
 30
0.0
 11
484.8387095259958
 21
-716.52131996081334
 31
0.0
  0
LINE
  5
18FD1
  8
1PHANTOM
 10
481.33870952599591
 20
-714.22131181702503
 30
0.0
 11
480.8387095259958
 21
-714.12131065362735
 31
0.0
  0
LINE
  5
18FD2
  8
1PHANTOM
 10
479.03866299009792
 20
-719.62131530699719
 30
0.0
 11
479.03866299009792
 21
-718.62131530699719
 31
0.0
  0
LINE
  5
18FD3
  8
1PHANTOM
 10
486.63866299009783
 20
-719.62131530699719
 30
0.0
 11
486.63866299009783
 21
-718.62131530699719
 31
0.0
  0
LINE
  5
18FD4
  8
1PHANTOM
 10
483.33866284009792
 20
-719.62131530699719
 30
0.0
 11
482.33866314009782
 21
-718.62131530699719
 31
0.0
  0
LINE
  5
18FD5
  8
1PHANTOM
 10
486.63866299009783
 20
-719.62131530699719
 30
0.0
 11
479.03866299009792
 21
-719.62131530699719
 31
0.0
  0
LINE
  5
18FD6
  8
1PHANTOM
 10
486.63866299009783
 20
-718.62131530699719
 30
0.0
 11
479.03866299009792
 21
-718.62131530699719
 31
0.0
  0
LINE
  5
18FD9
  8
01
 10
632.83866299009878
 20
-725.12131530700469
 30
0.0
 11
632.83866299009878
 21
-829.12131530700435
 31
0.0
  0
LINE
  5
18FDA
  8
01
 10
-267.16133700990122
 20
-829.12131530700435
 30
0.0
 11
-267.16133700990122
 21
-725.12131530700401
 31
0.0
  0
LINE
  5
18FDB
  8
01
 10
532.83866299009776
 20
-877.12131530700481
 30
0.0
 11
-266.16133700990042
 21
-877.12131530700594
 31
0.0
  0
LINE
  5
18FDC
  8
01
 10
627.83866299009867
 20
-834.12131530700447
 30
0.0
 11
-262.16133700990122
 21
-834.12131530700447
 31
0.0
  0
LINE
  5
18FDD
  8
01
 10
532.83866299009776
 20
-869.12131530700503
 30
0.0
 11
-266.16133700990127
 21
-869.12131530700503
 31
0.0
  0
LINE
  5
18FDE
  8
01
 10
-166.16133700990301
 20
-887.62131530700537
 30
0.0
 11
522.83866299009776
 21
-887.62131530700469
 31
0.0
  0
LINE
  5
18FDF
  8
01
 10
-67.161337009901899
 20
-877.62131530700435
 30
0.0
 11
522.83866299009776
 21
-877.62131530700469
 31
0.0
  0
LINE
  5
18FE0
  8
01
 10
462.838662990096
 20
-869.12131530700503
 30
0.0
 11
522.83866299009776
 21
-869.12131530700458
 31
0.0
  0
LINE
  5
18FE1
  8
01
 10
-166.16133700990119
 20
-864.12131530700469
 30
0.0
 11
522.83866299009776
 21
-864.12131530700469
 31
0.0
  0
LINE
  5
18FE2
  8
01
 10
-267.16133700990122
 20
-870.12131530700503
 30
0.0
 11
-267.16133700990122
 21
-876.12131530700481
 31
0.0
  0
LINE
  5
18FE3
  8
01
 10
-267.16133700990122
 20
-876.12131530700481
 30
0.0
 11
-266.16133700990122
 21
-877.12131530700481
 31
0.0
  0
LINE
  5
18FE4
  8
01
 10
-266.16133700990122
 20
-869.12131530700503
 30
0.0
 11
-267.16133700990122
 21
-870.12131530700503
 31
0.0
  0
LINE
  5
18FE5
  8
01
 10
-167.16133700990301
 20
-886.62131530700469
 30
0.0
 11
-167.1613370099019
 21
-877.12131530700481
 31
0.0
  0
LINE
  5
18FE6
  8
01
 10
-167.16133700990119
 20
-869.12131530700503
 30
0.0
 11
-167.16133700990119
 21
-865.12131530700469
 31
0.0
  0
ARC
  5
18FE7
  8
01
 10
-166.16133700990301
 20
-886.62131530700469
 30
0.0
 40
1.0
 50
179.9999999999967
 51
270.0
  0
ARC
  5
18FE8
  8
01
 10
-166.16133700990119
 20
-865.12131530700469
 30
0.0
 40
1.0
 50
90.0
 51
179.9999999999967
  0
ARC
  5
18FE9
  8
01
 10
-262.16133700990122
 20
-829.12131530700435
 30
0.0
 40
5.0
 50
180.0
 51
270.0
  0
LINE
  5
18FEA
  8
01
 10
532.83866299009776
 20
-877.12131530700481
 30
0.0
 11
631.83866299009685
 21
-877.12131530700481
 31
0.0
  0
LINE
  5
18FEB
  8
01
 10
532.83866299009776
 20
-869.12131530700503
 30
0.0
 11
631.83866299009685
 21
-869.12131530700503
 31
0.0
  0
LINE
  5
18FEC
  8
01
 10
532.8386629901014
 20
-886.62131530700469
 30
0.0
 11
532.83866299009981
 21
-877.12131530700503
 31
0.0
  0
LINE
  5
18FED
  8
01
 10
532.83866299009856
 20
-869.12131530700503
 30
0.0
 11
532.83866299009776
 21
-865.12131530700435
 31
0.0
  0
LINE
  5
18FEE
  8
01
 10
531.83866299010151
 20
-887.62131530700469
 30
0.0
 11
522.83866299009776
 21
-887.62131530700469
 31
0.0
  0
LINE
  5
18FEF
  8
01
 10
532.83866299009981
 20
-877.62131530700469
 30
0.0
 11
522.83866299009776
 21
-877.62131530700469
 31
0.0
  0
LINE
  5
18FF0
  8
01
 10
582.83866299009969
 20
-869.12131530700503
 30
0.0
 11
522.83866299009776
 21
-869.12131530700458
 31
0.0
  0
CIRCLE
  5
18FF2
  8
01
 10
482.83866299009782
 20
-873.37131530700515
 30
0.0
 40
2.5
  0
ARC
  5
18FF3
  8
01
 10
531.83866299010151
 20
-886.62131530700492
 30
0.0
 40
1.0
 50
270.0
 51
0.0000000000065138
  0
LINE
  5
18FF4
  8
01
 10
531.83866299009776
 20
-864.12131530700458
 30
0.0
 11
522.83866299009776
 21
-864.12131530700469
 31
0.0
  0
ARC
  5
18FF5
  8
01
 10
531.83866299009776
 20
-865.12131530700435
 30
0.0
 40
1.0
 50
0.0000000000032569
 51
90.0
  0
LINE
  5
18FF6
  8
01
 10
632.83866299009685
 20
-870.12131530700503
 30
0.0
 11
632.83866299009685
 21
-876.12131530700481
 31
0.0
  0
LINE
  5
18FF7
  8
01
 10
632.83866299009685
 20
-876.12131530700481
 30
0.0
 11
631.83866299009685
 21
-877.12131530700481
 31
0.0
  0
LINE
  5
18FF8
  8
01
 10
631.83866299009685
 20
-869.12131530700503
 30
0.0
 11
632.83866299009685
 21
-870.12131530700503
 31
0.0
  0
ARC
  5
18FF9
  8
01
 10
627.83866299009867
 20
-829.12131530700435
 30
0.0
 40
5.0
 50
270.0
 51
0.0
  0
LINE
  5
18FFA
  8
01
 10
522.83866299009867
 20
-746.12131530700469
 30
0.0
 11
-166.16133700990119
 21
-746.12131530700469
 31
0.0
  0
LINE
  5
18FFB
  8
01
 10
522.83866299009776
 20
-716.62131530700469
 30
0.0
 11
462.83866299009691
 21
-716.62131530700469
 31
0.0
  0
LINE
  5
18FFC
  8
01
 10
-266.16133700990122
 20
-724.12131530700469
 30
0.0
 11
-167.16133700990051
 21
-724.12131530700469
 31
0.0
  0
LINE
  5
18FFD
  8
01
 10
-267.16133700990122
 20
-725.12131530700469
 30
0.0
 11
-266.16133700990122
 21
-724.12131530700469
 31
0.0
  0
ARC
  5
18FFE
  8
01
 10
-166.16133700990119
 20
-745.12131530700469
 30
0.0
 40
1.0
 50
180.0
 51
270.0
  0
LINE
  5
18FFF
  8
01
 10
532.83866299009765
 20
-724.1213153070056
 30
0.0
 11
631.83866299009867
 21
-724.12131530700469
 31
0.0
  0
LINE
  5
19000
  8
01
 10
532.83866299009685
 20
-745.12131530700469
 30
0.0
 11
532.83866299009776
 21
-716.62131530700401
 31
0.0
  0
LINE
  5
19001
  8
01
 10
-167.16133700990119
 20
-745.12131530699833
 30
0.0
 11
-167.16133700990031
 21
-716.62131530699764
 31
0.0
  0
LINE
  5
19002
  8
01
 10
522.83866299009696
 20
-746.12131530700469
 30
0.0
 11
531.83866299009685
 21
-746.12131530700469
 31
0.0
  0
ARC
  5
19003
  8
01
 10
531.83866299009685
 20
-745.12131530700469
 30
0.0
 40
1.0
 50
270.0
 51
359.99999999999682
  0
LINE
  5
19004
  8
01
 10
522.83866299009776
 20
-716.62131530700469
 30
0.0
 11
532.83866299009765
 21
-716.62131530700458
 31
0.0
  0
LINE
  5
19005
  8
01
 10
631.83866299009867
 20
-724.12131530700469
 30
0.0
 11
632.83866299009878
 21
-725.12131530700469
 31
0.0
  0
LINE
  5
19006
  8
01
 10
522.83866299009776
 20
-716.62131530700469
 30
0.0
 11
-167.16133700990031
 21
-716.6213153070039
 31
0.0
  0
LINE
  5
19007
  8
1CENTER
 10
482.83866299009782
 20
-876.37131530700503
 30
0.0
 11
482.83866299009782
 21
-870.37131530700515
 31
0.0
  0
LINE
  5
19008
  8
1CENTER
 10
479.83866299009787
 20
-873.37131530700503
 30
0.0
 11
485.83866299009782
 21
-873.37131530700503
 31
0.0
  0
LINE
  5
1900E
  8
1CENTER
 10
-117.1613370099021
 20
-686.66040071585098
 30
0.0
 11
-117.1613370099021
 21
-723.29159171630602
 31
0.0
  0
LINE
  5
1900F
  8
1PHANTOM
 10
-118.2556608238972
 20
-691.72131276083735
 30
0.0
 11
-116.2933257350219
 21
-690.92131732678638
 31
0.0
  0
LINE
  5
19010
  8
1PHANTOM
 10
-116.2933257350219
 20
-690.92131732678638
 30
0.0
 11
-116.8816023100642
 21
-690.60954747053427
 31
0.0
  0
LINE
  5
19011
  8
1PHANTOM
 10
-119.1612904740041
 20
-714.12131065362735
 30
0.0
 11
-115.1612904740041
 21
-713.32131996080909
 31
0.0
  0
LINE
  5
19012
  8
1PHANTOM
 10
-119.1612904740041
 20
-702.92131065362287
 30
0.0
 11
-115.1612904740041
 21
-702.12131996080041
 31
0.0
  0
LINE
  5
19013
  8
1PHANTOM
 10
-119.1612904740041
 20
-699.72131065362294
 30
0.0
 11
-115.1612904740041
 21
-698.92131996080025
 31
0.0
  0
LINE
  5
19014
  8
1PHANTOM
 10
-115.1612904740041
 20
-698.92131996080025
 30
0.0
 11
-115.6612904740041
 21
-698.82131879740314
 31
0.0
  0
LINE
  5
19015
  8
1PHANTOM
 10
-118.6612904740041
 20
-698.22131181702014
 30
0.0
 11
-119.1612904740041
 21
-698.12131065362291
 31
0.0
  0
LINE
  5
19016
  8
1PHANTOM
 10
-115.1612904740041
 20
-702.12131996080041
 30
0.0
 11
-115.6612904740041
 21
-702.02131879740307
 31
0.0
  0
LINE
  5
19017
  8
1PHANTOM
 10
-115.1612904740041
 20
-700.52131996080016
 30
0.0
 11
-115.6612904740041
 21
-700.42131879740305
 31
0.0
  0
LINE
  5
19018
  8
1PHANTOM
 10
-118.6612904740041
 20
-699.82131181702005
 30
0.0
 11
-119.1612904740041
 21
-699.72131065362294
 31
0.0
  0
LINE
  5
19019
  8
1PHANTOM
 10
-118.6612904740041
 20
-701.42131181701996
 30
0.0
 11
-119.1612904740041
 21
-701.32131065362285
 31
0.0
  0
LINE
  5
1901A
  8
1PHANTOM
 10
-119.1612904740041
 20
-701.32131065362285
 30
0.0
 11
-115.1612904740041
 21
-700.52131996080016
 31
0.0
  0
LINE
  5
1901B
  8
1PHANTOM
 10
-115.8405116306148
 20
-692.5213183803919
 30
0.0
 11
-116.3922610944182
 21
-692.33855423776401
 31
0.0
  0
LINE
  5
1901C
  8
1PHANTOM
 10
-115.1612904740041
 20
-695.72131996080032
 30
0.0
 11
-115.6612904740041
 21
-695.62131879740309
 31
0.0
  0
LINE
  5
1901D
  8
1PHANTOM
 10
-115.1612904740041
 20
-697.32131996080034
 30
0.0
 11
-115.6612904740041
 21
-697.22131879740334
 31
0.0
  0
LINE
  5
1901E
  8
1PHANTOM
 10
-115.3876975262082
 20
-694.12131943399766
 30
0.0
 11
-115.9242912614793
 21
-693.99204873636779
 31
0.0
  0
LINE
  5
1901F
  8
1PHANTOM
 10
-118.2403758767955
 20
-693.43408121958316
 30
0.0
 11
-118.7084743319456
 21
-693.32131170723312
 31
0.0
  0
LINE
  5
19020
  8
1PHANTOM
 10
-118.6612904740041
 20
-696.62131181702
 30
0.0
 11
-119.1612904740041
 21
-696.52131065362289
 31
0.0
  0
LINE
  5
19021
  8
1PHANTOM
 10
-118.6612904740041
 20
-695.02131181702009
 30
0.0
 11
-119.1612904740041
 21
-694.92131065362287
 31
0.0
  0
LINE
  5
19022
  8
1PHANTOM
 10
-117.798488983266
 20
-691.87274855727776
 30
0.0
 11
-118.2556608238972
 21
-691.72131276083735
 31
0.0
  0
LINE
  5
19023
  8
1PHANTOM
 10
-118.7084743319456
 20
-693.32131170723312
 30
0.0
 11
-115.8405116306148
 21
-692.5213183803919
 31
0.0
  0
LINE
  5
19024
  8
1PHANTOM
 10
-119.1612904740041
 20
-696.52131065362289
 30
0.0
 11
-115.1612904740041
 21
-695.72131996080032
 31
0.0
  0
LINE
  5
19025
  8
1PHANTOM
 10
-119.1612904740041
 20
-694.92131065362287
 30
0.0
 11
-115.3876975262082
 21
-694.12131943399766
 31
0.0
  0
LINE
  5
19026
  8
1PHANTOM
 10
-119.1612904740041
 20
-698.12131065362291
 30
0.0
 11
-115.1612904740041
 21
-697.32131996080034
 31
0.0
  0
LINE
  5
19027
  8
1PHANTOM
 10
-119.1612904740041
 20
-710.9213106536273
 30
0.0
 11
-115.1612904740041
 21
-710.12131996080905
 31
0.0
  0
LINE
  5
19028
  8
1PHANTOM
 10
-115.1612904740041
 20
-710.12131996080905
 30
0.0
 11
-115.6612904740041
 21
-710.02131879741125
 31
0.0
  0
LINE
  5
19029
  8
1PHANTOM
 10
-118.6612904740041
 20
-709.42131181702064
 30
0.0
 11
-119.1612904740041
 21
-709.32131065362296
 31
0.0
  0
LINE
  5
1902A
  8
1PHANTOM
 10
-115.1612904740041
 20
-711.72131996080918
 30
0.0
 11
-115.6612904740041
 21
-711.6213187974115
 31
0.0
  0
LINE
  5
1902B
  8
1PHANTOM
 10
-115.1612904740041
 20
-713.32131996080909
 30
0.0
 11
-115.6612904740041
 21
-713.22131879741141
 31
0.0
  0
LINE
  5
1902C
  8
1PHANTOM
 10
-118.6612904740041
 20
-711.02131181702498
 30
0.0
 11
-119.1612904740041
 21
-710.9213106536273
 31
0.0
  0
LINE
  5
1902D
  8
1PHANTOM
 10
-118.6612904740041
 20
-712.62131181702512
 30
0.0
 11
-119.1612904740041
 21
-712.52131065362744
 31
0.0
  0
LINE
  5
1902E
  8
1PHANTOM
 10
-119.1612904740041
 20
-712.52131065362744
 30
0.0
 11
-115.1612904740041
 21
-711.72131996080918
 31
0.0
  0
LINE
  5
1902F
  8
1PHANTOM
 10
-115.1612904740041
 20
-705.32131996080454
 30
0.0
 11
-115.6612904740041
 21
-705.22131879740698
 31
0.0
  0
LINE
  5
19030
  8
1PHANTOM
 10
-115.1612904740041
 20
-703.72131996080032
 30
0.0
 11
-115.6612904740041
 21
-703.62131879740309
 31
0.0
  0
LINE
  5
19031
  8
1PHANTOM
 10
-115.1612904740041
 20
-708.52131996080459
 30
0.0
 11
-115.6612904740041
 21
-708.42131879740703
 31
0.0
  0
LINE
  5
19032
  8
1PHANTOM
 10
-115.1612904740041
 20
-706.92131996080468
 30
0.0
 11
-115.6612904740041
 21
-706.82131879740712
 31
0.0
  0
LINE
  5
19033
  8
1PHANTOM
 10
-118.6612904740041
 20
-703.02131181702009
 30
0.0
 11
-119.1612904740041
 21
-702.92131065362287
 31
0.0
  0
LINE
  5
19034
  8
1PHANTOM
 10
-118.6612904740041
 20
-704.62131181702057
 30
0.0
 11
-119.1612904740041
 21
-704.52131065362289
 31
0.0
  0
LINE
  5
19035
  8
1PHANTOM
 10
-118.6612904740041
 20
-707.82131181702073
 30
0.0
 11
-119.1612904740041
 21
-707.72131065362305
 31
0.0
  0
LINE
  5
19036
  8
1PHANTOM
 10
-118.6612904740041
 20
-706.22131181702048
 30
0.0
 11
-119.1612904740041
 21
-706.12131065362291
 31
0.0
  0
LINE
  5
19037
  8
1PHANTOM
 10
-119.1612904740041
 20
-706.12131065362291
 30
0.0
 11
-115.1612904740041
 21
-705.32131996080454
 31
0.0
  0
LINE
  5
19038
  8
1PHANTOM
 10
-119.1612904740041
 20
-704.52131065362289
 30
0.0
 11
-115.1612904740041
 21
-703.72131996080032
 31
0.0
  0
LINE
  5
19039
  8
1PHANTOM
 10
-119.1612904740041
 20
-707.72131065362305
 30
0.0
 11
-115.1612904740041
 21
-706.92131996080468
 31
0.0
  0
LINE
  5
1903A
  8
1PHANTOM
 10
-119.1612904740041
 20
-709.32131065362296
 30
0.0
 11
-115.1612904740041
 21
-708.52131996080459
 31
0.0
  0
LINE
  5
1903B
  8
1PHANTOM
 10
-115.6612904740041
 20
-719.62131879729782
 30
0.0
 11
-118.6612904740041
 21
-719.62131181691313
 31
0.0
  0
LINE
  5
1903C
  8
1PHANTOM
 10
-118.6612904740041
 20
-719.02131181702919
 30
0.0
 11
-119.1612904740041
 21
-718.92131065363151
 31
0.0
  0
LINE
  5
1903D
  8
1PHANTOM
 10
-119.1612904740041
 20
-718.92131065363151
 30
0.0
 11
-115.1612904740041
 21
-718.12131996081325
 31
0.0
  0
LINE
  5
1903E
  8
1PHANTOM
 10
-115.1612904740041
 20
-718.12131996081325
 30
0.0
 11
-115.6612904740041
 21
-718.02131879741546
 31
0.0
  0
LINE
  5
1903F
  8
1PHANTOM
 10
-118.6612904740041
 20
-717.42131181702928
 30
0.0
 11
-119.1612904740041
 21
-717.3213106536316
 31
0.0
  0
LINE
  5
19040
  8
1PHANTOM
 10
-118.6612904740041
 20
-715.82131181702925
 30
0.0
 11
-119.1612904740041
 21
-715.72131065363169
 31
0.0
  0
LINE
  5
19041
  8
1PHANTOM
 10
-119.1612904740041
 20
-715.72131065363169
 30
0.0
 11
-115.1612904740041
 21
-714.92131996081343
 31
0.0
  0
LINE
  5
19042
  8
1PHANTOM
 10
-115.1612904740041
 20
-716.52131996081334
 30
0.0
 11
-115.6612904740041
 21
-716.42131879741555
 31
0.0
  0
LINE
  5
19043
  8
1PHANTOM
 10
-115.1612904740041
 20
-714.92131996081343
 30
0.0
 11
-115.6612904740041
 21
-714.82131879741576
 31
0.0
  0
LINE
  5
19044
  8
1PHANTOM
 10
-119.1612904740041
 20
-717.3213106536316
 30
0.0
 11
-115.1612904740041
 21
-716.52131996081334
 31
0.0
  0
LINE
  5
19045
  8
1PHANTOM
 10
-118.6612904740041
 20
-714.22131181702503
 30
0.0
 11
-119.1612904740041
 21
-714.12131065362735
 31
0.0
  0
LINE
  5
19046
  8
1PHANTOM
 10
-120.9613370099021
 20
-719.62131530699719
 30
0.0
 11
-120.9613370099021
 21
-718.62131530699719
 31
0.0
  0
LINE
  5
19047
  8
1PHANTOM
 10
-113.3613370099022
 20
-719.62131530699719
 30
0.0
 11
-113.3613370099022
 21
-718.62131530699719
 31
0.0
  0
LINE
  5
19048
  8
1PHANTOM
 10
-116.6613371599021
 20
-719.62131530699719
 30
0.0
 11
-117.66133685990209
 21
-718.62131530699719
 31
0.0
  0
LINE
  5
19049
  8
1PHANTOM
 10
-113.3613370099022
 20
-719.62131530699719
 30
0.0
 11
-120.9613370099021
 21
-719.62131530699719
 31
0.0
  0
LINE
  5
1904A
  8
1PHANTOM
 10
-113.3613370099022
 20
-718.62131530699719
 30
0.0
 11
-120.9613370099021
 21
-718.62131530699719
 31
0.0
  0
CIRCLE
  5
1904C
  8
01
 10
-117.1613370099021
 20
-873.37131530700515
 30
0.0
 40
2.5
  0
LINE
  5
1904D
  8
1CENTER
 10
-117.1613370099021
 20
-876.37131530700503
 30
0.0
 11
-117.1613370099021
 21
-870.37131530700515
 31
0.0
  0
LINE
  5
1904E
  8
1CENTER
 10
-120.1613370099021
 20
-873.37131530700503
 30
0.0
 11
-114.1613370099021
 21
-873.37131530700503
 31
0.0
  0
LINE
  5
19299
  8
1CENTER
 10
282.83866299009787
 20
-686.66040071585098
 30
0.0
 11
282.83866299009787
 21
-723.29159171630602
 31
0.0
  0
LINE
  5
1929A
  8
1PHANTOM
 10
281.74433917610281
 20
-691.72131276083735
 30
0.0
 11
283.70667426497812
 21
-690.92131732678638
 31
0.0
  0
LINE
  5
1929B
  8
1PHANTOM
 10
283.70667426497812
 20
-690.92131732678638
 30
0.0
 11
283.11839768993582
 21
-690.60954747053427
 31
0.0
  0
LINE
  5
1929C
  8
1PHANTOM
 10
280.83870952599591
 20
-714.12131065362735
 30
0.0
 11
284.83870952599591
 21
-713.32131996080909
 31
0.0
  0
LINE
  5
1929D
  8
1PHANTOM
 10
280.83870952599591
 20
-702.92131065362287
 30
0.0
 11
284.83870952599591
 21
-702.12131996080041
 31
0.0
  0
LINE
  5
1929E
  8
1PHANTOM
 10
280.83870952599591
 20
-699.72131065362294
 30
0.0
 11
284.83870952599591
 21
-698.92131996080025
 31
0.0
  0
LINE
  5
1929F
  8
1PHANTOM
 10
284.83870952599591
 20
-698.92131996080025
 30
0.0
 11
284.33870952599591
 21
-698.82131879740314
 31
0.0
  0
LINE
  5
192A0
  8
1PHANTOM
 10
281.33870952599591
 20
-698.22131181702014
 30
0.0
 11
280.83870952599591
 21
-698.12131065362291
 31
0.0
  0
LINE
  5
192A1
  8
1PHANTOM
 10
284.83870952599591
 20
-702.12131996080041
 30
0.0
 11
284.33870952599591
 21
-702.02131879740307
 31
0.0
  0
LINE
  5
192A2
  8
1PHANTOM
 10
284.83870952599591
 20
-700.52131996080016
 30
0.0
 11
284.33870952599591
 21
-700.42131879740305
 31
0.0
  0
LINE
  5
192A3
  8
1PHANTOM
 10
281.33870952599591
 20
-699.82131181702005
 30
0.0
 11
280.83870952599591
 21
-699.72131065362294
 31
0.0
  0
LINE
  5
192A4
  8
1PHANTOM
 10
281.33870952599591
 20
-701.42131181701996
 30
0.0
 11
280.83870952599591
 21
-701.32131065362285
 31
0.0
  0
LINE
  5
192A5
  8
1PHANTOM
 10
280.83870952599591
 20
-701.32131065362285
 30
0.0
 11
284.83870952599591
 21
-700.52131996080016
 31
0.0
  0
LINE
  5
192A6
  8
1PHANTOM
 10
284.1594883693852
 20
-692.5213183803919
 30
0.0
 11
283.60773890558181
 21
-692.33855423776401
 31
0.0
  0
LINE
  5
192A7
  8
1PHANTOM
 10
284.83870952599591
 20
-695.72131996080032
 30
0.0
 11
284.33870952599591
 21
-695.62131879740309
 31
0.0
  0
LINE
  5
192A8
  8
1PHANTOM
 10
284.83870952599591
 20
-697.32131996080034
 30
0.0
 11
284.33870952599591
 21
-697.22131879740334
 31
0.0
  0
LINE
  5
192A9
  8
1PHANTOM
 10
284.61230247379171
 20
-694.12131943399766
 30
0.0
 11
284.07570873852069
 21
-693.99204873636779
 31
0.0
  0
LINE
  5
192AA
  8
1PHANTOM
 10
281.7596241232045
 20
-693.43408121958316
 30
0.0
 11
281.29152566805442
 21
-693.32131170723312
 31
0.0
  0
LINE
  5
192AB
  8
1PHANTOM
 10
281.33870952599591
 20
-696.62131181702
 30
0.0
 11
280.83870952599591
 21
-696.52131065362289
 31
0.0
  0
LINE
  5
192AC
  8
1PHANTOM
 10
281.33870952599591
 20
-695.02131181702009
 30
0.0
 11
280.83870952599591
 21
-694.92131065362287
 31
0.0
  0
LINE
  5
192AD
  8
1PHANTOM
 10
282.201511016734
 20
-691.87274855727776
 30
0.0
 11
281.74433917610281
 21
-691.72131276083735
 31
0.0
  0
LINE
  5
192AE
  8
1PHANTOM
 10
281.29152566805442
 20
-693.32131170723312
 30
0.0
 11
284.1594883693852
 21
-692.5213183803919
 31
0.0
  0
LINE
  5
192AF
  8
1PHANTOM
 10
280.83870952599591
 20
-696.52131065362289
 30
0.0
 11
284.83870952599591
 21
-695.72131996080032
 31
0.0
  0
LINE
  5
192B0
  8
1PHANTOM
 10
280.83870952599591
 20
-694.92131065362287
 30
0.0
 11
284.61230247379171
 21
-694.12131943399766
 31
0.0
  0
LINE
  5
192B1
  8
1PHANTOM
 10
280.83870952599591
 20
-698.12131065362291
 30
0.0
 11
284.83870952599591
 21
-697.32131996080034
 31
0.0
  0
LINE
  5
192B2
  8
1PHANTOM
 10
280.83870952599591
 20
-710.9213106536273
 30
0.0
 11
284.83870952599591
 21
-710.12131996080905
 31
0.0
  0
LINE
  5
192B3
  8
1PHANTOM
 10
284.83870952599591
 20
-710.12131996080905
 30
0.0
 11
284.33870952599591
 21
-710.02131879741125
 31
0.0
  0
LINE
  5
192B4
  8
1PHANTOM
 10
281.33870952599591
 20
-709.42131181702064
 30
0.0
 11
280.83870952599591
 21
-709.32131065362296
 31
0.0
  0
LINE
  5
192B5
  8
1PHANTOM
 10
284.83870952599591
 20
-711.72131996080918
 30
0.0
 11
284.33870952599591
 21
-711.6213187974115
 31
0.0
  0
LINE
  5
192B6
  8
1PHANTOM
 10
284.83870952599591
 20
-713.32131996080909
 30
0.0
 11
284.33870952599591
 21
-713.22131879741141
 31
0.0
  0
LINE
  5
192B7
  8
1PHANTOM
 10
281.33870952599591
 20
-711.02131181702498
 30
0.0
 11
280.83870952599591
 21
-710.9213106536273
 31
0.0
  0
LINE
  5
192B8
  8
1PHANTOM
 10
281.33870952599591
 20
-712.62131181702512
 30
0.0
 11
280.83870952599591
 21
-712.52131065362744
 31
0.0
  0
LINE
  5
192B9
  8
1PHANTOM
 10
280.83870952599591
 20
-712.52131065362744
 30
0.0
 11
284.83870952599591
 21
-711.72131996080918
 31
0.0
  0
LINE
  5
192BA
  8
1PHANTOM
 10
284.83870952599591
 20
-705.32131996080454
 30
0.0
 11
284.33870952599591
 21
-705.22131879740698
 31
0.0
  0
LINE
  5
192BB
  8
1PHANTOM
 10
284.83870952599591
 20
-703.72131996080032
 30
0.0
 11
284.33870952599591
 21
-703.62131879740309
 31
0.0
  0
LINE
  5
192BC
  8
1PHANTOM
 10
284.83870952599591
 20
-708.52131996080459
 30
0.0
 11
284.33870952599591
 21
-708.42131879740703
 31
0.0
  0
LINE
  5
192BD
  8
1PHANTOM
 10
284.83870952599591
 20
-706.92131996080468
 30
0.0
 11
284.33870952599591
 21
-706.82131879740712
 31
0.0
  0
LINE
  5
192BE
  8
1PHANTOM
 10
281.33870952599591
 20
-703.02131181702009
 30
0.0
 11
280.83870952599591
 21
-702.92131065362287
 31
0.0
  0
LINE
  5
192BF
  8
1PHANTOM
 10
281.33870952599591
 20
-704.62131181702057
 30
0.0
 11
280.83870952599591
 21
-704.52131065362289
 31
0.0
  0
LINE
  5
192C0
  8
1PHANTOM
 10
281.33870952599591
 20
-707.82131181702073
 30
0.0
 11
280.83870952599591
 21
-707.72131065362305
 31
0.0
  0
LINE
  5
192C1
  8
1PHANTOM
 10
281.33870952599591
 20
-706.22131181702048
 30
0.0
 11
280.83870952599591
 21
-706.12131065362291
 31
0.0
  0
LINE
  5
192C2
  8
1PHANTOM
 10
280.83870952599591
 20
-706.12131065362291
 30
0.0
 11
284.83870952599591
 21
-705.32131996080454
 31
0.0
  0
LINE
  5
192C3
  8
1PHANTOM
 10
280.83870952599591
 20
-704.52131065362289
 30
0.0
 11
284.83870952599591
 21
-703.72131996080032
 31
0.0
  0
LINE
  5
192C4
  8
1PHANTOM
 10
280.83870952599591
 20
-707.72131065362305
 30
0.0
 11
284.83870952599591
 21
-706.92131996080468
 31
0.0
  0
LINE
  5
192C5
  8
1PHANTOM
 10
280.83870952599591
 20
-709.32131065362296
 30
0.0
 11
284.83870952599591
 21
-708.52131996080459
 31
0.0
  0
LINE
  5
192C6
  8
1PHANTOM
 10
284.33870952599591
 20
-719.62131879729782
 30
0.0
 11
281.33870952599591
 21
-719.62131181691313
 31
0.0
  0
LINE
  5
192C7
  8
1PHANTOM
 10
281.33870952599591
 20
-719.02131181702919
 30
0.0
 11
280.83870952599591
 21
-718.92131065363151
 31
0.0
  0
LINE
  5
192C8
  8
1PHANTOM
 10
280.83870952599591
 20
-718.92131065363151
 30
0.0
 11
284.83870952599591
 21
-718.12131996081325
 31
0.0
  0
LINE
  5
192C9
  8
1PHANTOM
 10
284.83870952599591
 20
-718.12131996081325
 30
0.0
 11
284.33870952599591
 21
-718.02131879741546
 31
0.0
  0
LINE
  5
192CA
  8
1PHANTOM
 10
281.33870952599591
 20
-717.42131181702928
 30
0.0
 11
280.83870952599591
 21
-717.3213106536316
 31
0.0
  0
LINE
  5
192CB
  8
1PHANTOM
 10
281.33870952599591
 20
-715.82131181702925
 30
0.0
 11
280.83870952599591
 21
-715.72131065363169
 31
0.0
  0
LINE
  5
192CC
  8
1PHANTOM
 10
280.83870952599591
 20
-715.72131065363169
 30
0.0
 11
284.83870952599591
 21
-714.92131996081343
 31
0.0
  0
LINE
  5
192CD
  8
1PHANTOM
 10
284.83870952599591
 20
-716.52131996081334
 30
0.0
 11
284.33870952599591
 21
-716.42131879741555
 31
0.0
  0
LINE
  5
192CE
  8
1PHANTOM
 10
284.83870952599591
 20
-714.92131996081343
 30
0.0
 11
284.33870952599591
 21
-714.82131879741576
 31
0.0
  0
LINE
  5
192CF
  8
1PHANTOM
 10
280.83870952599591
 20
-717.3213106536316
 30
0.0
 11
284.83870952599591
 21
-716.52131996081334
 31
0.0
  0
LINE
  5
192D0
  8
1PHANTOM
 10
281.33870952599591
 20
-714.22131181702503
 30
0.0
 11
280.83870952599591
 21
-714.12131065362735
 31
0.0
  0
LINE
  5
192D1
  8
1PHANTOM
 10
279.03866299009792
 20
-719.62131530699719
 30
0.0
 11
279.03866299009792
 21
-718.62131530699719
 31
0.0
  0
LINE
  5
192D2
  8
1PHANTOM
 10
286.63866299009783
 20
-719.62131530699719
 30
0.0
 11
286.63866299009783
 21
-718.62131530699719
 31
0.0
  0
LINE
  5
192D3
  8
1PHANTOM
 10
283.33866284009792
 20
-719.62131530699719
 30
0.0
 11
282.33866314009788
 21
-718.62131530699719
 31
0.0
  0
LINE
  5
192D4
  8
1PHANTOM
 10
286.63866299009783
 20
-719.62131530699719
 30
0.0
 11
279.03866299009792
 21
-719.62131530699719
 31
0.0
  0
LINE
  5
192D5
  8
1PHANTOM
 10
286.63866299009783
 20
-718.62131530699719
 30
0.0
 11
279.03866299009792
 21
-718.62131530699719
 31
0.0
  0
CIRCLE
  5
192D7
  8
01
 10
282.83866299009787
 20
-873.37131530700515
 30
0.0
 40
2.5
  0
LINE
  5
192D8
  8
1CENTER
 10
282.83866299009787
 20
-876.37131530700503
 30
0.0
 11
282.83866299009787
 21
-870.37131530700515
 31
0.0
  0
LINE
  5
192D9
  8
1CENTER
 10
279.83866299009787
 20
-873.37131530700503
 30
0.0
 11
285.83866299009787
 21
-873.37131530700503
 31
0.0
  0
LINE
  5
192DE
  8
1CENTER
 10
82.838662990097873
 20
-686.66040071585098
 30
0.0
 11
82.838662990097873
 21
-723.29159171630602
 31
0.0
  0
LINE
  5
192DF
  8
1PHANTOM
 10
81.744339176102812
 20
-691.72131276083735
 30
0.0
 11
83.706674264978119
 21
-690.92131732678638
 31
0.0
  0
LINE
  5
192E0
  8
1PHANTOM
 10
83.706674264978119
 20
-690.92131732678638
 30
0.0
 11
83.118397689935819
 21
-690.60954747053427
 31
0.0
  0
LINE
  5
192E1
  8
1PHANTOM
 10
80.83870952599591
 20
-714.12131065362735
 30
0.0
 11
84.83870952599591
 21
-713.32131996080909
 31
0.0
  0
LINE
  5
192E2
  8
1PHANTOM
 10
80.83870952599591
 20
-702.92131065362287
 30
0.0
 11
84.83870952599591
 21
-702.12131996080041
 31
0.0
  0
LINE
  5
192E3
  8
1PHANTOM
 10
80.83870952599591
 20
-699.72131065362294
 30
0.0
 11
84.83870952599591
 21
-698.92131996080025
 31
0.0
  0
LINE
  5
192E4
  8
1PHANTOM
 10
84.83870952599591
 20
-698.92131996080025
 30
0.0
 11
84.338709525995895
 21
-698.82131879740314
 31
0.0
  0
LINE
  5
192E5
  8
1PHANTOM
 10
81.338709525995924
 20
-698.22131181702014
 30
0.0
 11
80.83870952599591
 21
-698.12131065362291
 31
0.0
  0
LINE
  5
192E6
  8
1PHANTOM
 10
84.83870952599591
 20
-702.12131996080041
 30
0.0
 11
84.338709525995895
 21
-702.02131879740307
 31
0.0
  0
LINE
  5
192E7
  8
1PHANTOM
 10
84.83870952599591
 20
-700.52131996080016
 30
0.0
 11
84.338709525995895
 21
-700.42131879740305
 31
0.0
  0
LINE
  5
192E8
  8
1PHANTOM
 10
81.338709525995924
 20
-699.82131181702005
 30
0.0
 11
80.83870952599591
 21
-699.72131065362294
 31
0.0
  0
LINE
  5
192E9
  8
1PHANTOM
 10
81.338709525995924
 20
-701.42131181701996
 30
0.0
 11
80.83870952599591
 21
-701.32131065362285
 31
0.0
  0
LINE
  5
192EA
  8
1PHANTOM
 10
80.83870952599591
 20
-701.32131065362285
 30
0.0
 11
84.83870952599591
 21
-700.52131996080016
 31
0.0
  0
LINE
  5
192EB
  8
1PHANTOM
 10
84.159488369385144
 20
-692.5213183803919
 30
0.0
 11
83.607738905581755
 21
-692.33855423776401
 31
0.0
  0
LINE
  5
192EC
  8
1PHANTOM
 10
84.83870952599591
 20
-695.72131996080032
 30
0.0
 11
84.338709525995895
 21
-695.62131879740309
 31
0.0
  0
LINE
  5
192ED
  8
1PHANTOM
 10
84.83870952599591
 20
-697.32131996080034
 30
0.0
 11
84.338709525995895
 21
-697.22131879740334
 31
0.0
  0
LINE
  5
192EE
  8
1PHANTOM
 10
84.612302473791715
 20
-694.12131943399766
 30
0.0
 11
84.075708738520689
 21
-693.99204873636779
 31
0.0
  0
LINE
  5
192EF
  8
1PHANTOM
 10
81.759624123204489
 20
-693.43408121958316
 30
0.0
 11
81.291525668054419
 21
-693.32131170723312
 31
0.0
  0
LINE
  5
192F0
  8
1PHANTOM
 10
81.338709525995924
 20
-696.62131181702
 30
0.0
 11
80.83870952599591
 21
-696.52131065362289
 31
0.0
  0
LINE
  5
192F1
  8
1PHANTOM
 10
81.338709525995924
 20
-695.02131181702009
 30
0.0
 11
80.83870952599591
 21
-694.92131065362287
 31
0.0
  0
LINE
  5
192F2
  8
1PHANTOM
 10
82.201511016733988
 20
-691.87274855727776
 30
0.0
 11
81.744339176102812
 21
-691.72131276083735
 31
0.0
  0
LINE
  5
192F3
  8
1PHANTOM
 10
81.291525668054419
 20
-693.32131170723312
 30
0.0
 11
84.159488369385144
 21
-692.5213183803919
 31
0.0
  0
LINE
  5
192F4
  8
1PHANTOM
 10
80.83870952599591
 20
-696.52131065362289
 30
0.0
 11
84.83870952599591
 21
-695.72131996080032
 31
0.0
  0
LINE
  5
192F5
  8
1PHANTOM
 10
80.83870952599591
 20
-694.92131065362287
 30
0.0
 11
84.612302473791715
 21
-694.12131943399766
 31
0.0
  0
LINE
  5
192F6
  8
1PHANTOM
 10
80.83870952599591
 20
-698.12131065362291
 30
0.0
 11
84.83870952599591
 21
-697.32131996080034
 31
0.0
  0
LINE
  5
192F7
  8
1PHANTOM
 10
80.83870952599591
 20
-710.9213106536273
 30
0.0
 11
84.83870952599591
 21
-710.12131996080905
 31
0.0
  0
LINE
  5
192F8
  8
1PHANTOM
 10
84.83870952599591
 20
-710.12131996080905
 30
0.0
 11
84.338709525995895
 21
-710.02131879741125
 31
0.0
  0
LINE
  5
192F9
  8
1PHANTOM
 10
81.338709525995924
 20
-709.42131181702064
 30
0.0
 11
80.83870952599591
 21
-709.32131065362296
 31
0.0
  0
LINE
  5
192FA
  8
1PHANTOM
 10
84.83870952599591
 20
-711.72131996080918
 30
0.0
 11
84.338709525995895
 21
-711.6213187974115
 31
0.0
  0
LINE
  5
192FB
  8
1PHANTOM
 10
84.83870952599591
 20
-713.32131996080909
 30
0.0
 11
84.338709525995895
 21
-713.22131879741141
 31
0.0
  0
LINE
  5
192FC
  8
1PHANTOM
 10
81.338709525995924
 20
-711.02131181702498
 30
0.0
 11
80.83870952599591
 21
-710.9213106536273
 31
0.0
  0
LINE
  5
192FD
  8
1PHANTOM
 10
81.338709525995924
 20
-712.62131181702512
 30
0.0
 11
80.83870952599591
 21
-712.52131065362744
 31
0.0
  0
LINE
  5
192FE
  8
1PHANTOM
 10
80.83870952599591
 20
-712.52131065362744
 30
0.0
 11
84.83870952599591
 21
-711.72131996080918
 31
0.0
  0
LINE
  5
192FF
  8
1PHANTOM
 10
84.83870952599591
 20
-705.32131996080454
 30
0.0
 11
84.338709525995895
 21
-705.22131879740698
 31
0.0
  0
LINE
  5
19300
  8
1PHANTOM
 10
84.83870952599591
 20
-703.72131996080032
 30
0.0
 11
84.338709525995895
 21
-703.62131879740309
 31
0.0
  0
LINE
  5
19301
  8
1PHANTOM
 10
84.83870952599591
 20
-708.52131996080459
 30
0.0
 11
84.338709525995895
 21
-708.42131879740703
 31
0.0
  0
LINE
  5
19302
  8
1PHANTOM
 10
84.83870952599591
 20
-706.92131996080468
 30
0.0
 11
84.338709525995895
 21
-706.82131879740712
 31
0.0
  0
LINE
  5
19303
  8
1PHANTOM
 10
81.338709525995924
 20
-703.02131181702009
 30
0.0
 11
80.83870952599591
 21
-702.92131065362287
 31
0.0
  0
LINE
  5
19304
  8
1PHANTOM
 10
81.338709525995924
 20
-704.62131181702057
 30
0.0
 11
80.83870952599591
 21
-704.52131065362289
 31
0.0
  0
LINE
  5
19305
  8
1PHANTOM
 10
81.338709525995924
 20
-707.82131181702073
 30
0.0
 11
80.83870952599591
 21
-707.72131065362305
 31
0.0
  0
LINE
  5
19306
  8
1PHANTOM
 10
81.338709525995924
 20
-706.22131181702048
 30
0.0
 11
80.83870952599591
 21
-706.12131065362291
 31
0.0
  0
LINE
  5
19307
  8
1PHANTOM
 10
80.83870952599591
 20
-706.12131065362291
 30
0.0
 11
84.83870952599591
 21
-705.32131996080454
 31
0.0
  0
LINE
  5
19308
  8
1PHANTOM
 10
80.83870952599591
 20
-704.52131065362289
 30
0.0
 11
84.83870952599591
 21
-703.72131996080032
 31
0.0
  0
LINE
  5
19309
  8
1PHANTOM
 10
80.83870952599591
 20
-707.72131065362305
 30
0.0
 11
84.83870952599591
 21
-706.92131996080468
 31
0.0
  0
LINE
  5
1930A
  8
1PHANTOM
 10
80.83870952599591
 20
-709.32131065362296
 30
0.0
 11
84.83870952599591
 21
-708.52131996080459
 31
0.0
  0
LINE
  5
1930B
  8
1PHANTOM
 10
84.338709525995895
 20
-719.62131879729782
 30
0.0
 11
81.338709525995924
 21
-719.62131181691313
 31
0.0
  0
LINE
  5
1930C
  8
1PHANTOM
 10
81.338709525995924
 20
-719.02131181702919
 30
0.0
 11
80.83870952599591
 21
-718.92131065363151
 31
0.0
  0
LINE
  5
1930D
  8
1PHANTOM
 10
80.83870952599591
 20
-718.92131065363151
 30
0.0
 11
84.83870952599591
 21
-718.12131996081325
 31
0.0
  0
LINE
  5
1930E
  8
1PHANTOM
 10
84.83870952599591
 20
-718.12131996081325
 30
0.0
 11
84.338709525995895
 21
-718.02131879741546
 31
0.0
  0
LINE
  5
1930F
  8
1PHANTOM
 10
81.338709525995924
 20
-717.42131181702928
 30
0.0
 11
80.83870952599591
 21
-717.3213106536316
 31
0.0
  0
LINE
  5
19310
  8
1PHANTOM
 10
81.338709525995924
 20
-715.82131181702925
 30
0.0
 11
80.83870952599591
 21
-715.72131065363169
 31
0.0
  0
LINE
  5
19311
  8
1PHANTOM
 10
80.83870952599591
 20
-715.72131065363169
 30
0.0
 11
84.83870952599591
 21
-714.92131996081343
 31
0.0
  0
LINE
  5
19312
  8
1PHANTOM
 10
84.83870952599591
 20
-716.52131996081334
 30
0.0
 11
84.338709525995895
 21
-716.42131879741555
 31
0.0
  0
LINE
  5
19313
  8
1PHANTOM
 10
84.83870952599591
 20
-714.92131996081343
 30
0.0
 11
84.338709525995895
 21
-714.82131879741576
 31
0.0
  0
LINE
  5
19314
  8
1PHANTOM
 10
80.83870952599591
 20
-717.3213106536316
 30
0.0
 11
84.83870952599591
 21
-716.52131996081334
 31
0.0
  0
LINE
  5
19315
  8
1PHANTOM
 10
81.338709525995924
 20
-714.22131181702503
 30
0.0
 11
80.83870952599591
 21
-714.12131065362735
 31
0.0
  0
LINE
  5
19316
  8
1PHANTOM
 10
79.038662990097905
 20
-719.62131530699719
 30
0.0
 11
79.038662990097905
 21
-718.62131530699719
 31
0.0
  0
LINE
  5
19317
  8
1PHANTOM
 10
86.638662990097814
 20
-719.62131530699719
 30
0.0
 11
86.638662990097814
 21
-718.62131530699719
 31
0.0
  0
LINE
  5
19318
  8
1PHANTOM
 10
83.338662840097854
 20
-719.62131530699719
 30
0.0
 11
82.338663140097864
 21
-718.62131530699719
 31
0.0
  0
LINE
  5
19319
  8
1PHANTOM
 10
86.638662990097814
 20
-719.62131530699719
 30
0.0
 11
79.038662990097905
 21
-719.62131530699719
 31
0.0
  0
LINE
  5
1931A
  8
1PHANTOM
 10
86.638662990097814
 20
-718.62131530699719
 30
0.0
 11
79.038662990097905
 21
-718.62131530699719
 31
0.0
  0
CIRCLE
  5
1931C
  8
01
 10
82.838662990097873
 20
-873.37131530700515
 30
0.0
 40
2.5
  0
LINE
  5
1931D
  8
1CENTER
 10
82.838662990097873
 20
-876.37131530700503
 30
0.0
 11
82.838662990097873
 21
-870.37131530700515
 31
0.0
  0
LINE
  5
1931E
  8
1CENTER
 10
79.838662990097873
 20
-873.37131530700503
 30
0.0
 11
85.838662990097873
 21
-873.37131530700503
 31
0.0
  0
LINE
  5
1946F
  8
01
 10
809.3386629900956
 20
-830.62131530699821
 30
0.0
 11
809.3386629900956
 21
-910.62131530699776
 31
0.0
  0
LINE
  5
19471
  8
01
 10
800.33866299009549
 20
-830.62131530699821
 30
0.0
 11
800.33866299009549
 21
-910.62131530699776
 31
0.0
  0
LINE
  5
19472
  8
1CENTER
 10
802.33866299009685
 20
-873.37131530700663
 30
0.0
 11
820.33866299009685
 21
-873.37131530700663
 31
0.0
  0
LINE
  5
19473
  8
01
 10
791.83866299009765
 20
-877.1213153070064
 30
0.0
 11
683.83866299009685
 21
-877.1213153070064
 31
0.0
  0
LINE
  5
19474
  8
01
 10
791.83866299009765
 20
-869.1213153070064
 30
0.0
 11
683.83866299009765
 21
-869.1213153070064
 31
0.0
  0
LINE
  5
19475
  8
01
 10
682.83866299009685
 20
-870.12131530700663
 30
0.0
 11
682.83866299009685
 21
-876.12131530700731
 31
0.0
  0
LINE
  5
19476
  8
01
 10
682.83866299009685
 20
-876.1213153070064
 30
0.0
 11
683.83866299009685
 21
-877.1213153070064
 31
0.0
  0
LINE
  5
19477
  8
01
 10
683.83866299009685
 20
-869.1213153070064
 30
0.0
 11
682.83866299009685
 21
-870.12131530700663
 31
0.0
  0
LINE
  5
19478
  8
01
 10
771.83866299009765
 20
-864.12131530700651
 30
0.0
 11
799.83866299009958
 21
-864.12131530699924
 31
0.0
  0
LINE
  5
19479
  8
1PHANTOM
 10
799.53866648007249
 20
-871.87136184290455
 30
0.0
 11
799.63866764347028
 21
-871.37136184290455
 31
0.0
  0
LINE
  5
1947A
  8
1CENTER
 10
830.29957758125045
 20
-873.3713153070064
 30
0.0
 11
793.66838658079621
 21
-873.3713153070064
 31
0.0
  0
LINE
  5
1947B
  8
1PHANTOM
 10
822.03865949969702
 20
-874.87136184290455
 30
0.0
 11
797.33865949980452
 21
-874.87136184290455
 31
0.0
  0
LINE
  5
1947C
  8
1PHANTOM
 10
822.03866648008068
 20
-871.87136184290455
 30
0.0
 11
797.33866648018909
 21
-871.87136184290455
 31
0.0
  0
LINE
  5
1947D
  8
01
 10
799.83866299008503
 20
-887.6213153070064
 30
0.0
 11
771.83866299009765
 21
-887.6213153070064
 31
0.0
  0
LINE
  5
1947E
  8
01
 10
770.83866299009765
 20
-865.12131530700651
 30
0.0
 11
770.83866299009765
 21
-868.62131530700651
 31
0.0
  0
LINE
  5
1947F
  8
01
 10
793.83866299009765
 20
-870.12131530700663
 30
0.0
 11
793.83866299009765
 21
-876.62131530700651
 31
0.0
  0
LINE
  5
19480
  8
1PHANTOM
 10
797.33867113388703
 20
-869.8713153070064
 30
0.0
 11
797.33866648018909
 21
-871.87136184290455
 31
0.0
  0
ARC
  5
19481
  8
1PHANTOM
 10
796.23866764369166
 20
-871.37131530700651
 30
0.0
 40
1.5
 50
90.0
 51
179.99986668446189
  0
LINE
  5
19482
  8
1PHANTOM
 10
798.33866299010504
 20
-869.5713153070036
 30
0.0
 11
798.33866299010504
 21
-870.8713153070064
 31
0.0
  0
LINE
  5
19483
  8
1PHANTOM
 10
798.33866299010504
 20
-877.17131530700658
 30
0.0
 11
798.33866299010504
 21
-869.57131530700622
 31
0.0
  0
LINE
  5
19484
  8
1PHANTOM
 10
797.33866299010504
 20
-877.17131530700658
 30
0.0
 11
797.33866299010504
 21
-869.57131530700622
 31
0.0
  0
LINE
  5
19485
  8
01
 10
792.83866299009776
 20
-877.62131530700651
 30
0.0
 11
771.33866299009765
 21
-877.62131530700651
 31
0.0
  0
ARC
  5
19486
  8
01
 10
771.33866299009765
 20
-878.12131530700663
 30
0.0
 40
0.5
 50
90.0
 51
180.0
  0
LINE
  5
19487
  8
1PHANTOM
 10
798.33866299010504
 20
-871.32131530700622
 30
0.0
 11
797.33866299010504
 21
-871.32131530700622
 31
0.0
  0
LINE
  5
19488
  8
1PHANTOM
 10
799.14417880804717
 20
-873.3713153070064
 30
0.0
 11
796.51507228209607
 21
-873.3713153070064
 31
0.0
  0
LINE
  5
19489
  8
1PHANTOM
 10
797.93866648007304
 20
-871.87136184290455
 30
0.0
 11
798.03866764347083
 21
-871.37136184290455
 31
0.0
  0
LINE
  5
1948A
  8
1PHANTOM
 10
798.33866299010504
 20
-875.42131530700658
 30
0.0
 11
797.33866299010413
 21
-875.42131530700658
 31
0.0
  0
LINE
  5
1948B
  8
1PHANTOM
 10
798.33866299010504
 20
-877.17131530700658
 30
0.0
 11
797.33866299010504
 21
-877.17131530700658
 31
0.0
  0
LINE
  5
1948C
  8
1PHANTOM
 10
798.83865833628874
 20
-875.37136184290455
 30
0.0
 11
798.93865949968665
 21
-874.87136184290455
 31
0.0
  0
LINE
  5
1948D
  8
1PHANTOM
 10
797.33865949980452
 20
-874.87136184290455
 30
0.0
 11
797.33865484632304
 21
-876.87131530700651
 31
0.0
  0
LINE
  5
1948E
  8
1PHANTOM
 10
797.33865484632304
 20
-876.87131530700651
 30
0.0
 11
796.23865833651223
 21
-876.87131530700651
 31
0.0
  0
ARC
  5
1948F
  8
1PHANTOM
 10
796.23865833651223
 20
-875.3713153070064
 30
0.0
 40
1.5
 50
179.99986668446189
 51
270.0
  0
ARC
  5
19490
  8
01
 10
792.83866299009776
 20
-876.62131530700651
 30
0.0
 40
1.0
 50
270.0
 51
0.0
  0
LINE
  5
19491
  8
1PHANTOM
 10
798.33866299010504
 20
-875.87131530700651
 30
0.0
 11
798.33866299010504
 21
-877.17131530700215
 31
0.0
  0
LINE
  5
19492
  8
01
 10
792.83866299009776
 20
-876.1213153070064
 30
0.0
 11
791.83866299009765
 21
-877.1213153070064
 31
0.0
  0
LINE
  5
19493
  8
1PHANTOM
 10
797.33865949980452
 20
-874.87136184290455
 30
0.0
 11
797.33866648018909
 21
-871.87136184290455
 31
0.0
  0
LINE
  5
19494
  8
1PHANTOM
 10
798.03866764347083
 20
-871.37136184290455
 30
0.0
 11
798.83865833628874
 21
-875.37136184290455
 31
0.0
  0
LINE
  5
19495
  8
1PHANTOM
 10
794.73866764369529
 20
-871.37131181681423
 30
0.0
 11
794.73865833651575
 21
-875.37131181681434
 31
0.0
  0
LINE
  5
19496
  8
01
 10
792.83866299009776
 20
-869.1213153070064
 30
0.0
 11
771.33866299009765
 21
-869.1213153070064
 31
0.0
  0
ARC
  5
19497
  8
01
 10
771.33866299009765
 20
-868.62131530700651
 30
0.0
 40
0.5
 50
180.0
 51
270.0
  0
LINE
  5
19498
  8
1PHANTOM
 10
798.33866299010504
 20
-869.57131530700622
 30
0.0
 11
797.33866299010504
 21
-869.57131530700622
 31
0.0
  0
LINE
  5
19499
  8
1PHANTOM
 10
797.33867113388703
 20
-869.8713153070064
 30
0.0
 11
796.23866764369166
 21
-869.8713153070064
 31
0.0
  0
ARC
  5
1949A
  8
01
 10
792.83866299009776
 20
-870.12131530700663
 30
0.0
 40
1.0
 50
0.0
 51
90.0
  0
LINE
  5
1949B
  8
01
 10
792.83866299009776
 20
-870.12131530700663
 30
0.0
 11
791.83866299009765
 21
-869.1213153070064
 31
0.0
  0
ARC
  5
1949C
  8
01
 10
771.83866299009765
 20
-886.62131530700651
 30
0.0
 40
1.0
 50
180.0
 51
270.0
  0
LINE
  5
1949D
  8
01
 10
770.83866299009765
 20
-878.12131530700663
 30
0.0
 11
770.83866299009765
 21
-886.62131530700651
 31
0.0
  0
ARC
  5
1949E
  8
01
 10
771.83866299009765
 20
-865.12131530700651
 30
0.0
 40
1.0
 50
90.0
 51
180.0
  0
LINE
  5
1949F
  8
01
 10
800.33866299009958
 20
-864.62131530699912
 30
0.0
 11
800.33866299008503
 21
-887.12131530700651
 31
0.0
  0
LINE
  5
194A0
  8
1PHANTOM
 10
823.63866658986876
 20
-871.82417798496306
 30
0.0
 11
824.43865991670998
 21
-874.69214068629378
 31
0.0
  0
LINE
  5
194A1
  8
1PHANTOM
 10
827.33866298994212
 20
-873.37136184290455
 30
0.0
 11
822.03866648008068
 21
-871.87136184290455
 31
0.0
  0
LINE
  5
194A2
  8
1PHANTOM
 10
827.33866298994212
 20
-873.37136184290455
 30
0.0
 11
822.03865949969702
 21
-874.87136184290455
 31
0.0
  0
LINE
  5
194A3
  8
1PHANTOM
 10
810.8386676434792
 20
-871.37136184290455
 30
0.0
 11
811.63865833629723
 21
-875.37136184290455
 31
0.0
  0
LINE
  5
194A4
  8
1PHANTOM
 10
807.53866648008147
 20
-871.87136184290455
 30
0.0
 11
807.63866764347927
 21
-871.37136184290455
 31
0.0
  0
LINE
  5
194A5
  8
1PHANTOM
 10
809.13866648008093
 20
-871.87136184290455
 30
0.0
 11
809.23866764347883
 21
-871.37136184290455
 31
0.0
  0
LINE
  5
194A6
  8
1PHANTOM
 10
810.73866648008129
 20
-871.87136184290455
 30
0.0
 11
810.8386676434792
 21
-871.37136184290455
 31
0.0
  0
LINE
  5
194A7
  8
1PHANTOM
 10
806.83865833629238
 20
-875.37136184290455
 30
0.0
 11
806.93865949969029
 21
-874.87136184290455
 31
0.0
  0
LINE
  5
194A8
  8
1PHANTOM
 10
808.43865833629741
 20
-875.37136184290455
 30
0.0
 11
808.5386594996952
 21
-874.87136184290455
 31
0.0
  0
LINE
  5
194A9
  8
1PHANTOM
 10
810.03865833629675
 20
-875.37136184290455
 30
0.0
 11
810.13865949969465
 21
-874.87136184290455
 31
0.0
  0
LINE
  5
194AA
  8
1PHANTOM
 10
809.23866764347883
 20
-871.37136184290455
 30
0.0
 11
810.03865833629675
 21
-875.37136184290455
 31
0.0
  0
LINE
  5
194AB
  8
1PHANTOM
 10
807.63866764347927
 20
-871.37136184290455
 30
0.0
 11
808.43865833629741
 21
-875.37136184290455
 31
0.0
  0
LINE
  5
194AC
  8
1PHANTOM
 10
805.93866648007668
 20
-871.87136184290455
 30
0.0
 11
806.03866764347435
 21
-871.37136184290455
 31
0.0
  0
LINE
  5
194AD
  8
1PHANTOM
 10
804.33866648007722
 20
-871.87136184290455
 30
0.0
 11
804.43866764347399
 21
-871.37136184290455
 31
0.0
  0
LINE
  5
194AE
  8
1PHANTOM
 10
805.23865833629293
 20
-875.37136184290455
 30
0.0
 11
805.33865949969083
 21
-874.87136184290455
 31
0.0
  0
LINE
  5
194AF
  8
1PHANTOM
 10
803.63865833629256
 20
-875.37136184290455
 30
0.0
 11
803.73865949969036
 21
-874.87136184290455
 31
0.0
  0
LINE
  5
194B0
  8
1PHANTOM
 10
802.83866764347454
 20
-871.37136184290455
 30
0.0
 11
803.63865833629256
 21
-875.37136184290455
 31
0.0
  0
LINE
  5
194B1
  8
1PHANTOM
 10
804.43866764347399
 20
-871.37136184290455
 30
0.0
 11
805.23865833629293
 21
-875.37136184290455
 31
0.0
  0
LINE
  5
194B2
  8
1PHANTOM
 10
806.03866764347435
 20
-871.37136184290455
 30
0.0
 11
806.83865833629238
 21
-875.37136184290455
 31
0.0
  0
LINE
  5
194B3
  8
1PHANTOM
 10
812.33866648008075
 20
-871.87136184290455
 30
0.0
 11
812.43866764347865
 21
-871.37136184290455
 31
0.0
  0
LINE
  5
194B4
  8
1PHANTOM
 10
817.13866648008184
 20
-871.87136184290455
 30
0.0
 11
817.23866764347883
 21
-871.37136184290455
 31
0.0
  0
LINE
  5
194B5
  8
1PHANTOM
 10
815.53866648008147
 20
-871.87136184290455
 30
0.0
 11
815.63866764347927
 21
-871.37136184290455
 31
0.0
  0
LINE
  5
194B6
  8
1PHANTOM
 10
813.93866648008202
 20
-871.87136184290455
 30
0.0
 11
814.03866764347902
 21
-871.37136184290455
 31
0.0
  0
LINE
  5
194B7
  8
1PHANTOM
 10
811.63865833629723
 20
-875.37136184290455
 30
0.0
 11
811.73865949969513
 21
-874.87136184290455
 31
0.0
  0
LINE
  5
194B8
  8
1PHANTOM
 10
813.23865833630111
 20
-875.37136184290455
 30
0.0
 11
813.33865949969902
 21
-874.87136184290455
 31
0.0
  0
LINE
  5
194B9
  8
1PHANTOM
 10
814.83865833630159
 20
-875.37136184290455
 30
0.0
 11
814.93865949969836
 21
-874.87136184290455
 31
0.0
  0
LINE
  5
194BA
  8
1PHANTOM
 10
816.43865833630196
 20
-875.37136184290455
 30
0.0
 11
816.53865949969884
 21
-874.87136184290455
 31
0.0
  0
LINE
  5
194BB
  8
1PHANTOM
 10
812.43866764347865
 20
-871.37136184290455
 30
0.0
 11
813.23865833630111
 21
-875.37136184290455
 31
0.0
  0
LINE
  5
194BC
  8
1PHANTOM
 10
814.03866764347902
 20
-871.37136184290455
 30
0.0
 11
814.83865833630159
 21
-875.37136184290455
 31
0.0
  0
LINE
  5
194BD
  8
1PHANTOM
 10
817.23866764347883
 20
-871.37136184290455
 30
0.0
 11
818.0386583363013
 21
-875.37136184290455
 31
0.0
  0
LINE
  5
194BE
  8
1PHANTOM
 10
815.63866764347927
 20
-871.37136184290455
 30
0.0
 11
816.43865833630196
 21
-875.37136184290455
 31
0.0
  0
LINE
  5
194BF
  8
1PHANTOM
 10
818.0386583363013
 20
-875.37136184290455
 30
0.0
 11
818.13865949969909
 21
-874.87136184290455
 31
0.0
  0
LINE
  5
194C0
  8
1PHANTOM
 10
818.73866648008129
 20
-871.87136184290455
 30
0.0
 11
818.8386676434792
 21
-871.37136184290455
 31
0.0
  0
LINE
  5
194C1
  8
1PHANTOM
 10
821.23865833630111
 20
-875.37136184290455
 30
0.0
 11
821.33865949969902
 21
-874.87136184290455
 31
0.0
  0
LINE
  5
194C2
  8
1PHANTOM
 10
819.63865833630177
 20
-875.37136184290455
 30
0.0
 11
819.73865949969866
 21
-874.87136184290455
 31
0.0
  0
LINE
  5
194C3
  8
1PHANTOM
 10
822.83865886310457
 20
-875.14495479070035
 30
0.0
 11
822.96792956073364
 21
-874.60836105542955
 31
0.0
  0
LINE
  5
194C4
  8
1PHANTOM
 10
823.52589707751838
 20
-872.29227644011269
 30
0.0
 11
823.63866658986876
 21
-871.82417798496306
 31
0.0
  0
LINE
  5
194C5
  8
1PHANTOM
 10
820.33866648008166
 20
-871.87136184290455
 30
0.0
 11
820.43866764347865
 21
-871.37136184290455
 31
0.0
  0
LINE
  5
194C6
  8
1PHANTOM
 10
821.93866648008202
 20
-871.87136184290455
 30
0.0
 11
822.03866764347902
 21
-871.37136184290455
 31
0.0
  0
LINE
  5
194C7
  8
1PHANTOM
 10
820.43866764347865
 20
-871.37136184290455
 30
0.0
 11
821.23865833630111
 21
-875.37136184290455
 31
0.0
  0
LINE
  5
194C8
  8
1PHANTOM
 10
822.03866764347902
 20
-871.37136184290455
 30
0.0
 11
822.83865886310457
 21
-875.14495479070035
 31
0.0
  0
LINE
  5
194C9
  8
1PHANTOM
 10
818.8386676434792
 20
-871.37136184290455
 30
0.0
 11
819.63865833630177
 21
-875.37136184290455
 31
0.0
  0
LINE
  5
194CA
  8
1PHANTOM
 10
826.03866097031539
 20
-874.2393265818863
 30
0.0
 11
826.35043082656728
 21
-873.65105000684423
 31
0.0
  0
LINE
  5
194CB
  8
1PHANTOM
 10
824.43865991670998
 20
-874.69214068629378
 30
0.0
 11
824.62142405933798
 21
-874.14039122249028
 31
0.0
  0
LINE
  5
194CC
  8
1PHANTOM
 10
825.08722973982435
 20
-872.73416333364253
 30
0.0
 11
825.23866553626408
 21
-872.27699149301111
 31
0.0
  0
LINE
  5
194CD
  8
1PHANTOM
 10
825.23866553626408
 20
-872.27699149301111
 30
0.0
 11
826.03866097031539
 21
-874.2393265818863
 31
0.0
  0
LINE
  5
194CE
  8
1PHANTOM
 10
802.03865833628868
 20
-875.37136184290455
 30
0.0
 11
802.13865949968647
 21
-874.87136184290455
 31
0.0
  0
LINE
  5
194CF
  8
1PHANTOM
 10
801.13866648007286
 20
-871.87136184290455
 30
0.0
 11
801.23866764347065
 21
-871.37136184290455
 31
0.0
  0
LINE
  5
194D0
  8
1PHANTOM
 10
800.43865833628831
 20
-875.37136184290455
 30
0.0
 11
800.53865949968599
 21
-874.87136184290455
 31
0.0
  0
LINE
  5
194D1
  8
1PHANTOM
 10
799.63866764347028
 20
-871.37136184290455
 30
0.0
 11
800.43865833628831
 21
-875.37136184290455
 31
0.0
  0
LINE
  5
194D2
  8
1PHANTOM
 10
801.23866764347065
 20
-871.37136184290455
 30
0.0
 11
802.03865833628868
 21
-875.37136184290455
 31
0.0
  0
ARC
  5
194D3
  8
01
 10
799.83866299008503
 20
-887.12131530700651
 30
0.0
 40
0.5
 50
270.0
 51
359.99999999996089
  0
ARC
  5
194D5
  8
01
 10
799.83866299009958
 20
-864.62131530699912
 30
0.0
 40
0.5
 50
359.99999999996089
 51
90.000000000026048
  0
LINE
  5
194DC
  8
01
 10
792.83866299009776
 20
-876.1213153070064
 30
0.0
 11
792.83866299009776
 21
-870.12131530700663
 31
0.0
  0
LINE
  5
194E2
  8
1PHANTOM
 10
775.63866299009794
 20
-877.12131530700685
 30
0.0
 11
782.03866299009746
 21
-877.12131530700594
 31
0.0
  0
LINE
  5
194E3
  8
1PHANTOM
 10
775.46866299009776
 20
-879.12131530700685
 30
0.0
 11
782.20866299009765
 21
-879.12131530700685
 31
0.0
  0
LINE
  5
194E4
  8
1PHANTOM
 10
775.63866299009794
 20
-877.12131530700685
 30
0.0
 11
775.63866299009794
 21
-879.12131530700685
 31
0.0
  0
LINE
  5
194E5
  8
1PHANTOM
 10
782.03866299009746
 20
-877.12131530700685
 30
0.0
 11
782.03866299009746
 21
-879.12131530700685
 31
0.0
  0
LINE
  5
194E6
  8
1PHANTOM
 10
774.83866299009765
 20
-879.75131530700696
 30
0.0
 11
782.83866299009765
 21
-879.75131530700696
 31
0.0
  0
LINE
  5
194E7
  8
1PHANTOM
 10
775.46866299009776
 20
-887.12131530700685
 30
0.0
 11
782.20866299009765
 21
-887.12131530700685
 31
0.0
  0
LINE
  5
194E8
  8
1PHANTOM
 10
774.83866299009765
 20
-886.49131530700674
 30
0.0
 11
782.83866299009765
 21
-886.49131530700674
 31
0.0
  0
LINE
  5
194E9
  8
1PHANTOM
 10
775.46866299009776
 20
-887.12131530700685
 30
0.0
 11
774.83866299009765
 21
-886.49131530700674
 31
0.0
  0
LINE
  5
194EA
  8
1PHANTOM
 10
774.83866299009765
 20
-879.75131530700696
 30
0.0
 11
774.83866299009765
 21
-886.49131530700504
 31
0.0
  0
LINE
  5
194EB
  8
1PHANTOM
 10
774.83866299009765
 20
-879.75131530700696
 30
0.0
 11
774.83866299009765
 21
-886.49131530700674
 31
0.0
  0
LINE
  5
194EC
  8
1PHANTOM
 10
782.20866299009765
 20
-887.12131530700685
 30
0.0
 11
782.83866299009765
 21
-886.49131530700674
 31
0.0
  0
LINE
  5
194ED
  8
1PHANTOM
 10
782.83866299009765
 20
-879.75131530700696
 30
0.0
 11
782.83866299009765
 21
-886.49131530700504
 31
0.0
  0
LINE
  5
194EE
  8
1PHANTOM
 10
782.83866299009765
 20
-879.75131530700696
 30
0.0
 11
782.83866299009765
 21
-886.49131530700674
 31
0.0
  0
LINE
  5
194EF
  8
1PHANTOM
 10
775.46866299009776
 20
-879.12131530700685
 30
0.0
 11
774.83866299009765
 21
-879.75131530700696
 31
0.0
  0
LINE
  5
194F0
  8
1PHANTOM
 10
775.46866299009776
 20
-879.12131530700685
 30
0.0
 11
775.46866299009776
 21
-887.12131530700685
 31
0.0
  0
LINE
  5
194F1
  8
1PHANTOM
 10
782.83866299009765
 20
-879.75131530700696
 30
0.0
 11
782.20866299009765
 21
-879.12131530700685
 31
0.0
  0
LINE
  5
194F2
  8
1CENTER
 10
778.83866299009765
 20
-876.35676465013182
 30
0.0
 11
778.83866299009765
 21
-887.90926038573275
 31
0.0
  0
LINE
  5
194F3
  8
1PHANTOM
 10
782.20866299009765
 20
-879.12131530700685
 30
0.0
 11
782.20866299009765
 21
-887.12131530700685
 31
0.0
  0
LINE
  5
196F4
  8
01
 10
522.83866299009776
 20
-716.62131530700469
 30
0.0
 11
-167.16133700990031
 21
-716.6213153070039
 31
0.0
  0
LINE
  5
196F5
  8
01
 10
522.83866299009776
 20
-676.62131530700458
 30
0.0
 11
-167.16133700990019
 21
-676.62131530700378
 31
0.0
  0
LINE
  5
197A5
  8
1DIM1
 10
632.83866299009856
 20
-725.1213153070039
 30
0.0
 11
632.83866299009856
 21
-671.62131530700378
 31
0.0
  0
LINE
  5
197A6
  8
1DIM1
 10
532.83866299009765
 20
-716.62131530699753
 30
0.0
 11
532.83866299009765
 21
-671.62131530700378
 31
0.0
  0
LINE
  5
197A7
  8
1DIM1
 10
622.83866299009856
 20
-676.62131530700378
 30
0.0
 11
542.83866299009765
 21
-676.62131530700378
 31
0.0
  0
LINE
  5
197AB
  8
1DIM1
 10
-267.16133700990122
 20
-725.12131530700401
 30
0.0
 11
-267.16133700990122
 21
-671.6213153070039
 31
0.0
  0
LINE
  5
197AC
  8
1DIM1
 10
-167.16133700990031
 20
-716.62131530699764
 30
0.0
 11
-167.16133700990031
 21
-671.6213153070039
 31
0.0
  0
LINE
  5
197AD
  8
1DIM1
 10
-257.16133700990122
 20
-676.62131530700378
 30
0.0
 11
-177.16133700990031
 21
-676.62131530700378
 31
0.0
  0
LINE
  5
197B1
  8
1DIM1
 10
-167.16133700990031
 20
-716.62131530699764
 30
0.0
 11
-167.16133700990031
 21
-671.6213153070039
 31
0.0
  0
LINE
  5
197B2
  8
1DIM1
 10
532.83866299009765
 20
-716.62131530700458
 30
0.0
 11
532.83866299009765
 21
-671.6213153070039
 31
0.0
  0
LINE
  5
197B3
  8
1DIM1
 10
-157.16133700990031
 20
-676.62131530700378
 30
0.0
 11
522.83866299009765
 21
-676.62131530700378
 31
0.0
  0
LINE
  5
197B7
  8
1DIM
 10
800.33866299008503
 20
-887.12131530700651
 30
0.0
 11
800.33866299008503
 21
-898.62131530700663
 31
0.0
  0
LINE
  5
197B8
  8
1DIM
 10
778.83866299009765
 20
-887.90926038573275
 30
0.0
 11
778.83866299009765
 21
-898.62131530700663
 31
0.0
  0
LINE
  5
197B9
  8
1DIM
 10
798.33866299008503
 20
-897.6213153070064
 30
0.0
 11
780.83866299009776
 21
-897.6213153070064
 31
0.0
  0
LINE
  5
197BD
  8
1DIM
 10
683.83866299009685
 20
-869.1213153070064
 30
0.0
 11
671.83866299009685
 21
-869.1213153070064
 31
0.0
  0
LINE
  5
197BE
  8
1DIM
 10
683.83866299009685
 20
-877.1213153070064
 30
0.0
 11
671.83866299009685
 21
-877.1213153070064
 31
0.0
  0
LINE
  5
197BF
  8
1DIM
 10
672.83866299009696
 20
-871.12131530700651
 30
0.0
 11
672.83866299009696
 21
-875.1213153070064
 31
0.0
  0
LINE
  5
197C3
  8
1DIM
 10
683.83866299009685
 20
-869.1213153070064
 30
0.0
 11
671.83866299009685
 21
-869.1213153070064
 31
0.0
  0
LINE
  5
197C4
  8
1DIM
 10
771.83866299009742
 20
-864.12131530700651
 30
0.0
 11
671.83866299009685
 21
-864.12131530700628
 31
0.0
  0
LINE
  5
197C5
  8
1DIM
 10
672.83866299009696
 20
-871.12131530700651
 30
0.0
 11
672.83866299009696
 21
-873.12131530700651
 31
0.0
  0
LINE
  5
197C6
  8
1DIM
 10
672.83866299009696
 20
-862.1213153070064
 30
0.0
 11
672.83866299009696
 21
-856.38798197367305
 31
0.0
  0
LINE
  5
197C7
  8
1DIM
 10
672.83866299009696
 20
-869.1213153070064
 30
0.0
 11
672.83866299009696
 21
-864.12131530700628
 31
0.0
  0
LINE
  5
197CB
  8
1DIM
 10
771.83866299009765
 20
-887.6213153070064
 30
0.0
 11
661.83866299009685
 21
-887.6213153070064
 31
0.0
  0
LINE
  5
197CC
  8
1DIM
 10
771.83866299009742
 20
-864.12131530700651
 30
0.0
 11
661.83866299009685
 21
-864.12131530700628
 31
0.0
  0
LINE
  5
197CD
  8
1DIM
 10
662.83866299009685
 20
-885.62131530700628
 30
0.0
 11
662.83866299009685
 21
-866.12131530700628
 31
0.0
  0
LINE
  5
197D1
  8
1DIM
 10
830.29957758125045
 20
-873.3713153070064
 30
0.0
 11
841.33866299009549
 21
-873.3713153070064
 31
0.0
  0
LINE
  5
197D2
  8
1DIM
 10
799.83866299009935
 20
-864.12131530699924
 30
0.0
 11
841.33866299009549
 21
-864.12131530699924
 31
0.0
  0
LINE
  5
197D3
  8
1DIM
 10
840.33866299009549
 20
-871.37131530700651
 30
0.0
 11
840.33866299009549
 21
-866.12131530699924
 31
0.0
  0
LINE
  5
197D7
  8
1DIM
 10
800.33866299009549
 20
-910.62131530699776
 30
0.0
 11
800.33866299009549
 21
-906.6213153070064
 31
0.0
  0
LINE
  5
197D8
  8
1DIM
 10
770.83866299009765
 20
-886.62131530700651
 30
0.0
 11
770.83866299009765
 21
-908.62131530700651
 31
0.0
  0
LINE
  5
197D9
  8
1DIM
 10
798.3386629900956
 20
-907.62131530700663
 30
0.0
 11
772.83866299009776
 21
-907.62131530700663
 31
0.0
  0
TEXT
  5
197DD
  8
1DIM
 10
692.87437964899823
 20
-900.815939557761
 30
0.0
 40
3.5
  1
材質：ガラス
  0
SOLID
  5
197DE
  8
1DIM
 10
735.24526269276919
 20
-878.56933413560489
 30
0.0
 11
736.67437964899818
 21
-877.13102407288227
 31
0.0
 12
735.78899119723212
 22
-878.95508503693759
 32
0.0
 13
735.78899119723212
 23
-878.95508503693759
 33
0.0
  0
TEXT
  5
197E0
  8
1DIM
 10
805.99376423248793
 20
-808.08440749893271
 30
0.0
 40
3.5
  1
PB
  0
SOLID
  5
197E1
  8
1DIM
 10
806.89829434413093
 20
-827.23716850262247
 30
0.0
 11
806.91863161217486
 21
-829.26465401592213
 31
0.0
 12
806.24183078673866
 22
-827.35335818486919
 32
0.0
 13
806.24183078673866
 23
-827.35335818486919
 33
0.0
  0
SOLID
  5
197E3
  8
1DIM
 10
814.96181515666149
 20
-827.24155503272175
 30
0.0
 11
815.41661382611619
 21
-829.21747742020898
 31
0.0
 12
814.34555917528485
 22
-827.49586391943615
 32
0.0
 13
814.34555917528485
 23
-827.49586391943615
 33
0.0
  0
TEXT
  5
197E5
  8
1DIM
 10
812.16110872702632
 20
-814.08575351605657
 30
0.0
 40
3.5
  1
合板9mm以上
  0
LINE
  5
197E6
  8
1HATCH
 10
802.25798707913145
 20
-873.72494120225474
 30
0.0
 11
802.25798707913145
 21
-873.72494120225474
 31
0.0
  0
LINE
  5
197E7
  8
1HATCH
 10
798.61459051437123
 20
-885.91573554055981
 30
0.0
 11
798.61459051437123
 21
-885.91573554055981
 31
0.0
  0
LINE
  5
197E8
  8
1DIM
 10
682.83866299009685
 20
-876.1213153070064
 30
0.0
 11
682.83866299009685
 21
-918.62131530700651
 31
0.0
  0
LINE
  5
197E9
  8
1DIM
 10
800.33866299009549
 20
-887.12131530700651
 30
0.0
 11
800.33866299009549
 21
-918.62131530700651
 31
0.0
  0
LINE
  5
197EA
  8
1DIM
 10
684.83866299009685
 20
-917.62131530700651
 30
0.0
 11
798.3386629900956
 21
-917.62131530700651
 31
0.0
  0
TEXT
  5
197EE
  8
1DIM
 10
737.40644574463522
 20
-925.86338169281601
 30
0.0
 40
3.5
  1
材質：アルミ
  0
TEXT
  5
197EF
  8
1DIM
 10
707.7731124113019
 20
-931.69671502614926
 30
0.0
 40
3.5
  1
仕上げ：ブラストアルマイト
  0
SOLID
  5
197F0
  8
1DIM
 10
779.69444398935764
 20
-890.37748125612154
 30
0.0
 11
780.73977907796859
 21
-888.6401310716077
 31
0.0
 12
780.31441351344915
 22
-890.62259803164307
 32
0.0
 13
780.31441351344915
 23
-890.62259803164307
 33
0.0
  0
LINE
  5
197F2
  8
1PHANTOM
 10
82.838709525995796
 20
-689.62131530715953
 30
0.0
 11
81.338709525995796
 21
-694.92131181702121
 31
0.0
  0
LINE
  5
197F3
  8
1PHANTOM
 10
81.338709525995796
 20
-694.92131181702121
 30
0.0
 11
81.338709525996023
 21
-719.62131181691313
 31
0.0
  0
LINE
  5
197F4
  8
1PHANTOM
 10
82.838709525995796
 20
-689.62131530715953
 30
0.0
 11
84.338709525995895
 21
-694.92131879740487
 31
0.0
  0
LINE
  5
197F5
  8
1PHANTOM
 10
79.338662990097987
 20
-719.62130716321508
 30
0.0
 11
81.338709525996023
 21
-719.62131181691313
 31
0.0
  0
LINE
  5
197F6
  8
1PHANTOM
 10
84.338709525995895
 20
-694.92131879740487
 30
0.0
 11
84.338709525995796
 21
-719.62131879729782
 31
0.0
  0
LINE
  5
197F7
  8
1PHANTOM
 10
79.338662990097987
 20
-719.62130716321508
 30
0.0
 11
79.338662990097873
 21
-720.72131065341034
 31
0.0
  0
LINE
  5
197F8
  8
1PHANTOM
 10
84.338709525995796
 20
-719.62131879729782
 30
0.0
 11
86.338662990097859
 21
-719.62132345077919
 31
0.0
  0
ARC
  5
197F9
  8
1PHANTOM
 10
80.838662990097873
 20
-720.72131065341034
 30
0.0
 40
1.5
 50
180.0
 51
269.99986668447059
  0
LINE
  5
197FA
  8
1PHANTOM
 10
86.338662990097859
 20
-719.62132345077919
 30
0.0
 11
86.338662990097859
 21
-720.72131996058999
 31
0.0
  0
LINE
  5
197FB
  8
1PHANTOM
 10
80.838659499905475
 20
-722.22131065340625
 30
0.0
 11
84.838659499905475
 21
-722.22131996058579
 31
0.0
  0
ARC
  5
197FC
  8
1PHANTOM
 10
84.838662990097873
 20
-720.72131996058999
 30
0.0
 40
1.5
 50
269.99986668447059
 51
0.0
  0
LINE
  5
197FD
  8
1PHANTOM
 10
282.8387095259958
 20
-689.62131530715953
 30
0.0
 11
281.3387095259958
 21
-694.92131181702121
 31
0.0
  0
LINE
  5
197FE
  8
1PHANTOM
 10
281.3387095259958
 20
-694.92131181702121
 30
0.0
 11
281.33870952599602
 21
-719.62131181691313
 31
0.0
  0
LINE
  5
197FF
  8
1PHANTOM
 10
282.8387095259958
 20
-689.62131530715953
 30
0.0
 11
284.33870952599591
 21
-694.92131879740487
 31
0.0
  0
LINE
  5
19800
  8
1PHANTOM
 10
279.33866299009799
 20
-719.62130716321508
 30
0.0
 11
281.33870952599602
 21
-719.62131181691313
 31
0.0
  0
LINE
  5
19801
  8
1PHANTOM
 10
284.33870952599591
 20
-694.92131879740487
 30
0.0
 11
284.3387095259958
 21
-719.62131879729782
 31
0.0
  0
LINE
  5
19802
  8
1PHANTOM
 10
279.33866299009799
 20
-719.62130716321508
 30
0.0
 11
279.33866299009787
 21
-720.72131065341034
 31
0.0
  0
LINE
  5
19803
  8
1PHANTOM
 10
284.3387095259958
 20
-719.62131879729782
 30
0.0
 11
286.33866299009787
 21
-719.62132345077919
 31
0.0
  0
ARC
  5
19804
  8
1PHANTOM
 10
280.83866299009787
 20
-720.72131065341034
 30
0.0
 40
1.5
 50
180.0
 51
269.99986668447059
  0
LINE
  5
19805
  8
1PHANTOM
 10
286.33866299009787
 20
-719.62132345077919
 30
0.0
 11
286.33866299009787
 21
-720.72131996058999
 31
0.0
  0
LINE
  5
19806
  8
1PHANTOM
 10
280.83865949990548
 20
-722.22131065340625
 30
0.0
 11
284.83865949990548
 21
-722.22131996058579
 31
0.0
  0
ARC
  5
19807
  8
1PHANTOM
 10
284.83866299009787
 20
-720.72131996058999
 30
0.0
 40
1.5
 50
269.99986668447059
 51
0.0
  0
LINE
  5
19808
  8
1DIM1
 10
-117.1613370099021
 20
-876.37131530700503
 30
0.0
 11
-117.1613370099021
 21
-922.6213153070064
 31
0.0
  0
LINE
  5
19809
  8
1DIM1
 10
82.838662990097873
 20
-876.37131530700503
 30
0.0
 11
82.838662990097873
 21
-922.6213153070064
 31
0.0
  0
LINE
  5
1980A
  8
1DIM1
 10
-107.1613370099021
 20
-917.62131530700628
 30
0.0
 11
72.838662990097873
 21
-917.62131530700628
 31
0.0
  0
LINE
  5
1980E
  8
1PHANTOM
 10
-117.1612904740041
 20
-689.62131530715953
 30
0.0
 11
-118.6612904740041
 21
-694.92131181702121
 31
0.0
  0
LINE
  5
1980F
  8
1PHANTOM
 10
-118.6612904740041
 20
-694.92131181702121
 30
0.0
 11
-118.6612904740041
 21
-719.62131181691313
 31
0.0
  0
LINE
  5
19810
  8
1PHANTOM
 10
-117.1612904740041
 20
-689.62131530715953
 30
0.0
 11
-115.6612904740041
 21
-694.92131879740487
 31
0.0
  0
LINE
  5
19811
  8
1PHANTOM
 10
-120.6613370099021
 20
-719.62130716321508
 30
0.0
 11
-118.6612904740041
 21
-719.62131181691313
 31
0.0
  0
LINE
  5
19812
  8
1PHANTOM
 10
-115.6612904740041
 20
-694.92131879740487
 30
0.0
 11
-115.6612904740041
 21
-719.62131879729782
 31
0.0
  0
LINE
  5
19813
  8
1PHANTOM
 10
-120.6613370099021
 20
-719.62130716321508
 30
0.0
 11
-120.6613370099021
 21
-720.72131065341034
 31
0.0
  0
LINE
  5
19814
  8
1PHANTOM
 10
-115.6612904740041
 20
-719.62131879729782
 30
0.0
 11
-113.6613370099021
 21
-719.62132345077919
 31
0.0
  0
ARC
  5
19815
  8
1PHANTOM
 10
-119.1613370099021
 20
-720.72131065341034
 30
0.0
 40
1.5
 50
180.0
 51
269.99986668447491
  0
LINE
  5
19816
  8
1PHANTOM
 10
-113.6613370099021
 20
-719.62132345077919
 30
0.0
 11
-113.6613370099021
 21
-720.72131996058999
 31
0.0
  0
LINE
  5
19817
  8
1PHANTOM
 10
-119.1613405000944
 20
-722.22131065340625
 30
0.0
 11
-115.1613405000944
 21
-722.22131996058579
 31
0.0
  0
ARC
  5
19818
  8
1PHANTOM
 10
-115.1613370099021
 20
-720.72131996058999
 30
0.0
 40
1.5
 50
269.99986668447491
 51
0.0
  0
LINE
  5
19819
  8
1DIM1
 10
82.838662990097873
 20
-876.37131530700503
 30
0.0
 11
82.838662990097873
 21
-922.6213153070064
 31
0.0
  0
LINE
  5
1981A
  8
1DIM1
 10
282.83866299009787
 20
-876.37131530700503
 30
0.0
 11
282.83866299009787
 21
-922.6213153070064
 31
0.0
  0
LINE
  5
1981B
  8
1DIM1
 10
92.838662990097873
 20
-917.62131530700651
 30
0.0
 11
272.83866299009787
 21
-917.62131530700651
 31
0.0
  0
LINE
  5
1981F
  8
1DIM
 10
627.83866299009867
 20
-834.12131530700447
 30
0.0
 11
663.83866299009696
 21
-834.12131530700447
 31
0.0
  0
LINE
  5
19820
  8
1DIM
 10
532.83866299009776
 20
-716.62131530700458
 30
0.0
 11
663.83866299009708
 21
-716.62131530700458
 31
0.0
  0
LINE
  5
19821
  8
1DIM
 10
662.83866299009685
 20
-832.12131530700435
 30
0.0
 11
662.83866299009708
 21
-718.62131530700447
 31
0.0
  0
LINE
  5
19825
  8
1DIM
 10
631.83866299009867
 20
-724.12131530700469
 30
0.0
 11
653.83866299009696
 21
-724.12131530700469
 31
0.0
  0
LINE
  5
19826
  8
1DIM
 10
627.83866299009867
 20
-834.12131530700447
 30
0.0
 11
653.83866299009685
 21
-834.12131530700447
 31
0.0
  0
LINE
  5
19827
  8
1DIM
 10
652.83866299009696
 20
-726.12131530700458
 30
0.0
 11
652.83866299009685
 21
-832.12131530700435
 31
0.0
  0
LINE
  5
1982B
  8
1DIM
 10
631.83866299009867
 20
-724.12131530700469
 30
0.0
 11
653.83866299009685
 21
-724.12131530700469
 31
0.0
  0
LINE
  5
1982C
  8
1DIM
 10
532.83866299009776
 20
-716.62131530700458
 30
0.0
 11
653.83866299009685
 21
-716.62131530700458
 31
0.0
  0
LINE
  5
1982D
  8
1DIM
 10
652.83866299009685
 20
-722.12131530700458
 30
0.0
 11
652.83866299009685
 21
-718.62131530700447
 31
0.0
  0
LINE
  5
1982E
  8
1DIM
 10
652.83866299009685
 20
-716.62131530700458
 30
0.0
 11
652.83866299009685
 21
-705.88798197367123
 31
0.0
  0
LINE
  5
19832
  8
1DIM1
 10
-267.16133700990122
 20
-876.12131530700481
 30
0.0
 11
-267.16133700990122
 21
-952.62131530700651
 31
0.0
  0
LINE
  5
19833
  8
1DIM1
 10
632.83866299009685
 20
-876.12131530700481
 30
0.0
 11
632.83866299009685
 21
-952.62131530700651
 31
0.0
  0
LINE
  5
19834
  8
1DIM1
 10
-257.16133700990122
 20
-947.6213153070064
 30
0.0
 11
622.83866299009696
 21
-947.6213153070064
 31
0.0
  0
LINE
  5
19838
  8
1DIM1
 10
282.83866299009787
 20
-876.37131530700503
 30
0.0
 11
282.83866299009787
 21
-922.6213153070064
 31
0.0
  0
LINE
  5
19839
  8
1DIM1
 10
482.83866299009782
 20
-876.37131530700503
 30
0.0
 11
482.83866299009782
 21
-922.6213153070064
 31
0.0
  0
LINE
  5
1983A
  8
1DIM1
 10
292.83866299009787
 20
-917.62131530700651
 30
0.0
 11
472.83866299009782
 21
-917.62131530700651
 31
0.0
  0
LINE
  5
1983E
  8
1PHANTOM
 10
482.8387095259958
 20
-689.62131530715953
 30
0.0
 11
481.33870952599568
 21
-694.92131181702121
 31
0.0
  0
LINE
  5
1983F
  8
1PHANTOM
 10
481.33870952599568
 20
-694.92131181702121
 30
0.0
 11
481.33870952599602
 21
-719.62131181691313
 31
0.0
  0
LINE
  5
19840
  8
1PHANTOM
 10
482.8387095259958
 20
-689.62131530715953
 30
0.0
 11
484.3387095259958
 21
-694.92131879740487
 31
0.0
  0
LINE
  5
19841
  8
1PHANTOM
 10
479.33866299009799
 20
-719.62130716321508
 30
0.0
 11
481.33870952599602
 21
-719.62131181691313
 31
0.0
  0
LINE
  5
19842
  8
1PHANTOM
 10
484.3387095259958
 20
-694.92131879740487
 30
0.0
 11
484.3387095259958
 21
-719.62131879729782
 31
0.0
  0
LINE
  5
19843
  8
1PHANTOM
 10
479.33866299009799
 20
-719.62130716321508
 30
0.0
 11
479.33866299009782
 21
-720.72131065341034
 31
0.0
  0
LINE
  5
19844
  8
1PHANTOM
 10
484.3387095259958
 20
-719.62131879729782
 30
0.0
 11
486.33866299009782
 21
-719.62132345077919
 31
0.0
  0
ARC
  5
19845
  8
1PHANTOM
 10
480.83866299009782
 20
-720.72131065341034
 30
0.0
 40
1.5
 50
180.0
 51
269.99986668447059
  0
LINE
  5
19846
  8
1PHANTOM
 10
486.33866299009782
 20
-719.62132345077919
 30
0.0
 11
486.33866299009782
 21
-720.72131996058999
 31
0.0
  0
LINE
  5
19847
  8
1PHANTOM
 10
480.83865949990542
 20
-722.22131065340625
 30
0.0
 11
484.83865949990542
 21
-722.22131996058579
 31
0.0
  0
ARC
  5
19848
  8
1PHANTOM
 10
484.83866299009787
 20
-720.72131996058999
 30
0.0
 40
1.5
 50
269.99986668447059
 51
0.0
  0
TEXT
  5
19849
  8
1DIM1
 10
353.67199632343119
 20
-914.12131530700651
 30
0.0
 40
17.5
  1
P200 
  0
LINE
  5
1984A
  8
0
  6
BYBLOCK
 10
472.83866299009782
 20
-914.9418234070065
 30
0.0
 11
482.83866299009782
 21
-917.62131530700651
 31
0.0
  0
LINE
  5
1984B
  8
0
  6
BYBLOCK
 10
482.83866299009782
 20
-917.62131530700651
 30
0.0
 11
472.83866299009782
 21
-920.30080720700653
 31
0.0
  0
LINE
  5
1984C
  8
0
  6
BYBLOCK
 10
482.83866299009782
 20
-917.62131530700651
 30
0.0
 11
472.83866299009782
 21
-917.62131530700651
 31
0.0
  0
LINE
  5
1984D
  8
0
  6
BYBLOCK
 10
292.83866299009787
 20
-920.30080720700653
 30
0.0
 11
282.83866299009787
 21
-917.62131530700651
 31
0.0
  0
LINE
  5
1984E
  8
0
  6
BYBLOCK
 10
282.83866299009787
 20
-917.62131530700651
 30
0.0
 11
292.83866299009787
 21
-914.9418234070065
 31
0.0
  0
LINE
  5
1984F
  8
0
  6
BYBLOCK
 10
282.83866299009787
 20
-917.62131530700651
 30
0.0
 11
292.83866299009787
 21
-917.62131530700651
 31
0.0
  0
TEXT
  5
19850
  8
1DIM1
 10
162.42199632343119
 20
-944.1213153070064
 30
0.0
 40
17.5
  1
900 
  0
LINE
  5
19851
  8
0
  6
BYBLOCK
 10
622.83866299009696
 20
-944.94182340700638
 30
0.0
 11
632.83866299009685
 21
-947.6213153070064
 31
0.0
  0
LINE
  5
19852
  8
0
  6
BYBLOCK
 10
632.83866299009685
 20
-947.6213153070064
 30
0.0
 11
622.83866299009696
 21
-950.30080720700641
 31
0.0
  0
LINE
  5
19853
  8
0
  6
BYBLOCK
 10
632.83866299009685
 20
-947.6213153070064
 30
0.0
 11
622.83866299009696
 21
-947.6213153070064
 31
0.0
  0
LINE
  5
19854
  8
0
  6
BYBLOCK
 10
-257.16133700990122
 20
-950.30080720700641
 30
0.0
 11
-267.16133700990122
 21
-947.6213153070064
 31
0.0
  0
LINE
  5
19855
  8
0
  6
BYBLOCK
 10
-267.16133700990122
 20
-947.6213153070064
 30
0.0
 11
-257.16133700990122
 21
-944.94182340700638
 31
0.0
  0
LINE
  5
19856
  8
0
  6
BYBLOCK
 10
-267.16133700990122
 20
-947.6213153070064
 30
0.0
 11
-257.16133700990122
 21
-947.6213153070064
 31
0.0
  0
TEXT
  5
19857
  8
1DIM
 10
652.13866299009703
 20
-713.75464864033779
 30
0.0
 40
3.5
  1
7.5 
 50
90.0
  0
LINE
  5
19858
  8
0
  6
BYBLOCK
 10
652.30276461009692
 20
-718.62131530700447
 30
0.0
 11
652.83866299009685
 21
-716.62131530700458
 31
0.0
  0
LINE
  5
19859
  8
0
  6
BYBLOCK
 10
652.83866299009685
 20
-716.62131530700458
 30
0.0
 11
653.37456137009701
 21
-718.62131530700447
 31
0.0
  0
LINE
  5
1985A
  8
0
  6
BYBLOCK
 10
652.83866299009685
 20
-716.62131530700458
 30
0.0
 11
652.83866299009685
 21
-718.62131530700447
 31
0.0
  0
LINE
  5
1985B
  8
0
  6
BYBLOCK
 10
653.37456137009701
 20
-722.12131530700458
 30
0.0
 11
652.83866299009685
 21
-724.12131530700469
 31
0.0
  0
LINE
  5
1985C
  8
0
  6
BYBLOCK
 10
652.83866299009685
 20
-724.12131530700469
 30
0.0
 11
652.30276461009692
 21
-722.12131530700458
 31
0.0
  0
LINE
  5
1985D
  8
0
  6
BYBLOCK
 10
652.83866299009685
 20
-724.12131530700469
 30
0.0
 11
652.83866299009685
 21
-722.12131530700458
 31
0.0
  0
TEXT
  5
1985E
  8
1DIM
 10
652.13866299009715
 20
-782.32964864033784
 30
0.0
 40
3.5
  1
110 
 50
90.0
  0
LINE
  5
1985F
  8
0
  6
BYBLOCK
 10
653.37456137009701
 20
-832.12131530700435
 30
0.0
 11
652.83866299009685
 21
-834.12131530700447
 31
0.0
  0
LINE
  5
19860
  8
0
  6
BYBLOCK
 10
652.83866299009685
 20
-834.12131530700447
 30
0.0
 11
652.30276461009692
 21
-832.12131530700435
 31
0.0
  0
LINE
  5
19861
  8
0
  6
BYBLOCK
 10
652.83866299009685
 20
-834.12131530700447
 30
0.0
 11
652.83866299009685
 21
-832.12131530700435
 31
0.0
  0
LINE
  5
19862
  8
0
  6
BYBLOCK
 10
652.30276461009703
 20
-726.12131530700458
 30
0.0
 11
652.83866299009696
 21
-724.12131530700469
 31
0.0
  0
LINE
  5
19863
  8
0
  6
BYBLOCK
 10
652.83866299009696
 20
-724.12131530700469
 30
0.0
 11
653.37456137009713
 21
-726.12131530700458
 31
0.0
  0
LINE
  5
19864
  8
0
  6
BYBLOCK
 10
652.83866299009696
 20
-724.12131530700469
 30
0.0
 11
652.83866299009696
 21
-726.12131530700458
 31
0.0
  0
TEXT
  5
19865
  8
1DIM
 10
662.13866299009715
 20
-781.20464864033772
 30
0.0
 40
3.5
  1
117.5 
 50
90.0
  0
LINE
  5
19866
  8
0
  6
BYBLOCK
 10
662.30276461009703
 20
-718.62131530700447
 30
0.0
 11
662.83866299009708
 21
-716.62131530700458
 31
0.0
  0
LINE
  5
19867
  8
0
  6
BYBLOCK
 10
662.83866299009708
 20
-716.62131530700458
 30
0.0
 11
663.37456137009713
 21
-718.62131530700447
 31
0.0
  0
LINE
  5
19868
  8
0
  6
BYBLOCK
 10
662.83866299009708
 20
-716.62131530700458
 30
0.0
 11
662.83866299009708
 21
-718.62131530700447
 31
0.0
  0
LINE
  5
19869
  8
0
  6
BYBLOCK
 10
663.37456137009701
 20
-832.12131530700435
 30
0.0
 11
662.83866299009685
 21
-834.12131530700447
 31
0.0
  0
LINE
  5
1986A
  8
0
  6
BYBLOCK
 10
662.83866299009685
 20
-834.12131530700447
 30
0.0
 11
662.30276461009692
 21
-832.12131530700435
 31
0.0
  0
LINE
  5
1986B
  8
0
  6
BYBLOCK
 10
662.83866299009685
 20
-834.12131530700447
 30
0.0
 11
662.83866299009685
 21
-832.12131530700435
 31
0.0
  0
TEXT
  5
1986C
  8
1DIM1
 10
153.67199632343119
 20
-914.12131530700651
 30
0.0
 40
17.5
  1
P200 
  0
LINE
  5
1986D
  8
0
  6
BYBLOCK
 10
272.83866299009787
 20
-914.9418234070065
 30
0.0
 11
282.83866299009787
 21
-917.62131530700651
 31
0.0
  0
LINE
  5
1986E
  8
0
  6
BYBLOCK
 10
282.83866299009787
 20
-917.62131530700651
 30
0.0
 11
272.83866299009787
 21
-920.30080720700653
 31
0.0
  0
LINE
  5
1986F
  8
0
  6
BYBLOCK
 10
282.83866299009787
 20
-917.62131530700651
 30
0.0
 11
272.83866299009787
 21
-917.62131530700651
 31
0.0
  0
LINE
  5
19870
  8
0
  6
BYBLOCK
 10
92.838662990097873
 20
-920.30080720700653
 30
0.0
 11
82.838662990097873
 21
-917.62131530700651
 31
0.0
  0
LINE
  5
19871
  8
0
  6
BYBLOCK
 10
82.838662990097873
 20
-917.62131530700651
 30
0.0
 11
92.838662990097873
 21
-914.9418234070065
 31
0.0
  0
LINE
  5
19872
  8
0
  6
BYBLOCK
 10
82.838662990097873
 20
-917.62131530700651
 30
0.0
 11
92.838662990097873
 21
-917.62131530700651
 31
0.0
  0
TEXT
  5
19873
  8
1DIM1
 10
-46.328003676568791
 20
-914.12131530700628
 30
0.0
 40
17.5
  1
P200 
  0
LINE
  5
19874
  8
0
  6
BYBLOCK
 10
72.838662990097873
 20
-914.94182340700627
 30
0.0
 11
82.838662990097873
 21
-917.62131530700628
 31
0.0
  0
LINE
  5
19875
  8
0
  6
BYBLOCK
 10
82.838662990097873
 20
-917.62131530700628
 30
0.0
 11
72.838662990097873
 21
-920.30080720700641
 31
0.0
  0
LINE
  5
19876
  8
0
  6
BYBLOCK
 10
82.838662990097873
 20
-917.62131530700628
 30
0.0
 11
72.838662990097873
 21
-917.62131530700628
 31
0.0
  0
LINE
  5
19877
  8
0
  6
BYBLOCK
 10
-107.1613370099021
 20
-920.30080720700641
 30
0.0
 11
-117.1613370099021
 21
-917.62131530700628
 31
0.0
  0
LINE
  5
19878
  8
0
  6
BYBLOCK
 10
-117.1613370099021
 20
-917.62131530700628
 30
0.0
 11
-107.1613370099021
 21
-914.94182340700627
 31
0.0
  0
LINE
  5
19879
  8
0
  6
BYBLOCK
 10
-117.1613370099021
 20
-917.62131530700628
 30
0.0
 11
-107.1613370099021
 21
-917.62131530700628
 31
0.0
  0
LINE
  5
1987A
  8
1DIM
 10
780.00442875140334
 20
-890.50003964388225
 30
0.0
 11
763.43977907796875
 21
-932.39671502614931
 31
0.0
  0
LINE
  5
1987B
  8
1DIM
 10
763.43977907796875
 20
-932.39671502614931
 30
0.0
 11
707.07311241130196
 21
-932.39671502614931
 31
0.0
  0
TEXT
  5
1987C
  8
1DIM
 10
735.75532965676291
 20
-916.92131530700635
 30
0.0
 40
3.5
  1
117.5 
  0
LINE
  5
1987D
  8
0
  6
BYBLOCK
 10
798.3386629900956
 20
-917.08541692700635
 30
0.0
 11
800.33866299009549
 21
-917.62131530700651
 31
0.0
  0
LINE
  5
1987E
  8
0
  6
BYBLOCK
 10
800.33866299009549
 20
-917.62131530700651
 30
0.0
 11
798.3386629900956
 21
-918.15721368700656
 31
0.0
  0
LINE
  5
1987F
  8
0
  6
BYBLOCK
 10
800.33866299009549
 20
-917.62131530700651
 30
0.0
 11
798.3386629900956
 21
-917.62131530700651
 31
0.0
  0
LINE
  5
19880
  8
0
  6
BYBLOCK
 10
684.83866299009685
 20
-918.15721368700656
 30
0.0
 11
682.83866299009685
 21
-917.62131530700651
 31
0.0
  0
LINE
  5
19881
  8
0
  6
BYBLOCK
 10
682.83866299009685
 20
-917.62131530700651
 30
0.0
 11
684.83866299009685
 21
-917.08541692700635
 31
0.0
  0
LINE
  5
19882
  8
0
  6
BYBLOCK
 10
682.83866299009685
 20
-917.62131530700651
 30
0.0
 11
684.83866299009685
 21
-917.62131530700651
 31
0.0
  0
LINE
  5
19883
  8
1DIM
 10
814.65368716597322
 20
-827.36870947607883
 30
0.0
 11
809.46110872702639
 21
-814.78575351605662
 31
0.0
  0
LINE
  5
19884
  8
1DIM
 10
809.46110872702639
 20
-814.78575351605662
 30
0.0
 11
841.36110872702625
 21
-814.78575351605662
 31
0.0
  0
LINE
  5
19885
  8
1DIM
 10
806.57006256543468
 20
-827.29526334374589
 30
0.0
 11
803.29376423248777
 21
-808.78440749893275
 31
0.0
  0
LINE
  5
19886
  8
1DIM
 10
803.29376423248777
 20
-808.78440749893275
 30
0.0
 11
811.82709756582096
 21
-808.78440749893275
 31
0.0
  0
LINE
  5
19887
  8
1DIM
 10
735.51712694500065
 20
-878.76220958627141
 30
0.0
 11
719.37437964899834
 21
-901.51593955776104
 31
0.0
  0
LINE
  5
19888
  8
1DIM
 10
719.37437964899834
 20
-901.51593955776104
 30
0.0
 11
692.40771298233165
 21
-901.51593955776104
 31
0.0
  0
TEXT
  5
19889
  8
1DIM
 10
780.33866299009674
 20
-906.92131530700635
 30
0.0
 40
3.5
  1
29.5 
  0
LINE
  5
1988A
  8
0
  6
BYBLOCK
 10
772.83866299009776
 20
-908.15721368700645
 30
0.0
 11
770.83866299009765
 21
-907.62131530700663
 31
0.0
  0
LINE
  5
1988B
  8
0
  6
BYBLOCK
 10
770.83866299009765
 20
-907.62131530700663
 30
0.0
 11
772.83866299009776
 21
-907.08541692700646
 31
0.0
  0
LINE
  5
1988C
  8
0
  6
BYBLOCK
 10
770.83866299009765
 20
-907.62131530700663
 30
0.0
 11
772.83866299009776
 21
-907.62131530700663
 31
0.0
  0
LINE
  5
1988D
  8
0
  6
BYBLOCK
 10
798.3386629900956
 20
-907.08541692700646
 30
0.0
 11
800.33866299009549
 21
-907.62131530700663
 31
0.0
  0
LINE
  5
1988E
  8
0
  6
BYBLOCK
 10
800.33866299009549
 20
-907.62131530700663
 30
0.0
 11
798.3386629900956
 21
-908.15721368700645
 31
0.0
  0
LINE
  5
1988F
  8
0
  6
BYBLOCK
 10
800.33866299009549
 20
-907.62131530700663
 30
0.0
 11
798.3386629900956
 21
-907.62131530700663
 31
0.0
  0
TEXT
  5
19890
  8
1DIM
 10
839.63866299009555
 20
-869.91298197366928
 30
0.0
 40
3.5
  1
9 
 50
90.0
  0
LINE
  5
19891
  8
0
  6
BYBLOCK
 10
839.80276461009544
 20
-866.12131530699924
 30
0.0
 11
840.33866299009549
 21
-864.12131530699924
 31
0.0
  0
LINE
  5
19892
  8
0
  6
BYBLOCK
 10
840.33866299009549
 20
-864.12131530699924
 30
0.0
 11
840.87456137009542
 21
-866.12131530699924
 31
0.0
  0
LINE
  5
19893
  8
0
  6
BYBLOCK
 10
840.33866299009549
 20
-864.12131530699924
 30
0.0
 11
840.33866299009549
 21
-866.12131530699924
 31
0.0
  0
LINE
  5
19894
  8
0
  6
BYBLOCK
 10
840.87456137009542
 20
-871.37131530700651
 30
0.0
 11
840.33866299009549
 21
-873.3713153070064
 31
0.0
  0
LINE
  5
19895
  8
0
  6
BYBLOCK
 10
840.33866299009549
 20
-873.3713153070064
 30
0.0
 11
839.80276461009544
 21
-871.37131530700651
 31
0.0
  0
LINE
  5
19896
  8
0
  6
BYBLOCK
 10
840.33866299009549
 20
-873.3713153070064
 30
0.0
 11
840.33866299009549
 21
-871.37131530700651
 31
0.0
  0
TEXT
  5
19897
  8
1DIM
 10
662.13866299009715
 20
-881.12131530700628
 30
0.0
 40
3.5
  1
23.5 
 50
90.0
  0
LINE
  5
19898
  8
0
  6
BYBLOCK
 10
662.30276461009692
 20
-866.12131530700628
 30
0.0
 11
662.83866299009685
 21
-864.12131530700628
 31
0.0
  0
LINE
  5
19899
  8
0
  6
BYBLOCK
 10
662.83866299009685
 20
-864.12131530700628
 30
0.0
 11
663.37456137009701
 21
-866.12131530700628
 31
0.0
  0
LINE
  5
1989A
  8
0
  6
BYBLOCK
 10
662.83866299009685
 20
-864.12131530700628
 30
0.0
 11
662.83866299009685
 21
-866.12131530700628
 31
0.0
  0
LINE
  5
1989B
  8
0
  6
BYBLOCK
 10
663.37456137009701
 20
-885.62131530700628
 30
0.0
 11
662.83866299009685
 21
-887.6213153070064
 31
0.0
  0
LINE
  5
1989C
  8
0
  6
BYBLOCK
 10
662.83866299009685
 20
-887.6213153070064
 30
0.0
 11
662.30276461009692
 21
-885.62131530700628
 31
0.0
  0
LINE
  5
1989D
  8
0
  6
BYBLOCK
 10
662.83866299009685
 20
-887.6213153070064
 30
0.0
 11
662.83866299009685
 21
-885.62131530700628
 31
0.0
  0
TEXT
  5
1989E
  8
1DIM
 10
672.13866299009715
 20
-859.42131530700635
 30
0.0
 40
3.5
  1
5 
 50
90.0
  0
LINE
  5
1989F
  8
0
  6
BYBLOCK
 10
673.3745613700969
 20
-862.1213153070064
 30
0.0
 11
672.83866299009696
 21
-864.12131530700628
 31
0.0
  0
LINE
  5
198A0
  8
0
  6
BYBLOCK
 10
672.83866299009696
 20
-864.12131530700628
 30
0.0
 11
672.30276461009692
 21
-862.1213153070064
 31
0.0
  0
LINE
  5
198A1
  8
0
  6
BYBLOCK
 10
672.83866299009696
 20
-864.12131530700628
 30
0.0
 11
672.83866299009696
 21
-862.1213153070064
 31
0.0
  0
LINE
  5
198A2
  8
0
  6
BYBLOCK
 10
672.30276461009692
 20
-871.12131530700651
 30
0.0
 11
672.83866299009696
 21
-869.1213153070064
 31
0.0
  0
LINE
  5
198A3
  8
0
  6
BYBLOCK
 10
672.83866299009696
 20
-869.1213153070064
 30
0.0
 11
673.3745613700969
 21
-871.12131530700651
 31
0.0
  0
LINE
  5
198A4
  8
0
  6
BYBLOCK
 10
672.83866299009696
 20
-869.1213153070064
 30
0.0
 11
672.83866299009696
 21
-871.12131530700651
 31
0.0
  0
TEXT
  5
198A5
  8
1DIM
 10
672.13866299009715
 20
-874.28798197367303
 30
0.0
 40
3.5
  1
8 
 50
90.0
  0
LINE
  5
198A6
  8
0
  6
BYBLOCK
 10
673.3745613700969
 20
-875.1213153070064
 30
0.0
 11
672.83866299009696
 21
-877.1213153070064
 31
0.0
  0
LINE
  5
198A7
  8
0
  6
BYBLOCK
 10
672.83866299009696
 20
-877.1213153070064
 30
0.0
 11
672.30276461009692
 21
-875.1213153070064
 31
0.0
  0
LINE
  5
198A8
  8
0
  6
BYBLOCK
 10
672.83866299009696
 20
-877.1213153070064
 30
0.0
 11
672.83866299009696
 21
-875.1213153070064
 31
0.0
  0
LINE
  5
198A9
  8
0
  6
BYBLOCK
 10
672.30276461009692
 20
-871.12131530700651
 30
0.0
 11
672.83866299009696
 21
-869.1213153070064
 31
0.0
  0
LINE
  5
198AA
  8
0
  6
BYBLOCK
 10
672.83866299009696
 20
-869.1213153070064
 30
0.0
 11
673.3745613700969
 21
-871.12131530700651
 31
0.0
  0
LINE
  5
198AB
  8
0
  6
BYBLOCK
 10
672.83866299009696
 20
-869.1213153070064
 30
0.0
 11
672.83866299009696
 21
-871.12131530700651
 31
0.0
  0
TEXT
  5
198AC
  8
1DIM
 10
784.92199632342465
 20
-896.92131530700635
 30
0.0
 40
3.5
  1
21.5 
  0
LINE
  5
198AD
  8
0
  6
BYBLOCK
 10
780.83866299009776
 20
-898.15721368700645
 30
0.0
 11
778.83866299009765
 21
-897.6213153070064
 31
0.0
  0
LINE
  5
198AE
  8
0
  6
BYBLOCK
 10
778.83866299009765
 20
-897.6213153070064
 30
0.0
 11
780.83866299009776
 21
-897.08541692700646
 31
0.0
  0
LINE
  5
198AF
  8
0
  6
BYBLOCK
 10
778.83866299009765
 20
-897.6213153070064
 30
0.0
 11
780.83866299009776
 21
-897.6213153070064
 31
0.0
  0
LINE
  5
198B0
  8
0
  6
BYBLOCK
 10
798.33866299008503
 20
-897.08541692700646
 30
0.0
 11
800.33866299008503
 21
-897.6213153070064
 31
0.0
  0
LINE
  5
198B1
  8
0
  6
BYBLOCK
 10
800.33866299008503
 20
-897.6213153070064
 30
0.0
 11
798.33866299008503
 21
-898.15721368700645
 31
0.0
  0
LINE
  5
198B2
  8
0
  6
BYBLOCK
 10
800.33866299008503
 20
-897.6213153070064
 30
0.0
 11
798.33866299008503
 21
-897.6213153070064
 31
0.0
  0
TEXT
  5
198B3
  8
1DIM1
 10
162.42199632343201
 20
-673.12131530700378
 30
0.0
 40
17.5
  1
700 
  0
LINE
  5
198B4
  8
0
  6
BYBLOCK
 10
522.83866299009765
 20
-673.94182340700377
 30
0.0
 11
532.83866299009765
 21
-676.62131530700378
 31
0.0
  0
LINE
  5
198B5
  8
0
  6
BYBLOCK
 10
532.83866299009765
 20
-676.62131530700378
 30
0.0
 11
522.83866299009765
 21
-679.30080720700391
 31
0.0
  0
LINE
  5
198B6
  8
0
  6
BYBLOCK
 10
532.83866299009765
 20
-676.62131530700378
 30
0.0
 11
522.83866299009765
 21
-676.62131530700378
 31
0.0
  0
LINE
  5
198B7
  8
0
  6
BYBLOCK
 10
-157.16133700990031
 20
-679.30080720700391
 30
0.0
 11
-167.16133700990031
 21
-676.62131530700378
 31
0.0
  0
LINE
  5
198B8
  8
0
  6
BYBLOCK
 10
-167.16133700990031
 20
-676.62131530700378
 30
0.0
 11
-157.16133700990031
 21
-673.94182340700377
 31
0.0
  0
LINE
  5
198B9
  8
0
  6
BYBLOCK
 10
-167.16133700990031
 20
-676.62131530700378
 30
0.0
 11
-157.16133700990031
 21
-676.62131530700378
 31
0.0
  0
TEXT
  5
198BA
  8
1DIM1
 10
-234.66133700990071
 20
-673.12131530700378
 30
0.0
 40
17.5
  1
100 
  0
LINE
  5
198BB
  8
0
  6
BYBLOCK
 10
-177.16133700990031
 20
-673.94182340700377
 30
0.0
 11
-167.16133700990031
 21
-676.62131530700378
 31
0.0
  0
LINE
  5
198BC
  8
0
  6
BYBLOCK
 10
-167.16133700990031
 20
-676.62131530700378
 30
0.0
 11
-177.16133700990031
 21
-679.30080720700391
 31
0.0
  0
LINE
  5
198BD
  8
0
  6
BYBLOCK
 10
-167.16133700990031
 20
-676.62131530700378
 30
0.0
 11
-177.16133700990031
 21
-676.62131530700378
 31
0.0
  0
LINE
  5
198BE
  8
0
  6
BYBLOCK
 10
-257.16133700990122
 20
-679.30080720700391
 30
0.0
 11
-267.16133700990122
 21
-676.62131530700378
 31
0.0
  0
LINE
  5
198BF
  8
0
  6
BYBLOCK
 10
-267.16133700990122
 20
-676.62131530700378
 30
0.0
 11
-257.16133700990122
 21
-673.94182340700377
 31
0.0
  0
LINE
  5
198C0
  8
0
  6
BYBLOCK
 10
-267.16133700990122
 20
-676.62131530700378
 30
0.0
 11
-257.16133700990122
 21
-676.62131530700378
 31
0.0
  0
TEXT
  5
198C1
  8
1DIM1
 10
565.3386629900981
 20
-673.12131530700367
 30
0.0
 40
17.5
  1
100 
  0
LINE
  5
198C2
  8
0
  6
BYBLOCK
 10
542.83866299009765
 20
-679.3008072070038
 30
0.0
 11
532.83866299009765
 21
-676.62131530700378
 31
0.0
  0
LINE
  5
198C3
  8
0
  6
BYBLOCK
 10
532.83866299009765
 20
-676.62131530700378
 30
0.0
 11
542.83866299009765
 21
-673.94182340700365
 31
0.0
  0
LINE
  5
198C4
  8
0
  6
BYBLOCK
 10
532.83866299009765
 20
-676.62131530700378
 30
0.0
 11
542.83866299009765
 21
-676.62131530700378
 31
0.0
  0
LINE
  5
198C5
  8
0
  6
BYBLOCK
 10
622.83866299009856
 20
-673.94182340700365
 30
0.0
 11
632.83866299009856
 21
-676.62131530700378
 31
0.0
  0
LINE
  5
198C6
  8
0
  6
BYBLOCK
 10
632.83866299009856
 20
-676.62131530700378
 30
0.0
 11
622.83866299009856
 21
-679.3008072070038
 31
0.0
  0
LINE
  5
198C7
  8
0
  6
BYBLOCK
 10
632.83866299009856
 20
-676.62131530700378
 30
0.0
 11
622.83866299009856
 21
-676.62131530700378
 31
0.0
  0
VIEWPORT
  5
57
 67
     1
  8
0
 10
-12.71820606546882
 20
10.09248672500371
 30
0.0
 40
426.48431561502389
 41
282.79835762855021
 68
     1
 69
     1
1001
ACAD
1000
MVIEW
1002
{
1070
    16
1010
0.0
1020
0.0
1030
0.0
1010
0.0
1020
0.0
1030
1.0
1040
0.0
1040
282.79835762855021
1040
-12.71820606546882
1040
10.09248672500371
1040
50.0
1040
0.0
1040
0.0
1070
     0
1070
   100
1070
     1
1070
     1
1070
     0
1070
     0
1070
     0
1070
     0
1040
0.0
1040
0.0
1040
0.0
1040
10.0
1040
10.0
1040
10.0
1040
10.0
1070
     0
1002
{
1002
}
1002
}
  0
ENDSEC
  0
EOF
