  0
SECTION
  2
HEADER
  9
$ACADVER
  1
AC1009
  9
$INSBASE
 10
0.0
 20
0.0
 30
0.0
  9
$EXTMIN
 10
252.13646608159451
 20
-2813.2464572768909
 30
0.0
  9
$EXTMAX
 10
588.31413561125805
 20
-2598.107873156081
 30
0.0
  9
$LIMMIN
 10
0.0
 20
0.0
  9
$LIMMAX
 10
420.0
 20
297.0
  9
$ORTHOMODE
 70
     0
  9
$REGENMODE
 70
     1
  9
$FILLMODE
 70
     1
  9
$QTEXTMODE
 70
     0
  9
$MIRRTEXT
 70
     0
  9
$DRAGMODE
 70
     2
  9
$LTSCALE
 40
0.5
  9
$OSMODE
 70
  2173
  9
$ATTMODE
 70
     1
  9
$TEXTSIZE
 40
4.0
  9
$TRACEWID
 40
1.0
  9
$TEXTSTYLE
  7
STANDARD
  9
$CLAYER
  8
1TEXT
  9
$CELTYPE
  6
BYLAYER
  9
$CECOLOR
 62
   256
  9
$DIMSCALE
 40
1.0
  9
$DIMASZ
 40
2.0
  9
$DIMEXO
 40
0.0
  9
$DIMDLI
 40
7.0
  9
$DIMRND
 40
0.0
  9
$DIMDLE
 40
0.0
  9
$DIMEXE
 40
1.0
  9
$DIMTP
 40
0.0
  9
$DIMTM
 40
0.0
  9
$DIMTXT
 40
3.5
  9
$DIMCEN
 40
0.0
  9
$DIMTSZ
 40
0.0
  9
$DIMTOL
 70
     0
  9
$DIMLIM
 70
     0
  9
$DIMTIH
 70
     0
  9
$DIMTOH
 70
     0
  9
$DIMSE1
 70
     0
  9
$DIMSE2
 70
     0
  9
$DIMTAD
 70
     1
  9
$DIMZIN
 70
     8
  9
$DIMBLK
  1

  9
$DIMASO
 70
     1
  9
$DIMSHO
 70
     1
  9
$DIMPOST
  1
 
  9
$DIMAPOST
  1

  9
$DIMALT
 70
     0
  9
$DIMALTD
 70
     2
  9
$DIMALTF
 40
25.399999999999999
  9
$DIMLFAC
 40
1.0
  9
$DIMTOFL
 70
     1
  9
$DIMTVP
 40
0.0
  9
$DIMTIX
 70
     0
  9
$DIMSOXD
 70
     0
  9
$DIMSAH
 70
     1
  9
$DIMBLK1
  1
OPEN30
  9
$DIMBLK2
  1
OPEN30
  9
$DIMSTYLE
  2
NEWX10
  9
$DIMCLRD
 70
   256
  9
$DIMCLRE
 70
   256
  9
$DIMCLRT
 70
   201
  9
$DIMTFAC
 40
0.7
  9
$DIMGAP
 40
0.7
  9
$LUNITS
 70
     2
  9
$LUPREC
 70
     4
  9
$SKETCHINC
 40
1.0
  9
$FILLETRAD
 40
0.5
  9
$AUNITS
 70
     0
  9
$AUPREC
 70
     2
  9
$MENU
  1
acad
  9
$ELEVATION
 40
0.0
  9
$PELEVATION
 40
0.0
  9
$THICKNESS
 40
0.0
  9
$LIMCHECK
 70
     0
  9
$BLIPMODE
 70
     0
  9
$CHAMFERA
 40
10.0
  9
$CHAMFERB
 40
10.0
  9
$SKPOLY
 70
     0
  9
$TDCREATE
 40
2453033.7326634838
  9
$TDUPDATE
 40
2453510.6137820021
  9
$TDINDWG
 40
1.6055982407
  9
$TDUSRTIMER
 40
1.6055982407
  9
$USRTIMER
 70
     1
  9
$ANGBASE
 50
0.0
  9
$ANGDIR
 70
     0
  9
$PDMODE
 70
     0
  9
$PDSIZE
 40
0.0
  9
$PLINEWID
 40
0.0
  9
$COORDS
 70
     2
  9
$SPLFRAME
 70
     0
  9
$SPLINETYPE
 70
     6
  9
$SPLINESEGS
 70
     8
  9
$ATTDIA
 70
     0
  9
$ATTREQ
 70
     1
  9
$HANDLING
 70
     1
  9
$HANDSEED
  5
15FDB
  9
$SURFTAB1
 70
     6
  9
$SURFTAB2
 70
     6
  9
$SURFTYPE
 70
     6
  9
$SURFU
 70
     6
  9
$SURFV
 70
     6
  9
$UCSNAME
  2

  9
$UCSORG
 10
0.0
 20
0.0
 30
0.0
  9
$UCSXDIR
 10
1.0
 20
0.0
 30
0.0
  9
$UCSYDIR
 10
0.0
 20
1.0
 30
0.0
  9
$PUCSNAME
  2

  9
$PUCSORG
 10
0.0
 20
0.0
 30
0.0
  9
$PUCSXDIR
 10
1.0
 20
0.0
 30
0.0
  9
$PUCSYDIR
 10
0.0
 20
1.0
 30
0.0
  9
$USERI1
 70
     0
  9
$USERI2
 70
     0
  9
$USERI3
 70
     0
  9
$USERI4
 70
     0
  9
$USERI5
 70
     0
  9
$USERR1
 40
0.0
  9
$USERR2
 40
0.0
  9
$USERR3
 40
0.0
  9
$USERR4
 40
0.0
  9
$USERR5
 40
0.0
  9
$WORLDVIEW
 70
     1
  9
$SHADEDGE
 70
     3
  9
$SHADEDIF
 70
    70
  9
$TILEMODE
 70
     1
  9
$MAXACTVP
 70
    48
  9
$PLIMCHECK
 70
     0
  9
$PEXTMIN
 10
1.0000000000000000E+020
 20
1.0000000000000000E+020
 30
1.0000000000000000E+020
  9
$PEXTMAX
 10
-1.0000000000000000E+020
 20
-1.0000000000000000E+020
 30
-1.0000000000000000E+020
  9
$PLIMMIN
 10
0.0
 20
0.0
  9
$PLIMMAX
 10
420.0
 20
297.0
  9
$UNITMODE
 70
     0
  9
$VISRETAIN
 70
     1
  9
$PLINEGEN
 70
     0
  9
$PSLTSCALE
 70
     1
  0
ENDSEC
  0
SECTION
  2
TABLES
  0
TABLE
  2
VPORT
 70
     4
  0
VPORT
  2
*ACTIVE
 70
     0
 10
0.0
 20
0.0
 11
1.0
 21
1.0
 12
420.21604834622099
 22
-2705.6103591132028
 13
0.0
 23
0.0
 14
10.0
 24
10.0
 15
10.0
 25
10.0
 16
0.0
 26
0.0
 36
1.0
 17
0.0
 27
0.0
 37
0.0
 40
235.94386308933591
 41
1.508086253369272
 42
50.0
 43
0.0
 44
0.0
 50
0.0
 51
0.0
 71
     0
 72
   100
 73
     1
 74
     1
 75
     0
 76
     0
 77
     0
 78
     0
  0
ENDTAB
  0
TABLE
  2
LTYPE
 70
    15
  0
LTYPE
  2
CONTINUOUS
 70
     0
  3
Solid line
 72
    65
 73
     0
 40
0.0
  0
LTYPE
  2
CENTER2
 70
     0
  3
Center (.5x) ___ _ ___ _ ___ _ ___ _ ___ _ ___
 72
    65
 73
     4
 40
28.574999999999999
 49
19.050000000000001
 49
-3.1749999999999989
 49
3.1749999999999989
 49
-3.1749999999999989
  0
LTYPE
  2
XREF1|CENTER2
 70
    48
  3
Center (.5x) ___ _ ___ _ ___ _ ___ _ ___ _ ___
 72
    65
 73
     4
 40
28.574999999999999
 49
19.050000000000001
 49
-3.1749999999999989
 49
3.1749999999999989
 49
-3.1749999999999989
  0
LTYPE
  2
HIDDEN
 70
     0
  3
Hidden __ __ __ __ __ __ __ __ __ __ __ __ __ _
 72
    65
 73
     2
 40
9.5249999999999986
 49
6.3499999999999988
 49
-3.1749999999999989
  0
LTYPE
  2
PHANTOM2
 70
     0
  3
Phantom (.5x) ___ _ _ ___ _ _ ___ _ _ ___ _ _
 72
    65
 73
     6
 40
31.75
 49
15.875
 49
-3.1749999999999989
 49
3.1749999999999989
 49
-3.1749999999999989
 49
3.1749999999999989
 49
-3.1749999999999989
  0
LTYPE
  2
A3WAKUDAKE|CENTER2
 70
    48
  3
Center (.5x) ___ _ ___ _ ___ _ ___ _ ___ _ ___
 72
    65
 73
     4
 40
28.574999999999999
 49
19.050000000000001
 49
-3.1749999999999989
 49
3.1749999999999989
 49
-3.1749999999999989
  0
ENDTAB
  0
TABLE
  2
LAYER
 70
    44
  0
LAYER
  2
0
 70
     0
 62
     7
  6
CONTINUOUS
  0
LAYER
  2
1CENTER
 70
     0
 62
     7
  6
CENTER2
  0
LAYER
  2
1TEXT
 70
     0
 62
     7
  6
CONTINUOUS
  0
LAYER
  2
1DIM
 70
     0
 62
     7
  6
CONTINUOUS
  0
LAYER
  2
1HIDDEN
 70
     0
 62
     7
  6
HIDDEN
  0
LAYER
  2
1PHANTOM
 70
     0
 62
     7
  6
PHANTOM2
  0
LAYER
  2
01
 70
     0
 62
     1
  6
CONTINUOUS
  0
LAYER
  2
1HATCH
 70
     0
 62
     7
  6
CONTINUOUS
  0
LAYER
  2
XREF1|1CENTER
 70
    48
 62
     7
  6
XREF1|CENTER2
  0
LAYER
  2
A3WAKUDAKE|THICK
 70
    48
 62
     7
  6
CONTINUOUS
  0
LAYER
  2
A3WAKUDAKE|POINT
 70
    48
 62
     7
  6
CONTINUOUS
  0
LAYER
  2
A3WAKUDAKE|1CENTER
 70
    48
 62
     7
  6
A3WAKUDAKE|CENTER2
  0
LAYER
  2
A3WAKUDAKE|0-6
 70
    48
 62
     7
  6
CONTINUOUS
  0
LAYER
  2
A3WAKUDAKE|1DIM
 70
    48
 62
     7
  6
CONTINUOUS
  0
ENDTAB
  0
TABLE
  2
STYLE
 70
    22
  0
STYLE
  2
STANDARD
 70
     0
 40
0.0
 41
1.0
 50
0.0
 71
     0
 42
4.0
  3
txt.shx
  4
extfont.shx
  0
ENDTAB
  0
TABLE
  2
VIEW
 70
     0
  0
ENDTAB
  0
TABLE
  2
UCS
 70
     0
  0
ENDTAB
  0
TABLE
  2
APPID
 70
     9
  0
APPID
  2
ACAD
 70
     0
  0
APPID
  2
DRAWINGVARIABLESXDATA
 70
     0
  0
APPID
  2
CONTENTTABDATA
 70
     0
  0
APPID
  2
CONTENTCURRENTTAB
 70
     0
  0
APPID
  2
CONTENTBLOCKDESCRIPTION
 70
     0
  0
APPID
  2
CONTENTBLOCKICON
 70
     0
  0
APPID
  2
CONTENTLONGBLOCKNAME
 70
     0
  0
APPID
  2
ACAD_PSEXT
 70
     0
  0
APPID
  2
ACAD_DSTYLE_DIMTEXT_FILL
 70
     0
  0
ENDTAB
  0
TABLE
  2
DIMSTYLE
 70
     9
  0
DIMSTYLE
  2
NEWX10
 70
     0
  3
 
  4

  5

  6
OPEN30
  7
OPEN30
 40
1.0
 41
2.0
 42
0.0
 43
7.0
 44
1.0
 45
0.0
 46
0.0
 47
0.0
 48
0.0
140
3.5
141
0.0
142
0.0
143
25.399999999999999
144
1.0
145
0.0
146
0.7
147
0.7
 71
     0
 72
     0
 73
     0
 74
     0
 75
     0
 76
     0
 77
     1
 78
     8
170
     0
171
     2
172
     1
173
     1
174
     0
175
     0
176
   256
177
   256
178
   201
  0
ENDTAB
  0
ENDSEC
  0
SECTION
  2
BLOCKS
  0
BLOCK
  8
0
  2
$MODEL_SPACE
 70
     0
 10
0.0
 20
0.0
 30
0.0
  3
$MODEL_SPACE
  1

  0
ENDBLK
  5
1A
  8
0
  0
BLOCK
 67
     1
  8
0
  2
$PAPER_SPACE
 70
     0
 10
0.0
 20
0.0
 30
0.0
  3
$PAPER_SPACE
  1

  0
ENDBLK
  5
17
 67
     1
  8
0
  0
BLOCK
  8
0
  2
_OPEN30
 70
     0
 10
0.0
 20
0.0
 30
0.0
  3
_OPEN30
  1

  0
LINE
  5
44
  8
0
  6
BYBLOCK
 62
     0
 10
-1.0
 20
0.26794919
 30
0.0
 11
0.0
 21
0.0
 31
0.0
  0
LINE
  5
45
  8
0
  6
BYBLOCK
 62
     0
 10
0.0
 20
0.0
 30
0.0
 11
-1.0
 21
-0.26794919
 31
0.0
  0
LINE
  5
46
  8
0
  6
BYBLOCK
 62
     0
 10
0.0
 20
0.0
 30
0.0
 11
-1.0
 21
0.0
 31
0.0
  0
ENDBLK
  5
47
  8
0
  0
BLOCK
  8
0
  2
XREF1
 70
    36
 10
0.0
 20
0.0
 30
0.0
  3
XREF1
  1
D:\ACLT\FORMAT\KAWAJUN(9)図面用.dwg
  0
ENDBLK
  5
5D
  8
0
  0
BLOCK
  8
0
  2
A3WAKUDAKE
 70
    36
 10
0.0
 20
0.0
 30
0.0
  3
A3WAKUDAKE
  1
D:\ACLT\FORMAT\A3WAKUdake.dwg
  0
ENDBLK
  5
6DC
  8
0
  0
BLOCK
  8
0
  2
*U58
 70
     1
 10
0.0
 20
0.0
 30
0.0
  3
*U58
  1

  0
TEXT
  5
15BF7
  8
0
 62
   201
 10
-63.717024855154058
 20
-3.810911908990481
 30
0.0
 40
3.5
  1
φ5
 50
48.83031736650419
  0
ENDBLK
  5
15BF9
  8
0
  0
BLOCK
  8
0
  2
*U59
 70
     1
 10
0.0
 20
0.0
 30
0.0
  3
*U59
  1

  0
TEXT
  5
15BFB
  8
1TEXT
 62
   201
 10
21.614708555164611
 20
22.401236958861659
 30
0.0
 40
2.0
  1
二文字
  0
TEXT
  5
15BFC
  8
1TEXT
 62
   201
 10
21.614708555164611
 20
19.067903625528331
 30
0.0
 40
2.0
  1
(別途指定)
  0
TEXT
  5
15BFD
  8
1TEXT
 62
   201
 10
21.614708555164611
 20
15.73457029219499
 30
0.0
 40
2.0
  1
天地 約1.8
  0
TEXT
  5
15BFE
  8
1TEXT
 62
   201
 10
21.614708555164611
 20
12.401236958861659
 30
0.0
 40
2.0
  1
凸0.2
  0
ENDBLK
  5
15C00
  8
0
  0
BLOCK
  8
0
  2
*U60
 70
     1
 10
0.0
 20
0.0
 30
0.0
  3
*U60
  1

  0
INSERT
  5
15C02
  8
1DIM
  2
_OPEN30
 10
17.678379796037799
 20
23.814783819854821
 30
0.0
 50
104.6424831439607
  0
POLYLINE
  5
15C03
  8
1DIM
 66
     1
 10
0.0
 20
0.0
 30
0.0
  0
VERTEX
  5
15C04
  8
1DIM
 10
17.931166612957469
 20
22.847261817422002
 30
0.0
  0
VERTEX
  5
15C05
  8
1DIM
 10
20.91703607932029
 20
11.41907722970881
 30
0.0
  0
VERTEX
  5
15C06
  8
1DIM
 10
35.143226555510758
 20
11.41907722970881
 30
0.0
  0
SEQEND
  5
15C07
  8
1DIM
  0
ENDBLK
  5
15C09
  8
0
  0
BLOCK
  8
0
  2
*U61
 70
     1
 10
0.0
 20
0.0
 30
0.0
  3
*U61
  1

  0
TEXT
  5
15C0B
  8
1DIM
 62
   201
 10
8.9421530727463576
 20
19.285028579396069
 30
0.0
 40
2.0
  1
枠
  0
TEXT
  5
15C0C
  8
1DIM
 62
   201
 10
7.0754864060796914
 20
15.951695246062741
 30
0.0
 40
2.0
  1
φ5
  0
TEXT
  5
15C0D
  8
1DIM
 62
   201
 10
4.7421530727463583
 20
12.61836191272941
 30
0.0
 40
2.0
  1
凹0.3
  0
ENDBLK
  5
15C0F
  8
0
  0
BLOCK
  8
0
  2
*U62
 70
     1
 10
0.0
 20
0.0
 30
0.0
  3
*U62
  1

  0
INSERT
  5
15C11
  8
1DIM
  2
_OPEN30
 10
15.75963814806016
 20
22.667323431007279
 30
0.0
 41
2.0
 42
2.0
 43
2.0
 50
70.421758065850824
  0
POLYLINE
  5
15C12
  8
1DIM
 66
     1
 10
0.0
 20
0.0
 30
0.0
  0
VERTEX
  5
15C13
  8
1DIM
 10
15.089450549342221
 20
20.782953885900831
 30
0.0
  0
VERTEX
  5
15C14
  8
1DIM
 10
11.821762131327951
 20
11.59517937383526
 30
0.0
  0
VERTEX
  5
15C15
  8
1DIM
 10
2.3789049884708091
 20
11.59517937383526
 30
0.0
  0
SEQEND
  5
15C16
  8
1DIM
  0
ENDBLK
  5
15C18
  8
0
  0
BLOCK
  8
0
  2
*U63
 70
     1
 10
0.0
 20
0.0
 30
0.0
  3
*U63
  1

  0
TEXT
  5
15C1B
  8
1TEXT
 10
14.9745471932972
 20
24.09947430071913
 30
0.0
 40
1.8
  1
XY
  0
ENDBLK
  5
15C1D
  8
0
  0
BLOCK
  8
0
  2
*U64
 70
     1
 10
0.0
 20
0.0
 30
0.0
  3
*U64
  1

  0
LINE
  5
15C1F
  8
0
 10
-4.1999999999999877
 20
-1.9999999999999849
 30
0.0
 11
-0.3500000000000227
 21
-2.0
 31
0.0
  0
LINE
  5
15C20
  8
0
 10
0.0
 20
-1.6499999999998629
 30
0.0
 11
-0.3500000000000227
 21
-2.0
 31
0.0
  0
LINE
  5
15C21
  8
0
 10
-6.0
 20
-0.200000000000017
 30
0.0
 11
-4.1999999999999877
 21
-1.9999999999999849
 31
0.0
  0
LINE
  5
15C22
  8
0
 10
0.0
 20
1.649999999999977
 30
0.0
 11
0.0
 21
-1.6499999999998629
 31
0.0
  0
LINE
  5
15C23
  8
0
 10
-6.0
 20
0.2000000000000028
 30
0.0
 11
-6.0
 21
-0.200000000000017
 31
0.0
  0
LINE
  5
15C24
  8
0
 10
-0.3500000000000227
 20
2.0
 30
0.0
 11
0.0
 21
1.649999999999977
 31
0.0
  0
LINE
  5
15C25
  8
0
 10
-6.0
 20
0.2000000000000028
 30
0.0
 11
-4.2000000000000446
 21
2.0
 31
0.0
  0
LINE
  5
15C26
  8
0
 10
-4.2000000000000446
 20
2.0
 30
0.0
 11
-0.3500000000000227
 21
2.0
 31
0.0
  0
ENDBLK
  5
15C28
  8
0
  0
BLOCK
  8
0
  2
*U65
 70
     1
 10
0.0
 20
0.0
 30
0.0
  3
*U65
  1

  0
LINE
  5
15C2A
  8
0
 10
-5.6499999999999773
 20
2.0000000000000142
 30
0.0
 11
-0.3500000000000227
 21
2.0
 31
0.0
  0
LINE
  5
15C2B
  8
0
 10
-5.6499999999999773
 20
2.0000000000000142
 30
0.0
 11
-6.0
 21
1.6499999999999631
 31
0.0
  0
LINE
  5
15C2C
  8
0
 10
-0.3500000000000227
 20
2.0
 30
0.0
 11
0.0
 21
1.649999999999977
 31
0.0
  0
LINE
  5
15C2D
  8
0
 10
-6.0
 20
1.6499999999999631
 30
0.0
 11
-6.0
 21
-1.6499999999998629
 31
0.0
  0
LINE
  5
15C2E
  8
0
 10
0.0
 20
1.649999999999977
 30
0.0
 11
0.0
 21
-1.6499999999998629
 31
0.0
  0
LINE
  5
15C2F
  8
0
 10
-6.0
 20
-1.6499999999998629
 30
0.0
 11
-5.6499999999999773
 21
-1.9999999999999849
 31
0.0
  0
LINE
  5
15C30
  8
0
 10
0.0
 20
-1.6499999999998629
 30
0.0
 11
-0.3500000000000227
 21
-2.0
 31
0.0
  0
LINE
  5
15C31
  8
0
 10
-5.6499999999999773
 20
-1.9999999999999849
 30
0.0
 11
-0.3500000000000227
 21
-2.0
 31
0.0
  0
ENDBLK
  5
15C33
  8
0
  0
BLOCK
  8
0
  2
*X66
 70
     1
 10
0.0
 20
0.0
 30
0.0
  3
*X66
  1

  0
LINE
  5
15C35
  8
0
 62
     0
 10
10.35561001165331
 20
1.7353216665921991
 30
0.0
 11
1.735321666592085
 21
10.35561001165342
 31
0.0
  0
LINE
  5
15C36
  8
0
 62
     0
 10
0.0000000000001137
 20
8.4988292298177157
 30
0.0
 11
-1.838891835213303
 21
10.337721065031021
 31
0.0
  0
LINE
  5
15C37
  8
0
 62
     0
 10
8.4988292298179431
 20
-0.0000000000001137
 30
0.0
 11
0.0000000000001137
 21
8.4988292298177157
 31
0.0
  0
LINE
  5
15C38
  8
0
 62
     0
 10
10.337721065031131
 20
-1.838891835213303
 30
0.0
 11
8.4988292298179431
 21
-0.0000000000001137
 31
0.0
  0
LINE
  5
15C39
  8
0
 62
     0
 10
-0.2377810848388435
 20
5.1445078662289907
 30
0.0
 11
-4.5542045235814612
 21
9.4609313049716093
 31
0.0
  0
LINE
  5
15C3A
  8
0
 62
     0
 10
9.4609313049714956
 20
-4.5542045235813466
 30
0.0
 11
5.1445078662289907
 21
-0.2377810848388435
 31
0.0
  0
LINE
  5
15C3B
  8
0
 62
     0
 10
-2.9244738727450108
 20
4.2390982057073643
 30
0.0
 11
-6.7381554127728123
 21
8.0527797457351653
 31
0.0
  0
LINE
  5
15C3C
  8
0
 62
     0
 10
8.0527797457350516
 20
-6.7381554127726977
 30
0.0
 11
4.2390982057073643
 21
-2.9244738727450108
 31
0.0
  0
LINE
  5
15C3D
  8
0
 62
     0
 10
-4.5977163449367699
 20
2.3202382294715558
 30
0.0
 11
-8.4755144637537114
 21
6.1980363482883831
 31
0.0
  0
LINE
  5
15C3E
  8
0
 62
     0
 10
6.1980363482882694
 20
-8.4755144637535977
 30
0.0
 11
2.3202382294715558
 21
-4.5977163449367699
 31
0.0
  0
LINE
  5
15C3F
  8
0
 62
     0
 10
-5.0907718486563454
 20
-0.7788087152364369
 30
0.0
 11
-5.8695805638927823
 21
0.0
 31
0.0
  0
LINE
  5
15C40
  8
0
 62
     0
 10
-5.8695805638928951
 20
0.0
 30
0.0
 11
-9.9540062277598054
 21
4.0844256638669094
 31
0.0
  0
LINE
  5
15C41
  8
0
 62
     0
 10
3.8851808324346839
 20
-9.7547613963275808
 30
0.0
 11
2.0
 21
-7.8695805638928951
 31
0.0
  0
LINE
  5
15C42
  8
0
 62
     0
 10
-9.4616830123206892
 20
0.0
 30
0.0
 11
-18.103896804350711
 21
8.6422137920301338
 31
0.0
  0
LINE
  5
15C43
  8
0
 62
     0
 10
-2.0000000000001128
 20
-7.4616830123204627
 30
0.0
 11
-9.4616830123204636
 21
-0.0000000000001137
 31
0.0
  0
LINE
  5
15C44
  8
0
 62
     0
 10
-13.05378546074826
 20
0.0000000000001137
 30
0.0
 11
-15.175214195387071
 21
2.1214287346389251
 31
0.0
  0
LINE
  5
15C45
  8
0
 62
     0
 10
-16.603785460748661
 20
3.5500000000005221
 30
0.0
 11
-23.851266556543241
 21
10.79748109579509
 31
0.0
  0
LINE
  5
15C46
  8
0
 62
     0
 10
-2.9878714975766338
 20
-10.065913963171511
 30
0.0
 11
-13.053785460748029
 21
-0.0000000000001137
 31
0.0
  0
LINE
  5
15C47
  8
0
 62
     0
 10
-20.195887909176118
 20
3.5500000000002951
 30
0.0
 11
-28.659515684223379
 21
12.013627775047439
 31
0.0
  0
LINE
  5
15C48
  8
0
 62
     0
 10
-29.100013291500659
 20
12.454125382324831
 30
0.0
 11
-29.745874817675372
 21
13.09998690849943
 31
0.0
  0
LINE
  5
15C49
  8
0
 62
     0
 10
-12.628969351714661
 20
-4.0169185574611674
 30
0.0
 11
-14.93702132611565
 21
-1.7088665830602841
 31
0.0
  0
LINE
  5
15C4A
  8
0
 62
     0
 10
-23.78799035760369
 20
3.550000000000181
 30
0.0
 11
-27.799999599999751
 21
7.5620092423962433
 31
0.0
  0
LINE
  5
15C4B
  8
0
 62
     0
 10
-31.237990357603621
 20
11.00000000000011
 30
0.0
 11
-33.000000200000052
 21
12.762009842396539
 31
0.0
  0
LINE
  5
15C4C
  8
0
 62
     0
 10
-13.78316865624026
 20
-6.454821701363243
 30
0.0
 11
-16.687990357603208
 21
-3.5500000000002951
 31
0.0
  0
LINE
  5
15C4D
  8
0
 62
     0
 10
-16.124704244214509
 20
-7.7053885618167888
 30
0.0
 11
-20.280092806031231
 21
-3.5500000000000682
 31
0.0
  0
LINE
  5
15C4E
  8
0
 62
     0
 10
-18.57318348346837
 20
-8.849011770990387
 30
0.0
 11
-20.133604742031139
 21
-7.2885905124276169
 31
0.0
  0
LINE
  5
15C4F
  8
0
 62
     0
 10
-24.295840827822978
 20
-6.7184568750635663
 30
0.0
 11
-27.132148651443231
 21
-3.8821490514432071
 31
0.0
  0
LINE
  5
15C50
  8
0
 62
     0
 10
-23.818861225215301
 20
-10.787538926098931
 30
0.0
 11
-27.799999599999872
 21
-6.8064005513143684
 31
0.0
  0
LINE
  5
15C51
  8
0
 62
     0
 10
-26.63513577162314
 20
-11.56336682811866
 30
0.0
 11
-28.117386294735979
 21
-10.081116305005819
 31
0.0
  0
LINE
  5
15C52
  8
0
 62
     0
 10
-29.133782390785999
 20
-12.656822657383479
 30
0.0
 11
-30.790605048169478
 21
-11.00000000000011
 31
0.0
  0
LINE
  5
15C53
  8
0
 62
     0
 10
-31.632707496597501
 20
-13.749999999999661
 30
0.0
 11
-33.000000200000159
 21
-12.38270729659712
 31
0.0
  0
ENDBLK
  5
15C55
  8
0
  0
BLOCK
  8
0
  2
*X67
 70
     1
 10
0.0
 20
0.0
 30
0.0
  3
*X67
  1

  0
LINE
  5
15C57
  8
0
 62
     0
 10
-0.0000000000000284
 20
-9.5063084520140251
 30
0.0
 11
1.2436915465089271
 21
-10.749999998522981
 31
0.0
  0
LINE
  5
15C58
  8
0
 62
     0
 10
1.3407299661463119
 20
-9.5
 30
0.0
 11
1.8000087437750381
 21
-9.9592787776287253
 31
0.0
  0
LINE
  5
15C59
  8
0
 62
     0
 10
-0.0000000000000568
 20
-4.118154779372559
 30
0.0
 11
0.8818452206275254
 21
-5.0000000000001128
 31
0.0
  0
LINE
  5
15C5A
  8
0
 62
     0
 10
0.0
 20
-2.7711163612121932
 30
0.0
 11
1.8000087437751511
 21
-4.5711251049873454
 31
0.0
  0
LINE
  5
15C5B
  8
0
 62
     0
 10
0.0
 20
-1.4240779430518271
 30
0.0
 11
2.125922055471249
 21
-3.5499999985230768
 31
0.0
  0
LINE
  5
15C5C
  8
0
 62
     0
 10
-0.0000000000000284
 20
-0.0770395248914611
 30
0.0
 11
3.222960475108493
 21
-3.2999999999999821
 31
0.0
  0
LINE
  5
15C5D
  8
0
 62
     0
 10
1.269998893268933
 20
0.0
 30
0.0
 11
4.5699988932688882
 21
-3.2999999999999541
 31
0.0
  0
LINE
  5
15C5E
  8
0
 62
     0
 10
-0.0000000000000284
 20
1.2699988932689621
 30
0.0
 11
1.269998893268905
 21
0.0000000000000284
 31
0.0
  0
LINE
  5
15C5F
  8
0
 62
     0
 10
2.6170373114292711
 20
0.0
 30
0.0
 11
5.9170373114292261
 21
-3.2999999999999541
 31
0.0
  0
LINE
  5
15C60
  8
0
 62
     0
 10
-0.0000000000000568
 20
2.6170373114293279
 30
0.0
 11
2.6170373114292711
 21
0.0
 31
0.0
  0
LINE
  5
15C61
  8
0
 62
     0
 10
3.9640757295896658
 20
0.0
 30
0.0
 11
7.2640757295896199
 21
-3.2999999999999541
 31
0.0
  0
LINE
  5
15C62
  8
0
 62
     0
 10
-0.0000000000000284
 20
3.9640757295896938
 30
0.0
 11
3.9640757295896369
 21
0.0
 31
0.0
  0
LINE
  5
15C63
  8
0
 62
     0
 10
5.3111141477500894
 20
-0.0000000000000568
 30
0.0
 11
8.6111141477499871
 21
-3.2999999999999821
 31
0.0
  0
LINE
  5
15C64
  8
0
 62
     0
 10
0.3111141477501178
 20
4.9999999999998863
 30
0.0
 11
5.3111141477500317
 21
0.0
 31
0.0
  0
LINE
  5
15C65
  8
0
 62
     0
 10
3.3581525659104439
 20
3.2999999999999541
 30
0.0
 11
6.6581525659103704
 21
0.0
 31
0.0
  0
LINE
  5
15C66
  8
0
 62
     0
 10
6.6581525659104548
 20
-0.0000000000000568
 30
0.0
 11
9.5072519243349518
 21
-2.8490993584245521
 31
0.0
  0
LINE
  5
15C67
  8
0
 62
     0
 10
1.65815256591037
 20
5.0
 30
0.0
 11
1.8000087437750381
 21
4.8581438221353599
 31
0.0
  0
LINE
  5
15C68
  8
0
 62
     0
 10
8.0051909840708202
 20
-0.0000000000000853
 30
0.0
 11
11.167075174998409
 21
-3.1618841909276512
 31
0.0
  0
LINE
  5
15C69
  8
0
 62
     0
 10
4.7051909840708097
 20
3.2999999999999541
 30
0.0
 11
8.0051909840707651
 21
0.0
 31
0.0
  0
LINE
  5
15C6A
  8
0
 62
     0
 10
9.3522294022312167
 20
-0.0000000000000853
 30
0.0
 11
12.652229402231111
 21
-3.2999999999999541
 31
0.0
  0
LINE
  5
15C6B
  8
0
 62
     0
 10
6.0522294022312053
 20
3.2999999999999261
 30
0.0
 11
9.3522294022311598
 21
0.0
 31
0.0
  0
LINE
  5
15C6C
  8
0
 62
     0
 10
7.3992678203915707
 20
3.2999999999999261
 30
0.0
 11
10.699267820391499
 21
0.0
 31
0.0
  0
LINE
  5
15C6D
  8
0
 62
     0
 10
10.699267820391579
 20
-0.0000000000000853
 30
0.0
 11
12.90000019999991
 21
-2.2007323796084099
 31
0.0
  0
LINE
  5
15C6E
  8
0
 62
     0
 10
-0.0000000000000284
 20
10.699267820391521
 30
0.0
 11
1.1992678203915259
 21
9.5
 31
0.0
  0
LINE
  5
15C6F
  8
0
 62
     0
 10
9.2443367211198222
 20
2.8019695174320409
 30
0.0
 11
12.046306238551891
 21
0.0
 31
0.0
  0
LINE
  5
15C70
  8
0
 62
     0
 10
12.046306238551979
 20
-0.0000000000000853
 30
0.0
 11
14.046306238551949
 21
-2.000000000000056
 31
0.0
  0
LINE
  5
15C71
  8
0
 62
     0
 10
1.2963062400290251
 20
10.74999999852287
 30
0.0
 11
1.8000087437750381
 21
10.246297494776851
 31
0.0
  0
LINE
  5
15C72
  8
0
 62
     0
 10
13.393344656712371
 20
-0.0000000000001137
 30
0.0
 11
15.393344656712291
 21
-2.000000000000056
 31
0.0
  0
LINE
  5
15C73
  8
0
 62
     0
 10
15.90000020000002
 20
-2.5066555432877911
 30
0.0
 11
16.143344656712259
 21
-2.750000000000028
 31
0.0
  0
LINE
  5
15C74
  8
0
 62
     0
 10
10.379815373485821
 20
3.0135292832264038
 30
0.0
 11
13.39334465671226
 21
0.0
 31
0.0
  0
LINE
  5
15C75
  8
0
 62
     0
 10
14.74038307487274
 20
-0.0000000000000853
 30
0.0
 11
16.995191537436309
 21
-2.2548084625636871
 31
0.0
  0
LINE
  5
15C76
  8
0
 62
     0
 10
11.513261852327391
 20
3.227121222545235
 30
0.0
 11
14.74038307487262
 21
0.0
 31
0.0
  0
LINE
  5
15C77
  8
0
 62
     0
 10
14.0874214930331
 20
1.9999999999998861
 30
0.0
 11
16.087421493032991
 21
0.0
 31
0.0
  0
LINE
  5
15C78
  8
0
 62
     0
 10
16.087421493033101
 20
-0.0000000000001137
 30
0.0
 11
17.00000000000005
 21
-0.9125785069670656
 31
0.0
  0
LINE
  5
15C79
  8
0
 62
     0
 10
12.78742149303284
 20
3.300000000000181
 30
0.0
 11
12.90000019999988
 21
3.1874212930331391
 31
0.0
  0
LINE
  5
15C7A
  8
0
 62
     0
 10
15.43445991119358
 20
1.999999999999801
 30
0.0
 11
17.000000000000082
 21
0.4344599111932724
 31
0.0
  0
LINE
  5
15C7B
  8
0
 62
     0
 10
16.031498329353749
 20
2.75
 30
0.0
 11
17.000000000000082
 21
1.7814983293536379
 31
0.0
  0
ENDBLK
  5
15C7D
  8
0
  0
BLOCK
  8
0
  2
*X68
 70
     1
 10
0.0
 20
0.0
 30
0.0
  3
*X68
  1

  0
LINE
  5
15C7F
  8
0
 62
     0
 10
13.41339771754258
 20
-3.163142703204584
 30
0.0
 11
14.23685749679546
 21
-3.986602482457442
 31
0.0
  0
LINE
  5
15C80
  8
0
 62
     0
 10
13.43543246913447
 20
-2.7361646487429989
 30
0.0
 11
14.66383555125705
 21
-3.9645677308655531
 31
0.0
  0
LINE
  5
15C81
  8
0
 62
     0
 10
13.57832483846698
 20
-2.4300442120220671
 30
0.0
 11
14.969955987978009
 21
-3.821675361533067
 31
0.0
  0
LINE
  5
15C82
  8
0
 62
     0
 10
13.79845481036614
 20
-2.2011613778677481
 30
0.0
 11
15.198838822132331
 21
-3.601545389633912
 31
0.0
  0
LINE
  5
15C83
  8
0
 62
     0
 10
14.09420797036085
 20
-2.04790173180902
 30
0.0
 11
15.352098468191031
 21
-3.3057922296391662
 31
0.0
  0
LINE
  5
15C84
  8
0
 62
     0
 10
14.50036871342669
 20
-2.005049668821413
 30
0.0
 11
15.39495053117866
 21
-2.8996314865733832
 31
0.0
  0
LINE
  5
15C85
  8
0
 62
     0
 10
13.48049176570316
 20
2.6069297273297991
 30
0.0
 11
14.00692992732988
 21
2.0804915657031131
 31
0.0
  0
LINE
  5
15C86
  8
0
 62
     0
 10
13.408249854336271
 20
3.1281844447501612
 30
0.0
 11
14.52818464475018
 21
2.0082496543362529
 31
0.0
  0
LINE
  5
15C87
  8
0
 62
     0
 10
13.51667895516789
 20
3.468768149971992
 30
0.0
 11
14.86876834997204
 21
2.1166787551678108
 31
0.0
  0
LINE
  5
15C88
  8
0
 62
     0
 10
13.71033322290037
 20
3.7241266882929831
 30
0.0
 11
15.124126888293031
 21
2.3103330229002941
 31
0.0
  0
LINE
  5
15C89
  8
0
 62
     0
 10
13.977233952031639
 20
3.9062387652151642
 30
0.0
 11
15.306238965215179
 21
2.5772337520315882
 31
0.0
  0
LINE
  5
15C8A
  8
0
 62
     0
 10
14.334624784025429
 20
3.9978607392748131
 30
0.0
 11
15.39786093927486
 21
2.9346245840254142
 31
0.0
  0
LINE
  5
15C8B
  8
0
 62
     0
 10
14.93953507999831
 20
3.8419632493554161
 30
0.0
 11
15.24196344935546
 21
3.5395348799982278
 31
0.0
  0
ENDBLK
  5
15C8D
  8
0
  0
BLOCK
  8
0
  2
*X69
 70
     1
 10
0.0
 20
0.0
 30
0.0
  3
*X69
  1

  0
LINE
  5
15C8F
  8
0
 62
     0
 10
6.8579485945102761
 20
5.150000099999942
 30
0.0
 11
1.636218397399261
 21
10.37173029711095
 31
0.0
  0
LINE
  5
15C90
  8
0
 62
     0
 10
0.0000000000001137
 20
8.4158462460825376
 30
0.0
 11
-1.909133603078998
 21
10.32497984916165
 31
0.0
  0
LINE
  5
15C91
  8
0
 62
     0
 10
3.2658461460825938
 20
5.150000099999942
 30
0.0
 11
0.0000000000001137
 21
8.4158462460825376
 31
0.0
  0
LINE
  5
15C92
  8
0
 62
     0
 10
-0.3262563023448592
 20
5.150000099999942
 30
0.0
 11
-4.6100846621066012
 21
9.4338284597616848
 31
0.0
  0
LINE
  5
15C93
  8
0
 62
     0
 10
-3.9183587507726538
 20
5.150000099999942
 30
0.0
 11
-6.7832174315673219
 21
8.0148587807946114
 31
0.0
  0
LINE
  5
15C94
  8
0
 62
     0
 10
8.0148587807946114
 20
-6.7832174315674356
 30
0.0
 11
6.3816414492273452
 21
-5.1500001000001703
 31
0.0
  0
LINE
  5
15C95
  8
0
 62
     0
 10
-7.5104611992003347
 20
5.150000099999942
 30
0.0
 11
-8.5000000000001137
 21
6.1395389007996073
 31
0.0
  0
LINE
  5
15C96
  8
0
 62
     0
 10
6.1499847166651298
 20
-8.5104458158656371
 30
0.0
 11
2.789539000799663
 21
-5.1500001000000557
 31
0.0
  0
LINE
  5
15C97
  8
0
 62
     0
 10
0.0
 20
-5.9525635476279604
 30
0.0
 11
-0.8025634476280174
 21
-5.1500001000000557
 31
0.0
  0
LINE
  5
15C98
  8
0
 62
     0
 10
4.0606450332290933
 20
-10.01320858085716
 30
0.0
 11
0.0000000000002274
 21
-5.9525635476283014
 31
0.0
  0
LINE
  5
15C99
  8
0
 62
     0
 10
0.0
 20
-9.5446659960557554
 30
0.0
 11
-4.3946658960555851
 21
-5.1500001000000557
 31
0.0
  0
LINE
  5
15C9A
  8
0
 62
     0
 10
8.7087069959245582
 20
-18.2533729919802
 30
0.0
 11
0.0000000000003411
 21
-9.5446659960559828
 31
0.0
  0
LINE
  5
15C9B
  8
0
 62
     0
 10
1.925088887040374
 20
-15.061857331523809
 30
0.0
 11
0.0
 21
-13.13676844448343
 31
0.0
  0
LINE
  5
15C9C
  8
0
 62
     0
 10
0.0
 20
-13.13676844448343
 30
0.0
 11
-7.9867683444833801
 21
-5.1500001000000557
 31
0.0
  0
LINE
  5
15C9D
  8
0
 62
     0
 10
10.833910220719069
 20
-23.97067866520263
 30
0.0
 11
3.54999999999984
 21
-16.686768444483391
 31
0.0
  0
LINE
  5
15C9E
  8
0
 62
     0
 10
12.03432820925218
 20
-28.763199102163071
 30
0.0
 11
3.5499999999999541
 21
-20.278870892910842
 31
0.0
  0
LINE
  5
15C9F
  8
0
 62
     0
 10
-1.761475686666472
 20
-14.96739520624442
 30
0.0
 11
-4.0379039399838339
 21
-12.69096695292717
 31
0.0
  0
LINE
  5
15CA0
  8
0
 62
     0
 10
13.099999999999911
 20
-29.8288708929108
 30
0.0
 11
12.37112930708906
 21
-29.100000199999961
 31
0.0
  0
LINE
  5
15CA1
  8
0
 62
     0
 10
7.4790262586612917
 20
-27.799999599999872
 30
0.0
 11
3.54999999999984
 21
-23.870973341338409
 31
0.0
  0
LINE
  5
15CA2
  8
0
 62
     0
 10
-3.5500000000000682
 20
-16.7709733413385
 30
0.0
 11
-6.4848783247022084
 21
-13.83609501663636
 31
0.0
  0
LINE
  5
15CA3
  8
0
 62
     0
 10
12.67902685866159
 20
-33.000000200000159
 30
0.0
 11
11.00000000000011
 21
-31.320973341338689
 31
0.0
  0
LINE
  5
15CA4
  8
0
 62
     0
 10
-3.5499999999999541
 20
-20.363075789766409
 30
0.0
 11
-7.7330368020898268
 21
-16.180038987676539
 31
0.0
  0
LINE
  5
15CA5
  8
0
 62
     0
 10
-3.5499999999999541
 20
-23.95517823819409
 30
0.0
 11
-8.8741186659308369
 21
-18.631059572263212
 31
0.0
  0
LINE
  5
15CA6
  8
0
 62
     0
 10
-3.9236405433106252
 20
-27.173640143311101
 30
0.0
 11
-9.901571718252967
 21
-21.195708968368759
 31
0.0
  0
LINE
  5
15CA7
  8
0
 62
     0
 10
-6.8893835350494319
 20
-27.799999599999872
 30
0.0
 11
-10.8070040231338
 21
-23.882379111915501
 31
0.0
  0
LINE
  5
15CA8
  8
0
 62
     0
 10
-10.130989661818029
 20
-28.150495921658951
 30
0.0
 11
-11.57961971301688
 21
-26.7018658704601
 31
0.0
  0
LINE
  5
15CA9
  8
0
 62
     0
 10
-10.999999999999771
 20
-30.873588031904781
 30
0.0
 11
-12.716460966271249
 21
-29.15712706563329
 31
0.0
  0
LINE
  5
15CAA
  8
0
 62
     0
 10
-12.465690280332071
 20
-33.000000200000159
 30
0.0
 11
-13.76550531945383
 21
-31.700185160878501
 31
0.0
  0
ENDBLK
  5
15CAC
  8
0
  0
BLOCK
  8
0
  2
*X70
 70
     1
 10
0.0
 20
0.0
 30
0.0
  3
*X70
  1

  0
LINE
  5
15CAE
  8
0
 62
     0
 10
17.749270850893371
 20
-61.46873075173783
 30
0.0
 11
18.00000000000006
 21
-61.218001602631091
 31
0.0
  0
LINE
  5
15CAF
  8
0
 62
     0
 10
15.504206820626109
 20
-61.46873075173783
 30
0.0
 11
18.00000000000011
 21
-58.972937572363769
 31
0.0
  0
LINE
  5
15CB0
  8
0
 62
     0
 10
13.259142790358849
 20
-61.46873075173783
 30
0.0
 11
18.00000000000011
 21
-56.727873542096518
 31
0.0
  0
LINE
  5
15CB1
  8
0
 62
     0
 10
11.014078760091589
 20
-61.46873075173778
 30
0.0
 11
18.00000000000011
 21
-54.482809511829259
 31
0.0
  0
LINE
  5
15CB2
  8
0
 62
     0
 10
9.0000000000000568
 20
-61.237745481561952
 30
0.0
 11
18.00000000000006
 21
-52.237745481561937
 31
0.0
  0
LINE
  5
15CB3
  8
0
 62
     0
 10
9.0000000000000568
 20
-58.992681451294679
 30
0.0
 11
18.00000000000011
 21
-49.992681451294622
 31
0.0
  0
LINE
  5
15CB4
  8
0
 62
     0
 10
9.0000000000001137
 20
-56.747617421027421
 30
0.0
 11
18.00000000000011
 21
-47.747617421027371
 31
0.0
  0
LINE
  5
15CB5
  8
0
 62
     0
 10
9.0000000000001137
 20
-54.50255339076012
 30
0.0
 11
18.000000000000171
 21
-45.502553390759999
 31
0.0
  0
LINE
  5
15CB6
  8
0
 62
     0
 10
9.0
 20
-52.257489360492848
 30
0.0
 11
18.00000000000011
 21
-43.257489360492741
 31
0.0
  0
LINE
  5
15CB7
  8
0
 62
     0
 10
9.0000000000000568
 20
-50.01242533022554
 30
0.0
 11
18.00000000000011
 21
-41.012425330225483
 31
0.0
  0
LINE
  5
15CB8
  8
0
 62
     0
 10
9.0000000000000568
 20
-47.767361299958267
 30
0.0
 11
18.00000000000011
 21
-38.767361299958232
 31
0.0
  0
LINE
  5
15CB9
  8
0
 62
     0
 10
9.0000000000000568
 20
-45.522297269690966
 30
0.0
 11
18.00000000000011
 21
-36.52229726969091
 31
0.0
  0
LINE
  5
15CBA
  8
0
 62
     0
 10
9.0000000000000568
 20
-43.277233239423651
 30
0.0
 11
18.000000000000171
 21
-34.277233239423538
 31
0.0
  0
LINE
  5
15CBB
  8
0
 62
     0
 10
9.0000000000000568
 20
-41.032169209156393
 30
0.0
 11
18.000000000000171
 21
-32.03216920915628
 31
0.0
  0
LINE
  5
15CBC
  8
0
 62
     0
 10
9.0000000000000568
 20
-38.787105178889142
 30
0.0
 11
18.000000000000231
 21
-29.787105178889021
 31
0.0
  0
LINE
  5
15CBD
  8
0
 62
     0
 10
9.0000000000000568
 20
-36.54204114862182
 30
0.0
 11
18.000000000000171
 21
-27.54204114862171
 31
0.0
  0
LINE
  5
15CBE
  8
0
 62
     0
 10
8.9999999999999432
 20
-34.296977118354619
 30
0.0
 11
18.000000000000171
 21
-25.296977118354391
 31
0.0
  0
LINE
  5
15CBF
  8
0
 62
     0
 10
9.0
 20
-32.051913088087311
 30
0.0
 11
18.000000000000171
 21
-23.051913088087129
 31
0.0
  0
LINE
  5
15CC0
  8
0
 62
     0
 10
9.0
 20
-29.806849057820049
 30
0.0
 11
18.000000000000231
 21
-20.806849057819822
 31
0.0
  0
LINE
  5
15CC1
  8
0
 62
     0
 10
9.0
 20
-27.56178502755273
 30
0.0
 11
18.000000000000231
 21
-18.561785027552499
 31
0.0
  0
LINE
  5
15CC2
  8
0
 62
     0
 10
8.9999999999999432
 20
-25.316720997285479
 30
0.0
 11
18.000000000000231
 21
-16.316720997285241
 31
0.0
  0
LINE
  5
15CC3
  8
0
 62
     0
 10
8.9999999999999432
 20
-23.07165696701821
 30
0.0
 11
18.000000000000231
 21
-14.071656967017979
 31
0.0
  0
LINE
  5
15CC4
  8
0
 62
     0
 10
8.9999999999999432
 20
-20.826592936750899
 30
0.0
 11
18.000000000000231
 21
-11.826592936750609
 31
0.0
  0
LINE
  5
15CC5
  8
0
 62
     0
 10
8.9999999999999432
 20
-18.58152890648358
 30
0.0
 11
18.000000000000171
 21
-9.5815289064833564
 31
0.0
  0
LINE
  5
15CC6
  8
0
 62
     0
 10
16.353366242229299
 20
-8.9830986339870265
 30
0.0
 11
16.58651145322483
 21
-8.7499534229914389
 31
0.0
  0
LINE
  5
15CC7
  8
0
 62
     0
 10
8.9999999999999432
 20
-16.336464876216318
 30
0.0
 11
16.264414818379521
 21
-9.0720500578367478
 31
0.0
  0
LINE
  5
15CC8
  8
0
 62
     0
 10
17.341447422598829
 20
-5.7499534233501768
 30
0.0
 11
18.00000000000011
 21
-5.091400845948896
 31
0.0
  0
LINE
  5
15CC9
  8
0
 62
     0
 10
8.9999999999999432
 20
-14.091400845949069
 30
0.0
 11
14.34144742402435
 21
-8.7499534219246584
 31
0.0
  0
LINE
  5
15CCA
  8
0
 62
     0
 10
15.09638339339835
 20
-5.7499534222833404
 30
0.0
 11
15.475887752038769
 21
-5.3704490636429218
 31
0.0
  0
LINE
  5
15CCB
  8
0
 62
     0
 10
15.516052887897841
 20
-5.3302839277838521
 30
0.0
 11
18.00000000000011
 21
-2.8463368156815809
 31
0.0
  0
LINE
  5
15CCC
  8
0
 62
     0
 10
9.0
 20
-11.84633681568169
 30
0.0
 11
12.096383394823871
 21
-8.7499534208578211
 31
0.0
  0
LINE
  5
15CCD
  8
0
 62
     0
 10
12.85131936419776
 20
-5.7499534212166159
 30
0.0
 11
18.00000000000006
 21
-0.6012727854143236
 31
0.0
  0
LINE
  5
15CCE
  8
0
 62
     0
 10
8.9999999999999432
 20
-9.6012727854144373
 30
0.0
 11
9.8085489289221073
 21
-8.7927238564922732
 31
0.0
  0
LINE
  5
15CCF
  8
0
 62
     0
 10
10.76769871211496
 20
-5.5885100430321577
 30
0.0
 11
18.00000000000006
 21
1.6437912448529339
 31
0.0
  0
LINE
  5
15CD0
  8
0
 62
     0
 10
8.9999999999999432
 20
-5.11114472487992
 30
0.0
 11
18.00000000000006
 21
3.8888552751201919
 31
0.0
  0
LINE
  5
15CD1
  8
0
 62
     0
 10
8.9999999999999432
 20
-2.866080694612605
 30
0.0
 11
17.61612726817793
 21
5.7500465735653838
 31
0.0
  0
LINE
  5
15CD2
  8
0
 62
     0
 10
8.9999999999999432
 20
-0.6210166643452908
 30
0.0
 11
15.37106323897728
 21
5.7500465746320506
 31
0.0
  0
LINE
  5
15CD3
  8
0
 62
     0
 10
16.125999208351288
 20
8.7500465742733127
 30
0.0
 11
18.00000000000011
 21
10.62404736592214
 31
0.0
  0
LINE
  5
15CD4
  8
0
 62
     0
 10
8.9999999999999432
 20
1.624047365921967
 30
0.0
 11
13.02099569600597
 21
5.645043061927935
 31
0.0
  0
LINE
  5
15CD5
  8
0
 62
     0
 10
13.98014547919882
 20
8.8492568753880505
 30
0.0
 11
18.00000000000011
 21
12.869111396189391
 31
0.0
  0
LINE
  5
15CD6
  8
0
 62
     0
 10
9.0
 20
3.869111396189282
 30
0.0
 11
10.88093518057638
 21
5.7500465767656124
 31
0.0
  0
LINE
  5
15CD7
  8
0
 62
     0
 10
11.635871149950271
 20
8.7500465764068736
 30
0.0
 11
18.00000000000011
 21
15.114175426456709
 31
0.0
  0
LINE
  5
15CD8
  8
0
 62
     0
 10
9.3908071207497414
 20
8.7500465774735972
 30
0.0
 11
18.00000000000006
 21
17.359239456723969
 31
0.0
  0
LINE
  5
15CD9
  8
0
 62
     0
 10
9.0000000000001137
 20
10.604303486991229
 30
0.0
 11
18.00000000000006
 21
19.604303486991231
 31
0.0
  0
LINE
  5
15CDA
  8
0
 62
     0
 10
9.0000000000001137
 20
12.849367517258541
 30
0.0
 11
18.00000000000011
 21
21.849367517258599
 31
0.0
  0
LINE
  5
15CDB
  8
0
 62
     0
 10
9.0000000000001137
 20
15.094431547525859
 30
0.0
 11
18.00000000000011
 21
24.094431547525861
 31
0.0
  0
LINE
  5
15CDC
  8
0
 62
     0
 10
9.0000000000000568
 20
17.339495577793109
 30
0.0
 11
18.00000000000011
 21
26.339495577793169
 31
0.0
  0
LINE
  5
15CDD
  8
0
 62
     0
 10
9.0000000000000568
 20
19.584559608060371
 30
0.0
 11
18.00000000000011
 21
28.584559608060431
 31
0.0
  0
LINE
  5
15CDE
  8
0
 62
     0
 10
9.0000000000001137
 20
21.82962363832775
 30
0.0
 11
18.00000000000011
 21
30.82962363832775
 31
0.0
  0
LINE
  5
15CDF
  8
0
 62
     0
 10
9.0000000000000568
 20
24.074687668595001
 30
0.0
 11
18.00000000000006
 21
33.074687668594997
 31
0.0
  0
LINE
  5
15CE0
  8
0
 62
     0
 10
9.0000000000000568
 20
26.31975169886227
 30
0.0
 11
18.00000000000006
 21
35.319751698862262
 31
0.0
  0
LINE
  5
15CE1
  8
0
 62
     0
 10
9.0000000000001137
 20
28.564815729129521
 30
0.0
 11
18.00000000000011
 21
37.564815729129577
 31
0.0
  0
LINE
  5
15CE2
  8
0
 62
     0
 10
9.0000000000001137
 20
30.809879759396839
 30
0.0
 11
18.00000000000011
 21
39.809879759396892
 31
0.0
  0
LINE
  5
15CE3
  8
0
 62
     0
 10
9.0000000000000568
 20
33.054943789664151
 30
0.0
 11
18.00000000000011
 21
42.0549437896642
 31
0.0
  0
LINE
  5
15CE4
  8
0
 62
     0
 10
9.0000000000000568
 20
35.300007819931409
 30
0.0
 11
18.00000000000011
 21
44.300007819931459
 31
0.0
  0
LINE
  5
15CE5
  8
0
 62
     0
 10
9.0000000000000568
 20
37.545071850198667
 30
0.0
 11
16.07742504976892
 21
44.622496899967523
 31
0.0
  0
LINE
  5
15CE6
  8
0
 62
     0
 10
9.0000000000001137
 20
39.790135880466039
 30
0.0
 11
13.83236101950166
 21
44.622496899967587
 31
0.0
  0
LINE
  5
15CE7
  8
0
 62
     0
 10
9.0000000000000568
 20
42.035199910733297
 30
0.0
 11
11.587296989234339
 21
44.622496899967587
 31
0.0
  0
LINE
  5
15CE8
  8
0
 62
     0
 10
9.0000000000001137
 20
44.280263941000548
 30
0.0
 11
9.3422329589670881
 21
44.622496899967587
 31
0.0
  0
ENDBLK
  5
15CEA
  8
0
  0
BLOCK
  8
0
  2
*X71
 70
     1
 10
0.0
 20
0.0
 30
0.0
  3
*X71
  1

  0
LINE
  5
15CEC
  8
0
 62
     0
 10
4.01579819129564
 20
-61.431188349899848
 30
0.0
 11
4.01579819129564
 21
-61.431188349899848
 31
0.0
  0
LINE
  5
15CED
  8
0
 62
     0
 10
3.5476270824212111
 20
-61.002188568063907
 30
0.0
 11
3.5476270824212111
 21
-61.002188568063907
 31
0.0
  0
LINE
  5
15CEE
  8
0
 62
     0
 10
1.0195030944992971
 20
-58.685589746149809
 30
0.0
 11
1.0195030944992971
 21
-58.685589746149809
 31
0.0
  0
LINE
  5
15CEF
  8
0
 62
     0
 10
8.6550676192222316
 20
-56.456296513577612
 30
0.0
 11
8.6550676192222316
 21
-56.456296513577612
 31
0.0
  0
LINE
  5
15CF0
  8
0
 62
     0
 10
6.4452999853349269
 20
-54.431417543311952
 30
0.0
 11
6.4452999853349269
 21
-54.431417543311952
 31
0.0
  0
LINE
  5
15CF1
  8
0
 62
     0
 10
5.9771288764604993
 20
-54.002417761476011
 30
0.0
 11
5.9771288764604993
 21
-54.002417761476011
 31
0.0
  0
LINE
  5
15CF2
  8
0
 62
     0
 10
3.449004888538584
 20
-51.685818939561912
 30
0.0
 11
3.449004888538584
 21
-51.685818939561912
 31
0.0
  0
LINE
  5
15CF3
  8
0
 62
     0
 10
1.23923725465128
 20
-49.660939969296251
 30
0.0
 11
1.23923725465128
 21
-49.660939969296251
 31
0.0
  0
LINE
  5
15CF4
  8
0
 62
     0
 10
0.7710661457768521
 20
-49.23194018746031
 30
0.0
 11
0.7710661457768521
 21
-49.23194018746031
 31
0.0
  0
LINE
  5
15CF5
  8
0
 62
     0
 10
8.8748017793742875
 20
-47.431646736724133
 30
0.0
 11
8.8748017793742875
 21
-47.431646736724133
 31
0.0
  0
LINE
  5
15CF6
  8
0
 62
     0
 10
8.4066306704998581
 20
-47.002646954888192
 30
0.0
 11
8.4066306704998581
 21
-47.002646954888192
 31
0.0
  0
LINE
  5
15CF7
  8
0
 62
     0
 10
5.8785066825779433
 20
-44.686048132974094
 30
0.0
 11
5.8785066825779433
 21
-44.686048132974094
 31
0.0
  0
LINE
  5
15CF8
  8
0
 62
     0
 10
3.668739048690639
 20
-42.661169162708433
 30
0.0
 11
3.668739048690639
 21
-42.661169162708433
 31
0.0
  0
LINE
  5
15CF9
  8
0
 62
     0
 10
3.200567939816211
 20
-42.232169380872492
 30
0.0
 11
3.200567939816211
 21
-42.232169380872492
 31
0.0
  0
LINE
  5
15CFA
  8
0
 62
     0
 10
0.6724439518942967
 20
-39.915570558958393
 30
0.0
 11
0.6724439518942967
 21
-39.915570558958393
 31
0.0
  0
LINE
  5
15CFB
  8
0
 62
     0
 10
8.3080084766172941
 20
-37.68627732638619
 30
0.0
 11
8.3080084766172941
 21
-37.68627732638619
 31
0.0
  0
LINE
  5
15CFC
  8
0
 62
     0
 10
6.0982408427299903
 20
-35.661398356120543
 30
0.0
 11
6.0982408427299903
 21
-35.661398356120543
 31
0.0
  0
LINE
  5
15CFD
  8
0
 62
     0
 10
5.630069733855561
 20
-35.232398574284602
 30
0.0
 11
5.630069733855561
 21
-35.232398574284602
 31
0.0
  0
LINE
  5
15CFE
  8
0
 62
     0
 10
3.1019457459336461
 20
-32.915799752370503
 30
0.0
 11
3.1019457459336461
 21
-32.915799752370503
 31
0.0
  0
LINE
  5
15CFF
  8
0
 62
     0
 10
0.8921781120463432
 20
-30.890920782104839
 30
0.0
 11
0.8921781120463432
 21
-30.890920782104839
 31
0.0
  0
LINE
  5
15D00
  8
0
 62
     0
 10
0.4240070031719147
 20
-30.461921000268891
 30
0.0
 11
0.4240070031719147
 21
-30.461921000268891
 31
0.0
  0
LINE
  5
15D01
  8
0
 62
     0
 10
8.5277426367693003
 20
-28.661627549532721
 30
0.0
 11
8.5277426367693003
 21
-28.661627549532721
 31
0.0
  0
LINE
  5
15D02
  8
0
 62
     0
 10
8.0595715278948692
 20
-28.232627767696769
 30
0.0
 11
8.0595715278948692
 21
-28.232627767696769
 31
0.0
  0
LINE
  5
15D03
  8
0
 62
     0
 10
5.5314475399729552
 20
-25.916028945782671
 30
0.0
 11
5.5314475399729552
 21
-25.916028945782671
 31
0.0
  0
LINE
  5
15D04
  8
0
 62
     0
 10
3.321679906085651
 20
-23.89114997551701
 30
0.0
 11
3.321679906085651
 21
-23.89114997551701
 31
0.0
  0
LINE
  5
15D05
  8
0
 62
     0
 10
2.853508797211223
 20
-23.462150193681069
 30
0.0
 11
2.853508797211223
 21
-23.462150193681069
 31
0.0
  0
LINE
  5
15D06
  8
0
 62
     0
 10
0.3253848092893086
 20
-21.14555137176697
 30
0.0
 11
0.3253848092893086
 21
-21.14555137176697
 31
0.0
  0
LINE
  5
15D07
  8
0
 62
     0
 10
7.960949334012235
 20
-18.916258139194781
 30
0.0
 11
7.960949334012235
 21
-18.916258139194781
 31
0.0
  0
LINE
  5
15D08
  8
0
 62
     0
 10
5.751181700124933
 20
-16.89137916892912
 30
0.0
 11
5.751181700124933
 21
-16.89137916892912
 31
0.0
  0
LINE
  5
15D09
  8
0
 62
     0
 10
5.2830105912505037
 20
-16.462379387093169
 30
0.0
 11
5.2830105912505037
 21
-16.462379387093169
 31
0.0
  0
LINE
  5
15D0A
  8
0
 62
     0
 10
2.7548866033285888
 20
-14.14578056517907
 30
0.0
 11
2.7548866033285888
 21
-14.14578056517907
 31
0.0
  0
LINE
  5
15D0B
  8
0
 62
     0
 10
0.5451189694412864
 20
-12.12090159491342
 30
0.0
 11
0.5451189694412864
 21
-12.12090159491342
 31
0.0
  0
LINE
  5
15D0C
  8
0
 62
     0
 10
0.0769478605668576
 20
-11.69190181307747
 30
0.0
 11
0.0769478605668576
 21
-11.69190181307747
 31
0.0
  0
LINE
  5
15D0D
  8
0
 62
     0
 10
8.1806834941643185
 20
-9.8916083623412607
 30
0.0
 11
8.1806834941643185
 21
-9.8916083623412607
 31
0.0
  0
LINE
  5
15D0E
  8
0
 62
     0
 10
7.71251238528989
 20
-9.4626085805053162
 30
0.0
 11
7.71251238528989
 21
-9.4626085805053162
 31
0.0
  0
LINE
  5
15D0F
  8
0
 62
     0
 10
2.9746207634806661
 20
-5.1211307883256101
 30
0.0
 11
2.9746207634806661
 21
-5.1211307883256101
 31
0.0
  0
LINE
  5
15D10
  8
0
 62
     0
 10
2.506449654606238
 20
-4.6921310064896664
 30
0.0
 11
2.506449654606238
 21
-4.6921310064896664
 31
0.0
  0
LINE
  5
15D11
  8
0
 62
     0
 10
7.6138901914073207
 20
-0.1462389520033798
 30
0.0
 11
7.6138901914073207
 21
-0.1462389520033798
 31
0.0
  0
LINE
  5
15D12
  8
0
 62
     0
 10
5.4041225575200169
 20
1.8786400182622769
 30
0.0
 11
5.4041225575200169
 21
1.8786400182622769
 31
0.0
  0
LINE
  5
15D13
  8
0
 62
     0
 10
4.9359514486455893
 20
2.307639800098221
 30
0.0
 11
4.9359514486455893
 21
2.307639800098221
 31
0.0
  0
LINE
  5
15D14
  8
0
 62
     0
 10
2.407827460723674
 20
4.6242386220123208
 30
0.0
 11
2.407827460723674
 21
4.6242386220123208
 31
0.0
  0
LINE
  5
15D15
  8
0
 62
     0
 10
7.8336243515593544
 20
8.8784108248501266
 30
0.0
 11
7.8336243515593544
 21
8.8784108248501266
 31
0.0
  0
LINE
  5
15D16
  8
0
 62
     0
 10
7.3654532426849251
 20
9.3074106066860711
 30
0.0
 11
7.3654532426849251
 21
9.3074106066860711
 31
0.0
  0
LINE
  5
15D17
  8
0
 62
     0
 10
4.8373292547630111
 20
11.62400942860017
 30
0.0
 11
4.8373292547630111
 21
11.62400942860017
 31
0.0
  0
LINE
  5
15D18
  8
0
 62
     0
 10
2.6275616208757082
 20
13.64888839886583
 30
0.0
 11
2.6275616208757082
 21
13.64888839886583
 31
0.0
  0
LINE
  5
15D19
  8
0
 62
     0
 10
2.1593905120012789
 20
14.07788818070177
 30
0.0
 11
2.1593905120012789
 21
14.07788818070177
 31
0.0
  0
LINE
  5
15D1A
  8
0
 62
     0
 10
7.2668310488023229
 20
18.623780235188089
 30
0.0
 11
7.2668310488023229
 21
18.623780235188089
 31
0.0
  0
LINE
  5
15D1B
  8
0
 62
     0
 10
5.0570634149150191
 20
20.648659205453761
 30
0.0
 11
5.0570634149150191
 21
20.648659205453761
 31
0.0
  0
LINE
  5
15D1C
  8
0
 62
     0
 10
4.5888923060405906
 20
21.077658987289698
 30
0.0
 11
4.5888923060405906
 21
21.077658987289698
 31
0.0
  0
LINE
  5
15D1D
  8
0
 62
     0
 10
2.0607683181186771
 20
23.3942578092038
 30
0.0
 11
2.0607683181186771
 21
23.3942578092038
 31
0.0
  0
LINE
  5
15D1E
  8
0
 62
     0
 10
7.4865652089542847
 20
27.648430012041619
 30
0.0
 11
7.4865652089542847
 21
27.648430012041619
 31
0.0
  0
LINE
  5
15D1F
  8
0
 62
     0
 10
7.0183941000798571
 20
28.07742979387756
 30
0.0
 11
7.0183941000798571
 21
28.07742979387756
 31
0.0
  0
LINE
  5
15D20
  8
0
 62
     0
 10
4.4902701121579423
 20
30.394028615791662
 30
0.0
 11
4.4902701121579423
 21
30.394028615791662
 31
0.0
  0
LINE
  5
15D21
  8
0
 62
     0
 10
2.2805024782706389
 20
32.418907586057323
 30
0.0
 11
2.2805024782706389
 21
32.418907586057323
 31
0.0
  0
LINE
  5
15D22
  8
0
 62
     0
 10
1.81233136939621
 20
32.847907367893256
 30
0.0
 11
1.81233136939621
 21
32.847907367893256
 31
0.0
  0
LINE
  5
15D23
  8
0
 62
     0
 10
6.9197719061972807
 20
37.393799422379502
 30
0.0
 11
6.9197719061972807
 21
37.393799422379502
 31
0.0
  0
LINE
  5
15D24
  8
0
 62
     0
 10
4.7100042723099769
 20
39.418678392645162
 30
0.0
 11
4.7100042723099769
 21
39.418678392645162
 31
0.0
  0
LINE
  5
15D25
  8
0
 62
     0
 10
4.2418331634355493
 20
39.847678174481111
 30
0.0
 11
4.2418331634355493
 21
39.847678174481111
 31
0.0
  0
LINE
  5
15D26
  8
0
 62
     0
 10
1.713709175513634
 20
42.164276996395202
 30
0.0
 11
1.713709175513634
 21
42.164276996395202
 31
0.0
  0
LINE
  5
15D27
  8
0
 62
     0
 10
7.6039294291079393
 20
-61.37093519581228
 30
0.0
 11
7.6039294291079393
 21
-61.37093519581228
 31
0.0
  0
LINE
  5
15D28
  8
0
 62
     0
 10
2.569725889050825
 20
-58.163793833590091
 30
0.0
 11
2.569725889050825
 21
-58.163793833590091
 31
0.0
  0
LINE
  5
15D29
  8
0
 62
     0
 10
6.62366390120894
 20
-55.692888177442953
 30
0.0
 11
6.62366390120894
 21
-55.692888177442953
 31
0.0
  0
LINE
  5
15D2A
  8
0
 62
     0
 10
5.5525567650265764
 20
-55.010517674842482
 30
0.0
 11
5.5525567650265764
 21
-55.010517674842482
 31
0.0
  0
LINE
  5
15D2B
  8
0
 62
     0
 10
0.5183532249694629
 20
-51.803376312620287
 30
0.0
 11
0.5183532249694629
 21
-51.803376312620287
 31
0.0
  0
LINE
  5
15D2C
  8
0
 62
     0
 10
8.4282769273839921
 20
-51.789004465834807
 30
0.0
 11
8.4282769273839921
 21
-51.789004465834807
 31
0.0
  0
LINE
  5
15D2D
  8
0
 62
     0
 10
4.5722912371274811
 20
-49.332470656473127
 30
0.0
 11
4.5722912371274811
 21
-49.332470656473127
 31
0.0
  0
LINE
  5
15D2E
  8
0
 62
     0
 10
3.501184100945117
 20
-48.650100153872657
 30
0.0
 11
3.501184100945117
 21
-48.650100153872657
 31
0.0
  0
LINE
  5
15D2F
  8
0
 62
     0
 10
6.3769042633026087
 20
-45.428586944865053
 30
0.0
 11
6.3769042633026087
 21
-45.428586944865053
 31
0.0
  0
LINE
  5
15D30
  8
0
 62
     0
 10
2.5209185730460968
 20
-42.972053135503373
 30
0.0
 11
2.5209185730460968
 21
-42.972053135503373
 31
0.0
  0
LINE
  5
15D31
  8
0
 62
     0
 10
1.4498114368637329
 20
-42.289682632902903
 30
0.0
 11
1.4498114368637329
 21
-42.289682632902903
 31
0.0
  0
LINE
  5
15D32
  8
0
 62
     0
 10
4.3255315992211782
 20
-39.068169423895192
 30
0.0
 11
4.3255315992211782
 21
-39.068169423895192
 31
0.0
  0
LINE
  5
15D33
  8
0
 62
     0
 10
0.4695459089646658
 20
-36.611635614533512
 30
0.0
 11
0.4695459089646658
 21
-36.611635614533512
 31
0.0
  0
LINE
  5
15D34
  8
0
 62
     0
 10
8.3794696113792817
 20
-36.597263767748082
 30
0.0
 11
8.3794696113792817
 21
-36.597263767748082
 31
0.0
  0
LINE
  5
15D35
  8
0
 62
     0
 10
7.3083624751969172
 20
-35.914893265147612
 30
0.0
 11
7.3083624751969172
 21
-35.914893265147612
 31
0.0
  0
LINE
  5
15D36
  8
0
 62
     0
 10
2.2741589351398028
 20
-32.707751902925423
 30
0.0
 11
2.2741589351398028
 21
-32.707751902925423
 31
0.0
  0
LINE
  5
15D37
  8
0
 62
     0
 10
6.328096947297821
 20
-30.236846246778288
 30
0.0
 11
6.328096947297821
 21
-30.236846246778288
 31
0.0
  0
LINE
  5
15D38
  8
0
 62
     0
 10
5.2569898111154574
 20
-29.554475744177829
 30
0.0
 11
5.2569898111154574
 21
-29.554475744177829
 31
0.0
  0
LINE
  5
15D39
  8
0
 62
     0
 10
0.2227862710583442
 20
-26.34733438195563
 30
0.0
 11
0.2227862710583442
 21
-26.34733438195563
 31
0.0
  0
LINE
  5
15D3A
  8
0
 62
     0
 10
8.1327099734729629
 20
-26.332962535170171
 30
0.0
 11
8.1327099734729629
 21
-26.332962535170171
 31
0.0
  0
LINE
  5
15D3B
  8
0
 62
     0
 10
4.27672428321645
 20
-23.876428725808481
 30
0.0
 11
4.27672428321645
 21
-23.876428725808481
 31
0.0
  0
LINE
  5
15D3C
  8
0
 62
     0
 10
3.2056171470340851
 20
-23.194058223208021
 30
0.0
 11
3.2056171470340851
 21
-23.194058223208021
 31
0.0
  0
LINE
  5
15D3D
  8
0
 62
     0
 10
6.08133730939148
 20
-19.97254501420036
 30
0.0
 11
6.08133730939148
 21
-19.97254501420036
 31
0.0
  0
LINE
  5
15D3E
  8
0
 62
     0
 10
2.225351619134968
 20
-17.51601120483868
 30
0.0
 11
2.225351619134968
 21
-17.51601120483868
 31
0.0
  0
LINE
  5
15D3F
  8
0
 62
     0
 10
1.1542444829526031
 20
-16.83364070223821
 30
0.0
 11
1.1542444829526031
 21
-16.83364070223821
 31
0.0
  0
LINE
  5
15D40
  8
0
 62
     0
 10
4.0299646453101081
 20
-13.61212749323059
 30
0.0
 11
4.0299646453101081
 21
-13.61212749323059
 31
0.0
  0
LINE
  5
15D41
  8
0
 62
     0
 10
0.1739789550535956
 20
-11.15559368386891
 30
0.0
 11
0.1739789550535956
 21
-11.15559368386891
 31
0.0
  0
LINE
  5
15D42
  8
0
 62
     0
 10
8.0839026574682151
 20
-11.14122183708349
 30
0.0
 11
8.0839026574682151
 21
-11.14122183708349
 31
0.0
  0
LINE
  5
15D43
  8
0
 62
     0
 10
7.0127955212858497
 20
-10.45885133448302
 30
0.0
 11
7.0127955212858497
 21
-10.45885133448302
 31
0.0
  0
LINE
  5
15D44
  8
0
 62
     0
 10
6.0325299933867882
 20
-4.7808043161136462
 30
0.0
 11
6.0325299933867882
 21
-4.7808043161136462
 31
0.0
  0
LINE
  5
15D45
  8
0
 62
     0
 10
4.9614228572044228
 20
-4.0984338135131786
 30
0.0
 11
4.9614228572044228
 21
-4.0984338135131786
 31
0.0
  0
LINE
  5
15D46
  8
0
 62
     0
 10
7.8371430195619052
 20
-0.8769206045055604
 30
0.0
 11
7.8371430195619052
 21
-0.8769206045055604
 31
0.0
  0
LINE
  5
15D47
  8
0
 62
     0
 10
3.9811573293053919
 20
1.5796132048561189
 30
0.0
 11
3.9811573293053919
 21
1.5796132048561189
 31
0.0
  0
LINE
  5
15D48
  8
0
 62
     0
 10
2.9100501931230269
 20
2.2619837074565861
 30
0.0
 11
2.9100501931230269
 21
2.2619837074565861
 31
0.0
  0
LINE
  5
15D49
  8
0
 62
     0
 10
5.7857703554804303
 20
5.4834969164642349
 30
0.0
 11
5.7857703554804303
 21
5.4834969164642349
 31
0.0
  0
LINE
  5
15D4A
  8
0
 62
     0
 10
3.734397691399074
 20
11.84391443743405
 30
0.0
 11
3.734397691399074
 21
11.84391443743405
 31
0.0
  0
LINE
  5
15D4B
  8
0
 62
     0
 10
7.7883357035571521
 20
14.31482009358125
 30
0.0
 11
7.7883357035571521
 21
14.31482009358125
 31
0.0
  0
LINE
  5
15D4C
  8
0
 62
     0
 10
6.7172285673747876
 20
14.997190596181721
 30
0.0
 11
6.7172285673747876
 21
14.997190596181721
 31
0.0
  0
LINE
  5
15D4D
  8
0
 62
     0
 10
1.6830250273176739
 20
18.204331958403909
 30
0.0
 11
1.6830250273176739
 21
18.204331958403909
 31
0.0
  0
LINE
  5
15D4E
  8
0
 62
     0
 10
5.7369630394757527
 20
20.675237614551001
 30
0.0
 11
5.7369630394757527
 21
20.675237614551001
 31
0.0
  0
LINE
  5
15D4F
  8
0
 62
     0
 10
4.6658559032933891
 20
21.357608117151461
 30
0.0
 11
4.6658559032933891
 21
21.357608117151461
 31
0.0
  0
LINE
  5
15D50
  8
0
 62
     0
 10
7.5415760656507649
 20
24.57912132615909
 30
0.0
 11
7.5415760656507649
 21
24.57912132615909
 31
0.0
  0
LINE
  5
15D51
  8
0
 62
     0
 10
3.685590375394252
 20
27.03565513552077
 30
0.0
 11
3.685590375394252
 21
27.03565513552077
 31
0.0
  0
LINE
  5
15D52
  8
0
 62
     0
 10
2.614483239211888
 20
27.71802563812124
 30
0.0
 11
2.614483239211888
 21
27.71802563812124
 31
0.0
  0
LINE
  5
15D53
  8
0
 62
     0
 10
5.4902034015693664
 20
30.939538847128901
 30
0.0
 11
5.4902034015693664
 21
30.939538847128901
 31
0.0
  0
LINE
  5
15D54
  8
0
 62
     0
 10
1.6342177113128531
 20
33.396072656490567
 30
0.0
 11
1.6342177113128531
 21
33.396072656490567
 31
0.0
  0
LINE
  5
15D55
  8
0
 62
     0
 10
0.5631105751304892
 20
34.078443159091037
 30
0.0
 11
0.5631105751304892
 21
34.078443159091037
 31
0.0
  0
LINE
  5
15D56
  8
0
 62
     0
 10
8.4730342775450875
 20
34.092815005876503
 30
0.0
 11
8.4730342775450875
 21
34.092815005876503
 31
0.0
  0
LINE
  5
15D57
  8
0
 62
     0
 10
3.4388307374879732
 20
37.299956368098691
 30
0.0
 11
3.4388307374879732
 21
37.299956368098691
 31
0.0
  0
LINE
  5
15D58
  8
0
 62
     0
 10
7.492768749646034
 20
39.77086202424583
 30
0.0
 11
7.492768749646034
 21
39.77086202424583
 31
0.0
  0
LINE
  5
15D59
  8
0
 62
     0
 10
6.4216616134636686
 20
40.4532325268463
 30
0.0
 11
6.4216616134636686
 21
40.4532325268463
 31
0.0
  0
LINE
  5
15D5A
  8
0
 62
     0
 10
1.387458073406556
 20
43.660373889068488
 30
0.0
 11
1.387458073406556
 21
43.660373889068488
 31
0.0
  0
LINE
  5
15D5B
  8
0
 62
     0
 10
8.2994528038308442
 20
-55.941633358613942
 30
0.0
 11
8.2994528038308442
 21
-55.941633358613942
 31
0.0
  0
LINE
  5
15D5C
  8
0
 62
     0
 10
6.2344714465614741
 20
-56.213493311769859
 30
0.0
 11
6.2344714465614741
 21
-56.213493311769859
 31
0.0
  0
LINE
  5
15D5D
  8
0
 62
     0
 10
4.9123797239194982
 20
-56.387549989095298
 30
0.0
 11
4.9123797239194982
 21
-56.387549989095298
 31
0.0
  0
LINE
  5
15D5E
  8
0
 62
     0
 10
1.462349895310912
 20
-56.84175503278265
 30
0.0
 11
1.462349895310912
 21
-56.84175503278265
 31
0.0
  0
LINE
  5
15D5F
  8
0
 62
     0
 10
5.957582726691057
 20
-49.673504027099071
 30
0.0
 11
5.957582726691057
 21
-49.673504027099071
 31
0.0
  0
LINE
  5
15D60
  8
0
 62
     0
 10
3.8926013694216861
 20
-49.945363980255003
 30
0.0
 11
3.8926013694216861
 21
-49.945363980255003
 31
0.0
  0
LINE
  5
15D61
  8
0
 62
     0
 10
2.5705096467797102
 20
-50.119420657580442
 30
0.0
 11
2.5705096467797102
 21
-50.119420657580442
 31
0.0
  0
LINE
  5
15D62
  8
0
 62
     0
 10
8.3878342008016062
 20
-42.777112974571473
 30
0.0
 11
8.3878342008016062
 21
-42.777112974571473
 31
0.0
  0
LINE
  5
15D63
  8
0
 62
     0
 10
7.0657424781596294
 20
-42.951169651896898
 30
0.0
 11
7.0657424781596294
 21
-42.951169651896898
 31
0.0
  0
LINE
  5
15D64
  8
0
 62
     0
 10
3.615712649551043
 20
-43.40537469558425
 30
0.0
 11
3.615712649551043
 21
-43.40537469558425
 31
0.0
  0
LINE
  5
15D65
  8
0
 62
     0
 10
1.5507312922816709
 20
-43.677234648740168
 30
0.0
 11
1.5507312922816709
 21
-43.677234648740168
 31
0.0
  0
LINE
  5
15D66
  8
0
 62
     0
 10
0.2286395696396954
 20
-43.851291326065613
 30
0.0
 11
0.2286395696396954
 21
-43.851291326065613
 31
0.0
  0
LINE
  5
15D67
  8
0
 62
     0
 10
8.1109454809310098
 20
-36.23712368990072
 30
0.0
 11
8.1109454809310098
 21
-36.23712368990072
 31
0.0
  0
LINE
  5
15D68
  8
0
 62
     0
 10
6.045964123661637
 20
-36.508983643056638
 30
0.0
 11
6.045964123661637
 21
-36.508983643056638
 31
0.0
  0
LINE
  5
15D69
  8
0
 62
     0
 10
4.7238724010196611
 20
-36.683040320382077
 30
0.0
 11
4.7238724010196611
 21
-36.683040320382077
 31
0.0
  0
LINE
  5
15D6A
  8
0
 62
     0
 10
1.2738425724110749
 20
-37.137245364069422
 30
0.0
 11
1.2738425724110749
 21
-37.137245364069422
 31
0.0
  0
LINE
  5
15D6B
  8
0
 62
     0
 10
5.7690754037913328
 20
-29.96899435838586
 30
0.0
 11
5.7690754037913328
 21
-29.96899435838586
 31
0.0
  0
LINE
  5
15D6C
  8
0
 62
     0
 10
3.7040940465219601
 20
-30.240854311541781
 30
0.0
 11
3.7040940465219601
 21
-30.240854311541781
 31
0.0
  0
LINE
  5
15D6D
  8
0
 62
     0
 10
2.382002323879985
 20
-30.41491098886722
 30
0.0
 11
2.382002323879985
 21
-30.41491098886722
 31
0.0
  0
LINE
  5
15D6E
  8
0
 62
     0
 10
8.1993268779017701
 20
-23.07260330585823
 30
0.0
 11
8.1993268779017701
 21
-23.07260330585823
 31
0.0
  0
LINE
  5
15D6F
  8
0
 62
     0
 10
6.8772351552597932
 20
-23.246659983183669
 30
0.0
 11
6.8772351552597932
 21
-23.246659983183669
 31
0.0
  0
LINE
  5
15D70
  8
0
 62
     0
 10
3.4272053266512059
 20
-23.700865026871011
 30
0.0
 11
3.4272053266512059
 21
-23.700865026871011
 31
0.0
  0
LINE
  5
15D71
  8
0
 62
     0
 10
1.3622239693818341
 20
-23.972724980026928
 30
0.0
 11
1.3622239693818341
 21
-23.972724980026928
 31
0.0
  0
LINE
  5
15D72
  8
0
 62
     0
 10
0.0401322467398583
 20
-24.146781657352371
 30
0.0
 11
0.0401322467398583
 21
-24.146781657352371
 31
0.0
  0
LINE
  5
15D73
  8
0
 62
     0
 10
7.9224381580313974
 20
-16.532614021187449
 30
0.0
 11
7.9224381580313974
 21
-16.532614021187449
 31
0.0
  0
LINE
  5
15D74
  8
0
 62
     0
 10
5.8574568007620247
 20
-16.804473974343381
 30
0.0
 11
5.8574568007620247
 21
-16.804473974343381
 31
0.0
  0
LINE
  5
15D75
  8
0
 62
     0
 10
4.5353650781200487
 20
-16.978530651668819
 30
0.0
 11
4.5353650781200487
 21
-16.978530651668819
 31
0.0
  0
LINE
  5
15D76
  8
0
 62
     0
 10
1.0853352495114641
 20
-17.432735695356151
 30
0.0
 11
1.0853352495114641
 21
-17.432735695356151
 31
0.0
  0
LINE
  5
15D77
  8
0
 62
     0
 10
5.5805680808913829
 20
-10.26448468967264
 30
0.0
 11
5.5805680808913829
 21
-10.26448468967264
 31
0.0
  0
LINE
  5
15D78
  8
0
 62
     0
 10
3.5155867236220111
 20
-10.53634464282856
 30
0.0
 11
3.5155867236220111
 21
-10.53634464282856
 31
0.0
  0
LINE
  5
15D79
  8
0
 62
     0
 10
2.193495000980036
 20
-10.710401320154
 30
0.0
 11
2.193495000980036
 21
-10.710401320154
 31
0.0
  0
LINE
  5
15D7A
  8
0
 62
     0
 10
8.0108195550021595
 20
-3.3680936371449901
 30
0.0
 11
8.0108195550021595
 21
-3.3680936371449901
 31
0.0
  0
LINE
  5
15D7B
  8
0
 62
     0
 10
6.6887278323601818
 20
-3.5421503144704292
 30
0.0
 11
6.6887278323601818
 21
-3.5421503144704292
 31
0.0
  0
LINE
  5
15D7C
  8
0
 62
     0
 10
3.2386980037515962
 20
-3.9963553581577642
 30
0.0
 11
3.2386980037515962
 21
-3.9963553581577642
 31
0.0
  0
LINE
  5
15D7D
  8
0
 62
     0
 10
1.1737166464822231
 20
-4.2682153113136883
 30
0.0
 11
1.1737166464822231
 21
-4.2682153113136883
 31
0.0
  0
LINE
  5
15D7E
  8
0
 62
     0
 10
7.7339308351315621
 20
3.1718956475257549
 30
0.0
 11
7.7339308351315621
 21
3.1718956475257549
 31
0.0
  0
LINE
  5
15D7F
  8
0
 62
     0
 10
5.6689494778621903
 20
2.9000356943698322
 30
0.0
 11
5.6689494778621903
 21
2.9000356943698322
 31
0.0
  0
LINE
  5
15D80
  8
0
 62
     0
 10
4.3468577552202143
 20
2.7259790170443932
 30
0.0
 11
4.3468577552202143
 21
2.7259790170443932
 31
0.0
  0
LINE
  5
15D81
  8
0
 62
     0
 10
0.896827926611628
 20
2.2717739733570581
 30
0.0
 11
0.896827926611628
 21
2.2717739733570581
 31
0.0
  0
LINE
  5
15D82
  8
0
 62
     0
 10
2.0049876780801821
 20
8.9941083485592426
 30
0.0
 11
2.0049876780801821
 21
8.9941083485592426
 31
0.0
  0
LINE
  5
15D83
  8
0
 62
     0
 10
8.8420905866000723
 20
9.8942300227279318
 30
0.0
 11
8.8420905866000723
 21
9.8942300227279318
 31
0.0
  0
LINE
  5
15D84
  8
0
 62
     0
 10
5.3920607579914854
 20
9.4400249790405972
 30
0.0
 11
5.3920607579914854
 21
9.4400249790405972
 31
0.0
  0
LINE
  5
15D85
  8
0
 62
     0
 10
3.3270794007221132
 20
9.1681650258846741
 30
0.0
 11
3.3270794007221132
 21
9.1681650258846741
 31
0.0
  0
LINE
  5
15D86
  8
0
 62
     0
 10
7.8223122321023224
 20
16.336416031568241
 30
0.0
 11
7.8223122321023224
 21
16.336416031568241
 31
0.0
  0
LINE
  5
15D87
  8
0
 62
     0
 10
6.5002205094603456
 20
16.162359354242799
 30
0.0
 11
6.5002205094603456
 21
16.162359354242799
 31
0.0
  0
LINE
  5
15D88
  8
0
 62
     0
 10
3.05019068085176
 20
15.708154310555461
 30
0.0
 11
3.05019068085176
 21
15.708154310555461
 31
0.0
  0
LINE
  5
15D89
  8
0
 62
     0
 10
0.9852093235823877
 20
15.436294357399539
 30
0.0
 11
0.9852093235823877
 21
15.436294357399539
 31
0.0
  0
LINE
  5
15D8A
  8
0
 62
     0
 10
7.5454235122316131
 20
22.87640531623898
 30
0.0
 11
7.5454235122316131
 21
22.87640531623898
 31
0.0
  0
LINE
  5
15D8B
  8
0
 62
     0
 10
5.4804421549622413
 20
22.604545363083059
 30
0.0
 11
5.4804421549622413
 21
22.604545363083059
 31
0.0
  0
LINE
  5
15D8C
  8
0
 62
     0
 10
4.1583504323202654
 20
22.43048868575762
 30
0.0
 11
4.1583504323202654
 21
22.43048868575762
 31
0.0
  0
LINE
  5
15D8D
  8
0
 62
     0
 10
0.7083206037116793
 20
21.976283642070278
 30
0.0
 11
0.7083206037116793
 21
21.976283642070278
 31
0.0
  0
LINE
  5
15D8E
  8
0
 62
     0
 10
8.6535832637005257
 20
29.598739691441182
 30
0.0
 11
8.6535832637005257
 21
29.598739691441182
 31
0.0
  0
LINE
  5
15D8F
  8
0
 62
     0
 10
5.2035534350919379
 20
29.14453464775384
 30
0.0
 11
5.2035534350919379
 21
29.14453464775384
 31
0.0
  0
LINE
  5
15D90
  8
0
 62
     0
 10
3.1385720778225661
 20
28.872674694597919
 30
0.0
 11
3.1385720778225661
 21
28.872674694597919
 31
0.0
  0
LINE
  5
15D91
  8
0
 62
     0
 10
1.8164803551805899
 20
28.69861801727248
 30
0.0
 11
1.8164803551805899
 21
28.69861801727248
 31
0.0
  0
LINE
  5
15D92
  8
0
 62
     0
 10
7.6338049092024871
 20
36.040925700281463
 30
0.0
 11
7.6338049092024871
 21
36.040925700281463
 31
0.0
  0
LINE
  5
15D93
  8
0
 62
     0
 10
6.3117131865605112
 20
35.866869022956017
 30
0.0
 11
6.3117131865605112
 21
35.866869022956017
 31
0.0
  0
LINE
  5
15D94
  8
0
 62
     0
 10
2.8616833579519252
 20
35.412663979268679
 30
0.0
 11
2.8616833579519252
 21
35.412663979268679
 31
0.0
  0
LINE
  5
15D95
  8
0
 62
     0
 10
0.7967020006825532
 20
35.140804026112761
 30
0.0
 11
0.7967020006825532
 21
35.140804026112761
 31
0.0
  0
LINE
  5
15D96
  8
0
 62
     0
 10
7.3569161893318897
 20
42.580914984952237
 30
0.0
 11
7.3569161893318897
 21
42.580914984952237
 31
0.0
  0
LINE
  5
15D97
  8
0
 62
     0
 10
5.2919348320625179
 20
42.309055031796319
 30
0.0
 11
5.2919348320625179
 21
42.309055031796319
 31
0.0
  0
LINE
  5
15D98
  8
0
 62
     0
 10
3.969843109420542
 20
42.134998354470881
 30
0.0
 11
3.969843109420542
 21
42.134998354470881
 31
0.0
  0
LINE
  5
15D99
  8
0
 62
     0
 10
0.5198132808119568
 20
41.680793310783542
 30
0.0
 11
0.5198132808119568
 21
41.680793310783542
 31
0.0
  0
LINE
  5
15D9A
  8
0
 62
     0
 10
6.4354054388360371
 20
-59.471602609558943
 30
0.0
 11
6.4354054388360371
 21
-59.471602609558943
 31
0.0
  0
LINE
  5
15D9B
  8
0
 62
     0
 10
6.275402309237827
 20
-54.577470236265448
 30
0.0
 11
6.275402309237827
 21
-54.577470236265448
 31
0.0
  0
LINE
  5
15D9C
  8
0
 62
     0
 10
3.0008363971857528
 20
-57.09013303449894
 30
0.0
 11
3.0008363971857528
 21
-57.09013303449894
 31
0.0
  0
LINE
  5
15D9D
  8
0
 62
     0
 10
6.1153991796394154
 20
-49.683337862972039
 30
0.0
 11
6.1153991796394154
 21
-49.683337862972039
 31
0.0
  0
LINE
  5
15D9E
  8
0
 62
     0
 10
2.840833267587342
 20
-52.196000661205531
 30
0.0
 11
2.840833267587342
 21
-52.196000661205531
 31
0.0
  0
LINE
  5
15D9F
  8
0
 62
     0
 10
5.9553960500409788
 20
-44.789205489678679
 30
0.0
 11
5.9553960500409788
 21
-44.789205489678679
 31
0.0
  0
LINE
  5
15DA0
  8
0
 62
     0
 10
2.6808301379889059
 20
-47.301868287912171
 30
0.0
 11
2.6808301379889059
 21
-47.301868287912171
 31
0.0
  0
LINE
  5
15DA1
  8
0
 62
     0
 10
8.8583714966390943
 20
-37.544766991268268
 30
0.0
 11
8.8583714966390943
 21
-37.544766991268268
 31
0.0
  0
LINE
  5
15DA2
  8
0
 62
     0
 10
5.7953929204426924
 20
-39.895073116385142
 30
0.0
 11
5.7953929204426924
 21
-39.895073116385142
 31
0.0
  0
LINE
  5
15DA3
  8
0
 62
     0
 10
2.520827008390619
 20
-42.40773591461862
 30
0.0
 11
2.520827008390619
 21
-42.40773591461862
 31
0.0
  0
LINE
  5
15DA4
  8
0
 62
     0
 10
8.6983683670406258
 20
-32.650634617974859
 30
0.0
 11
8.6983683670406258
 21
-32.650634617974859
 31
0.0
  0
LINE
  5
15DA5
  8
0
 62
     0
 10
5.635389790844223
 20
-35.000940743091732
 30
0.0
 11
5.635389790844223
 21
-35.000940743091732
 31
0.0
  0
LINE
  5
15DA6
  8
0
 62
     0
 10
2.3608238787921501
 20
-37.513603541325217
 30
0.0
 11
2.3608238787921501
 21
-37.513603541325217
 31
0.0
  0
LINE
  5
15DA7
  8
0
 62
     0
 10
8.5383652374421573
 20
-27.756502244681499
 30
0.0
 11
8.5383652374421573
 21
-27.756502244681499
 31
0.0
  0
LINE
  5
15DA8
  8
0
 62
     0
 10
5.4753866612457553
 20
-30.106808369798369
 30
0.0
 11
5.4753866612457553
 21
-30.106808369798369
 31
0.0
  0
LINE
  5
15DA9
  8
0
 62
     0
 10
2.2008207491936811
 20
-32.619471168031872
 30
0.0
 11
2.2008207491936811
 21
-32.619471168031872
 31
0.0
  0
LINE
  5
15DAA
  8
0
 62
     0
 10
8.3783621078436887
 20
-22.862369871388101
 30
0.0
 11
8.3783621078436887
 21
-22.862369871388101
 31
0.0
  0
LINE
  5
15DAB
  8
0
 62
     0
 10
5.3153835316472859
 20
-25.21267599650497
 30
0.0
 11
5.3153835316472859
 21
-25.21267599650497
 31
0.0
  0
LINE
  5
15DAC
  8
0
 62
     0
 10
2.040817619595213
 20
-27.725338794738459
 30
0.0
 11
2.040817619595213
 21
-27.725338794738459
 31
0.0
  0
LINE
  5
15DAD
  8
0
 62
     0
 10
8.2183589782453996
 20
-17.968237498094609
 30
0.0
 11
8.2183589782453996
 21
-17.968237498094609
 31
0.0
  0
LINE
  5
15DAE
  8
0
 62
     0
 10
5.1553804020489977
 20
-20.318543623211479
 30
0.0
 11
5.1553804020489977
 21
-20.318543623211479
 31
0.0
  0
LINE
  5
15DAF
  8
0
 62
     0
 10
1.880814489996925
 20
-22.831206421444971
 30
0.0
 11
1.880814489996925
 21
-22.831206421444971
 31
0.0
  0
LINE
  5
15DB0
  8
0
 62
     0
 10
8.0583558486470217
 20
-13.074105124801131
 30
0.0
 11
8.0583558486470217
 21
-13.074105124801131
 31
0.0
  0
LINE
  5
15DB1
  8
0
 62
     0
 10
4.9953772724506189
 20
-15.424411249918
 30
0.0
 11
4.9953772724506189
 21
-15.424411249918
 31
0.0
  0
LINE
  5
15DB2
  8
0
 62
     0
 10
1.720811360398546
 20
-17.937074048151491
 30
0.0
 11
1.720811360398546
 21
-17.937074048151491
 31
0.0
  0
LINE
  5
15DB3
  8
0
 62
     0
 10
4.835374142852241
 20
-10.53027887662458
 30
0.0
 11
4.835374142852241
 21
-10.53027887662458
 31
0.0
  0
LINE
  5
15DB4
  8
0
 62
     0
 10
1.5608082308001681
 20
-13.04294167485808
 30
0.0
 11
1.5608082308001681
 21
-13.04294167485808
 31
0.0
  0
LINE
  5
15DB5
  8
0
 62
     0
 10
4.6753710132538711
 20
-5.6361465033311111
 30
0.0
 11
4.6753710132538711
 21
-5.6361465033311111
 31
0.0
  0
LINE
  5
15DB6
  8
0
 62
     0
 10
7.7383495894502312
 20
-3.2858403782142722
 30
0.0
 11
7.7383495894502312
 21
-3.2858403782142722
 31
0.0
  0
LINE
  5
15DB7
  8
0
 62
     0
 10
7.5783464598517973
 20
1.608291995079111
 30
0.0
 11
7.5783464598517973
 21
1.608291995079111
 31
0.0
  0
LINE
  5
15DB8
  8
0
 62
     0
 10
4.5153678836553954
 20
-0.7420141300377581
 30
0.0
 11
4.5153678836553954
 21
-0.7420141300377581
 31
0.0
  0
LINE
  5
15DB9
  8
0
 62
     0
 10
1.240801971603321
 20
-3.2546769282712522
 30
0.0
 11
1.240801971603321
 21
-3.2546769282712522
 31
0.0
  0
LINE
  5
15DBA
  8
0
 62
     0
 10
4.3553647540568701
 20
4.1521182432556483
 30
0.0
 11
4.3553647540568701
 21
4.1521182432556483
 31
0.0
  0
LINE
  5
15DBB
  8
0
 62
     0
 10
1.080798842004796
 20
1.6394554450221539
 30
0.0
 11
1.080798842004796
 21
1.6394554450221539
 31
0.0
  0
LINE
  5
15DBC
  8
0
 62
     0
 10
7.2583402006548212
 20
11.39655674166589
 30
0.0
 11
7.2583402006548212
 21
11.39655674166589
 31
0.0
  0
LINE
  5
15DBD
  8
0
 62
     0
 10
4.1953616244584193
 20
9.0462506165490275
 30
0.0
 11
4.1953616244584193
 21
9.0462506165490275
 31
0.0
  0
LINE
  5
15DBE
  8
0
 62
     0
 10
7.0983370710565712
 20
16.290689114959349
 30
0.0
 11
7.0983370710565712
 21
16.290689114959349
 31
0.0
  0
LINE
  5
15DBF
  8
0
 62
     0
 10
4.0353584948601702
 20
13.94038298984249
 30
0.0
 11
4.0353584948601702
 21
13.94038298984249
 31
0.0
  0
LINE
  5
15DC0
  8
0
 62
     0
 10
0.7607925828080968
 20
11.427720191608991
 30
0.0
 11
0.7607925828080968
 21
11.427720191608991
 31
0.0
  0
LINE
  5
15DC1
  8
0
 62
     0
 10
6.9383339414581933
 20
21.18482148825278
 30
0.0
 11
6.9383339414581933
 21
21.18482148825278
 31
0.0
  0
LINE
  5
15DC2
  8
0
 62
     0
 10
3.8753553652617909
 20
18.83451536313591
 30
0.0
 11
3.8753553652617909
 21
18.83451536313591
 31
0.0
  0
LINE
  5
15DC3
  8
0
 62
     0
 10
0.6007894532097184
 20
16.321852564902411
 30
0.0
 11
0.6007894532097184
 21
16.321852564902411
 31
0.0
  0
LINE
  5
15DC4
  8
0
 62
     0
 10
6.7783308118597239
 20
26.078953861546189
 30
0.0
 11
6.7783308118597239
 21
26.078953861546189
 31
0.0
  0
LINE
  5
15DC5
  8
0
 62
     0
 10
3.7153522356633228
 20
23.728647736429309
 30
0.0
 11
3.7153522356633228
 21
23.728647736429309
 31
0.0
  0
LINE
  5
15DC6
  8
0
 62
     0
 10
0.4407863236112499
 20
21.21598493819582
 30
0.0
 11
0.4407863236112499
 21
21.21598493819582
 31
0.0
  0
LINE
  5
15DC7
  8
0
 62
     0
 10
6.6183276822614934
 20
30.97308623483967
 30
0.0
 11
6.6183276822614934
 21
30.97308623483967
 31
0.0
  0
LINE
  5
15DC8
  8
0
 62
     0
 10
3.555349106065091
 20
28.6227801097228
 30
0.0
 11
3.555349106065091
 21
28.6227801097228
 31
0.0
  0
LINE
  5
15DC9
  8
0
 62
     0
 10
0.2807831940130185
 20
26.110117311489311
 30
0.0
 11
0.2807831940130185
 21
26.110117311489311
 31
0.0
  0
LINE
  5
15DCA
  8
0
 62
     0
 10
6.458324552662968
 20
35.867218608133022
 30
0.0
 11
6.458324552662968
 21
35.867218608133022
 31
0.0
  0
LINE
  5
15DCB
  8
0
 62
     0
 10
3.3953459764665661
 20
33.516912483016149
 30
0.0
 11
3.3953459764665661
 21
33.516912483016149
 31
0.0
  0
LINE
  5
15DCC
  8
0
 62
     0
 10
0.1207800644144936
 20
31.004249684782661
 30
0.0
 11
0.1207800644144936
 21
31.004249684782661
 31
0.0
  0
LINE
  5
15DCD
  8
0
 62
     0
 10
6.2983214230645901
 20
40.761350981426489
 30
0.0
 11
6.2983214230645901
 21
40.761350981426489
 31
0.0
  0
LINE
  5
15DCE
  8
0
 62
     0
 10
3.2353428468681882
 20
38.41104485630963
 30
0.0
 11
3.2353428468681882
 21
38.41104485630963
 31
0.0
  0
LINE
  5
15DCF
  8
0
 62
     0
 10
3.0753397172696291
 20
43.305177229602961
 30
0.0
 11
3.0753397172696291
 21
43.305177229602961
 31
0.0
  0
ENDBLK
  5
15DD1
  8
0
  0
BLOCK
  8
0
  2
*U72
 70
     1
 10
0.0
 20
0.0
 30
0.0
  3
*U72
  1

  0
INSERT
  5
15DD3
  8
1DIM
  2
_OPEN30
 10
13.168864624287609
 20
36.962675873603018
 30
0.0
 41
2.0
 42
2.0
 43
2.0
 50
313.14282340584191
  0
POLYLINE
  5
15DD4
  8
1DIM
 66
     1
 10
0.0
 20
0.0
 30
0.0
  0
VERTEX
  5
15DD5
  8
1DIM
 10
11.8012259983783
 20
38.42197864853388
 30
0.0
  0
VERTEX
  5
15DD6
  8
1DIM
 10
-2.0871988093631928
 20
53.241256546509689
 30
0.0
  0
VERTEX
  5
15DD7
  8
1DIM
 10
-33.987198809363193
 20
53.241256546509689
 30
0.0
  0
SEQEND
  5
15DD8
  8
1DIM
  0
ENDBLK
  5
15DDA
  8
0
  0
BLOCK
  8
0
  2
*U73
 70
     1
 10
0.0
 20
0.0
 30
0.0
  3
*U73
  1

  0
TEXT
  5
15DDC
  8
1DIM
 62
   201
 10
-31.153865476029861
 20
53.941256546509692
 30
0.0
 40
3.5
  1
裏板9mm以上
  0
ENDBLK
  5
15DDE
  8
0
  0
BLOCK
  8
0
  2
*U74
 70
     1
 10
0.0
 20
0.0
 30
0.0
  3
*U74
  1

  0
LINE
  5
15DE0
  8
0
 10
-29.999999999837598
 20
0.0000465358979227
 30
0.0
 11
-24.700003489975941
 21
-1.4999534641020771
 31
0.0
  0
LINE
  5
15DE1
  8
0
 10
-24.700003489975941
 20
-1.4999534641020771
 30
0.0
 11
-0.0000034900840618
 21
-1.499953464101849
 31
0.0
  0
LINE
  5
15DE2
  8
0
 10
-29.999999999837598
 20
0.0000465358979227
 30
0.0
 11
-24.6999965095923
 21
1.5000465358980359
 31
0.0
  0
LINE
  5
15DE3
  8
0
 10
-0.0000081437821464
 20
-3.4999999999998859
 30
0.0
 11
-0.0000034900840618
 21
-1.499953464101849
 31
0.0
  0
LINE
  5
15DE4
  8
0
 10
-24.6999965095923
 20
1.5000465358980359
 30
0.0
 11
0.0000034903006139
 21
1.500046535897922
 31
0.0
  0
LINE
  5
15DE5
  8
0
 10
-0.0000081437821464
 20
-3.4999999999998859
 30
0.0
 11
1.0999953464131731
 21
-3.5
 31
0.0
  0
LINE
  5
15DE6
  8
0
 10
0.0000034903006139
 20
1.500046535897922
 30
0.0
 11
0.0000081437821322
 21
3.5
 31
0.0
  0
ARC
  5
15DE7
  8
0
 10
1.0999953464131731
 20
-2.0
 30
0.0
 40
1.5
 50
270.0
 51
359.99986668447059
  0
LINE
  5
15DE8
  8
0
 10
0.0000081437821322
 20
3.5
 30
0.0
 11
1.100004653592769
 21
3.5
 31
0.0
  0
LINE
  5
15DE9
  8
0
 10
2.5999953464091159
 20
-2.0000034901923982
 30
0.0
 11
2.6000046535887051
 21
1.9999965098076009
 31
0.0
  0
ARC
  5
15DEA
  8
0
 10
1.100004653592769
 20
2.0
 30
0.0
 40
1.5
 50
359.99986668447059
 51
90.0
  0
ENDBLK
  5
15DEC
  8
0
  0
BLOCK
  8
0
  2
*U75
 70
     1
 10
0.0
 20
0.0
 30
0.0
  3
*U75
  1

  0
LINE
  5
15DEE
  8
0
 10
-9.6499999999999773
 20
2.0
 30
0.0
 11
-0.0000000000000284
 21
2.0
 31
0.0
  0
LINE
  5
15DEF
  8
0
 10
-9.6499999999999773
 20
2.0
 30
0.0
 11
-10.0
 21
1.649999999999977
 31
0.0
  0
LINE
  5
15DF0
  8
0
 10
0.0
 20
3.4999999999999432
 30
0.0
 11
-0.0000000000000284
 21
2.0
 31
0.0
  0
LINE
  5
15DF1
  8
0
 10
-10.0
 20
1.649999999999977
 30
0.0
 11
-10.0
 21
-1.6499999999998629
 31
0.0
  0
LINE
  5
15DF2
  8
0
 10
0.0
 20
3.4999999999999432
 30
0.0
 11
0.5999999999999375
 21
3.4999999999999432
 31
0.0
  0
LINE
  5
15DF3
  8
0
 10
-10.0
 20
-1.6499999999998629
 30
0.0
 11
-9.6499999999999773
 21
-2.0
 31
0.0
  0
ARC
  5
15DF4
  8
0
 10
0.5999999999999944
 20
1.4999999999999429
 30
0.0
 40
2.0
 50
0.0
 51
90.000000000001606
  0
LINE
  5
15DF5
  8
0
 10
-9.6499999999999773
 20
-2.0
 30
0.0
 11
0.0000000000000568
 21
-2.0
 31
0.0
  0
LINE
  5
15DF6
  8
0
 10
2.5999999999999939
 20
1.4999999999999429
 30
0.0
 11
2.5999999999999939
 21
-1.5
 31
0.0
  0
LINE
  5
15DF7
  8
0
 10
0.0000000000000568
 20
-2.0
 30
0.0
 11
0.0
 21
-3.5
 31
0.0
  0
ARC
  5
15DF8
  8
0
 10
0.5999999999999944
 20
-1.5
 30
0.0
 40
2.0
 50
270.0
 51
0.0
  0
LINE
  5
15DF9
  8
0
 10
0.0
 20
-3.5
 30
0.0
 11
0.5999999999999944
 21
-3.5
 31
0.0
  0
ENDBLK
  5
15DFB
  8
0
  0
BLOCK
  8
0
  2
*U76
 70
     1
 10
0.0
 20
0.0
 30
0.0
  3
*U76
  1

  0
LINE
  5
15E21
  8
0
 10
-24.650013959859319
 20
-1.9997699899806769
 30
0.0
 11
-2.3000325751651469
 21
-1.999978593270384
 31
0.0
  0
LINE
  5
15E22
  8
0
 10
-0.3000279215265778
 20
-3.9999972077595198
 30
0.0
 11
-2.3000325751651469
 21
-1.999978593270384
 31
0.0
  0
LINE
  5
15E23
  8
0
 10
-25.000011516714508
 20
-1.649767320475461
 30
0.0
 11
-24.650013959859319
 21
-1.9997699899806769
 31
0.0
  0
LINE
  5
15E24
  8
0
 10
-0.3000279215265778
 20
-3.9999972077595198
 30
0.0
 11
-0.0000279215387877
 21
-3.9999999999133702
 31
0.0
  0
LINE
  5
15E25
  8
0
 10
-24.999988481445051
 20
1.650232679454916
 30
0.0
 11
-25.000011516714508
 21
-1.649767320475461
 31
0.0
  0
LINE
  5
15E26
  8
0
 10
0.0000279215387877
 20
3.9999999999134839
 30
0.0
 11
-0.0000279215387877
 21
-3.9999999999133702
 31
0.0
  0
LINE
  5
15E27
  8
0
 10
-24.999988481445051
 20
1.650232679454916
 30
0.0
 11
-24.649986038320591
 21
2.0002300099321242
 31
0.0
  0
LINE
  5
15E28
  8
0
 10
-0.299972078449116
 20
4.0000027920673338
 30
0.0
 11
0.0000279215387877
 21
3.9999999999134839
 31
0.0
  0
LINE
  5
15E29
  8
0
 10
-24.649986038320591
 20
2.0002300099321242
 30
0.0
 11
-2.299976732000899
 21
2.0000214063830981
 31
0.0
  0
LINE
  5
15E2A
  8
0
 10
-0.299972078449116
 20
4.0000027920673338
 30
0.0
 11
-2.299976732000899
 21
2.0000214063830981
 31
0.0
  0
ENDBLK
  5
15E2C
  8
0
  0
BLOCK
  8
0
  2
*X77
 70
     1
 10
0.0
 20
0.0
 30
0.0
  3
*X77
  1

  0
LINE
  5
15E2E
  8
0
 62
     0
 10
16.671990294007681
 20
-61.391691274362131
 30
0.0
 11
18.0
 21
-60.063681568369759
 31
0.0
  0
LINE
  5
15E2F
  8
0
 62
     0
 10
14.42692626374037
 20
-61.391691274362131
 30
0.0
 11
17.99999999999994
 21
-57.818617538102501
 31
0.0
  0
LINE
  5
15E30
  8
0
 62
     0
 10
12.18186223347311
 20
-61.391691274362131
 30
0.0
 11
18.0
 21
-55.573553507835179
 31
0.0
  0
LINE
  5
15E31
  8
0
 62
     0
 10
9.9367982032057398
 20
-61.391691274362181
 30
0.0
 11
18.0
 21
-53.328489477567928
 31
0.0
  0
LINE
  5
15E32
  8
0
 62
     0
 10
9.0000000000001137
 20
-60.083425447300549
 30
0.0
 11
18.0
 21
-51.083425447300669
 31
0.0
  0
LINE
  5
15E33
  8
0
 62
     0
 10
9.0000000000000568
 20
-57.83836141703329
 30
0.0
 11
17.99999999999994
 21
-48.838361417033411
 31
0.0
  0
LINE
  5
15E34
  8
0
 62
     0
 10
9.0000000000000568
 20
-55.593297386765919
 30
0.0
 11
17.99999999999994
 21
-46.593297386766032
 31
0.0
  0
LINE
  5
15E35
  8
0
 62
     0
 10
9.0000000000000568
 20
-53.348233356498667
 30
0.0
 11
17.99999999999994
 21
-44.348233356498781
 31
0.0
  0
LINE
  5
15E36
  8
0
 62
     0
 10
9.0000000000000568
 20
-51.103169326231409
 30
0.0
 11
18.00000000000006
 21
-42.103169326231459
 31
0.0
  0
LINE
  5
15E37
  8
0
 62
     0
 10
9.0000000000000568
 20
-48.858105295964087
 30
0.0
 11
18.0
 21
-39.858105295964208
 31
0.0
  0
LINE
  5
15E38
  8
0
 62
     0
 10
9.0000000000000568
 20
-46.613041265696722
 30
0.0
 11
18.0
 21
-37.613041265696843
 31
0.0
  0
LINE
  5
15E39
  8
0
 62
     0
 10
9.0000000000000568
 20
-44.367977235429457
 30
0.0
 11
18.0
 21
-35.367977235429578
 31
0.0
  0
LINE
  5
15E3A
  8
0
 62
     0
 10
9.0000000000000568
 20
-42.122913205162213
 30
0.0
 11
18.0
 21
-33.12291320516232
 31
0.0
  0
LINE
  5
15E3B
  8
0
 62
     0
 10
9.0
 20
-39.877849174894948
 30
0.0
 11
17.99999999999994
 21
-30.877849174895061
 31
0.0
  0
LINE
  5
15E3C
  8
0
 62
     0
 10
9.0
 20
-37.63278514462769
 30
0.0
 11
18.0
 21
-28.63278514462769
 31
0.0
  0
LINE
  5
15E3D
  8
0
 62
     0
 10
9.0
 20
-35.387721114360431
 30
0.0
 11
18.0
 21
-26.387721114360431
 31
0.0
  0
LINE
  5
15E3E
  8
0
 62
     0
 10
8.9999999999999432
 20
-33.14265708409318
 30
0.0
 11
17.99999999999994
 21
-24.14265708409317
 31
0.0
  0
LINE
  5
15E3F
  8
0
 62
     0
 10
8.9999999999999432
 20
-30.897593053825918
 30
0.0
 11
17.99999999999994
 21
-21.897593053825918
 31
0.0
  0
LINE
  5
15E40
  8
0
 62
     0
 10
8.9999999999999432
 20
-28.65252902355866
 30
0.0
 11
17.99999999999994
 21
-19.65252902355866
 31
0.0
  0
LINE
  5
15E41
  8
0
 62
     0
 10
8.9999999999999432
 20
-26.407464993291399
 30
0.0
 11
18.0
 21
-17.407464993291342
 31
0.0
  0
LINE
  5
15E42
  8
0
 62
     0
 10
9.0
 20
-24.16240096302403
 30
0.0
 11
17.99999999999994
 21
-15.16240096302403
 31
0.0
  0
LINE
  5
15E43
  8
0
 62
     0
 10
8.9999999999999432
 20
-21.917336932756712
 30
0.0
 11
17.99999999999994
 21
-12.91733693275671
 31
0.0
  0
LINE
  5
15E44
  8
0
 62
     0
 10
8.9999999999999432
 20
-19.67227290248945
 30
0.0
 11
17.99999999999994
 21
-10.67227290248945
 31
0.0
  0
LINE
  5
15E45
  8
0
 62
     0
 10
8.9999999999999432
 20
-17.427208872222192
 30
0.0
 11
15.821190608570189
 21
-10.606018263652
 31
0.0
  0
LINE
  5
15E46
  8
0
 62
     0
 10
16.78433035397688
 20
-7.3978144879779393
 30
0.0
 11
18.0
 21
-6.1821448419548801
 31
0.0
  0
LINE
  5
15E47
  8
0
 62
     0
 10
8.9999999999998863
 20
-15.182144841954941
 30
0.0
 11
13.682098306056441
 21
-10.500046535898431
 31
0.0
  0
LINE
  5
15E48
  8
0
 62
     0
 10
11.14073620626419
 20
-10.796344605423309
 30
0.0
 11
11.437034275789189
 21
-10.50004653589837
 31
0.0
  0
LINE
  5
15E49
  8
0
 62
     0
 10
14.437034275789189
 20
-7.5000465358983197
 30
0.0
 11
18.00000000000006
 21
-3.9370808116874509
 31
0.0
  0
LINE
  5
15E4A
  8
0
 62
     0
 10
8.9999999999998863
 20
-12.93708081168762
 30
0.0
 11
11.072835431113271
 21
-10.86424538057423
 31
0.0
  0
LINE
  5
15E4B
  8
0
 62
     0
 10
12.191970245521761
 20
-7.5000465358984911
 30
0.0
 11
18.00000000000006
 21
-1.692016781420193
 31
0.0
  0
LINE
  5
15E4C
  8
0
 62
     0
 10
9.0
 20
-10.69201678142031
 30
0.0
 11
9.1919702455219294
 21
-10.50004653589837
 31
0.0
  0
LINE
  5
15E4D
  8
0
 62
     0
 10
10.32448800965261
 20
-7.1224647415003801
 30
0.0
 11
18.00000000000006
 21
0.5530472488470651
 31
0.0
  0
LINE
  5
15E4E
  8
0
 62
     0
 10
9.9469062152545007
 20
-7.5000465358984911
 30
0.0
 11
10.26327872882478
 21
-7.1836740223282041
 31
0.0
  0
LINE
  5
15E4F
  8
0
 62
     0
 10
8.9999999999999432
 20
-6.2018887208857896
 30
0.0
 11
18.0
 21
2.7981112791143228
 31
0.0
  0
LINE
  5
15E50
  8
0
 62
     0
 10
8.9999999999999432
 20
-3.956824690618475
 30
0.0
 11
18.00000000000006
 21
5.0431753093816951
 31
0.0
  0
LINE
  5
15E51
  8
0
 62
     0
 10
8.9999999999999432
 20
-1.711760660351217
 30
0.0
 11
18.00000000000006
 21
7.2882393396489533
 31
0.0
  0
LINE
  5
15E52
  8
0
 62
     0
 10
8.9999999999999432
 20
0.533303369916041
 30
0.0
 11
15.827771837741579
 21
7.3610752076577342
 31
0.0
  0
LINE
  5
15E53
  8
0
 62
     0
 10
16.79123737884305
 20
10.56960477902652
 30
0.0
 11
18.0
 21
11.778367400183519
 31
0.0
  0
LINE
  5
15E54
  8
0
 62
     0
 10
8.9999999999999432
 20
2.7783674001834688
 30
0.0
 11
13.721586063918149
 21
7.4999534641016794
 31
0.0
  0
LINE
  5
15E55
  8
0
 62
     0
 10
11.13086412323616
 20
7.154295553686949
 30
0.0
 11
11.47652203365084
 21
7.4999534641015648
 31
0.0
  0
LINE
  5
15E56
  8
0
 62
     0
 10
14.47652203365084
 20
10.499953464101621
 30
0.0
 11
18.00000000000011
 21
14.02343143045084
 31
0.0
  0
LINE
  5
15E57
  8
0
 62
     0
 10
8.9999999999999432
 20
5.023431430450727
 30
0.0
 11
11.079416660284719
 21
7.102848090735506
 31
0.0
  0
LINE
  5
15E58
  8
0
 62
     0
 10
12.231458003383411
 20
10.49995346410145
 30
0.0
 11
18.00000000000006
 21
16.26849546071816
 31
0.0
  0
LINE
  5
15E59
  8
0
 62
     0
 10
8.9999999999999432
 20
7.2684954607179861
 30
0.0
 11
9.2314580033835796
 21
7.4999534641015648
 31
0.0
  0
LINE
  5
15E5A
  8
0
 62
     0
 10
10.33106923882394
 20
10.844628729809241
 30
0.0
 11
18.00000000000006
 21
18.513559490985411
 31
0.0
  0
LINE
  5
15E5B
  8
0
 62
     0
 10
9.9863939731161508
 20
10.49995346410145
 30
0.0
 11
10.25340664579676
 21
10.766966136782059
 31
0.0
  0
LINE
  5
15E5C
  8
0
 62
     0
 10
9.0000000000000568
 20
11.75862352125273
 30
0.0
 11
18.0
 21
20.75862352125273
 31
0.0
  0
LINE
  5
15E5D
  8
0
 62
     0
 10
9.0000000000001137
 20
14.00368755152004
 30
0.0
 11
18.0
 21
23.003687551519992
 31
0.0
  0
LINE
  5
15E5E
  8
0
 62
     0
 10
9.0000000000001137
 20
16.2487515817873
 30
0.0
 11
18.00000000000011
 21
25.24875158178725
 31
0.0
  0
LINE
  5
15E5F
  8
0
 62
     0
 10
9.0000000000000568
 20
18.493815612054561
 30
0.0
 11
18.00000000000006
 21
27.493815612054512
 31
0.0
  0
LINE
  5
15E60
  8
0
 62
     0
 10
9.0000000000000568
 20
20.73887964232188
 30
0.0
 11
18.00000000000006
 21
29.73887964232182
 31
0.0
  0
LINE
  5
15E61
  8
0
 62
     0
 10
9.0000000000000568
 20
22.983943672589131
 30
0.0
 11
18.00000000000006
 21
31.983943672589081
 31
0.0
  0
LINE
  5
15E62
  8
0
 62
     0
 10
9.0000000000001705
 20
25.22900770285645
 30
0.0
 11
18.00000000000006
 21
34.229007702856343
 31
0.0
  0
LINE
  5
15E63
  8
0
 62
     0
 10
9.0000000000001137
 20
27.474071733123711
 30
0.0
 11
18.00000000000011
 21
36.474071733123708
 31
0.0
  0
LINE
  5
15E64
  8
0
 62
     0
 10
9.0000000000001137
 20
29.71913576339103
 30
0.0
 11
18.00000000000011
 21
38.719135763391023
 31
0.0
  0
LINE
  5
15E65
  8
0
 62
     0
 10
9.0000000000001137
 20
31.964199793658281
 30
0.0
 11
18.00000000000011
 21
40.964199793658281
 31
0.0
  0
LINE
  5
15E66
  8
0
 62
     0
 10
9.0000000000001137
 20
34.209263823925539
 30
0.0
 11
18.00000000000011
 21
43.209263823925539
 31
0.0
  0
LINE
  5
15E67
  8
0
 62
     0
 10
9.0000000000000568
 20
36.454327854192968
 30
0.0
 11
17.245208523150438
 21
44.699536377343229
 31
0.0
  0
LINE
  5
15E68
  8
0
 62
     0
 10
9.0000000000000568
 20
38.699391884460113
 30
0.0
 11
15.00014449288318
 21
44.699536377343229
 31
0.0
  0
LINE
  5
15E69
  8
0
 62
     0
 10
9.0000000000000568
 20
40.944455914727477
 30
0.0
 11
12.75508046261592
 21
44.699536377343229
 31
0.0
  0
LINE
  5
15E6A
  8
0
 62
     0
 10
9.0000000000001137
 20
43.189519944994743
 30
0.0
 11
10.510016432348721
 21
44.699536377343229
 31
0.0
  0
ENDBLK
  5
15E6C
  8
0
  0
BLOCK
  8
0
  2
*X78
 70
     1
 10
0.0
 20
0.0
 30
0.0
  3
*X78
  1

  0
LINE
  5
15E6E
  8
0
 62
     0
 10
4.719668856187476
 20
-60.905108537765202
 30
0.0
 11
4.719668856187476
 21
-60.905108537765202
 31
0.0
  0
LINE
  5
15E6F
  8
0
 62
     0
 10
2.5099012223001722
 20
-58.880229567499541
 30
0.0
 11
2.5099012223001722
 21
-58.880229567499541
 31
0.0
  0
LINE
  5
15E70
  8
0
 62
     0
 10
2.0417301134257442
 20
-58.4512297856636
 30
0.0
 11
2.0417301134257442
 21
-58.4512297856636
 31
0.0
  0
LINE
  5
15E71
  8
0
 62
     0
 10
7.1491706502268144
 20
-53.905337731177347
 30
0.0
 11
7.1491706502268144
 21
-53.905337731177347
 31
0.0
  0
LINE
  5
15E72
  8
0
 62
     0
 10
4.9394030163395106
 20
-51.880458760911701
 30
0.0
 11
4.9394030163395106
 21
-51.880458760911701
 31
0.0
  0
LINE
  5
15E73
  8
0
 62
     0
 10
4.471231907465083
 20
-51.451458979075753
 30
0.0
 11
4.471231907465083
 21
-51.451458979075753
 31
0.0
  0
LINE
  5
15E74
  8
0
 62
     0
 10
1.943107919543168
 20
-49.134860157161647
 30
0.0
 11
1.943107919543168
 21
-49.134860157161647
 31
0.0
  0
LINE
  5
15E75
  8
0
 62
     0
 10
7.3689048103787469
 20
-44.880687954323847
 30
0.0
 11
7.3689048103787469
 21
-44.880687954323847
 31
0.0
  0
LINE
  5
15E76
  8
0
 62
     0
 10
6.9007337015043193
 20
-44.451688172487913
 30
0.0
 11
6.9007337015043193
 21
-44.451688172487913
 31
0.0
  0
LINE
  5
15E77
  8
0
 62
     0
 10
4.3726097135824036
 20
-42.135089350573821
 30
0.0
 11
4.3726097135824036
 21
-42.135089350573821
 31
0.0
  0
LINE
  5
15E78
  8
0
 62
     0
 10
2.1628420796950998
 20
-40.11021038030816
 30
0.0
 11
2.1628420796950998
 21
-40.11021038030816
 31
0.0
  0
LINE
  5
15E79
  8
0
 62
     0
 10
1.694670970820672
 20
-39.681210598472219
 30
0.0
 11
1.694670970820672
 21
-39.681210598472219
 31
0.0
  0
LINE
  5
15E7A
  8
0
 62
     0
 10
6.8021115076217677
 20
-35.135318543985953
 30
0.0
 11
6.8021115076217677
 21
-35.135318543985953
 31
0.0
  0
LINE
  5
15E7B
  8
0
 62
     0
 10
4.592343873734464
 20
-33.110439573720278
 30
0.0
 11
4.592343873734464
 21
-33.110439573720278
 31
0.0
  0
LINE
  5
15E7C
  8
0
 62
     0
 10
4.1241727648600364
 20
-32.681439791884351
 30
0.0
 11
4.1241727648600364
 21
-32.681439791884351
 31
0.0
  0
LINE
  5
15E7D
  8
0
 62
     0
 10
1.5960487769381211
 20
-30.364840969970238
 30
0.0
 11
1.5960487769381211
 21
-30.364840969970238
 31
0.0
  0
LINE
  5
15E7E
  8
0
 62
     0
 10
7.0218456677738237
 20
-26.110668767132399
 30
0.0
 11
7.0218456677738237
 21
-26.110668767132399
 31
0.0
  0
LINE
  5
15E7F
  8
0
 62
     0
 10
6.5536745588993961
 20
-25.681668985296461
 30
0.0
 11
6.5536745588993961
 21
-25.681668985296461
 31
0.0
  0
LINE
  5
15E80
  8
0
 62
     0
 10
4.0255505709774813
 20
-23.365070163382359
 30
0.0
 11
4.0255505709774813
 21
-23.365070163382359
 31
0.0
  0
LINE
  5
15E81
  8
0
 62
     0
 10
1.8157829370901779
 20
-21.340191193116699
 30
0.0
 11
1.8157829370901779
 21
-21.340191193116699
 31
0.0
  0
LINE
  5
15E82
  8
0
 62
     0
 10
1.347611828215749
 20
-20.911191411280761
 30
0.0
 11
1.347611828215749
 21
-20.911191411280761
 31
0.0
  0
LINE
  5
15E83
  8
0
 62
     0
 10
8.9831763529386919
 20
-18.681898178708529
 30
0.0
 11
8.9831763529386919
 21
-18.681898178708529
 31
0.0
  0
LINE
  5
15E84
  8
0
 62
     0
 10
6.4550523650167762
 20
-16.365299356794441
 30
0.0
 11
6.4550523650167762
 21
-16.365299356794441
 31
0.0
  0
LINE
  5
15E85
  8
0
 62
     0
 10
4.2452847311294732
 20
-14.34042038652878
 30
0.0
 11
4.2452847311294732
 21
-14.34042038652878
 31
0.0
  0
LINE
  5
15E86
  8
0
 62
     0
 10
3.7771136222550439
 20
-13.911420604692839
 30
0.0
 11
3.7771136222550439
 21
-13.911420604692839
 31
0.0
  0
LINE
  5
15E87
  8
0
 62
     0
 10
1.248989634333129
 20
-11.59482178277873
 30
0.0
 11
1.248989634333129
 21
-11.59482178277873
 31
0.0
  0
LINE
  5
15E88
  8
0
 62
     0
 10
6.6747865251688028
 20
-7.340649579940961
 30
0.0
 11
6.6747865251688028
 21
-7.340649579940961
 31
0.0
  0
LINE
  5
15E89
  8
0
 62
     0
 10
6.2066154162943752
 20
-6.9116497981050173
 30
0.0
 11
6.2066154162943752
 21
-6.9116497981050173
 31
0.0
  0
LINE
  5
15E8A
  8
0
 62
     0
 10
3.6784914283724599
 20
-4.5950509761909171
 30
0.0
 11
3.6784914283724599
 21
-4.5950509761909171
 31
0.0
  0
LINE
  5
15E8B
  8
0
 62
     0
 10
1.468723794485157
 20
-2.5701720059252589
 30
0.0
 11
1.468723794485157
 21
-2.5701720059252589
 31
0.0
  0
LINE
  5
15E8C
  8
0
 62
     0
 10
1.0005526856107281
 20
-2.1411722240893152
 30
0.0
 11
1.0005526856107281
 21
-2.1411722240893152
 31
0.0
  0
LINE
  5
15E8D
  8
0
 62
     0
 10
8.6361172103337154
 20
0.0881210084828284
 30
0.0
 11
8.6361172103337154
 21
0.0881210084828284
 31
0.0
  0
LINE
  5
15E8E
  8
0
 62
     0
 10
6.1079932224118014
 20
2.4047198303969282
 30
0.0
 11
6.1079932224118014
 21
2.4047198303969282
 31
0.0
  0
LINE
  5
15E8F
  8
0
 62
     0
 10
3.8982255885244972
 20
4.4295988006625846
 30
0.0
 11
3.8982255885244972
 21
4.4295988006625846
 31
0.0
  0
LINE
  5
15E90
  8
0
 62
     0
 10
3.4300544796500692
 20
4.85859858249853
 30
0.0
 11
3.4300544796500692
 21
4.85859858249853
 31
0.0
  0
LINE
  5
15E91
  8
0
 62
     0
 10
0.9019304917281541
 20
7.1751974044126294
 30
0.0
 11
0.9019304917281541
 21
7.1751974044126294
 31
0.0
  0
LINE
  5
15E92
  8
0
 62
     0
 10
6.3277273825637756
 20
11.42936960725048
 30
0.0
 11
6.3277273825637756
 21
11.42936960725048
 31
0.0
  0
LINE
  5
15E93
  8
0
 62
     0
 10
5.8595562736893481
 20
11.85836938908642
 30
0.0
 11
5.8595562736893481
 21
11.85836938908642
 31
0.0
  0
LINE
  5
15E94
  8
0
 62
     0
 10
3.3314322857674332
 20
14.17496821100052
 30
0.0
 11
3.3314322857674332
 21
14.17496821100052
 31
0.0
  0
LINE
  5
15E95
  8
0
 62
     0
 10
1.121664651880129
 20
16.199847181266179
 30
0.0
 11
1.121664651880129
 21
16.199847181266179
 31
0.0
  0
LINE
  5
15E96
  8
0
 62
     0
 10
0.6534935430057013
 20
16.628846963102131
 30
0.0
 11
0.6534935430057013
 21
16.628846963102131
 31
0.0
  0
LINE
  5
15E97
  8
0
 62
     0
 10
8.757229176603154
 20
18.429140413838351
 30
0.0
 11
8.757229176603154
 21
18.429140413838351
 31
0.0
  0
LINE
  5
15E98
  8
0
 62
     0
 10
8.2890580677287247
 20
18.858140195674299
 30
0.0
 11
8.2890580677287247
 21
18.858140195674299
 31
0.0
  0
LINE
  5
15E99
  8
0
 62
     0
 10
5.7609340798068081
 20
21.174739017588401
 30
0.0
 11
5.7609340798068081
 21
21.174739017588401
 31
0.0
  0
LINE
  5
15E9A
  8
0
 62
     0
 10
3.5511664459195051
 20
23.199617987854051
 30
0.0
 11
3.5511664459195051
 21
23.199617987854051
 31
0.0
  0
LINE
  5
15E9B
  8
0
 62
     0
 10
3.0829953370450758
 20
23.628617769689999
 30
0.0
 11
3.0829953370450758
 21
23.628617769689999
 31
0.0
  0
LINE
  5
15E9C
  8
0
 62
     0
 10
0.5548713491231618
 20
25.945216591604101
 30
0.0
 11
0.5548713491231618
 21
25.945216591604101
 31
0.0
  0
LINE
  5
15E9D
  8
0
 62
     0
 10
8.1904358738460896
 20
28.17450982417618
 30
0.0
 11
8.1904358738460896
 21
28.17450982417618
 31
0.0
  0
LINE
  5
15E9E
  8
0
 62
     0
 10
5.9806682399587858
 20
30.199388794441841
 30
0.0
 11
5.9806682399587858
 21
30.199388794441841
 31
0.0
  0
LINE
  5
15E9F
  8
0
 62
     0
 10
5.5124971310843582
 20
30.628388576277789
 30
0.0
 11
5.5124971310843582
 21
30.628388576277789
 31
0.0
  0
LINE
  5
15EA0
  8
0
 62
     0
 10
2.984373143162443
 20
32.944987398191877
 30
0.0
 11
2.984373143162443
 21
32.944987398191877
 31
0.0
  0
LINE
  5
15EA1
  8
0
 62
     0
 10
0.7746055092751402
 20
34.969866368457538
 30
0.0
 11
0.7746055092751402
 21
34.969866368457538
 31
0.0
  0
LINE
  5
15EA2
  8
0
 62
     0
 10
0.3064344004007115
 20
35.398866150293493
 30
0.0
 11
0.3064344004007115
 21
35.398866150293493
 31
0.0
  0
LINE
  5
15EA3
  8
0
 62
     0
 10
8.41017003399811
 20
37.199159601029763
 30
0.0
 11
8.41017003399811
 21
37.199159601029763
 31
0.0
  0
LINE
  5
15EA4
  8
0
 62
     0
 10
7.9419989251236807
 20
37.628159382865697
 30
0.0
 11
7.9419989251236807
 21
37.628159382865697
 31
0.0
  0
LINE
  5
15EA5
  8
0
 62
     0
 10
5.4138749372017658
 20
39.944758204779802
 30
0.0
 11
5.4138749372017658
 21
39.944758204779802
 31
0.0
  0
LINE
  5
15EA6
  8
0
 62
     0
 10
3.204107303314462
 20
41.969637175045463
 30
0.0
 11
3.204107303314462
 21
41.969637175045463
 31
0.0
  0
LINE
  5
15EA7
  8
0
 62
     0
 10
2.735936194440034
 20
42.398636956881397
 30
0.0
 11
2.735936194440034
 21
42.398636956881397
 31
0.0
  0
LINE
  5
15EA8
  8
0
 62
     0
 10
3.8802392881250851
 20
-61.296643484138428
 30
0.0
 11
3.8802392881250851
 21
-61.296643484138428
 31
0.0
  0
LINE
  5
15EA9
  8
0
 62
     0
 10
6.7559594504826217
 20
-58.075130275130718
 30
0.0
 11
6.7559594504826217
 21
-58.075130275130718
 31
0.0
  0
LINE
  5
15EAA
  8
0
 62
     0
 10
2.8999737602261102
 20
-55.618596465769052
 30
0.0
 11
2.8999737602261102
 21
-55.618596465769052
 31
0.0
  0
LINE
  5
15EAB
  8
0
 62
     0
 10
1.8288666240437459
 20
-54.936225963168582
 30
0.0
 11
1.8288666240437459
 21
-54.936225963168582
 31
0.0
  0
LINE
  5
15EAC
  8
0
 62
     0
 10
4.7045867864011877
 20
-51.714712754160921
 30
0.0
 11
4.7045867864011877
 21
-51.714712754160921
 31
0.0
  0
LINE
  5
15EAD
  8
0
 62
     0
 10
0.8486010961446758
 20
-49.258178944799241
 30
0.0
 11
0.8486010961446758
 21
-49.258178944799241
 31
0.0
  0
LINE
  5
15EAE
  8
0
 62
     0
 10
8.7585247985592201
 20
-49.243807098013797
 30
0.0
 11
8.7585247985592201
 21
-49.243807098013797
 31
0.0
  0
LINE
  5
15EAF
  8
0
 62
     0
 10
7.6874176623768546
 20
-48.561436595413333
 30
0.0
 11
7.6874176623768546
 21
-48.561436595413333
 31
0.0
  0
LINE
  5
15EB0
  8
0
 62
     0
 10
2.6532141223197412
 20
-45.354295233191131
 30
0.0
 11
2.6532141223197412
 21
-45.354295233191131
 31
0.0
  0
LINE
  5
15EB1
  8
0
 62
     0
 10
6.7071521344778677
 20
-42.883389577044078
 30
0.0
 11
6.7071521344778677
 21
-42.883389577044078
 31
0.0
  0
LINE
  5
15EB2
  8
0
 62
     0
 10
5.6360449982955041
 20
-42.201019074443607
 30
0.0
 11
5.6360449982955041
 21
-42.201019074443607
 31
0.0
  0
LINE
  5
15EB3
  8
0
 62
     0
 10
0.6018414582383905
 20
-38.993877712221433
 30
0.0
 11
0.6018414582383905
 21
-38.993877712221433
 31
0.0
  0
LINE
  5
15EB4
  8
0
 62
     0
 10
8.5117651606529581
 20
-38.97950586543589
 30
0.0
 11
8.5117651606529581
 21
-38.97950586543589
 31
0.0
  0
LINE
  5
15EB5
  8
0
 62
     0
 10
4.6557794703964452
 20
-36.522972056074209
 30
0.0
 11
4.6557794703964452
 21
-36.522972056074209
 31
0.0
  0
LINE
  5
15EB6
  8
0
 62
     0
 10
3.5846723342140798
 20
-35.840601553473739
 30
0.0
 11
3.5846723342140798
 21
-35.840601553473739
 31
0.0
  0
LINE
  5
15EB7
  8
0
 62
     0
 10
6.4603924965714628
 20
-32.619088344466078
 30
0.0
 11
6.4603924965714628
 21
-32.619088344466078
 31
0.0
  0
LINE
  5
15EB8
  8
0
 62
     0
 10
2.6044068063149499
 20
-30.162554535104402
 30
0.0
 11
2.6044068063149499
 21
-30.162554535104402
 31
0.0
  0
LINE
  5
15EB9
  8
0
 62
     0
 10
1.5332996701325861
 20
-29.480184032503931
 30
0.0
 11
1.5332996701325861
 21
-29.480184032503931
 31
0.0
  0
LINE
  5
15EBA
  8
0
 62
     0
 10
4.4090198324901886
 20
-26.258670823496349
 30
0.0
 11
4.4090198324901886
 21
-26.258670823496349
 31
0.0
  0
LINE
  5
15EBB
  8
0
 62
     0
 10
0.5530341422336775
 20
-23.802137014134669
 30
0.0
 11
0.5530341422336775
 21
-23.802137014134669
 31
0.0
  0
LINE
  5
15EBC
  8
0
 62
     0
 10
8.4629578446482672
 20
-23.78776516734921
 30
0.0
 11
8.4629578446482672
 21
-23.78776516734921
 31
0.0
  0
LINE
  5
15EBD
  8
0
 62
     0
 10
7.3918507084659044
 20
-23.105394664748751
 30
0.0
 11
7.3918507084659044
 21
-23.105394664748751
 31
0.0
  0
LINE
  5
15EBE
  8
0
 62
     0
 10
2.3576471684087901
 20
-19.898253302526548
 30
0.0
 11
2.3576471684087901
 21
-19.898253302526548
 31
0.0
  0
LINE
  5
15EBF
  8
0
 62
     0
 10
6.4115851805667248
 20
-17.427347646379371
 30
0.0
 11
6.4115851805667248
 21
-17.427347646379371
 31
0.0
  0
LINE
  5
15EC0
  8
0
 62
     0
 10
5.3404780443843611
 20
-16.7449771437789
 30
0.0
 11
5.3404780443843611
 21
-16.7449771437789
 31
0.0
  0
LINE
  5
15EC1
  8
0
 62
     0
 10
0.3062745043272478
 20
-13.53783578155671
 30
0.0
 11
0.3062745043272478
 21
-13.53783578155671
 31
0.0
  0
LINE
  5
15EC2
  8
0
 62
     0
 10
8.2161982067418311
 20
-13.52346393477128
 30
0.0
 11
8.2161982067418311
 21
-13.52346393477128
 31
0.0
  0
LINE
  5
15EC3
  8
0
 62
     0
 10
4.3602125164853183
 20
-11.0669301254096
 30
0.0
 11
4.3602125164853183
 21
-11.0669301254096
 31
0.0
  0
LINE
  5
15EC4
  8
0
 62
     0
 10
6.1648255426604877
 20
-7.1630464138015846
 30
0.0
 11
6.1648255426604877
 21
-7.1630464138015846
 31
0.0
  0
LINE
  5
15EC5
  8
0
 62
     0
 10
2.3088398524039762
 20
-4.7065126044399053
 30
0.0
 11
2.3088398524039762
 21
-4.7065126044399053
 31
0.0
  0
LINE
  5
15EC6
  8
0
 62
     0
 10
1.237732716221611
 20
-4.0241421018394377
 30
0.0
 11
1.237732716221611
 21
-4.0241421018394377
 31
0.0
  0
LINE
  5
15EC7
  8
0
 62
     0
 10
4.1134528785791007
 20
-0.802628892831747
 30
0.0
 11
4.1134528785791007
 21
-0.802628892831747
 31
0.0
  0
LINE
  5
15EC8
  8
0
 62
     0
 10
0.2574671883225893
 20
1.6539049165299331
 30
0.0
 11
0.2574671883225893
 21
1.6539049165299331
 31
0.0
  0
LINE
  5
15EC9
  8
0
 62
     0
 10
8.1673908907370851
 20
1.6682767633154569
 30
0.0
 11
8.1673908907370851
 21
1.6682767633154569
 31
0.0
  0
LINE
  5
15ECA
  8
0
 62
     0
 10
7.0962837545547197
 20
2.350647265915923
 30
0.0
 11
7.0962837545547197
 21
2.350647265915923
 31
0.0
  0
LINE
  5
15ECB
  8
0
 62
     0
 10
2.0620802144976071
 20
5.557788628138117
 30
0.0
 11
2.0620802144976071
 21
5.557788628138117
 31
0.0
  0
LINE
  5
15ECC
  8
0
 62
     0
 10
0.0107075504163213
 20
11.91820614910781
 30
0.0
 11
0.0107075504163213
 21
11.91820614910781
 31
0.0
  0
LINE
  5
15ECD
  8
0
 62
     0
 10
7.9206312528308631
 20
11.932577995893361
 30
0.0
 11
7.9206312528308631
 21
11.932577995893361
 31
0.0
  0
LINE
  5
15ECE
  8
0
 62
     0
 10
4.0646455625743521
 20
14.389111805255039
 30
0.0
 11
4.0646455625743521
 21
14.389111805255039
 31
0.0
  0
LINE
  5
15ECF
  8
0
 62
     0
 10
2.9935384263919871
 20
15.07148230785551
 30
0.0
 11
2.9935384263919871
 21
15.07148230785551
 31
0.0
  0
LINE
  5
15ED0
  8
0
 62
     0
 10
5.8692585887494468
 20
18.292995516863161
 30
0.0
 11
5.8692585887494468
 21
18.292995516863161
 31
0.0
  0
LINE
  5
15ED1
  8
0
 62
     0
 10
2.0132728984929349
 20
20.749529326224842
 30
0.0
 11
2.0132728984929349
 21
20.749529326224842
 31
0.0
  0
LINE
  5
15ED2
  8
0
 62
     0
 10
0.9421657623105714
 20
21.431899828825308
 30
0.0
 11
0.9421657623105714
 21
21.431899828825308
 31
0.0
  0
LINE
  5
15ED3
  8
0
 62
     0
 10
8.8520894647250579
 20
21.44627167561082
 30
0.0
 11
8.8520894647250579
 21
21.44627167561082
 31
0.0
  0
LINE
  5
15ED4
  8
0
 62
     0
 10
3.817885924667944
 20
24.653413037833008
 30
0.0
 11
3.817885924667944
 21
24.653413037833008
 31
0.0
  0
LINE
  5
15ED5
  8
0
 62
     0
 10
7.8718239368261278
 20
27.124318693980069
 30
0.0
 11
7.8718239368261278
 21
27.124318693980069
 31
0.0
  0
LINE
  5
15ED6
  8
0
 62
     0
 10
6.8007168006437642
 20
27.806689196580539
 30
0.0
 11
6.8007168006437642
 21
27.806689196580539
 31
0.0
  0
LINE
  5
15ED7
  8
0
 62
     0
 10
1.76651326058665
 20
31.013830558802731
 30
0.0
 11
1.76651326058665
 21
31.013830558802731
 31
0.0
  0
LINE
  5
15ED8
  8
0
 62
     0
 10
5.8204512727446627
 20
33.484736214949912
 30
0.0
 11
5.8204512727446627
 21
33.484736214949912
 31
0.0
  0
LINE
  5
15ED9
  8
0
 62
     0
 10
4.749344136562299
 20
34.167106717550368
 30
0.0
 11
4.749344136562299
 21
34.167106717550368
 31
0.0
  0
LINE
  5
15EDA
  8
0
 62
     0
 10
7.6250642989196979
 20
37.388619926558029
 30
0.0
 11
7.6250642989196979
 21
37.388619926558029
 31
0.0
  0
LINE
  5
15EDB
  8
0
 62
     0
 10
3.769078608663186
 20
39.845153735919709
 30
0.0
 11
3.769078608663186
 21
39.845153735919709
 31
0.0
  0
LINE
  5
15EDC
  8
0
 62
     0
 10
2.697971472480821
 20
40.527524238520179
 30
0.0
 11
2.697971472480821
 21
40.527524238520179
 31
0.0
  0
LINE
  5
15EDD
  8
0
 62
     0
 10
5.5736916348382826
 20
43.749037447527833
 30
0.0
 11
5.5736916348382826
 21
43.749037447527833
 31
0.0
  0
LINE
  5
15EDE
  8
0
 62
     0
 10
8.5586983347236547
 20
-60.733363906378372
 30
0.0
 11
8.5586983347236547
 21
-60.733363906378372
 31
0.0
  0
LINE
  5
15EDF
  8
0
 62
     0
 10
6.493716977454282
 20
-61.00522385953429
 30
0.0
 11
6.493716977454282
 21
-61.00522385953429
 31
0.0
  0
LINE
  5
15EE0
  8
0
 62
     0
 10
5.1716252548123061
 20
-61.179280536859729
 30
0.0
 11
5.1716252548123061
 21
-61.179280536859729
 31
0.0
  0
LINE
  5
15EE1
  8
0
 62
     0
 10
6.2168282575837468
 20
-54.465234574863508
 30
0.0
 11
6.2168282575837468
 21
-54.465234574863508
 31
0.0
  0
LINE
  5
15EE2
  8
0
 62
     0
 10
4.151846900314375
 20
-54.737094528019441
 30
0.0
 11
4.151846900314375
 21
-54.737094528019441
 31
0.0
  0
LINE
  5
15EE3
  8
0
 62
     0
 10
2.829755177672399
 20
-54.911151205344872
 30
0.0
 11
2.829755177672399
 21
-54.911151205344872
 31
0.0
  0
LINE
  5
15EE4
  8
0
 62
     0
 10
8.6470797316944097
 20
-47.568843522335911
 30
0.0
 11
8.6470797316944097
 21
-47.568843522335911
 31
0.0
  0
LINE
  5
15EE5
  8
0
 62
     0
 10
7.324988009052432
 20
-47.742900199661349
 30
0.0
 11
7.324988009052432
 21
-47.742900199661349
 31
0.0
  0
LINE
  5
15EE6
  8
0
 62
     0
 10
3.8749581804438469
 20
-48.197105243348688
 30
0.0
 11
3.8749581804438469
 21
-48.197105243348688
 31
0.0
  0
LINE
  5
15EE7
  8
0
 62
     0
 10
1.8099768231744751
 20
-48.468965196504612
 30
0.0
 11
1.8099768231744751
 21
-48.468965196504612
 31
0.0
  0
LINE
  5
15EE8
  8
0
 62
     0
 10
0.4878851005324989
 20
-48.643021873830051
 30
0.0
 11
0.4878851005324989
 21
-48.643021873830051
 31
0.0
  0
LINE
  5
15EE9
  8
0
 62
     0
 10
8.3701910118238132
 20
-41.028854237665151
 30
0.0
 11
8.3701910118238132
 21
-41.028854237665151
 31
0.0
  0
LINE
  5
15EEA
  8
0
 62
     0
 10
6.3052096545544423
 20
-41.300714190821083
 30
0.0
 11
6.3052096545544423
 21
-41.300714190821083
 31
0.0
  0
LINE
  5
15EEB
  8
0
 62
     0
 10
4.9831179319124663
 20
-41.474770868146521
 30
0.0
 11
4.9831179319124663
 21
-41.474770868146521
 31
0.0
  0
LINE
  5
15EEC
  8
0
 62
     0
 10
1.5330881033038799
 20
-41.928975911833859
 30
0.0
 11
1.5330881033038799
 21
-41.928975911833859
 31
0.0
  0
LINE
  5
15EED
  8
0
 62
     0
 10
6.0283209346837987
 20
-34.76072490615033
 30
0.0
 11
6.0283209346837987
 21
-34.76072490615033
 31
0.0
  0
LINE
  5
15EEE
  8
0
 62
     0
 10
3.9633395774144269
 20
-35.032584859306262
 30
0.0
 11
3.9633395774144269
 21
-35.032584859306262
 31
0.0
  0
LINE
  5
15EEF
  8
0
 62
     0
 10
2.6412478547724509
 20
-35.206641536631693
 30
0.0
 11
2.6412478547724509
 21
-35.206641536631693
 31
0.0
  0
LINE
  5
15EF0
  8
0
 62
     0
 10
8.4585724087945735
 20
-27.8643338536227
 30
0.0
 11
8.4585724087945735
 21
-27.8643338536227
 31
0.0
  0
LINE
  5
15EF1
  8
0
 62
     0
 10
7.1364806861525958
 20
-28.038390530948138
 30
0.0
 11
7.1364806861525958
 21
-28.038390530948138
 31
0.0
  0
LINE
  5
15EF2
  8
0
 62
     0
 10
3.6864508575440111
 20
-28.49259557463547
 30
0.0
 11
3.6864508575440111
 21
-28.49259557463547
 31
0.0
  0
LINE
  5
15EF3
  8
0
 62
     0
 10
1.621469500274638
 20
-28.764455527791402
 30
0.0
 11
1.621469500274638
 21
-28.764455527791402
 31
0.0
  0
LINE
  5
15EF4
  8
0
 62
     0
 10
0.2993777776326627
 20
-28.93851220511683
 30
0.0
 11
0.2993777776326627
 21
-28.93851220511683
 31
0.0
  0
LINE
  5
15EF5
  8
0
 62
     0
 10
8.1816836889240907
 20
-21.324344568951911
 30
0.0
 11
8.1816836889240907
 21
-21.324344568951911
 31
0.0
  0
LINE
  5
15EF6
  8
0
 62
     0
 10
6.116702331654718
 20
-21.596204522107829
 30
0.0
 11
6.116702331654718
 21
-21.596204522107829
 31
0.0
  0
LINE
  5
15EF7
  8
0
 62
     0
 10
4.7946106090127421
 20
-21.770261199433271
 30
0.0
 11
4.7946106090127421
 21
-21.770261199433271
 31
0.0
  0
LINE
  5
15EF8
  8
0
 62
     0
 10
1.3445807804041561
 20
-22.224466243120609
 30
0.0
 11
1.3445807804041561
 21
-22.224466243120609
 31
0.0
  0
LINE
  5
15EF9
  8
0
 62
     0
 10
5.8398136117840771
 20
-15.05621523743708
 30
0.0
 11
5.8398136117840771
 21
-15.05621523743708
 31
0.0
  0
LINE
  5
15EFA
  8
0
 62
     0
 10
3.7748322545147039
 20
-15.328075190592999
 30
0.0
 11
3.7748322545147039
 21
-15.328075190592999
 31
0.0
  0
LINE
  5
15EFB
  8
0
 62
     0
 10
2.452740531872728
 20
-15.50213186791844
 30
0.0
 11
2.452740531872728
 21
-15.50213186791844
 31
0.0
  0
LINE
  5
15EFC
  8
0
 62
     0
 10
7.9931763660241417
 20
-1.61983490023871
 30
0.0
 11
7.9931763660241417
 21
-1.61983490023871
 31
0.0
  0
LINE
  5
15EFD
  8
0
 62
     0
 10
5.9281950087547699
 20
-1.8916948533946341
 30
0.0
 11
5.9281950087547699
 21
-1.8916948533946341
 31
0.0
  0
LINE
  5
15EFE
  8
0
 62
     0
 10
4.606103286112794
 20
-2.065751530720072
 30
0.0
 11
4.606103286112794
 21
-2.065751530720072
 31
0.0
  0
LINE
  5
15EFF
  8
0
 62
     0
 10
1.1560734575042091
 20
-2.5199565744074079
 30
0.0
 11
1.1560734575042091
 21
-2.5199565744074079
 31
0.0
  0
LINE
  5
15F00
  8
0
 62
     0
 10
5.6513062888843519
 20
4.648294431276164
 30
0.0
 11
5.6513062888843519
 21
4.648294431276164
 31
0.0
  0
LINE
  5
15F01
  8
0
 62
     0
 10
3.586324931614981
 20
4.3764344781202409
 30
0.0
 11
3.586324931614981
 21
4.3764344781202409
 31
0.0
  0
LINE
  5
15F02
  8
0
 62
     0
 10
2.2642332089730042
 20
4.2023778007948032
 30
0.0
 11
2.2642332089730042
 21
4.2023778007948032
 31
0.0
  0
LINE
  5
15F03
  8
0
 62
     0
 10
3.3094362117444769
 20
10.916423762791
 30
0.0
 11
3.3094362117444769
 21
10.916423762791
 31
0.0
  0
LINE
  5
15F04
  8
0
 62
     0
 10
1.2444548544750369
 20
10.644563809635081
 30
0.0
 11
1.2444548544750369
 21
10.644563809635081
 31
0.0
  0
LINE
  5
15F05
  8
0
 62
     0
 10
8.081557762995029
 20
11.54468548380378
 30
0.0
 11
8.081557762995029
 21
11.54468548380378
 31
0.0
  0
LINE
  5
15F06
  8
0
 62
     0
 10
6.7594660403530522
 20
11.37062880647834
 30
0.0
 11
6.7594660403530522
 21
11.37062880647834
 31
0.0
  0
LINE
  5
15F07
  8
0
 62
     0
 10
7.8046690431244183
 20
18.084674768474539
 30
0.0
 11
7.8046690431244183
 21
18.084674768474539
 31
0.0
  0
LINE
  5
15F08
  8
0
 62
     0
 10
5.7396876858550456
 20
17.812814815318621
 30
0.0
 11
5.7396876858550456
 21
17.812814815318621
 31
0.0
  0
LINE
  5
15F09
  8
0
 62
     0
 10
4.4175959632130697
 20
17.638758137993179
 30
0.0
 11
4.4175959632130697
 21
17.638758137993179
 31
0.0
  0
LINE
  5
15F0A
  8
0
 62
     0
 10
0.9675661346044847
 20
17.184553094305841
 30
0.0
 11
0.9675661346044847
 21
17.184553094305841
 31
0.0
  0
LINE
  5
15F0B
  8
0
 62
     0
 10
8.9128287945932172
 20
24.807009143676751
 30
0.0
 11
8.9128287945932172
 21
24.807009143676751
 31
0.0
  0
LINE
  5
15F0C
  8
0
 62
     0
 10
5.4627989659846303
 20
24.35280409998941
 30
0.0
 11
5.4627989659846303
 21
24.35280409998941
 31
0.0
  0
LINE
  5
15F0D
  8
0
 62
     0
 10
3.3978176087152572
 20
24.080944146833492
 30
0.0
 11
3.3978176087152572
 21
24.080944146833492
 31
0.0
  0
LINE
  5
15F0E
  8
0
 62
     0
 10
2.0757258860732808
 20
23.90688746950805
 30
0.0
 11
2.0757258860732808
 21
23.90688746950805
 31
0.0
  0
LINE
  5
15F0F
  8
0
 62
     0
 10
7.8930504400952897
 20
31.249195152517011
 30
0.0
 11
7.8930504400952897
 21
31.249195152517011
 31
0.0
  0
LINE
  5
15F10
  8
0
 62
     0
 10
6.5709587174533137
 20
31.075138475191579
 30
0.0
 11
6.5709587174533137
 21
31.075138475191579
 31
0.0
  0
LINE
  5
15F11
  8
0
 62
     0
 10
3.1209288888447282
 20
30.620933431504241
 30
0.0
 11
3.1209288888447282
 21
30.620933431504241
 31
0.0
  0
LINE
  5
15F12
  8
0
 62
     0
 10
1.0559475315753559
 20
30.34907347834832
 30
0.0
 11
1.0559475315753559
 21
30.34907347834832
 31
0.0
  0
LINE
  5
15F13
  8
0
 62
     0
 10
7.6161617202245822
 20
37.789184437187778
 30
0.0
 11
7.6161617202245822
 21
37.789184437187778
 31
0.0
  0
LINE
  5
15F14
  8
0
 62
     0
 10
5.5511803629552086
 20
37.517324484031853
 30
0.0
 11
5.5511803629552086
 21
37.517324484031853
 31
0.0
  0
LINE
  5
15F15
  8
0
 62
     0
 10
4.2290886403132326
 20
37.343267806706422
 30
0.0
 11
4.2290886403132326
 21
37.343267806706422
 31
0.0
  0
LINE
  5
15F16
  8
0
 62
     0
 10
0.7790588117046476
 20
36.889062763019083
 30
0.0
 11
0.7790588117046476
 21
36.889062763019083
 31
0.0
  0
LINE
  5
15F17
  8
0
 62
     0
 10
8.7243214716932656
 20
44.511518812389951
 30
0.0
 11
8.7243214716932656
 21
44.511518812389951
 31
0.0
  0
LINE
  5
15F18
  8
0
 62
     0
 10
5.2742916430846796
 20
44.05731376870262
 30
0.0
 11
5.2742916430846796
 21
44.05731376870262
 31
0.0
  0
LINE
  5
15F19
  8
0
 62
     0
 10
3.2093102858153082
 20
43.785453815546688
 30
0.0
 11
3.2093102858153082
 21
43.785453815546688
 31
0.0
  0
LINE
  5
15F1A
  8
0
 62
     0
 10
1.887218563173332
 20
43.61139713822125
 30
0.0
 11
1.887218563173332
 21
43.61139713822125
 31
0.0
  0
LINE
  5
15F1B
  8
0
 62
     0
 10
8.2992554627512423
 20
-60.099467008910388
 30
0.0
 11
8.2992554627512423
 21
-60.099467008910388
 31
0.0
  0
LINE
  5
15F1C
  8
0
 62
     0
 10
8.1392523331528608
 20
-55.205334635616929
 30
0.0
 11
8.1392523331528608
 21
-55.205334635616929
 31
0.0
  0
LINE
  5
15F1D
  8
0
 62
     0
 10
5.076273756956458
 20
-57.555640760733802
 30
0.0
 11
5.076273756956458
 21
-57.555640760733802
 31
0.0
  0
LINE
  5
15F1E
  8
0
 62
     0
 10
1.8017078449043851
 20
-60.06830355896728
 30
0.0
 11
1.8017078449043851
 21
-60.06830355896728
 31
0.0
  0
LINE
  5
15F1F
  8
0
 62
     0
 10
7.9792492035542066
 20
-50.311202262323569
 30
0.0
 11
7.9792492035542066
 21
-50.311202262323569
 31
0.0
  0
LINE
  5
15F20
  8
0
 62
     0
 10
4.9162706273578047
 20
-52.661508387440442
 30
0.0
 11
4.9162706273578047
 21
-52.661508387440442
 31
0.0
  0
LINE
  5
15F21
  8
0
 62
     0
 10
1.6417047153057309
 20
-55.174171185673941
 30
0.0
 11
1.6417047153057309
 21
-55.174171185673941
 31
0.0
  0
LINE
  5
15F22
  8
0
 62
     0
 10
7.8192460739558518
 20
-45.41706988903023
 30
0.0
 11
7.8192460739558518
 21
-45.41706988903023
 31
0.0
  0
LINE
  5
15F23
  8
0
 62
     0
 10
4.7562674977594499
 20
-47.767376014147089
 30
0.0
 11
4.7562674977594499
 21
-47.767376014147089
 31
0.0
  0
LINE
  5
15F24
  8
0
 62
     0
 10
1.4817015857073761
 20
-50.280038812380589
 30
0.0
 11
1.4817015857073761
 21
-50.280038812380589
 31
0.0
  0
LINE
  5
15F25
  8
0
 62
     0
 10
7.6592429443577439
 20
-40.522937515736587
 30
0.0
 11
7.6592429443577439
 21
-40.522937515736587
 31
0.0
  0
LINE
  5
15F26
  8
0
 62
     0
 10
4.596264368161342
 20
-42.87324364085346
 30
0.0
 11
4.596264368161342
 21
-42.87324364085346
 31
0.0
  0
LINE
  5
15F27
  8
0
 62
     0
 10
1.3216984561092691
 20
-45.385906439086959
 30
0.0
 11
1.3216984561092691
 21
-45.385906439086959
 31
0.0
  0
LINE
  5
15F28
  8
0
 62
     0
 10
7.4992398147591617
 20
-35.628805142443262
 30
0.0
 11
7.4992398147591617
 21
-35.628805142443262
 31
0.0
  0
LINE
  5
15F29
  8
0
 62
     0
 10
4.4362612385627598
 20
-37.979111267560121
 30
0.0
 11
4.4362612385627598
 21
-37.979111267560121
 31
0.0
  0
LINE
  5
15F2A
  8
0
 62
     0
 10
1.1616953265106871
 20
-40.491774065793606
 30
0.0
 11
1.1616953265106871
 21
-40.491774065793606
 31
0.0
  0
LINE
  5
15F2B
  8
0
 62
     0
 10
7.3392366851608069
 20
-30.734672769149899
 30
0.0
 11
7.3392366851608069
 21
-30.734672769149899
 31
0.0
  0
LINE
  5
15F2C
  8
0
 62
     0
 10
4.2762581089644049
 20
-33.084978894266769
 30
0.0
 11
4.2762581089644049
 21
-33.084978894266769
 31
0.0
  0
LINE
  5
15F2D
  8
0
 62
     0
 10
1.001692196912332
 20
-35.597641692500261
 30
0.0
 11
1.001692196912332
 21
-35.597641692500261
 31
0.0
  0
LINE
  5
15F2E
  8
0
 62
     0
 10
7.1792335555623392
 20
-25.84054039585649
 30
0.0
 11
7.1792335555623392
 21
-25.84054039585649
 31
0.0
  0
LINE
  5
15F2F
  8
0
 62
     0
 10
4.1162549793659373
 20
-28.190846520973359
 30
0.0
 11
4.1162549793659373
 21
-28.190846520973359
 31
0.0
  0
LINE
  5
15F30
  8
0
 62
     0
 10
0.8416890673138636
 20
-30.703509319206859
 30
0.0
 11
0.8416890673138636
 21
-30.703509319206859
 31
0.0
  0
LINE
  5
15F31
  8
0
 62
     0
 10
7.0192304259640501
 20
-20.946408022562949
 30
0.0
 11
7.0192304259640501
 21
-20.946408022562949
 31
0.0
  0
LINE
  5
15F32
  8
0
 62
     0
 10
3.9562518497676491
 20
-23.296714147679818
 30
0.0
 11
3.9562518497676491
 21
-23.296714147679818
 31
0.0
  0
LINE
  5
15F33
  8
0
 62
     0
 10
0.6816859377155757
 20
-25.809376945913311
 30
0.0
 11
0.6816859377155757
 21
-25.809376945913311
 31
0.0
  0
LINE
  5
15F34
  8
0
 62
     0
 10
6.8592272963655807
 20
-16.052275649269589
 30
0.0
 11
6.8592272963655807
 21
-16.052275649269589
 31
0.0
  0
LINE
  5
15F35
  8
0
 62
     0
 10
3.7962487201691801
 20
-18.402581774386459
 30
0.0
 11
3.7962487201691801
 21
-18.402581774386459
 31
0.0
  0
LINE
  5
15F36
  8
0
 62
     0
 10
0.5216828081171072
 20
-20.915244572619962
 30
0.0
 11
0.5216828081171072
 21
-20.915244572619962
 31
0.0
  0
LINE
  5
15F37
  8
0
 62
     0
 10
6.6992241667671131
 20
-11.15814327597619
 30
0.0
 11
6.6992241667671131
 21
-11.15814327597619
 31
0.0
  0
LINE
  5
15F38
  8
0
 62
     0
 10
3.6362455905707121
 20
-13.50844940109306
 30
0.0
 11
3.6362455905707121
 21
-13.50844940109306
 31
0.0
  0
LINE
  5
15F39
  8
0
 62
     0
 10
0.3616796785186386
 20
-16.021112199326549
 30
0.0
 11
0.3616796785186386
 21
-16.021112199326549
 31
0.0
  0
LINE
  5
15F3A
  8
0
 62
     0
 10
6.5392210371686241
 20
-6.2640109026828332
 30
0.0
 11
6.5392210371686241
 21
-6.2640109026828332
 31
0.0
  0
LINE
  5
15F3B
  8
0
 62
     0
 10
0.2016765489201704
 20
-11.126979826033139
 30
0.0
 11
0.2016765489201704
 21
-11.126979826033139
 31
0.0
  0
LINE
  5
15F3C
  8
0
 62
     0
 10
6.37921790757047
 20
-1.3698785293892941
 30
0.0
 11
6.37921790757047
 21
-1.3698785293892941
 31
0.0
  0
LINE
  5
15F3D
  8
0
 62
     0
 10
3.316239331374069
 20
-3.7201846545061632
 30
0.0
 11
3.316239331374069
 21
-3.7201846545061632
 31
0.0
  0
LINE
  5
15F3E
  8
0
 62
     0
 10
0.041673419321996
 20
-6.2328474527396569
 30
0.0
 11
0.041673419321996
 21
-6.2328474527396569
 31
0.0
  0
LINE
  5
15F3F
  8
0
 62
     0
 10
6.2192147779718221
 20
3.5242538439039741
 30
0.0
 11
6.2192147779718221
 21
3.5242538439039741
 31
0.0
  0
LINE
  5
15F40
  8
0
 62
     0
 10
3.1562362017754202
 20
1.173947718787105
 30
0.0
 11
3.1562362017754202
 21
1.173947718787105
 31
0.0
  0
LINE
  5
15F41
  8
0
 62
     0
 10
2.9962330721770178
 20
6.0680800920805931
 30
0.0
 11
2.9962330721770178
 21
6.0680800920805931
 31
0.0
  0
LINE
  5
15F42
  8
0
 62
     0
 10
5.8992085187751311
 20
13.31251859049098
 30
0.0
 11
5.8992085187751311
 21
13.31251859049098
 31
0.0
  0
LINE
  5
15F43
  8
0
 62
     0
 10
2.8362299425787301
 20
10.96221246537411
 30
0.0
 11
2.8362299425787301
 21
10.96221246537411
 31
0.0
  0
LINE
  5
15F44
  8
0
 62
     0
 10
5.7392053891766626
 20
18.206650963784352
 30
0.0
 11
5.7392053891766626
 21
18.206650963784352
 31
0.0
  0
LINE
  5
15F45
  8
0
 62
     0
 10
2.6762268129802611
 20
15.856344838667489
 30
0.0
 11
2.6762268129802611
 21
15.856344838667489
 31
0.0
  0
LINE
  5
15F46
  8
0
 62
     0
 10
5.5792022595783752
 20
23.10078333707779
 30
0.0
 11
5.5792022595783752
 21
23.10078333707779
 31
0.0
  0
LINE
  5
15F47
  8
0
 62
     0
 10
2.5162236833819742
 20
20.75047721196092
 30
0.0
 11
2.5162236833819742
 21
20.75047721196092
 31
0.0
  0
LINE
  5
15F48
  8
0
 62
     0
 10
8.8448988533574582
 20
30.623547560830851
 30
0.0
 11
8.8448988533574582
 21
30.623547560830851
 31
0.0
  0
LINE
  5
15F49
  8
0
 62
     0
 10
5.4191991299799058
 20
27.994915710371188
 30
0.0
 11
5.4191991299799058
 21
27.994915710371188
 31
0.0
  0
LINE
  5
15F4A
  8
0
 62
     0
 10
2.3562205537835048
 20
25.644609585254329
 30
0.0
 11
2.3562205537835048
 21
25.644609585254329
 31
0.0
  0
LINE
  5
15F4B
  8
0
 62
     0
 10
8.6848957237588778
 20
35.517679934124253
 30
0.0
 11
8.6848957237588778
 21
35.517679934124253
 31
0.0
  0
LINE
  5
15F4C
  8
0
 62
     0
 10
5.2591960003813236
 20
32.889048083664598
 30
0.0
 11
5.2591960003813236
 21
32.889048083664598
 31
0.0
  0
LINE
  5
15F4D
  8
0
 62
     0
 10
2.1962174241849231
 20
30.538741958547732
 30
0.0
 11
2.1962174241849231
 21
30.538741958547732
 31
0.0
  0
LINE
  5
15F4E
  8
0
 62
     0
 10
8.5248925941605211
 20
40.411812307417598
 30
0.0
 11
8.5248925941605211
 21
40.411812307417598
 31
0.0
  0
LINE
  5
15F4F
  8
0
 62
     0
 10
5.0991928707829688
 20
37.78318045695795
 30
0.0
 11
5.0991928707829688
 21
37.78318045695795
 31
0.0
  0
LINE
  5
15F50
  8
0
 62
     0
 10
2.0362142945865682
 20
35.432874331841077
 30
0.0
 11
2.0362142945865682
 21
35.432874331841077
 31
0.0
  0
LINE
  5
15F51
  8
0
 62
     0
 10
4.9391897411846823
 20
42.677312830251488
 30
0.0
 11
4.9391897411846823
 21
42.677312830251488
 31
0.0
  0
LINE
  5
15F52
  8
0
 62
     0
 10
1.87621116498828
 20
40.327006705134622
 30
0.0
 11
1.87621116498828
 21
40.327006705134622
 31
0.0
  0
ENDBLK
  5
15F54
  8
0
  0
BLOCK
  8
0
  2
*U79
 70
     1
 10
0.0
 20
0.0
 30
0.0
  3
*U79
  1

  0
TEXT
  5
15F56
  8
1DIM
 62
   201
 10
-31.153865476029861
 20
54.018296023885341
 30
0.0
 40
3.5
  1
裏板9mm以上
  0
ENDBLK
  5
15F58
  8
0
  0
BLOCK
  8
0
  2
*U80
 70
     1
 10
0.0
 20
0.0
 30
0.0
  3
*U80
  1

  0
INSERT
  5
15F5A
  8
1DIM
  2
_OPEN30
 10
13.168864624287609
 20
37.039715350978668
 30
0.0
 41
2.0
 42
2.0
 43
2.0
 50
313.14282340584191
  0
POLYLINE
  5
15F5B
  8
1DIM
 66
     1
 10
0.0
 20
0.0
 30
0.0
  0
VERTEX
  5
15F5C
  8
1DIM
 10
11.8012259983783
 20
38.499018125909529
 30
0.0
  0
VERTEX
  5
15F5D
  8
1DIM
 10
-2.0871988093631928
 20
53.318296023885338
 30
0.0
  0
VERTEX
  5
15F5E
  8
1DIM
 10
-33.987198809363193
 20
53.318296023885338
 30
0.0
  0
SEQEND
  5
15F5F
  8
1DIM
  0
ENDBLK
  5
15F61
  8
0
  0
BLOCK
  8
0
  2
*U81
 70
     1
 10
0.0
 20
0.0
 30
0.0
  3
*U81
  1

  0
LINE
  5
15F63
  8
0
 10
-0.3500000000000227
 20
2.0
 30
0.0
 11
0.0
 21
1.649999999999977
 31
0.0
  0
LINE
  5
15F64
  8
0
 10
-10.20000000000004
 20
2.0
 30
0.0
 11
-0.3500000000000227
 21
2.0
 31
0.0
  0
LINE
  5
15F65
  8
0
 10
0.0
 20
1.649999999999977
 30
0.0
 11
0.0
 21
-1.6499999999998629
 31
0.0
  0
LINE
  5
15F66
  8
0
 10
-12.0
 20
0.2000000000000028
 30
0.0
 11
-10.20000000000004
 21
2.0
 31
0.0
  0
LINE
  5
15F67
  8
0
 10
0.0
 20
-1.6499999999998629
 30
0.0
 11
-0.3500000000000227
 21
-2.0
 31
0.0
  0
LINE
  5
15F68
  8
0
 10
-12.0
 20
0.2000000000000028
 30
0.0
 11
-12.0
 21
-0.200000000000017
 31
0.0
  0
LINE
  5
15F69
  8
0
 10
-10.19999999999999
 20
-1.9999999999999849
 30
0.0
 11
-0.3500000000000227
 21
-2.0
 31
0.0
  0
LINE
  5
15F6A
  8
0
 10
-12.0
 20
-0.200000000000017
 30
0.0
 11
-10.19999999999999
 21
-1.9999999999999849
 31
0.0
  0
ENDBLK
  5
15F6C
  8
0
  0
BLOCK
  8
0
  2
*U82
 70
     1
 10
0.0
 20
0.0
 30
0.0
  3
*U82
  1

  0
LINE
  5
15F6E
  8
0
 10
-7.9999999999999991
 20
2.5
 30
0.0
 11
-7.9999978000002088
 21
2.4999999999999432
 31
0.0
  0
LINE
  5
15F6F
  8
0
 10
-7.9999999999999991
 20
-2.4999999999999432
 30
0.0
 11
-7.9999999999999991
 21
2.5
 31
0.0
  0
LINE
  5
15F70
  8
0
 10
-7.9999978000002088
 20
2.4999999999999432
 30
0.0
 11
-7.4999979000001629
 21
3.0
 31
0.0
  0
LINE
  5
15F71
  8
0
 10
-8.0000021000010921
 20
-2.4999999999999432
 30
0.0
 11
-7.9999999999999991
 21
-2.4999999999999432
 31
0.0
  0
LINE
  5
15F72
  8
0
 10
-7.4999979000001629
 20
3.0
 30
0.0
 11
-1.999998199999983
 21
3.0
 31
0.0
  0
LINE
  5
15F73
  8
0
 10
-7.5000018999986429
 20
-3.000000000000056
 30
0.0
 11
-8.0000021000010921
 21
-2.4999999999999432
 31
0.0
  0
LINE
  5
15F74
  8
0
 10
-1.999998199999983
 20
3.0
 30
0.0
 11
-1.49999999999998
 21
2.0
 31
0.0
  0
LINE
  5
15F75
  8
0
 10
-1.999998199999959
 20
-2.9999999999999432
 30
0.0
 11
-7.5000018999986429
 21
-3.000000000000056
 31
0.0
  0
LINE
  5
15F76
  8
0
 10
-1.49999999999998
 20
2.0
 30
0.0
 11
-0.5000000000000004
 21
2.0
 31
0.0
  0
LINE
  5
15F77
  8
0
 10
-1.50000000000001
 20
-2.0
 30
0.0
 11
-1.999998199999959
 21
-2.9999999999999432
 31
0.0
  0
ARC
  5
15F78
  8
0
 10
-0.5000000000000006
 20
1.5
 30
0.0
 40
0.5000000000000004
 50
0.0
 51
90.0
  0
LINE
  5
15F79
  8
0
 10
-0.5
 20
-2.0
 30
0.0
 11
-1.50000000000001
 21
-2.0
 31
0.0
  0
LINE
  5
15F7A
  8
0
 10
-0.0000000000000001
 20
1.5
 30
0.0
 11
-0.0000000000000001
 21
-1.5
 31
0.0
  0
ARC
  5
15F7B
  8
0
 10
-0.5
 20
-1.5
 30
0.0
 40
0.5
 50
270.0
 51
0.0
  0
ENDBLK
  5
15F7D
  8
0
  0
BLOCK
  8
0
  2
*U83
 70
     1
 10
0.0
 20
0.0
 30
0.0
  3
*U83
  1

  0
LINE
  5
15F7F
  8
1HATCH
 10
-1.5
 20
2.000000000000056
 30
0.0
 11
-1.7499990999999879
 21
2.5
 31
0.0
  0
LINE
  5
15F80
  8
1HATCH
 10
-1.7499990999999879
 20
2.5
 30
0.0
 11
-7.999997800000223
 21
2.5
 31
0.0
  0
LINE
  5
15F81
  8
1HATCH
 10
-1.5
 20
-2.000000000000056
 30
0.0
 11
-1.5
 21
2.000000000000056
 31
0.0
  0
LINE
  5
15F82
  8
1HATCH
 10
-7.999997800000223
 20
2.5
 30
0.0
 11
-7.9999999999999991
 21
2.4999977999997318
 31
0.0
  0
LINE
  5
15F83
  8
1HATCH
 10
-1.749999099999981
 20
-2.5
 30
0.0
 11
-1.5
 21
-2.000000000000056
 31
0.0
  0
LINE
  5
15F84
  8
1HATCH
 10
-7.9999999999999991
 20
2.4999977999997318
 30
0.0
 11
-7.9999999999999991
 21
-2.5
 31
0.0
  0
LINE
  5
15F85
  8
1HATCH
 10
-7.9999999999999991
 20
-2.5
 30
0.0
 11
-1.749999099999981
 21
-2.5
 31
0.0
  0
ENDBLK
  5
15F87
  8
0
  0
BLOCK
  8
0
  2
*U84
 70
     1
 10
0.0
 20
0.0
 30
0.0
  3
*U84
  1

  0
LINE
  5
15F89
  8
1HATCH
 10
-1.9999981999999989
 20
3.000000000000056
 30
0.0
 11
-7.4999979000001362
 21
3.0
 31
0.0
  0
LINE
  5
15F8A
  8
1HATCH
 10
-7.4999979000001362
 20
3.0
 30
0.0
 11
-7.999997800000143
 21
2.5
 31
0.0
  0
LINE
  5
15F8B
  8
1HATCH
 10
-1.749999099999983
 20
2.5
 30
0.0
 11
-1.9999981999999989
 21
3.000000000000056
 31
0.0
  0
LINE
  5
15F8C
  8
1HATCH
 10
-7.999997800000143
 20
2.5
 30
0.0
 11
-1.749999099999983
 21
2.5
 31
0.0
  0
ENDBLK
  5
15F8E
  8
0
  0
BLOCK
  8
0
  2
*U85
 70
     1
 10
0.0
 20
0.0
 30
0.0
  3
*U85
  1

  0
ARC
  5
15F90
  8
1HATCH
 10
-0.5000000000000002
 20
1.5
 30
0.0
 40
0.5000000000000002
 50
0.0
 51
90.000000000000028
  0
LINE
  5
15F91
  8
1HATCH
 10
-0.5000000000000004
 20
2.0
 30
0.0
 11
-1.5
 21
2.0
 31
0.0
  0
LINE
  5
15F92
  8
1HATCH
 10
0.0
 20
-1.5
 30
0.0
 11
0.0
 21
1.5
 31
0.0
  0
LINE
  5
15F93
  8
1HATCH
 10
-1.5
 20
2.0
 30
0.0
 11
-1.5
 21
-2.0
 31
0.0
  0
ARC
  5
15F94
  8
1HATCH
 10
-0.5
 20
-1.5
 30
0.0
 40
0.5
 50
270.0
 51
0.0
  0
LINE
  5
15F95
  8
1HATCH
 10
-1.5
 20
-2.0
 30
0.0
 11
-0.5
 21
-2.0
 31
0.0
  0
ENDBLK
  5
15F97
  8
0
  0
BLOCK
  8
0
  2
*U86
 70
     1
 10
0.0
 20
0.0
 30
0.0
  3
*U86
  1

  0
LINE
  5
15F99
  8
0
 10
-14.649999999999981
 20
2.0
 30
0.0
 11
-0.0000000000000284
 21
2.0
 31
0.0
  0
LINE
  5
15F9A
  8
0
 10
-14.649999999999981
 20
2.0
 30
0.0
 11
-15.0
 21
1.649999999999977
 31
0.0
  0
LINE
  5
15F9B
  8
0
 10
0.0
 20
3.4999999999999432
 30
0.0
 11
-0.0000000000000284
 21
2.0
 31
0.0
  0
LINE
  5
15F9C
  8
0
 10
-15.0
 20
1.649999999999977
 30
0.0
 11
-15.0
 21
-1.6499999999998629
 31
0.0
  0
LINE
  5
15F9D
  8
0
 10
0.0
 20
3.4999999999999432
 30
0.0
 11
0.5999999999999375
 21
3.4999999999999432
 31
0.0
  0
LINE
  5
15F9E
  8
0
 10
-15.0
 20
-1.6499999999998629
 30
0.0
 11
-14.649999999999981
 21
-2.0
 31
0.0
  0
ARC
  5
15F9F
  8
0
 10
0.5999999999999944
 20
1.4999999999999429
 30
0.0
 40
2.0
 50
0.0
 51
90.000000000001606
  0
LINE
  5
15FA0
  8
0
 10
-14.649999999999981
 20
-2.0
 30
0.0
 11
0.0000000000000568
 21
-2.0
 31
0.0
  0
LINE
  5
15FA1
  8
0
 10
2.5999999999999939
 20
1.4999999999999429
 30
0.0
 11
2.5999999999999939
 21
-1.5
 31
0.0
  0
LINE
  5
15FA2
  8
0
 10
0.0000000000000568
 20
-2.0
 30
0.0
 11
0.0
 21
-3.5
 31
0.0
  0
ARC
  5
15FA3
  8
0
 10
0.5999999999999944
 20
-1.5
 30
0.0
 40
2.0
 50
270.0
 51
0.0
  0
LINE
  5
15FA4
  8
0
 10
0.0
 20
-3.5
 30
0.0
 11
0.5999999999999944
 21
-3.5
 31
0.0
  0
ENDBLK
  5
15FA6
  8
0
  0
BLOCK
  8
0
  2
*U87
 70
     1
 10
0.0
 20
0.0
 30
0.0
  3
*U87
  1

  0
TEXT
  5
15FA8
  8
1DIM
 62
   201
 10
348.52246894459148
 20
-2687.368787747228
 30
0.0
 40
3.5
  1
190 
  0
ENDBLK
  5
15FAA
  8
0
  0
BLOCK
  8
0
  2
*U88
 70
     1
 10
0.0
 20
0.0
 30
0.0
  3
*U88
  1

  0
TEXT
  5
15FAC
  8
1DIM
 62
   201
 10
349.39746894459159
 20
-2772.5688843389039
 30
0.0
 40
3.5
  1
44 
  0
ENDBLK
  5
15FAE
  8
0
  0
BLOCK
  8
0
  2
*U89
 70
     1
 10
0.0
 20
0.0
 30
0.0
  3
*U89
  1

  0
TEXT
  5
15FB0
  8
1DIM
 62
   201
 10
349.39746894459148
 20
-2762.5688843389039
 30
0.0
 40
3.5
  1
25 
  0
ENDBLK
  5
15FB2
  8
0
  0
BLOCK
  8
0
  2
*U90
 70
     1
 10
0.0
 20
0.0
 30
0.0
  3
*U90
  1

  0
TEXT
  5
15FB4
  8
1DIM
 62
   201
 10
466.61413561125858
 20
-2756.2771210805608
 30
0.0
 40
3.5
  1
110 
 50
90.0
  0
ENDBLK
  5
15FB6
  8
0
  0
BLOCK
  8
0
  2
*U91
 70
     1
 10
0.0
 20
0.0
 30
0.0
  3
*U91
  1

  0
TEXT
  5
15FB8
  8
1DIM
 62
   201
 10
524.68913561125805
 20
-2687.368787747228
 30
0.0
 40
3.5
  1
40 
  0
ENDBLK
  5
15FBA
  8
0
  0
BLOCK
  8
0
  2
*U92
 70
     1
 10
0.0
 20
0.0
 30
0.0
  3
*U92
  1

  0
TEXT
  5
15FBC
  8
1DIM
 62
   201
 10
519.68913561125817
 20
-2677.3687877472271
 30
0.0
 40
3.5
  1
50 
  0
ENDBLK
  5
15FBE
  8
0
  0
BLOCK
  8
0
  2
*U93
 70
     1
 10
0.0
 20
0.0
 30
0.0
  3
*U93
  1

  0
TEXT
  5
15FC0
  8
1DIM
 62
   201
 10
486.61413561125858
 20
-2705.1104544138939
 30
0.0
 40
3.5
  1
10 
 50
90.0
  0
ENDBLK
  5
15FC2
  8
0
  0
BLOCK
  8
0
  2
*U94
 70
     1
 10
0.0
 20
0.0
 30
0.0
  3
*U94
  1

  0
TEXT
  5
15FC4
  8
1DIM
 62
   201
 10
476.61413561125858
 20
-2710.6937877472269
 30
0.0
 40
3.5
  1
20 
 50
90.0
  0
ENDBLK
  5
15FC6
  8
0
  0
BLOCK
  8
0
  2
*U95
 70
     1
 10
0.0
 20
0.0
 30
0.0
  3
*U95
  1

  0
TEXT
  5
15FC8
  8
1DIM
 62
   201
 10
586.61413561125835
 20
-2737.4022176722369
 30
0.0
 40
3.5
  1
18 
 50
90.0
  0
ENDBLK
  5
15FCA
  8
0
  0
BLOCK
  8
0
  2
*U96
 70
     1
 10
0.0
 20
0.0
 30
0.0
  3
*U96
  1

  0
TEXT
  5
15FCC
  8
1DIM
 62
   201
 10
586.61413561125835
 20
-2714.9855027097319
 30
0.0
 40
3.5
  1
28 
 50
90.0
  0
ENDBLK
  5
15FCE
  8
0
  0
BLOCK
  8
0
  2
*U97
 70
     1
 10
0.0
 20
0.0
 30
0.0
  3
*U97
  1

  0
TEXT
  5
15FD0
  8
1DIM
 62
   201
 10
393.81413561125891
 20
-2733.4855510055709
 30
0.0
 40
3.5
  1
45 
 50
90.0
  0
ENDBLK
  5
15FD2
  8
0
  0
BLOCK
  8
0
  2
*U98
 70
     1
 10
0.0
 20
0.0
 30
0.0
  3
*U98
  1

  0
TEXT
  5
15FD4
  8
1DIM
 62
   201
 10
466.61413561125858
 20
-2660.027217672236
 30
0.0
 40
3.5
  1
φ10
 50
90.0
  0
ENDBLK
  5
15FD6
  8
0
  0
BLOCK
  8
0
  2
*U99
 70
     1
 10
0.0
 20
0.0
 30
0.0
  3
*U99
  1

  0
TEXT
  5
15FD8
  8
1DIM
 62
   201
 10
456.61413561125858
 20
-2759.3604544138939
 30
0.0
 40
3.5
  1
105 
 50
90.0
  0
ENDBLK
  5
15FDA
  8
0
  0
ENDSEC
  0
SECTION
  2
ENTITIES
  0
ARC
  5
153B7
  8
1HIDDEN
 10
362.81413561125822
 20
-2707.5688843389039
 30
0.0
 40
0.5
 50
180.0
 51
270.0
  0
ARC
  5
153B8
  8
01
 10
361.31413561125822
 20
-2677.0687877472269
 30
0.0
 40
1.0
 50
270.0
 51
0.0
  0
ARC
  5
153B9
  8
01
 10
343.31413561125822
 20
-2677.0687877472269
 30
0.0
 40
1.0
 50
180.0
 51
270.0
  0
LINE
  5
153BA
  8
01
 10
374.31413561125839
 20
-2634.5687877472269
 30
0.0
 11
362.31413561125822
 21
-2634.5687877472269
 31
0.0
  0
LINE
  5
153BB
  8
01
 10
361.31413561125822
 20
-2678.0687877472269
 30
0.0
 11
343.31413561125822
 21
-2678.0687877472269
 31
0.0
  0
LINE
  5
153BC
  8
01
 10
374.31413561125839
 20
-2628.0687877472269
 30
0.0
 11
330.31413561125822
 21
-2628.0687877472269
 31
0.0
  0
LINE
  5
153BD
  8
01
 10
330.31413561125822
 20
-2628.0687877472269
 30
0.0
 11
330.31413561125822
 21
-2634.5687877472269
 31
0.0
  0
LINE
  5
153BE
  8
01
 10
374.31413561125839
 20
-2628.0687877472269
 30
0.0
 11
374.31413561125839
 21
-2634.5687877472269
 31
0.0
  0
LINE
  5
153BF
  8
01
 10
342.31413561125822
 20
-2628.0687877472269
 30
0.0
 11
342.31413561125822
 21
-2677.0687877472269
 31
0.0
  0
LINE
  5
153C0
  8
01
 10
362.31413561125822
 20
-2628.0687877472269
 30
0.0
 11
362.31413561125822
 21
-2677.0687877472269
 31
0.0
  0
LINE
  5
153C1
  8
01
 10
361.31413561125822
 20
-2718.0687877472278
 30
0.0
 11
343.31413561125822
 21
-2718.0687877472278
 31
0.0
  0
LINE
  5
153C2
  8
01
 10
342.31413561125822
 20
-2699.0687877472278
 30
0.0
 11
342.31413561125822
 21
-2717.0687877472278
 31
0.0
  0
LINE
  5
153C3
  8
01
 10
362.31413561125822
 20
-2699.0687877472278
 30
0.0
 11
362.31413561125822
 21
-2717.0687877472278
 31
0.0
  0
LINE
  5
153C4
  8
01
 10
343.31413561125822
 20
-2698.0687877472278
 30
0.0
 11
361.31413561125822
 21
-2698.0687877472278
 31
0.0
  0
ARC
  5
153C5
  8
01
 10
343.31413561125822
 20
-2699.0687877472278
 30
0.0
 40
1.0
 50
90.0
 51
180.0
  0
ARC
  5
153C6
  8
01
 10
361.31413561125822
 20
-2699.0687877472278
 30
0.0
 40
1.0
 50
0.0
 51
90.0
  0
ARC
  5
153C7
  8
01
 10
343.31413561125822
 20
-2717.0687877472278
 30
0.0
 40
1.0
 50
180.0
 51
270.0
  0
ARC
  5
153C8
  8
01
 10
446.31413561125811
 20
-2774.0687877472278
 30
0.0
 40
1.0
 50
0.0
 51
90.0
  0
ARC
  5
153C9
  8
01
 10
438.31413561125811
 20
-2774.0687877472278
 30
0.0
 40
1.0
 50
90.0
 51
180.0
  0
LINE
  5
153CA
  8
01
 10
422.31413561125822
 20
-2808.0687877472278
 30
0.0
 11
282.31413561125822
 21
-2808.0687877472278
 31
0.0
  0
ARC
  5
153CB
  8
01
 10
422.31413561125822
 20
-2783.0687877472269
 30
0.0
 40
25.0
 50
270.0
 51
0.0
  0
LINE
  5
153CC
  8
01
 10
447.31413561125822
 20
-2783.0687877472269
 30
0.0
 11
447.31413561125822
 21
-2774.0687877472278
 31
0.0
  0
LINE
  5
153CD
  8
01
 10
437.31413561125811
 20
-2783.0687877472269
 30
0.0
 11
437.31413561125788
 21
-2774.0687877472278
 31
0.0
  0
ARC
  5
153CE
  8
01
 10
422.31413561125822
 20
-2783.0687877472269
 30
0.0
 40
15.0
 50
270.0
 51
0.0
  0
LINE
  5
153CF
  8
01
 10
422.31413561125822
 20
-2798.0687877472278
 30
0.0
 11
282.31413561125822
 21
-2798.0687877472278
 31
0.0
  0
ARC
  5
153D0
  8
01
 10
282.31413561125822
 20
-2783.0687877472269
 30
0.0
 40
25.0
 50
180.0
 51
270.0
  0
ARC
  5
153D1
  8
01
 10
282.31413561125822
 20
-2783.0687877472269
 30
0.0
 40
15.0
 50
180.0
 51
270.0
  0
ARC
  5
153D2
  8
01
 10
282.31413561125822
 20
-2728.068787747226
 30
0.0
 40
25.0
 50
90.0
 51
180.0
  0
ARC
  5
153D3
  8
01
 10
282.31413561125822
 20
-2728.068787747226
 30
0.0
 40
15.0
 50
90.0
 51
180.0
  0
LINE
  5
153D4
  8
01
 10
267.31413561125822
 20
-2783.0687877472269
 30
0.0
 11
267.31413561125822
 21
-2728.068787747226
 31
0.0
  0
LINE
  5
153D5
  8
01
 10
257.31413561125822
 20
-2783.0687877472269
 30
0.0
 11
257.31413561125822
 21
-2728.068787747226
 31
0.0
  0
LINE
  5
153D6
  8
1DIM
 10
437.31413561125788
 20
-2774.0687877472278
 30
0.0
 11
447.31413561125822
 21
-2774.0687877472278
 31
0.0
  0
LINE
  5
153D7
  8
01
 10
438.31413561125811
 20
-2773.0687877472278
 30
0.0
 11
446.31413561125811
 21
-2773.0687877472278
 31
0.0
  0
LINE
  5
153D8
  8
01
 10
282.31413561125771
 20
-2703.0687877472292
 30
0.0
 11
342.314135611258
 21
-2703.0687877472269
 31
0.0
  0
LINE
  5
153D9
  8
01
 10
342.31413561125822
 20
-2713.0687877472269
 30
0.0
 11
282.31413561125839
 21
-2713.068787747226
 31
0.0
  0
LINE
  5
153DA
  8
01
 10
342.314135611258
 20
-2634.5687877472269
 30
0.0
 11
330.31413561125822
 21
-2634.5687877472269
 31
0.0
  0
LINE
  5
153DB
  8
01
 10
262.31413561125822
 20
-2663.068884338903
 30
0.0
 11
342.31413561125822
 21
-2663.068884338903
 31
0.0
  0
LINE
  5
153DC
  8
01
 10
262.31413561125822
 20
-2673.068884338903
 30
0.0
 11
342.31413561125822
 21
-2673.068884338903
 31
0.0
  0
ARC
  5
153DD
  8
01
 10
262.31413561125822
 20
-2668.068884338903
 30
0.0
 40
5.0
 50
90.0
 51
270.0
  0
CIRCLE
  5
153DE
  8
01
 10
442.31413561125811
 20
-2668.068884338903
 30
0.0
 40
5.0
  0
LINE
  5
153DF
  8
01
 10
362.31413561125822
 20
-2673.068884338903
 30
0.0
 11
442.31413561125811
 21
-2673.068884338903
 31
0.0
  0
LINE
  5
153E0
  8
01
 10
362.31413561125822
 20
-2663.068884338903
 30
0.0
 11
442.31413561125811
 21
-2663.068884338903
 31
0.0
  0
CIRCLE
  5
153E1
  8
1DIM
 10
442.31413561125811
 20
-2668.068884338903
 30
0.0
 40
4.0
  0
ARC
  5
153E2
  8
01
 10
361.71413561125831
 20
-2717.4687877472279
 30
0.0
 40
0.8
 50
270.0
 51
0.0
  0
ARC
  5
153E3
  8
01
 10
342.91413561125779
 20
-2717.4687877472279
 30
0.0
 40
0.8
 50
180.0
 51
270.0
  0
ARC
  5
153E4
  8
01
 10
362.71413561125797
 20
-2708.0688843389048
 30
0.0
 40
0.2
 50
90.0
 51
180.0
  0
LINE
  5
153E5
  8
01
 10
362.71413561125797
 20
-2707.8688843389041
 30
0.0
 11
373.51413561125838
 21
-2707.8688843389041
 31
0.0
  0
LINE
  5
153E6
  8
01
 10
362.51413561125798
 20
-2708.0688843389048
 30
0.0
 11
362.51413561125821
 21
-2717.4687877472279
 31
0.0
  0
LINE
  5
153E7
  8
01
 10
342.11413561125812
 20
-2713.0687877472269
 30
0.0
 11
342.11413561125789
 21
-2717.4687877472279
 31
0.0
  0
ARC
  5
153E8
  8
01
 10
331.11413561125858
 20
-2752.2688843389042
 30
0.0
 40
1.0
 50
180.0
 51
269.99999999997391
  0
ARC
  5
153E9
  8
01
 10
373.51413561125821
 20
-2752.2688843389042
 30
0.0
 40
1.0
 50
270.00000000001302
 51
359.99999999997402
  0
ARC
  5
153EA
  8
01
 10
373.51413561125821
 20
-2708.868884338905
 30
0.0
 40
1.0
 50
0.0
 51
89.999999999986969
  0
LINE
  5
153EB
  8
01
 10
374.5141356112585
 20
-2708.8688843389041
 30
0.0
 11
374.5141356112585
 21
-2752.2688843389042
 31
0.0
  0
LINE
  5
153EC
  8
01
 10
330.1141356112584
 20
-2713.0687877472269
 30
0.0
 11
330.11413561125812
 21
-2752.2688843389042
 31
0.0
  0
LINE
  5
153ED
  8
01
 10
361.71413561125831
 20
-2718.2687877472281
 30
0.0
 11
342.91413561125779
 21
-2718.2687877472281
 31
0.0
  0
LINE
  5
153EE
  8
01
 10
373.51413561125838
 20
-2753.2688843389051
 30
0.0
 11
331.11413561125812
 21
-2753.2688843389051
 31
0.0
  0
LINE
  5
153EF
  8
01
 10
330.11413561125789
 20
-2636.3187877472269
 30
0.0
 11
330.11413561125789
 21
-2634.7687877472272
 31
0.0
  0
ARC
  5
153F0
  8
01
 10
330.61413561125761
 20
-2636.3187877472269
 30
0.0
 40
0.5
 50
179.99999999997391
 51
270.00000000002598
  0
ARC
  5
153F1
  8
01
 10
330.31413561125788
 20
-2634.7687877472272
 30
0.0
 40
0.2
 50
90.0
 51
180.0
  0
ARC
  5
153F2
  8
01
 10
362.71413561125797
 20
-2636.6187877472271
 30
0.0
 40
0.2
 50
180.0
 51
270.0
  0
ARC
  5
153F3
  8
01
 10
341.91413561125808
 20
-2636.6187877472271
 30
0.0
 40
0.2
 50
270.0
 51
0.0
  0
ARC
  5
153F4
  8
01
 10
362.71413561125797
 20
-2634.7687877472272
 30
0.0
 40
0.2
 50
90.0
 51
180.0
  0
ARC
  5
153F5
  8
01
 10
341.91413561125808
 20
-2634.7687877472272
 30
0.0
 40
0.2
 50
0.0
 51
90.0
  0
ARC
  5
153F6
  8
01
 10
374.31413561125839
 20
-2634.7687877472272
 30
0.0
 40
0.2
 50
0.0
 51
90.0
  0
ARC
  5
153F7
  8
01
 10
374.01413561125872
 20
-2636.3187877472269
 30
0.0
 40
0.5
 50
269.99999999997391
 51
0.0
  0
LINE
  5
153F8
  8
01
 10
374.5141356112585
 20
-2636.3187877472269
 30
0.0
 11
374.5141356112585
 21
-2634.7687877472272
 31
0.0
  0
LINE
  5
153F9
  8
01
 10
362.51413561125798
 20
-2636.6187877472271
 30
0.0
 11
362.51413561125798
 21
-2634.7687877472272
 31
0.0
  0
LINE
  5
153FA
  8
01
 10
342.11413561125812
 20
-2634.7687877472272
 30
0.0
 11
342.11413561125812
 21
-2636.6187877472271
 31
0.0
  0
LINE
  5
153FB
  8
01
 10
330.61413561125858
 20
-2636.8187877472269
 30
0.0
 11
342.31413561125822
 21
-2636.8187877472269
 31
0.0
  0
LINE
  5
153FC
  8
01
 10
330.31413561125862
 20
-2634.5687877472269
 30
0.0
 11
342.31413561125822
 21
-2634.5687877472269
 31
0.0
  0
LINE
  5
153FD
  8
01
 10
362.31413561125839
 20
-2636.8187877472269
 30
0.0
 11
374.01413561125872
 21
-2636.8187877472269
 31
0.0
  0
LINE
  5
153FE
  8
01
 10
362.31413561125839
 20
-2634.5687877472269
 30
0.0
 11
374.31413561125839
 21
-2634.5687877472269
 31
0.0
  0
ARC
  5
153FF
  8
01
 10
361.31413561125822
 20
-2717.0687877472278
 30
0.0
 40
1.0
 50
270.0
 51
0.0
  0
ARC
  5
15400
  8
01
 10
507.31413561125811
 20
-2803.0687877472278
 30
0.0
 40
5.0
 50
180.0
 51
0.000000000000007
  0
ARC
  5
15403
  8
01
 10
498.31413561125811
 20
-2717.0687877472278
 30
0.0
 40
1.0
 50
180.0
 51
270.00000000001302
  0
LINE
  5
15405
  8
01
 10
497.31413561125822
 20
-2717.0687877472278
 30
0.0
 11
497.31413561125822
 21
-2699.0687877472278
 31
0.0
  0
LINE
  5
15407
  8
01
 10
498.31413561125811
 20
-2698.0687877472278
 30
0.0
 11
547.31413561125817
 21
-2698.0687877472278
 31
0.0
  0
ARC
  5
15409
  8
01
 10
498.31413561125811
 20
-2699.0687877472278
 30
0.0
 40
1.0
 50
90.0
 51
180.0
  0
LINE
  5
15412
  8
01
 10
498.31413561125811
 20
-2718.0687877472278
 30
0.0
 11
538.31413561125623
 21
-2718.0687877472278
 31
0.0
  0
LINE
  5
15433
  8
1PHANTOM
 10
333.31413561125788
 20
-2630.0687877472269
 30
0.0
 11
371.31413561125839
 21
-2630.0687877472269
 31
0.0
  0
LINE
  5
15434
  8
1PHANTOM
 10
371.81413561125839
 20
-2630.5687877472278
 30
0.0
 11
371.81413561125839
 21
-2634.5687877472269
 31
0.0
  0
LINE
  5
15435
  8
1PHANTOM
 10
332.81413561125788
 20
-2630.5687877472269
 30
0.0
 11
332.81413561125788
 21
-2634.5687877472269
 31
0.0
  0
LINE
  5
15439
  8
1PHANTOM
 10
365.3141354612585
 20
-2631.0687877472269
 30
0.0
 11
364.31413576125851
 21
-2630.0687877472269
 31
0.0
  0
LINE
  5
1543A
  8
1PHANTOM
 10
361.01413561125861
 20
-2631.0687789054068
 30
0.0
 11
368.61413561125852
 21
-2631.0687965890479
 31
0.0
  0
LINE
  5
1543B
  8
1PHANTOM
 10
361.01413561125861
 20
-2630.0687877472269
 30
0.0
 11
368.61413561125852
 21
-2630.0687877472269
 31
0.0
  0
LINE
  5
1543C
  8
1PHANTOM
 10
368.61413561125852
 20
-2631.0687965890479
 30
0.0
 11
368.61413561125852
 21
-2630.0687877472269
 31
0.0
  0
LINE
  5
1543D
  8
1PHANTOM
 10
361.01413561125861
 20
-2631.0687789054068
 30
0.0
 11
361.01413561125861
 21
-2630.0687877472269
 31
0.0
  0
LINE
  5
1543F
  8
1PHANTOM
 10
352.8141354612585
 20
-2631.0687877472269
 30
0.0
 11
351.81413576125851
 21
-2630.0687877472269
 31
0.0
  0
LINE
  5
15440
  8
1PHANTOM
 10
348.51413561125861
 20
-2631.0687789054068
 30
0.0
 11
356.11413561125852
 21
-2631.0687965890479
 31
0.0
  0
LINE
  5
15441
  8
1PHANTOM
 10
348.51413561125861
 20
-2630.0687877472269
 30
0.0
 11
356.11413561125852
 21
-2630.0687877472269
 31
0.0
  0
LINE
  5
15442
  8
1PHANTOM
 10
356.11413561125852
 20
-2631.0687965890479
 30
0.0
 11
356.11413561125852
 21
-2630.0687877472269
 31
0.0
  0
LINE
  5
15443
  8
1PHANTOM
 10
348.51413561125861
 20
-2631.0687789054068
 30
0.0
 11
348.51413561125861
 21
-2630.0687877472269
 31
0.0
  0
LINE
  5
15445
  8
1PHANTOM
 10
340.3141354612585
 20
-2631.0687877472269
 30
0.0
 11
339.31413576125851
 21
-2630.0687877472269
 31
0.0
  0
LINE
  5
15446
  8
1PHANTOM
 10
336.01413561125861
 20
-2631.0687789054068
 30
0.0
 11
343.61413561125852
 21
-2631.0687965890479
 31
0.0
  0
LINE
  5
15447
  8
1PHANTOM
 10
336.01413561125861
 20
-2630.0687877472269
 30
0.0
 11
343.61413561125852
 21
-2630.0687877472269
 31
0.0
  0
LINE
  5
15448
  8
1PHANTOM
 10
343.61413561125852
 20
-2631.0687965890479
 30
0.0
 11
343.61413561125852
 21
-2630.0687877472269
 31
0.0
  0
LINE
  5
15449
  8
1PHANTOM
 10
336.01413561125861
 20
-2631.0687789054068
 30
0.0
 11
336.01413561125861
 21
-2630.0687877472269
 31
0.0
  0
LINE
  5
1544A
  8
1CENTER
 10
339.81413561125822
 20
-2732.0688843389039
 30
0.0
 11
339.81413561125822
 21
-2720.0688843389039
 31
0.0
  0
LINE
  5
1544B
  8
1CENTER
 10
333.81413561125822
 20
-2726.0688843389039
 30
0.0
 11
345.81413561125811
 21
-2726.0688843389039
 31
0.0
  0
LINE
  5
1544C
  8
1CENTER
 10
364.81413561125822
 20
-2732.0688843389039
 30
0.0
 11
364.81413561125822
 21
-2720.0688843389039
 31
0.0
  0
LINE
  5
1544D
  8
1CENTER
 10
358.81413561125822
 20
-2726.0688843389039
 30
0.0
 11
370.81413561125811
 21
-2726.0688843389039
 31
0.0
  0
LINE
  5
1544E
  8
1CENTER
 10
352.31413561125822
 20
-2750.0688843389039
 30
0.0
 11
352.31413561125822
 21
-2738.0688843389039
 31
0.0
  0
LINE
  5
1544F
  8
1CENTER
 10
346.31413561125822
 20
-2744.0688843389039
 30
0.0
 11
358.31413561125811
 21
-2744.0688843389039
 31
0.0
  0
ARC
  5
15450
  8
01
 10
511.31413561125839
 20
-2774.0687877472278
 30
0.0
 40
1.0
 50
0.0
 51
90.0
  0
ARC
  5
15451
  8
01
 10
503.31413561125839
 20
-2774.0687877472278
 30
0.0
 40
1.0
 50
90.0
 51
180.0
  0
LINE
  5
15452
  8
01
 10
503.31413561125839
 20
-2773.0687877472278
 30
0.0
 11
511.31413561125839
 21
-2773.0687877472278
 31
0.0
  0
LINE
  5
15453
  8
1DIM
 10
502.31413561125811
 20
-2774.0687877472278
 30
0.0
 11
512.31413561125839
 21
-2774.0687877472278
 31
0.0
  0
LINE
  5
15454
  8
1CENTER
 10
507.31413561125811
 20
-2711.0687877472269
 30
0.0
 11
507.31413561125811
 21
-2705.0687877472278
 31
0.0
  0
LINE
  5
15455
  8
1CENTER
 10
504.31413561125811
 20
-2708.0687877472278
 30
0.0
 11
510.31413561125822
 21
-2708.0687877472278
 31
0.0
  0
LINE
  5
15456
  8
01
 10
556.31413561125805
 20
-2686.0688843389039
 30
0.0
 11
556.31413561125805
 21
-2766.0688843389039
 31
0.0
  0
LINE
  5
15457
  8
01
 10
565.31413561125805
 20
-2686.0688843389039
 30
0.0
 11
565.31413561125805
 21
-2766.0688843389039
 31
0.0
  0
LINE
  5
15458
  8
01
 10
547.31413561125817
 20
-2686.0688843389039
 30
0.0
 11
547.31413561125817
 21
-2766.0688843389039
 31
0.0
  0
TEXT
  5
15470
  8
1TEXT
 10
524.06651656363897
 20
-2783.5687877472269
 30
0.0
 40
4.0
  1
表面処理：
 72
     1
 11
534.71413561125814
 21
-2783.5687877472269
 31
0.0
  0
TEXT
  5
15471
  8
1TEXT
 10
525.38080227792477
 20
-2790.5466827672121
 30
0.0
 40
4.0
  1
クローム
 72
     1
 11
534.71413561125814
 21
-2790.5466827672121
 31
0.0
  0
LINE
  5
15472
  8
1DIM
 10
517.31413561125805
 20
-2778.0687877472269
 30
0.0
 11
587.31413561125805
 21
-2778.0687877472269
 31
0.0
  0
LINE
  5
15473
  8
1DIM
 10
517.31413561125805
 20
-2792.0687877472269
 30
0.0
 11
587.31413561125805
 21
-2792.0687877472269
 31
0.0
  0
LINE
  5
15474
  8
1DIM
 10
517.31413561125805
 20
-2785.0687877472269
 30
0.0
 11
587.31413561125805
 21
-2785.0687877472269
 31
0.0
  0
LINE
  5
15475
  8
1DIM
 10
552.31413561125805
 20
-2778.0687877472269
 30
0.0
 11
552.31413561125805
 21
-2792.068787747226
 31
0.0
  0
TEXT
  5
15476
  8
1TEXT
 10
557.04746894459186
 20
-2790.7831447308758
 30
0.0
 40
4.0
  1
SC040XC
 72
     1
 11
569.71413561125848
 21
-2790.7831447308758
 31
0.0
  0
TEXT
  5
15477
  8
1TEXT
 10
562.91413561125808
 20
-2783.5687877472269
 30
0.0
 40
4.0
  1
コード
 72
     1
 11
569.71413561125814
 21
-2783.5687877472269
 31
0.0
  0
LINE
  5
15478
  8
1DIM
 10
517.31413561125805
 20
-2792.068787747226
 30
0.0
 11
517.31413561125805
 21
-2778.0687877472269
 31
0.0
  0
LINE
  5
15479
  8
1DIM
 10
587.31413561125805
 20
-2792.068787747226
 30
0.0
 11
587.31413561125805
 21
-2778.0687877472269
 31
0.0
  0
TEXT
  5
1547A
  8
1TEXT
 10
257.31413561125822
 20
-2638.0687877472269
 30
0.0
 40
8.0
  1
SC040XC
  0
ARC
  5
155A6
  8
1PHANTOM
 10
371.31413561125839
 20
-2630.5687877472278
 30
0.0
 40
0.5
 50
0.0
 51
90.0
  0
ARC
  5
155A7
  8
1PHANTOM
 10
333.31413561125788
 20
-2630.5687877472269
 30
0.0
 40
0.5
 50
89.999999999999304
 51
180.0
  0
LINE
  5
1578B
  8
01
 10
540.56413561125805
 20
-2753.0688843389039
 30
0.0
 11
547.31413561125817
 21
-2753.0688843389039
 31
0.0
  0
LINE
  5
1578C
  8
01
 10
540.56413561125805
 20
-2710.0689178571101
 30
0.0
 11
540.56413561125805
 21
-2753.0788843389041
 31
0.0
  0
ARC
  5
1578D
  8
01
 10
538.81413561125726
 20
-2752.7688843389028
 30
0.0
 40
0.5
 50
180.0
 51
269.99999999998698
  0
ARC
  5
1578E
  8
01
 10
540.36413561125778
 20
-2753.0688843389048
 30
0.0
 40
0.2
 50
269.99999999998698
 51
0.0
  0
LINE
  5
1578F
  8
01
 10
540.36413561125778
 20
-2753.2688843389051
 30
0.0
 11
538.81413561125726
 21
-2753.2688843389028
 31
0.0
  0
LINE
  5
15790
  8
01
 10
540.36413561125778
 20
-2753.2688843389051
 30
0.0
 11
538.81413561125726
 21
-2753.2688843389028
 31
0.0
  0
LINE
  5
15791
  8
01
 10
538.31413561125703
 20
-2718.468787747227
 30
0.0
 11
538.31413561125726
 21
-2752.7688843389028
 31
0.0
  0
LINE
  5
15792
  8
01
 10
538.31413561125635
 20
-2718.0687877472278
 30
0.0
 11
538.31413561125726
 21
-2752.7688843389028
 31
0.0
  0
LINE
  5
15793
  8
01
 10
540.56413561125726
 20
-2722.2687877472281
 30
0.0
 11
540.56413561125805
 21
-2753.0688843389048
 31
0.0
  0
LINE
  5
15794
  8
01
 10
540.56413561125714
 20
-2710.76891785711
 30
0.0
 11
540.56413561125726
 21
-2720.7687877472281
 31
0.0
  0
LINE
  5
15795
  8
01
 10
540.56413561125714
 20
-2710.76891785711
 30
0.0
 11
540.56413561125726
 21
-2720.7687877472281
 31
0.0
  0
LINE
  5
15796
  8
01
 10
538.31413561125657
 20
-2718.468787747227
 30
0.0
 11
538.31413561125726
 21
-2752.7688843389028
 31
0.0
  0
LINE
  5
15797
  8
01
 10
538.31413561125703
 20
-2708.3688843389041
 30
0.0
 11
538.31413561125726
 21
-2752.7688843389028
 31
0.0
  0
LINE
  5
15798
  8
01
 10
540.36413561125778
 20
-2753.2688843389051
 30
0.0
 11
538.81413561125726
 21
-2753.2688843389028
 31
0.0
  0
LINE
  5
15799
  8
01
 10
540.36413561125778
 20
-2753.2688843389051
 30
0.0
 11
538.81413561125726
 21
-2753.2688843389028
 31
0.0
  0
ARC
  5
1579A
  8
01
 10
540.36413561125778
 20
-2753.0688843389048
 30
0.0
 40
0.2
 50
269.99999999998698
 51
0.0
  0
ARC
  5
1579B
  8
01
 10
538.81413561125726
 20
-2752.7688843389028
 30
0.0
 40
0.5
 50
180.0
 51
269.99999999998698
  0
ARC
  5
1579C
  8
1PHANTOM
 10
544.81413561125805
 20
-2750.0688843389039
 30
0.0
 40
0.5
 50
270.0
 51
0.0
  0
LINE
  5
1579D
  8
1PHANTOM
 10
544.81413561125805
 20
-2750.5688843389039
 30
0.0
 11
540.56413561125805
 21
-2750.5688843389039
 31
0.0
  0
LINE
  5
1579E
  8
1PHANTOM
 10
544.81413561125805
 20
-2710.5688843389048
 30
0.0
 11
540.56413561125828
 21
-2710.5688843389039
 31
0.0
  0
ARC
  5
1579F
  8
1PHANTOM
 10
544.81413561125805
 20
-2711.0688843389048
 30
0.0
 40
0.5
 50
0.0
 51
89.999999999993491
  0
LINE
  5
157A0
  8
1PHANTOM
 10
545.31413561125805
 20
-2711.0688843389048
 30
0.0
 11
545.31413561125805
 21
-2750.0688843389039
 31
0.0
  0
LINE
  5
157A1
  8
01
 10
540.56413561125828
 20
-2708.0688843389039
 30
0.0
 11
540.56413561125805
 21
-2753.0788843389041
 31
0.0
  0
LINE
  5
157A2
  8
1PHANTOM
 10
544.31413561125805
 20
-2726.5688841889041
 30
0.0
 11
545.31413561125805
 21
-2725.5688844889041
 31
0.0
  0
LINE
  5
157A3
  8
1PHANTOM
 10
544.31414445307871
 20
-2722.2688843389042
 30
0.0
 11
544.31412676943739
 21
-2729.8688843389041
 31
0.0
  0
LINE
  5
157A4
  8
1PHANTOM
 10
545.31413561125805
 20
-2722.2688843389042
 30
0.0
 11
545.31413561125805
 21
-2729.8688843389041
 31
0.0
  0
LINE
  5
157A5
  8
1PHANTOM
 10
544.31412676943739
 20
-2729.8688843389041
 30
0.0
 11
545.31413561125805
 21
-2729.8688843389041
 31
0.0
  0
LINE
  5
157A6
  8
1PHANTOM
 10
544.31414445307871
 20
-2722.2688843389042
 30
0.0
 11
545.31413561125805
 21
-2722.2688843389042
 31
0.0
  0
LINE
  5
157A7
  8
1PHANTOM
 10
544.31413561125805
 20
-2744.5688841889041
 30
0.0
 11
545.31413561125805
 21
-2743.568884488905
 31
0.0
  0
LINE
  5
157A8
  8
1PHANTOM
 10
544.31414445307871
 20
-2740.2688843389051
 30
0.0
 11
544.31412676943739
 21
-2747.8688843389041
 31
0.0
  0
LINE
  5
157A9
  8
1PHANTOM
 10
545.31413561125805
 20
-2740.2688843389051
 30
0.0
 11
545.31413561125805
 21
-2747.8688843389041
 31
0.0
  0
LINE
  5
157AA
  8
1PHANTOM
 10
544.31412676943739
 20
-2747.8688843389041
 30
0.0
 11
545.31413561125805
 21
-2747.8688843389041
 31
0.0
  0
LINE
  5
157AB
  8
1PHANTOM
 10
544.31414445307871
 20
-2740.2688843389051
 30
0.0
 11
545.31413561125805
 21
-2740.2688843389051
 31
0.0
  0
LINE
  5
157AC
  8
01
 10
540.36413561125835
 20
-2707.8688843389041
 30
0.0
 11
538.81413561125703
 21
-2707.8688843389041
 31
0.0
  0
ARC
  5
157AD
  8
01
 10
540.36413561125835
 20
-2708.0688843389039
 30
0.0
 40
0.2
 50
0.0
 51
89.999999999993491
  0
ARC
  5
157AE
  8
01
 10
538.81413561125703
 20
-2708.3688843389041
 30
0.0
 40
0.5
 50
90.0
 51
180.0
  0
LINE
  5
157AF
  8
01
 10
540.56413561125839
 20
-2708.0688843389039
 30
0.0
 11
547.31413561125817
 21
-2708.0688843389039
 31
0.0
  0
LINE
  5
15970
  8
01
 10
502.31413561125811
 20
-2718.0687877472278
 30
0.0
 11
502.31413561125811
 21
-2803.0687877472278
 31
0.0
  0
LINE
  5
15971
  8
01
 10
512.31413561125817
 20
-2718.0687877472278
 30
0.0
 11
512.31413561125805
 21
-2803.0687877472278
 31
0.0
  0
LINE
  5
159BE
  8
1DIM
 10
422.31413561125822
 20
-2808.0687877472278
 30
0.0
 11
458.31413561125811
 21
-2808.0687877472278
 31
0.0
  0
LINE
  5
159BF
  8
1DIM
 10
342.314135611258
 20
-2703.0687877472269
 30
0.0
 11
458.31413561125811
 21
-2703.0687877472269
 31
0.0
  0
LINE
  5
159C0
  8
1DIM
 10
457.31413561125811
 20
-2806.0687877472278
 30
0.0
 11
457.31413561125811
 21
-2705.0687877472278
 31
0.0
  0
TEXT
  5
159C4
  8
1DIM
 10
394.59714151877142
 20
-2644.0076227052391
 30
0.0
 40
3.5
  1
材質：アルミ
  0
TEXT
  5
159C5
  8
1DIM
 10
394.59714151877142
 20
-2649.840956038573
 30
0.0
 40
3.5
  1
仕上げ：クローム
  0
TEXT
  5
159C8
  8
1DIM
 10
287.0849803885676
 20
-2654.4564526749391
 30
0.0
 40
3.5
  1
材質：ABS樹脂
  0
TEXT
  5
159C9
  8
1DIM
 10
285.21831372190098
 20
-2660.2897860082721
 30
0.0
 40
3.5
  1
仕上げ：クローム
  0
TEXT
  5
159CC
  8
1DIM
 10
382.29984641707227
 20
-2629.2925286122272
 30
0.0
 40
3.5
  1
材質：亜鉛ダイキャスト
  0
TEXT
  5
159CD
  8
1DIM
 10
382.29984641707227
 20
-2635.1258619455612
 30
0.0
 40
3.5
  1
仕上げ：クローム
  0
LINE
  5
159D0
  8
1DIM
 10
442.31413561125811
 20
-2673.068884338903
 30
0.0
 11
468.31413561125822
 21
-2673.068884338903
 31
0.0
  0
LINE
  5
159D1
  8
1DIM
 10
442.31413561125811
 20
-2663.068884338903
 30
0.0
 11
468.31413561125822
 21
-2663.068884338903
 31
0.0
  0
LINE
  5
159D2
  8
1DIM
 10
467.31413561125811
 20
-2671.068884338903
 30
0.0
 11
467.31413561125811
 21
-2665.068884338903
 31
0.0
  0
LINE
  5
159D3
  8
1DIM
 10
467.31413561125811
 20
-2663.068884338903
 30
0.0
 11
467.31413561125811
 21
-2650.0022176722359
 31
0.0
  0
LINE
  5
159D7
  8
1DIM
 10
373.51413561125838
 20
-2753.2688843389051
 30
0.0
 11
395.51413561125838
 21
-2753.2688843389051
 31
0.0
  0
LINE
  5
159D8
  8
1DIM
 10
373.51413561125821
 20
-2707.868884338905
 30
0.0
 11
395.51413561125838
 21
-2707.868884338905
 31
0.0
  0
LINE
  5
159D9
  8
1DIM
 10
394.51413561125838
 20
-2751.2688843389042
 30
0.0
 11
394.51413561125838
 21
-2709.8688843389041
 31
0.0
  0
LINE
  5
159DD
  8
1DIM
 10
577.27505020240415
 20
-2726.0688843389039
 30
0.0
 11
588.31413561125805
 21
-2726.0688843389039
 31
0.0
  0
LINE
  5
159DE
  8
1DIM
 10
547.31413561125817
 20
-2698.0687877472278
 30
0.0
 11
588.31413561125805
 21
-2698.0687877472278
 31
0.0
  0
LINE
  5
159DF
  8
1DIM
 10
587.31413561125805
 20
-2724.0688843389039
 30
0.0
 11
587.31413561125805
 21
-2700.0687877472269
 31
0.0
  0
LINE
  5
159E3
  8
1DIM
 10
577.27505020240415
 20
-2744.0688843389039
 30
0.0
 11
588.31413561125805
 21
-2744.0688843389039
 31
0.0
  0
LINE
  5
159E4
  8
1DIM
 10
577.27505020240415
 20
-2726.0688843389039
 30
0.0
 11
588.31413561125805
 21
-2726.0688843389039
 31
0.0
  0
LINE
  5
159E5
  8
1DIM
 10
587.31413561125805
 20
-2742.0688843389039
 30
0.0
 11
587.31413561125805
 21
-2728.0688843389039
 31
0.0
  0
LINE
  5
159E9
  8
1DIM
 10
498.31413561125811
 20
-2698.0687877472278
 30
0.0
 11
476.31413561125822
 21
-2698.0687877472278
 31
0.0
  0
LINE
  5
159EA
  8
1DIM
 10
498.31413561125828
 20
-2718.0687877472278
 30
0.0
 11
476.31413561125822
 21
-2718.0687877472278
 31
0.0
  0
LINE
  5
159EB
  8
1DIM
 10
477.31413561125811
 20
-2700.0687877472269
 30
0.0
 11
477.31413561125811
 21
-2716.0687877472269
 31
0.0
  0
LINE
  5
159EF
  8
1DIM
 10
498.31413561125811
 20
-2698.0687877472278
 30
0.0
 11
486.31413561125811
 21
-2698.0687877472278
 31
0.0
  0
LINE
  5
159F0
  8
1DIM
 10
504.31413561125811
 20
-2708.0687877472278
 30
0.0
 11
486.31413561125811
 21
-2708.0687877472278
 31
0.0
  0
LINE
  5
159F1
  8
1DIM
 10
487.31413561125811
 20
-2700.0687877472269
 30
0.0
 11
487.31413561125811
 21
-2706.0687877472278
 31
0.0
  0
LINE
  5
159F5
  8
1DIM
 10
497.31413561125822
 20
-2699.0687877472278
 30
0.0
 11
497.31413561125822
 21
-2677.0687877472269
 31
0.0
  0
LINE
  5
159F6
  8
1DIM
 10
547.31413561125817
 20
-2698.078787747228
 30
0.0
 11
547.31413561125817
 21
-2677.0687877472269
 31
0.0
  0
LINE
  5
159F7
  8
1DIM
 10
499.31413561125811
 20
-2678.0687877472269
 30
0.0
 11
545.31413561125805
 21
-2678.0687877472269
 31
0.0
  0
LINE
  5
159FB
  8
1DIM
 10
507.31413561125811
 20
-2705.0687877472278
 30
0.0
 11
507.31413561125811
 21
-2687.0687877472269
 31
0.0
  0
LINE
  5
159FC
  8
1DIM
 10
547.31413561125817
 20
-2698.0687877472278
 30
0.0
 11
547.31413561125817
 21
-2687.0687877472269
 31
0.0
  0
LINE
  5
159FD
  8
1DIM
 10
509.31413561125811
 20
-2688.0687877472269
 30
0.0
 11
545.31413561125805
 21
-2688.0687877472269
 31
0.0
  0
LINE
  5
15A01
  8
1DIM
 10
422.31413561125822
 20
-2808.0687877472278
 30
0.0
 11
468.31413561125822
 21
-2808.0687877472278
 31
0.0
  0
LINE
  5
15A02
  8
1DIM
 10
361.31413561125822
 20
-2698.0687877472278
 30
0.0
 11
468.31413561125822
 21
-2698.0687877472278
 31
0.0
  0
LINE
  5
15A03
  8
1DIM
 10
467.31413561125811
 20
-2806.0687877472278
 30
0.0
 11
467.31413561125811
 21
-2700.0687877472269
 31
0.0
  0
LINE
  5
15A07
  8
1DIM
 10
339.81413561125822
 20
-2732.0688843389039
 30
0.0
 11
339.81413561125822
 21
-2764.2688843389042
 31
0.0
  0
LINE
  5
15A08
  8
1DIM
 10
364.81413561125822
 20
-2732.0688843389039
 30
0.0
 11
364.81413561125822
 21
-2764.2688843389042
 31
0.0
  0
LINE
  5
15A09
  8
1DIM
 10
341.81413561125811
 20
-2763.2688843389042
 30
0.0
 11
362.81413561125822
 21
-2763.2688843389042
 31
0.0
  0
LINE
  5
15A0D
  8
1DIM
 10
330.11413561125812
 20
-2752.2688843389042
 30
0.0
 11
330.11413561125812
 21
-2774.2688843389042
 31
0.0
  0
LINE
  5
15A0E
  8
1DIM
 10
374.5141356112585
 20
-2752.2688843389042
 30
0.0
 11
374.5141356112585
 21
-2774.2688843389042
 31
0.0
  0
LINE
  5
15A0F
  8
1DIM
 10
332.11413561125812
 20
-2773.2688843389042
 30
0.0
 11
372.5141356112585
 21
-2773.2688843389042
 31
0.0
  0
LINE
  5
15A13
  8
1DIM
 10
257.31413561125822
 20
-2728.068787747226
 30
0.0
 11
257.31413561125822
 21
-2687.0687877472269
 31
0.0
  0
LINE
  5
15A14
  8
1DIM
 10
447.31413561125822
 20
-2774.0687877472278
 30
0.0
 11
447.31413561125822
 21
-2687.0687877472269
 31
0.0
  0
LINE
  5
15A15
  8
1DIM
 10
259.31413561125822
 20
-2688.0687877472269
 30
0.0
 11
445.31413561125811
 21
-2688.0687877472269
 31
0.0
  0
TEXT
  5
15A19
  8
1HATCH
 10
550.96923685364925
 20
-2665.7770415322402
 30
0.0
 40
3.5
  1
PB
  0
TEXT
  5
15A1E
  8
1DIM
 10
557.13658134818775
 20
-2671.7783875493642
 30
0.0
 40
3.5
  1
合板9mm以上
  0
LINE
  5
15A20
  8
1CENTER
 10
339.81413561125822
 20
-2598.107873156081
 30
0.0
 11
339.81413561125822
 21
-2634.7390641565362
 31
0.0
  0
LINE
  5
15A21
  8
0
 10
338.71981179726311
 20
-2603.1687852010682
 30
0.0
 11
340.68214688613853
 21
-2602.3687897670161
 31
0.0
  0
LINE
  5
15A22
  8
0
 10
340.68214688613853
 20
-2602.3687897670161
 30
0.0
 11
340.09387031109611
 21
-2602.0570199107651
 31
0.0
  0
LINE
  5
15A23
  8
0
 10
337.81418214715609
 20
-2625.5687830938582
 30
0.0
 11
341.81418214715609
 21
-2624.7687924010388
 31
0.0
  0
LINE
  5
15A24
  8
0
 10
337.81418214715609
 20
-2614.3687830938538
 30
0.0
 11
341.81418214715609
 21
-2613.5687924010308
 31
0.0
  0
LINE
  5
15A25
  8
0
 10
337.81418214715609
 20
-2611.1687830938531
 30
0.0
 11
341.81418214715609
 21
-2610.368792401031
 31
0.0
  0
LINE
  5
15A26
  8
0
 10
341.81418214715609
 20
-2610.368792401031
 30
0.0
 11
341.31418214715609
 21
-2610.2687912376332
 31
0.0
  0
LINE
  5
15A27
  8
0
 10
338.31418214715609
 20
-2609.668784257251
 30
0.0
 11
337.81418214715609
 21
-2609.5687830938541
 31
0.0
  0
LINE
  5
15A28
  8
0
 10
341.81418214715609
 20
-2613.5687924010308
 30
0.0
 11
341.31418214715609
 21
-2613.4687912376339
 31
0.0
  0
LINE
  5
15A29
  8
0
 10
341.81418214715609
 20
-2611.9687924010309
 30
0.0
 11
341.31418214715609
 21
-2611.868791237634
 31
0.0
  0
LINE
  5
15A2A
  8
0
 10
338.31418214715609
 20
-2611.2687842572509
 30
0.0
 11
337.81418214715609
 21
-2611.1687830938531
 31
0.0
  0
LINE
  5
15A2B
  8
0
 10
338.31418214715609
 20
-2612.8687842572499
 30
0.0
 11
337.81418214715609
 21
-2612.768783093853
 31
0.0
  0
LINE
  5
15A2C
  8
0
 10
337.81418214715609
 20
-2612.768783093853
 30
0.0
 11
341.81418214715609
 21
-2611.9687924010309
 31
0.0
  0
LINE
  5
15A2D
  8
0
 10
341.13496099054532
 20
-2603.9687908206229
 30
0.0
 11
340.5832115267421
 21
-2603.786026677994
 31
0.0
  0
LINE
  5
15A2E
  8
0
 10
341.81418214715609
 20
-2607.1687924010312
 30
0.0
 11
341.31418214715609
 21
-2607.0687912376338
 31
0.0
  0
LINE
  5
15A2F
  8
0
 10
341.81418214715609
 20
-2608.7687924010311
 30
0.0
 11
341.31418214715609
 21
-2608.6687912376342
 31
0.0
  0
LINE
  5
15A30
  8
0
 10
341.58777509495212
 20
-2605.5687918742278
 30
0.0
 11
341.05118135968098
 21
-2605.4395211765982
 31
0.0
  0
LINE
  5
15A31
  8
0
 10
338.7350967443648
 20
-2604.881553659814
 30
0.0
 11
338.26699828921483
 21
-2604.768784147464
 31
0.0
  0
LINE
  5
15A32
  8
0
 10
338.31418214715609
 20
-2608.0687842572502
 30
0.0
 11
337.81418214715609
 21
-2607.9687830938528
 31
0.0
  0
LINE
  5
15A33
  8
0
 10
338.31418214715609
 20
-2606.4687842572512
 30
0.0
 11
337.81418214715609
 21
-2606.3687830938538
 31
0.0
  0
LINE
  5
15A34
  8
0
 10
339.17698363789418
 20
-2603.3202209975079
 30
0.0
 11
338.71981179726311
 21
-2603.1687852010682
 31
0.0
  0
LINE
  5
15A35
  8
0
 10
338.26699828921483
 20
-2604.768784147464
 30
0.0
 11
341.13496099054532
 21
-2603.9687908206229
 31
0.0
  0
LINE
  5
15A36
  8
0
 10
337.81418214715609
 20
-2607.9687830938528
 30
0.0
 11
341.81418214715609
 21
-2607.1687924010312
 31
0.0
  0
LINE
  5
15A37
  8
0
 10
337.81418214715609
 20
-2606.3687830938538
 30
0.0
 11
341.58777509495212
 21
-2605.5687918742278
 31
0.0
  0
LINE
  5
15A38
  8
0
 10
337.81418214715609
 20
-2609.5687830938541
 30
0.0
 11
341.81418214715609
 21
-2608.7687924010311
 31
0.0
  0
LINE
  5
15A39
  8
0
 10
337.81418214715609
 20
-2622.3687830938579
 30
0.0
 11
341.81418214715609
 21
-2621.5687924010399
 31
0.0
  0
LINE
  5
15A3A
  8
0
 10
341.81418214715609
 20
-2621.5687924010399
 30
0.0
 11
341.31418214715609
 21
-2621.4687912376421
 31
0.0
  0
LINE
  5
15A3B
  8
0
 10
338.31418214715609
 20
-2620.8687842572508
 30
0.0
 11
337.81418214715609
 21
-2620.768783093853
 31
0.0
  0
LINE
  5
15A3C
  8
0
 10
341.81418214715609
 20
-2623.1687924010398
 30
0.0
 11
341.31418214715609
 21
-2623.068791237642
 31
0.0
  0
LINE
  5
15A3D
  8
0
 10
341.81418214715609
 20
-2624.7687924010388
 30
0.0
 11
341.31418214715609
 21
-2624.6687912376419
 31
0.0
  0
LINE
  5
15A3E
  8
0
 10
338.31418214715609
 20
-2622.4687842572562
 30
0.0
 11
337.81418214715609
 21
-2622.3687830938579
 31
0.0
  0
LINE
  5
15A3F
  8
0
 10
338.31418214715609
 20
-2624.0687842572552
 30
0.0
 11
337.81418214715609
 21
-2623.9687830938578
 31
0.0
  0
LINE
  5
15A40
  8
0
 10
337.81418214715609
 20
-2623.9687830938578
 30
0.0
 11
341.81418214715609
 21
-2623.1687924010398
 31
0.0
  0
LINE
  5
15A41
  8
0
 10
341.81418214715609
 20
-2616.7687924010352
 30
0.0
 11
341.31418214715609
 21
-2616.6687912376378
 31
0.0
  0
LINE
  5
15A42
  8
0
 10
341.81418214715609
 20
-2615.1687924010312
 30
0.0
 11
341.31418214715609
 21
-2615.0687912376338
 31
0.0
  0
LINE
  5
15A43
  8
0
 10
341.81418214715609
 20
-2619.968792401035
 30
0.0
 11
341.31418214715609
 21
-2619.8687912376372
 31
0.0
  0
LINE
  5
15A44
  8
0
 10
341.81418214715609
 20
-2618.3687924010351
 30
0.0
 11
341.31418214715609
 21
-2618.2687912376382
 31
0.0
  0
LINE
  5
15A45
  8
0
 10
338.31418214715609
 20
-2614.4687842572498
 30
0.0
 11
337.81418214715609
 21
-2614.3687830938538
 31
0.0
  0
LINE
  5
15A46
  8
0
 10
338.31418214715609
 20
-2616.0687842572511
 30
0.0
 11
337.81418214715609
 21
-2615.9687830938528
 31
0.0
  0
LINE
  5
15A47
  8
0
 10
338.31418214715609
 20
-2619.2687842572509
 30
0.0
 11
337.81418214715609
 21
-2619.1687830938531
 31
0.0
  0
LINE
  5
15A48
  8
0
 10
338.31418214715609
 20
-2617.668784257251
 30
0.0
 11
337.81418214715609
 21
-2617.5687830938532
 31
0.0
  0
LINE
  5
15A49
  8
0
 10
337.81418214715609
 20
-2617.5687830938532
 30
0.0
 11
341.81418214715609
 21
-2616.7687924010352
 31
0.0
  0
LINE
  5
15A4A
  8
0
 10
337.81418214715609
 20
-2615.9687830938528
 30
0.0
 11
341.81418214715609
 21
-2615.1687924010312
 31
0.0
  0
LINE
  5
15A4B
  8
0
 10
337.81418214715609
 20
-2619.1687830938531
 30
0.0
 11
341.81418214715609
 21
-2618.3687924010351
 31
0.0
  0
LINE
  5
15A4C
  8
0
 10
337.81418214715609
 20
-2620.768783093853
 30
0.0
 11
341.81418214715609
 21
-2619.968792401035
 31
0.0
  0
LINE
  5
15A4D
  8
0
 10
341.31418214715609
 20
-2631.0687912375279
 30
0.0
 11
338.31418214715632
 21
-2631.0687842571442
 31
0.0
  0
LINE
  5
15A4E
  8
0
 10
338.31418214715609
 20
-2630.4687842572598
 30
0.0
 11
337.81418214715609
 21
-2630.368783093862
 31
0.0
  0
LINE
  5
15A4F
  8
0
 10
337.81418214715609
 20
-2630.368783093862
 30
0.0
 11
341.81418214715609
 21
-2629.568792401044
 31
0.0
  0
LINE
  5
15A50
  8
0
 10
341.81418214715609
 20
-2629.568792401044
 30
0.0
 11
341.31418214715609
 21
-2629.4687912376462
 31
0.0
  0
LINE
  5
15A51
  8
0
 10
338.31418214715609
 20
-2628.8687842572599
 30
0.0
 11
337.81418214715609
 21
-2628.7687830938621
 31
0.0
  0
LINE
  5
15A52
  8
0
 10
338.31418214715609
 20
-2627.2687842572591
 30
0.0
 11
337.81418214715609
 21
-2627.1687830938622
 31
0.0
  0
LINE
  5
15A53
  8
0
 10
337.81418214715609
 20
-2627.1687830938622
 30
0.0
 11
341.81418214715609
 21
-2626.3687924010442
 31
0.0
  0
LINE
  5
15A54
  8
0
 10
341.81418214715609
 20
-2627.9687924010432
 30
0.0
 11
341.31418214715609
 21
-2627.8687912376458
 31
0.0
  0
LINE
  5
15A55
  8
0
 10
341.81418214715609
 20
-2626.3687924010442
 30
0.0
 11
341.31418214715609
 21
-2626.2687912376459
 31
0.0
  0
LINE
  5
15A56
  8
0
 10
337.81418214715609
 20
-2628.7687830938621
 30
0.0
 11
341.81418214715609
 21
-2627.9687924010432
 31
0.0
  0
LINE
  5
15A57
  8
0
 10
338.31418214715609
 20
-2625.6687842572551
 30
0.0
 11
337.81418214715609
 21
-2625.5687830938582
 31
0.0
  0
LINE
  5
15A59
  8
1CENTER
 10
352.31413561125822
 20
-2598.107873156081
 30
0.0
 11
352.31413561125822
 21
-2634.7390641565362
 31
0.0
  0
LINE
  5
15A5A
  8
0
 10
351.21981179726311
 20
-2603.1687852010682
 30
0.0
 11
353.18214688613853
 21
-2602.3687897670161
 31
0.0
  0
LINE
  5
15A5B
  8
0
 10
353.18214688613853
 20
-2602.3687897670161
 30
0.0
 11
352.59387031109611
 21
-2602.0570199107651
 31
0.0
  0
LINE
  5
15A5C
  8
0
 10
350.31418214715609
 20
-2625.5687830938582
 30
0.0
 11
354.31418214715609
 21
-2624.7687924010388
 31
0.0
  0
LINE
  5
15A5D
  8
0
 10
350.31418214715609
 20
-2614.3687830938538
 30
0.0
 11
354.31418214715609
 21
-2613.5687924010308
 31
0.0
  0
LINE
  5
15A5E
  8
0
 10
350.31418214715609
 20
-2611.1687830938531
 30
0.0
 11
354.31418214715609
 21
-2610.368792401031
 31
0.0
  0
LINE
  5
15A5F
  8
0
 10
354.31418214715609
 20
-2610.368792401031
 30
0.0
 11
353.81418214715609
 21
-2610.2687912376332
 31
0.0
  0
LINE
  5
15A60
  8
0
 10
350.81418214715609
 20
-2609.668784257251
 30
0.0
 11
350.31418214715609
 21
-2609.5687830938541
 31
0.0
  0
LINE
  5
15A61
  8
0
 10
354.31418214715609
 20
-2613.5687924010308
 30
0.0
 11
353.81418214715609
 21
-2613.4687912376339
 31
0.0
  0
LINE
  5
15A62
  8
0
 10
354.31418214715609
 20
-2611.9687924010309
 30
0.0
 11
353.81418214715609
 21
-2611.868791237634
 31
0.0
  0
LINE
  5
15A63
  8
0
 10
350.81418214715609
 20
-2611.2687842572509
 30
0.0
 11
350.31418214715609
 21
-2611.1687830938531
 31
0.0
  0
LINE
  5
15A64
  8
0
 10
350.81418214715609
 20
-2612.8687842572499
 30
0.0
 11
350.31418214715609
 21
-2612.768783093853
 31
0.0
  0
LINE
  5
15A65
  8
0
 10
350.31418214715609
 20
-2612.768783093853
 30
0.0
 11
354.31418214715609
 21
-2611.9687924010309
 31
0.0
  0
LINE
  5
15A66
  8
0
 10
353.63496099054532
 20
-2603.9687908206229
 30
0.0
 11
353.0832115267421
 21
-2603.786026677994
 31
0.0
  0
LINE
  5
15A67
  8
0
 10
354.31418214715609
 20
-2607.1687924010312
 30
0.0
 11
353.81418214715609
 21
-2607.0687912376338
 31
0.0
  0
LINE
  5
15A68
  8
0
 10
354.31418214715609
 20
-2608.7687924010311
 30
0.0
 11
353.81418214715609
 21
-2608.6687912376342
 31
0.0
  0
LINE
  5
15A69
  8
0
 10
354.08777509495212
 20
-2605.5687918742278
 30
0.0
 11
353.55118135968098
 21
-2605.4395211765982
 31
0.0
  0
LINE
  5
15A6A
  8
0
 10
351.2350967443648
 20
-2604.881553659814
 30
0.0
 11
350.76699828921483
 21
-2604.768784147464
 31
0.0
  0
LINE
  5
15A6B
  8
0
 10
350.81418214715609
 20
-2608.0687842572502
 30
0.0
 11
350.31418214715609
 21
-2607.9687830938528
 31
0.0
  0
LINE
  5
15A6C
  8
0
 10
350.81418214715609
 20
-2606.4687842572512
 30
0.0
 11
350.31418214715609
 21
-2606.3687830938538
 31
0.0
  0
LINE
  5
15A6D
  8
0
 10
351.67698363789418
 20
-2603.3202209975079
 30
0.0
 11
351.21981179726311
 21
-2603.1687852010682
 31
0.0
  0
LINE
  5
15A6E
  8
0
 10
350.76699828921483
 20
-2604.768784147464
 30
0.0
 11
353.63496099054532
 21
-2603.9687908206229
 31
0.0
  0
LINE
  5
15A6F
  8
0
 10
350.31418214715609
 20
-2607.9687830938528
 30
0.0
 11
354.31418214715609
 21
-2607.1687924010312
 31
0.0
  0
LINE
  5
15A70
  8
0
 10
350.31418214715609
 20
-2606.3687830938538
 30
0.0
 11
354.08777509495212
 21
-2605.5687918742278
 31
0.0
  0
LINE
  5
15A71
  8
0
 10
350.31418214715609
 20
-2609.5687830938541
 30
0.0
 11
354.31418214715609
 21
-2608.7687924010311
 31
0.0
  0
LINE
  5
15A72
  8
0
 10
350.31418214715609
 20
-2622.3687830938579
 30
0.0
 11
354.31418214715609
 21
-2621.5687924010399
 31
0.0
  0
LINE
  5
15A73
  8
0
 10
354.31418214715609
 20
-2621.5687924010399
 30
0.0
 11
353.81418214715609
 21
-2621.4687912376421
 31
0.0
  0
LINE
  5
15A74
  8
0
 10
350.81418214715609
 20
-2620.8687842572508
 30
0.0
 11
350.31418214715609
 21
-2620.768783093853
 31
0.0
  0
LINE
  5
15A75
  8
0
 10
354.31418214715609
 20
-2623.1687924010398
 30
0.0
 11
353.81418214715609
 21
-2623.068791237642
 31
0.0
  0
LINE
  5
15A76
  8
0
 10
354.31418214715609
 20
-2624.7687924010388
 30
0.0
 11
353.81418214715609
 21
-2624.6687912376419
 31
0.0
  0
LINE
  5
15A77
  8
0
 10
350.81418214715609
 20
-2622.4687842572562
 30
0.0
 11
350.31418214715609
 21
-2622.3687830938579
 31
0.0
  0
LINE
  5
15A78
  8
0
 10
350.81418214715609
 20
-2624.0687842572552
 30
0.0
 11
350.31418214715609
 21
-2623.9687830938578
 31
0.0
  0
LINE
  5
15A79
  8
0
 10
350.31418214715609
 20
-2623.9687830938578
 30
0.0
 11
354.31418214715609
 21
-2623.1687924010398
 31
0.0
  0
LINE
  5
15A7A
  8
0
 10
354.31418214715609
 20
-2616.7687924010352
 30
0.0
 11
353.81418214715609
 21
-2616.6687912376378
 31
0.0
  0
LINE
  5
15A7B
  8
0
 10
354.31418214715609
 20
-2615.1687924010312
 30
0.0
 11
353.81418214715609
 21
-2615.0687912376338
 31
0.0
  0
LINE
  5
15A7C
  8
0
 10
354.31418214715609
 20
-2619.968792401035
 30
0.0
 11
353.81418214715609
 21
-2619.8687912376372
 31
0.0
  0
LINE
  5
15A7D
  8
0
 10
354.31418214715609
 20
-2618.3687924010351
 30
0.0
 11
353.81418214715609
 21
-2618.2687912376382
 31
0.0
  0
LINE
  5
15A7E
  8
0
 10
350.81418214715609
 20
-2614.4687842572498
 30
0.0
 11
350.31418214715609
 21
-2614.3687830938538
 31
0.0
  0
LINE
  5
15A7F
  8
0
 10
350.81418214715609
 20
-2616.0687842572511
 30
0.0
 11
350.31418214715609
 21
-2615.9687830938528
 31
0.0
  0
LINE
  5
15A80
  8
0
 10
350.81418214715609
 20
-2619.2687842572509
 30
0.0
 11
350.31418214715609
 21
-2619.1687830938531
 31
0.0
  0
LINE
  5
15A81
  8
0
 10
350.81418214715609
 20
-2617.668784257251
 30
0.0
 11
350.31418214715609
 21
-2617.5687830938532
 31
0.0
  0
LINE
  5
15A82
  8
0
 10
350.31418214715609
 20
-2617.5687830938532
 30
0.0
 11
354.31418214715609
 21
-2616.7687924010352
 31
0.0
  0
LINE
  5
15A83
  8
0
 10
350.31418214715609
 20
-2615.9687830938528
 30
0.0
 11
354.31418214715609
 21
-2615.1687924010312
 31
0.0
  0
LINE
  5
15A84
  8
0
 10
350.31418214715609
 20
-2619.1687830938531
 30
0.0
 11
354.31418214715609
 21
-2618.3687924010351
 31
0.0
  0
LINE
  5
15A85
  8
0
 10
350.31418214715609
 20
-2620.768783093853
 30
0.0
 11
354.31418214715609
 21
-2619.968792401035
 31
0.0
  0
LINE
  5
15A86
  8
0
 10
353.81418214715609
 20
-2631.0687912375279
 30
0.0
 11
350.81418214715632
 21
-2631.0687842571442
 31
0.0
  0
LINE
  5
15A87
  8
0
 10
350.81418214715609
 20
-2630.4687842572598
 30
0.0
 11
350.31418214715609
 21
-2630.368783093862
 31
0.0
  0
LINE
  5
15A88
  8
0
 10
350.31418214715609
 20
-2630.368783093862
 30
0.0
 11
354.31418214715609
 21
-2629.568792401044
 31
0.0
  0
LINE
  5
15A89
  8
0
 10
354.31418214715609
 20
-2629.568792401044
 30
0.0
 11
353.81418214715609
 21
-2629.4687912376462
 31
0.0
  0
LINE
  5
15A8A
  8
0
 10
350.81418214715609
 20
-2628.8687842572599
 30
0.0
 11
350.31418214715609
 21
-2628.7687830938621
 31
0.0
  0
LINE
  5
15A8B
  8
0
 10
350.81418214715609
 20
-2627.2687842572591
 30
0.0
 11
350.31418214715609
 21
-2627.1687830938622
 31
0.0
  0
LINE
  5
15A8C
  8
0
 10
350.31418214715609
 20
-2627.1687830938622
 30
0.0
 11
354.31418214715609
 21
-2626.3687924010442
 31
0.0
  0
LINE
  5
15A8D
  8
0
 10
354.31418214715609
 20
-2627.9687924010432
 30
0.0
 11
353.81418214715609
 21
-2627.8687912376458
 31
0.0
  0
LINE
  5
15A8E
  8
0
 10
354.31418214715609
 20
-2626.3687924010442
 30
0.0
 11
353.81418214715609
 21
-2626.2687912376459
 31
0.0
  0
LINE
  5
15A8F
  8
0
 10
350.31418214715609
 20
-2628.7687830938621
 30
0.0
 11
354.31418214715609
 21
-2627.9687924010432
 31
0.0
  0
LINE
  5
15A90
  8
0
 10
350.81418214715609
 20
-2625.6687842572551
 30
0.0
 11
350.31418214715609
 21
-2625.5687830938582
 31
0.0
  0
LINE
  5
15A92
  8
1CENTER
 10
364.81413561125822
 20
-2598.107873156081
 30
0.0
 11
364.81413561125822
 21
-2634.7390641565362
 31
0.0
  0
LINE
  5
15A93
  8
0
 10
363.71981179726311
 20
-2603.1687852010682
 30
0.0
 11
365.68214688613853
 21
-2602.3687897670161
 31
0.0
  0
LINE
  5
15A94
  8
0
 10
365.68214688613853
 20
-2602.3687897670161
 30
0.0
 11
365.09387031109611
 21
-2602.0570199107651
 31
0.0
  0
LINE
  5
15A95
  8
0
 10
362.81418214715609
 20
-2625.5687830938582
 30
0.0
 11
366.81418214715609
 21
-2624.7687924010388
 31
0.0
  0
LINE
  5
15A96
  8
0
 10
362.81418214715609
 20
-2614.3687830938538
 30
0.0
 11
366.81418214715609
 21
-2613.5687924010308
 31
0.0
  0
LINE
  5
15A97
  8
0
 10
362.81418214715609
 20
-2611.1687830938531
 30
0.0
 11
366.81418214715609
 21
-2610.368792401031
 31
0.0
  0
LINE
  5
15A98
  8
0
 10
366.81418214715609
 20
-2610.368792401031
 30
0.0
 11
366.31418214715609
 21
-2610.2687912376332
 31
0.0
  0
LINE
  5
15A99
  8
0
 10
363.31418214715609
 20
-2609.668784257251
 30
0.0
 11
362.81418214715609
 21
-2609.5687830938541
 31
0.0
  0
LINE
  5
15A9A
  8
0
 10
366.81418214715609
 20
-2613.5687924010308
 30
0.0
 11
366.31418214715609
 21
-2613.4687912376339
 31
0.0
  0
LINE
  5
15A9B
  8
0
 10
366.81418214715609
 20
-2611.9687924010309
 30
0.0
 11
366.31418214715609
 21
-2611.868791237634
 31
0.0
  0
LINE
  5
15A9C
  8
0
 10
363.31418214715609
 20
-2611.2687842572509
 30
0.0
 11
362.81418214715609
 21
-2611.1687830938531
 31
0.0
  0
LINE
  5
15A9D
  8
0
 10
363.31418214715609
 20
-2612.8687842572499
 30
0.0
 11
362.81418214715609
 21
-2612.768783093853
 31
0.0
  0
LINE
  5
15A9E
  8
0
 10
362.81418214715609
 20
-2612.768783093853
 30
0.0
 11
366.81418214715609
 21
-2611.9687924010309
 31
0.0
  0
LINE
  5
15A9F
  8
0
 10
366.13496099054532
 20
-2603.9687908206229
 30
0.0
 11
365.5832115267421
 21
-2603.786026677994
 31
0.0
  0
LINE
  5
15AA0
  8
0
 10
366.81418214715609
 20
-2607.1687924010312
 30
0.0
 11
366.31418214715609
 21
-2607.0687912376338
 31
0.0
  0
LINE
  5
15AA1
  8
0
 10
366.81418214715609
 20
-2608.7687924010311
 30
0.0
 11
366.31418214715609
 21
-2608.6687912376342
 31
0.0
  0
LINE
  5
15AA2
  8
0
 10
366.58777509495212
 20
-2605.5687918742278
 30
0.0
 11
366.05118135968098
 21
-2605.4395211765982
 31
0.0
  0
LINE
  5
15AA3
  8
0
 10
363.7350967443648
 20
-2604.881553659814
 30
0.0
 11
363.26699828921483
 21
-2604.768784147464
 31
0.0
  0
LINE
  5
15AA4
  8
0
 10
363.31418214715609
 20
-2608.0687842572502
 30
0.0
 11
362.81418214715609
 21
-2607.9687830938528
 31
0.0
  0
LINE
  5
15AA5
  8
0
 10
363.31418214715609
 20
-2606.4687842572512
 30
0.0
 11
362.81418214715609
 21
-2606.3687830938538
 31
0.0
  0
LINE
  5
15AA6
  8
0
 10
364.17698363789418
 20
-2603.3202209975079
 30
0.0
 11
363.71981179726311
 21
-2603.1687852010682
 31
0.0
  0
LINE
  5
15AA7
  8
0
 10
363.26699828921483
 20
-2604.768784147464
 30
0.0
 11
366.13496099054532
 21
-2603.9687908206229
 31
0.0
  0
LINE
  5
15AA8
  8
0
 10
362.81418214715609
 20
-2607.9687830938528
 30
0.0
 11
366.81418214715609
 21
-2607.1687924010312
 31
0.0
  0
LINE
  5
15AA9
  8
0
 10
362.81418214715609
 20
-2606.3687830938538
 30
0.0
 11
366.58777509495212
 21
-2605.5687918742278
 31
0.0
  0
LINE
  5
15AAA
  8
0
 10
362.81418214715609
 20
-2609.5687830938541
 30
0.0
 11
366.81418214715609
 21
-2608.7687924010311
 31
0.0
  0
LINE
  5
15AAB
  8
0
 10
362.81418214715609
 20
-2622.3687830938579
 30
0.0
 11
366.81418214715609
 21
-2621.5687924010399
 31
0.0
  0
LINE
  5
15AAC
  8
0
 10
366.81418214715609
 20
-2621.5687924010399
 30
0.0
 11
366.31418214715609
 21
-2621.4687912376421
 31
0.0
  0
LINE
  5
15AAD
  8
0
 10
363.31418214715609
 20
-2620.8687842572508
 30
0.0
 11
362.81418214715609
 21
-2620.768783093853
 31
0.0
  0
LINE
  5
15AAE
  8
0
 10
366.81418214715609
 20
-2623.1687924010398
 30
0.0
 11
366.31418214715609
 21
-2623.068791237642
 31
0.0
  0
LINE
  5
15AAF
  8
0
 10
366.81418214715609
 20
-2624.7687924010388
 30
0.0
 11
366.31418214715609
 21
-2624.6687912376419
 31
0.0
  0
LINE
  5
15AB0
  8
0
 10
363.31418214715609
 20
-2622.4687842572562
 30
0.0
 11
362.81418214715609
 21
-2622.3687830938579
 31
0.0
  0
LINE
  5
15AB1
  8
0
 10
363.31418214715609
 20
-2624.0687842572552
 30
0.0
 11
362.81418214715609
 21
-2623.9687830938578
 31
0.0
  0
LINE
  5
15AB2
  8
0
 10
362.81418214715609
 20
-2623.9687830938578
 30
0.0
 11
366.81418214715609
 21
-2623.1687924010398
 31
0.0
  0
LINE
  5
15AB3
  8
0
 10
366.81418214715609
 20
-2616.7687924010352
 30
0.0
 11
366.31418214715609
 21
-2616.6687912376378
 31
0.0
  0
LINE
  5
15AB4
  8
0
 10
366.81418214715609
 20
-2615.1687924010312
 30
0.0
 11
366.31418214715609
 21
-2615.0687912376338
 31
0.0
  0
LINE
  5
15AB5
  8
0
 10
366.81418214715609
 20
-2619.968792401035
 30
0.0
 11
366.31418214715609
 21
-2619.8687912376372
 31
0.0
  0
LINE
  5
15AB6
  8
0
 10
366.81418214715609
 20
-2618.3687924010351
 30
0.0
 11
366.31418214715609
 21
-2618.2687912376382
 31
0.0
  0
LINE
  5
15AB7
  8
0
 10
363.31418214715609
 20
-2614.4687842572498
 30
0.0
 11
362.81418214715609
 21
-2614.3687830938538
 31
0.0
  0
LINE
  5
15AB8
  8
0
 10
363.31418214715609
 20
-2616.0687842572511
 30
0.0
 11
362.81418214715609
 21
-2615.9687830938528
 31
0.0
  0
LINE
  5
15AB9
  8
0
 10
363.31418214715609
 20
-2619.2687842572509
 30
0.0
 11
362.81418214715609
 21
-2619.1687830938531
 31
0.0
  0
LINE
  5
15ABA
  8
0
 10
363.31418214715609
 20
-2617.668784257251
 30
0.0
 11
362.81418214715609
 21
-2617.5687830938532
 31
0.0
  0
LINE
  5
15ABB
  8
0
 10
362.81418214715609
 20
-2617.5687830938532
 30
0.0
 11
366.81418214715609
 21
-2616.7687924010352
 31
0.0
  0
LINE
  5
15ABC
  8
0
 10
362.81418214715609
 20
-2615.9687830938528
 30
0.0
 11
366.81418214715609
 21
-2615.1687924010312
 31
0.0
  0
LINE
  5
15ABD
  8
0
 10
362.81418214715609
 20
-2619.1687830938531
 30
0.0
 11
366.81418214715609
 21
-2618.3687924010351
 31
0.0
  0
LINE
  5
15ABE
  8
0
 10
362.81418214715609
 20
-2620.768783093853
 30
0.0
 11
366.81418214715609
 21
-2619.968792401035
 31
0.0
  0
LINE
  5
15ABF
  8
0
 10
366.31418214715609
 20
-2631.0687912375279
 30
0.0
 11
363.31418214715632
 21
-2631.0687842571442
 31
0.0
  0
LINE
  5
15AC0
  8
0
 10
363.31418214715609
 20
-2630.4687842572598
 30
0.0
 11
362.81418214715609
 21
-2630.368783093862
 31
0.0
  0
LINE
  5
15AC1
  8
0
 10
362.81418214715609
 20
-2630.368783093862
 30
0.0
 11
366.81418214715609
 21
-2629.568792401044
 31
0.0
  0
LINE
  5
15AC2
  8
0
 10
366.81418214715609
 20
-2629.568792401044
 30
0.0
 11
366.31418214715609
 21
-2629.4687912376462
 31
0.0
  0
LINE
  5
15AC3
  8
0
 10
363.31418214715609
 20
-2628.8687842572599
 30
0.0
 11
362.81418214715609
 21
-2628.7687830938621
 31
0.0
  0
LINE
  5
15AC4
  8
0
 10
363.31418214715609
 20
-2627.2687842572591
 30
0.0
 11
362.81418214715609
 21
-2627.1687830938622
 31
0.0
  0
LINE
  5
15AC5
  8
0
 10
362.81418214715609
 20
-2627.1687830938622
 30
0.0
 11
366.81418214715609
 21
-2626.3687924010442
 31
0.0
  0
LINE
  5
15AC6
  8
0
 10
366.81418214715609
 20
-2627.9687924010432
 30
0.0
 11
366.31418214715609
 21
-2627.8687912376458
 31
0.0
  0
LINE
  5
15AC7
  8
0
 10
366.81418214715609
 20
-2626.3687924010442
 30
0.0
 11
366.31418214715609
 21
-2626.2687912376459
 31
0.0
  0
LINE
  5
15AC8
  8
0
 10
362.81418214715609
 20
-2628.7687830938621
 30
0.0
 11
366.81418214715609
 21
-2627.9687924010432
 31
0.0
  0
LINE
  5
15AC9
  8
0
 10
363.31418214715609
 20
-2625.6687842572551
 30
0.0
 11
362.81418214715609
 21
-2625.5687830938582
 31
0.0
  0
LINE
  5
15ACB
  8
1CENTER
 10
577.27505020240415
 20
-2744.0688843389039
 30
0.0
 11
540.64385920194923
 21
-2744.0688843389039
 31
0.0
  0
LINE
  5
15ACC
  8
0
 10
572.21413815741789
 20
-2742.9745605249091
 30
0.0
 11
573.01413359146875
 21
-2744.9368956137841
 31
0.0
  0
LINE
  5
15ACD
  8
0
 10
573.01413359146875
 20
-2744.9368956137841
 30
0.0
 11
573.32590344772086
 21
-2744.3486190387421
 31
0.0
  0
LINE
  5
15ACE
  8
0
 10
549.81414026462789
 20
-2742.0689308748019
 30
0.0
 11
550.61413095744615
 21
-2746.0689308748019
 31
0.0
  0
LINE
  5
15ACF
  8
0
 10
561.01414026463215
 20
-2742.0689308748019
 30
0.0
 11
561.81413095745484
 21
-2746.0689308748019
 31
0.0
  0
LINE
  5
15AD0
  8
0
 10
564.21414026463231
 20
-2742.0689308748019
 30
0.0
 11
565.01413095745477
 21
-2746.0689308748019
 31
0.0
  0
LINE
  5
15AD1
  8
0
 10
565.01413095745477
 20
-2746.0689308748019
 30
0.0
 11
565.1141321208521
 21
-2745.5689308748019
 31
0.0
  0
LINE
  5
15AD2
  8
0
 10
565.71413910123511
 20
-2742.5689308748019
 30
0.0
 11
565.81414026463233
 21
-2742.0689308748019
 31
0.0
  0
LINE
  5
15AD3
  8
0
 10
561.81413095745484
 20
-2746.0689308748019
 30
0.0
 11
561.91413212085206
 21
-2745.5689308748019
 31
0.0
  0
LINE
  5
15AD4
  8
0
 10
563.41413095745486
 20
-2746.0689308748019
 30
0.0
 11
563.51413212085208
 21
-2745.5689308748019
 31
0.0
  0
LINE
  5
15AD5
  8
0
 10
564.1141391012352
 20
-2742.5689308748019
 30
0.0
 11
564.21414026463231
 21
-2742.0689308748019
 31
0.0
  0
LINE
  5
15AD6
  8
0
 10
562.51413910123529
 20
-2742.5689308748019
 30
0.0
 11
562.61414026463228
 21
-2742.0689308748019
 31
0.0
  0
LINE
  5
15AD7
  8
0
 10
562.61414026463228
 20
-2742.0689308748019
 30
0.0
 11
563.41413095745486
 21
-2746.0689308748019
 31
0.0
  0
LINE
  5
15AD8
  8
0
 10
571.41413253786322
 20
-2745.3897097181912
 30
0.0
 11
571.59689668049123
 21
-2744.8379602543878
 31
0.0
  0
LINE
  5
15AD9
  8
0
 10
568.21413095745493
 20
-2746.0689308748019
 30
0.0
 11
568.31413212085204
 21
-2745.5689308748019
 31
0.0
  0
LINE
  5
15ADA
  8
0
 10
566.61413095745479
 20
-2746.0689308748019
 30
0.0
 11
566.7141321208519
 21
-2745.5689308748019
 31
0.0
  0
LINE
  5
15ADB
  8
0
 10
569.81413148425747
 20
-2745.8425238225982
 30
0.0
 11
569.94340218188745
 21
-2745.3059300873269
 31
0.0
  0
LINE
  5
15ADC
  8
0
 10
570.50136969867197
 20
-2742.989845472011
 30
0.0
 11
570.61413921102212
 21
-2742.5217470168609
 31
0.0
  0
LINE
  5
15ADD
  8
0
 10
567.31413910123524
 20
-2742.5689308748019
 30
0.0
 11
567.41414026463235
 21
-2742.0689308748019
 31
0.0
  0
LINE
  5
15ADE
  8
0
 10
568.91413910123515
 20
-2742.5689308748019
 30
0.0
 11
569.01414026463226
 21
-2742.0689308748019
 31
0.0
  0
LINE
  5
15ADF
  8
0
 10
572.06270236097737
 20
-2743.43173236554
 30
0.0
 11
572.21413815741789
 21
-2742.9745605249091
 31
0.0
  0
LINE
  5
15AE0
  8
0
 10
570.61413921102212
 20
-2742.5217470168609
 30
0.0
 11
571.41413253786322
 21
-2745.3897097181912
 31
0.0
  0
LINE
  5
15AE1
  8
0
 10
567.41414026463235
 20
-2742.0689308748019
 30
0.0
 11
568.21413095745493
 21
-2746.0689308748019
 31
0.0
  0
LINE
  5
15AE2
  8
0
 10
569.01414026463226
 20
-2742.0689308748019
 30
0.0
 11
569.81413148425747
 21
-2745.8425238225982
 31
0.0
  0
LINE
  5
15AE3
  8
0
 10
565.81414026463233
 20
-2742.0689308748019
 30
0.0
 11
566.61413095745479
 21
-2746.0689308748019
 31
0.0
  0
LINE
  5
15AE4
  8
0
 10
553.01414026462794
 20
-2742.0689308748019
 30
0.0
 11
553.8141309574462
 21
-2746.0689308748019
 31
0.0
  0
LINE
  5
15AE5
  8
0
 10
553.8141309574462
 20
-2746.0689308748019
 30
0.0
 11
553.91413212084387
 21
-2745.5689308748019
 31
0.0
  0
LINE
  5
15AE6
  8
0
 10
554.5141391012346
 20
-2742.5689308748019
 30
0.0
 11
554.61414026463217
 21
-2742.0689308748019
 31
0.0
  0
LINE
  5
15AE7
  8
0
 10
552.21413095744595
 20
-2746.0689308748019
 30
0.0
 11
552.31413212084374
 21
-2745.5689308748019
 31
0.0
  0
LINE
  5
15AE8
  8
0
 10
550.61413095744615
 20
-2746.0689308748019
 30
0.0
 11
550.71413212084383
 21
-2745.5689308748019
 31
0.0
  0
LINE
  5
15AE9
  8
0
 10
552.91413910123015
 20
-2742.5689308748019
 30
0.0
 11
553.01414026462794
 21
-2742.0689308748019
 31
0.0
  0
LINE
  5
15AEA
  8
0
 10
551.31413910123013
 20
-2742.5689308748019
 30
0.0
 11
551.4141402646278
 21
-2742.0689308748019
 31
0.0
  0
LINE
  5
15AEB
  8
0
 10
551.4141402646278
 20
-2742.0689308748019
 30
0.0
 11
552.21413095744595
 21
-2746.0689308748019
 31
0.0
  0
LINE
  5
15AEC
  8
0
 10
558.61413095745058
 20
-2746.0689308748019
 30
0.0
 11
558.71413212084815
 21
-2745.5689308748019
 31
0.0
  0
LINE
  5
15AED
  8
0
 10
560.21413095745493
 20
-2746.0689308748019
 30
0.0
 11
560.31413212085204
 21
-2745.5689308748019
 31
0.0
  0
LINE
  5
15AEE
  8
0
 10
555.41413095745054
 20
-2746.0689308748019
 30
0.0
 11
555.5141321208481
 21
-2745.5689308748019
 31
0.0
  0
LINE
  5
15AEF
  8
0
 10
557.01413095745045
 20
-2746.0689308748019
 30
0.0
 11
557.11413212084813
 21
-2745.5689308748019
 31
0.0
  0
LINE
  5
15AF0
  8
0
 10
560.91413910123515
 20
-2742.5689308748019
 30
0.0
 11
561.01414026463215
 21
-2742.0689308748019
 31
0.0
  0
LINE
  5
15AF1
  8
0
 10
559.31413910123445
 20
-2742.5689308748019
 30
0.0
 11
559.41414026463235
 21
-2742.0689308748019
 31
0.0
  0
LINE
  5
15AF2
  8
0
 10
556.11413910123451
 20
-2742.5689308748019
 30
0.0
 11
556.21414026463219
 21
-2742.0689308748019
 31
0.0
  0
LINE
  5
15AF3
  8
0
 10
557.71413910123465
 20
-2742.5689308748019
 30
0.0
 11
557.81414026463221
 21
-2742.0689308748019
 31
0.0
  0
LINE
  5
15AF4
  8
0
 10
557.81414026463221
 20
-2742.0689308748019
 30
0.0
 11
558.61413095745058
 21
-2746.0689308748019
 31
0.0
  0
LINE
  5
15AF5
  8
0
 10
559.41414026463235
 20
-2742.0689308748019
 30
0.0
 11
560.21413095745493
 21
-2746.0689308748019
 31
0.0
  0
LINE
  5
15AF6
  8
0
 10
556.21414026463219
 20
-2742.0689308748019
 30
0.0
 11
557.01413095745045
 21
-2746.0689308748019
 31
0.0
  0
LINE
  5
15AF7
  8
0
 10
554.61414026463217
 20
-2742.0689308748019
 30
0.0
 11
555.41413095745054
 21
-2746.0689308748019
 31
0.0
  0
LINE
  5
15AF8
  8
0
 10
544.31413212095742
 20
-2745.5689308748019
 30
0.0
 11
544.31413910134211
 21
-2742.5689308748019
 31
0.0
  0
LINE
  5
15AF9
  8
0
 10
544.91413910122606
 20
-2742.5689308748019
 30
0.0
 11
545.01414026462373
 21
-2742.0689308748019
 31
0.0
  0
LINE
  5
15AFA
  8
0
 10
545.01414026462373
 20
-2742.0689308748019
 30
0.0
 11
545.81413095744188
 21
-2746.0689308748019
 31
0.0
  0
LINE
  5
15AFB
  8
0
 10
545.81413095744188
 20
-2746.0689308748019
 30
0.0
 11
545.91413212083955
 21
-2745.5689308748019
 31
0.0
  0
LINE
  5
15AFC
  8
0
 10
546.51413910122585
 20
-2742.5689308748019
 30
0.0
 11
546.61414026462364
 21
-2742.0689308748019
 31
0.0
  0
LINE
  5
15AFD
  8
0
 10
548.11413910122587
 20
-2742.5689308748019
 30
0.0
 11
548.21414026462355
 21
-2742.0689308748019
 31
0.0
  0
LINE
  5
15AFE
  8
0
 10
548.21414026462355
 20
-2742.0689308748019
 30
0.0
 11
549.01413095744181
 21
-2746.0689308748019
 31
0.0
  0
LINE
  5
15AFF
  8
0
 10
547.41413095744178
 20
-2746.0689308748019
 30
0.0
 11
547.51413212083946
 21
-2745.5689308748019
 31
0.0
  0
LINE
  5
15B00
  8
0
 10
549.01413095744181
 20
-2746.0689308748019
 30
0.0
 11
549.11413212083937
 21
-2745.5689308748019
 31
0.0
  0
LINE
  5
15B01
  8
0
 10
546.61414026462364
 20
-2742.0689308748019
 30
0.0
 11
547.41413095744178
 21
-2746.0689308748019
 31
0.0
  0
LINE
  5
15B02
  8
0
 10
549.71413910123022
 20
-2742.5689308748019
 30
0.0
 11
549.81414026462789
 21
-2742.0689308748019
 31
0.0
  0
LINE
  5
15B04
  8
1CENTER
 10
577.27505020240415
 20
-2726.0688843389039
 30
0.0
 11
540.64385920194923
 21
-2726.0688843389039
 31
0.0
  0
LINE
  5
15B05
  8
0
 10
572.21413815741789
 20
-2724.97456052491
 30
0.0
 11
573.01413359146875
 21
-2726.9368956137841
 31
0.0
  0
LINE
  5
15B06
  8
0
 10
573.01413359146875
 20
-2726.9368956137841
 30
0.0
 11
573.32590344772086
 21
-2726.3486190387421
 31
0.0
  0
LINE
  5
15B07
  8
0
 10
549.81414026462789
 20
-2724.0689308748019
 30
0.0
 11
550.61413095744615
 21
-2728.0689308748019
 31
0.0
  0
LINE
  5
15B08
  8
0
 10
561.01414026463215
 20
-2724.0689308748019
 30
0.0
 11
561.81413095745484
 21
-2728.0689308748019
 31
0.0
  0
LINE
  5
15B09
  8
0
 10
564.21414026463231
 20
-2724.0689308748019
 30
0.0
 11
565.01413095745477
 21
-2728.0689308748019
 31
0.0
  0
LINE
  5
15B0A
  8
0
 10
565.01413095745477
 20
-2728.0689308748019
 30
0.0
 11
565.1141321208521
 21
-2727.5689308748019
 31
0.0
  0
LINE
  5
15B0B
  8
0
 10
565.71413910123511
 20
-2724.5689308748019
 30
0.0
 11
565.81414026463233
 21
-2724.0689308748019
 31
0.0
  0
LINE
  5
15B0C
  8
0
 10
561.81413095745484
 20
-2728.0689308748019
 30
0.0
 11
561.91413212085206
 21
-2727.5689308748019
 31
0.0
  0
LINE
  5
15B0D
  8
0
 10
563.41413095745486
 20
-2728.0689308748019
 30
0.0
 11
563.51413212085208
 21
-2727.5689308748019
 31
0.0
  0
LINE
  5
15B0E
  8
0
 10
564.1141391012352
 20
-2724.5689308748019
 30
0.0
 11
564.21414026463231
 21
-2724.0689308748019
 31
0.0
  0
LINE
  5
15B0F
  8
0
 10
562.51413910123529
 20
-2724.5689308748019
 30
0.0
 11
562.61414026463228
 21
-2724.0689308748019
 31
0.0
  0
LINE
  5
15B10
  8
0
 10
562.61414026463228
 20
-2724.0689308748019
 30
0.0
 11
563.41413095745486
 21
-2728.0689308748019
 31
0.0
  0
LINE
  5
15B11
  8
0
 10
571.41413253786322
 20
-2727.3897097181912
 30
0.0
 11
571.59689668049123
 21
-2726.8379602543878
 31
0.0
  0
LINE
  5
15B12
  8
0
 10
568.21413095745493
 20
-2728.0689308748019
 30
0.0
 11
568.31413212085204
 21
-2727.5689308748019
 31
0.0
  0
LINE
  5
15B13
  8
0
 10
566.61413095745479
 20
-2728.0689308748019
 30
0.0
 11
566.7141321208519
 21
-2727.5689308748019
 31
0.0
  0
LINE
  5
15B14
  8
0
 10
569.81413148425747
 20
-2727.8425238225982
 30
0.0
 11
569.94340218188745
 21
-2727.3059300873269
 31
0.0
  0
LINE
  5
15B15
  8
0
 10
570.50136969867197
 20
-2724.989845472011
 30
0.0
 11
570.61413921102212
 21
-2724.5217470168609
 31
0.0
  0
LINE
  5
15B16
  8
0
 10
567.31413910123524
 20
-2724.5689308748019
 30
0.0
 11
567.41414026463235
 21
-2724.0689308748019
 31
0.0
  0
LINE
  5
15B17
  8
0
 10
568.91413910123515
 20
-2724.5689308748019
 30
0.0
 11
569.01414026463226
 21
-2724.0689308748019
 31
0.0
  0
LINE
  5
15B18
  8
0
 10
572.06270236097737
 20
-2725.43173236554
 30
0.0
 11
572.21413815741789
 21
-2724.97456052491
 31
0.0
  0
LINE
  5
15B19
  8
0
 10
570.61413921102212
 20
-2724.5217470168609
 30
0.0
 11
571.41413253786322
 21
-2727.3897097181912
 31
0.0
  0
LINE
  5
15B1A
  8
0
 10
567.41414026463235
 20
-2724.0689308748019
 30
0.0
 11
568.21413095745493
 21
-2728.0689308748019
 31
0.0
  0
LINE
  5
15B1B
  8
0
 10
569.01414026463226
 20
-2724.0689308748019
 30
0.0
 11
569.81413148425747
 21
-2727.8425238225982
 31
0.0
  0
LINE
  5
15B1C
  8
0
 10
565.81414026463233
 20
-2724.0689308748019
 30
0.0
 11
566.61413095745479
 21
-2728.0689308748019
 31
0.0
  0
LINE
  5
15B1D
  8
0
 10
553.01414026462794
 20
-2724.0689308748019
 30
0.0
 11
553.8141309574462
 21
-2728.0689308748019
 31
0.0
  0
LINE
  5
15B1E
  8
0
 10
553.8141309574462
 20
-2728.0689308748019
 30
0.0
 11
553.91413212084387
 21
-2727.5689308748019
 31
0.0
  0
LINE
  5
15B1F
  8
0
 10
554.5141391012346
 20
-2724.5689308748019
 30
0.0
 11
554.61414026463217
 21
-2724.0689308748019
 31
0.0
  0
LINE
  5
15B20
  8
0
 10
552.21413095744595
 20
-2728.0689308748019
 30
0.0
 11
552.31413212084374
 21
-2727.5689308748019
 31
0.0
  0
LINE
  5
15B21
  8
0
 10
550.61413095744615
 20
-2728.0689308748019
 30
0.0
 11
550.71413212084383
 21
-2727.5689308748019
 31
0.0
  0
LINE
  5
15B22
  8
0
 10
552.91413910123015
 20
-2724.5689308748019
 30
0.0
 11
553.01414026462794
 21
-2724.0689308748019
 31
0.0
  0
LINE
  5
15B23
  8
0
 10
551.31413910123013
 20
-2724.5689308748019
 30
0.0
 11
551.4141402646278
 21
-2724.0689308748019
 31
0.0
  0
LINE
  5
15B24
  8
0
 10
551.4141402646278
 20
-2724.0689308748019
 30
0.0
 11
552.21413095744595
 21
-2728.0689308748019
 31
0.0
  0
LINE
  5
15B25
  8
0
 10
558.61413095745058
 20
-2728.0689308748019
 30
0.0
 11
558.71413212084815
 21
-2727.5689308748019
 31
0.0
  0
LINE
  5
15B26
  8
0
 10
560.21413095745493
 20
-2728.0689308748019
 30
0.0
 11
560.31413212085204
 21
-2727.5689308748019
 31
0.0
  0
LINE
  5
15B27
  8
0
 10
555.41413095745054
 20
-2728.0689308748019
 30
0.0
 11
555.5141321208481
 21
-2727.5689308748019
 31
0.0
  0
LINE
  5
15B28
  8
0
 10
557.01413095745045
 20
-2728.0689308748019
 30
0.0
 11
557.11413212084813
 21
-2727.5689308748019
 31
0.0
  0
LINE
  5
15B29
  8
0
 10
560.91413910123515
 20
-2724.5689308748019
 30
0.0
 11
561.01414026463215
 21
-2724.0689308748019
 31
0.0
  0
LINE
  5
15B2A
  8
0
 10
559.31413910123445
 20
-2724.5689308748019
 30
0.0
 11
559.41414026463235
 21
-2724.0689308748019
 31
0.0
  0
LINE
  5
15B2B
  8
0
 10
556.11413910123451
 20
-2724.5689308748019
 30
0.0
 11
556.21414026463219
 21
-2724.0689308748019
 31
0.0
  0
LINE
  5
15B2C
  8
0
 10
557.71413910123465
 20
-2724.5689308748019
 30
0.0
 11
557.81414026463221
 21
-2724.0689308748019
 31
0.0
  0
LINE
  5
15B2D
  8
0
 10
557.81414026463221
 20
-2724.0689308748019
 30
0.0
 11
558.61413095745058
 21
-2728.0689308748019
 31
0.0
  0
LINE
  5
15B2E
  8
0
 10
559.41414026463235
 20
-2724.0689308748019
 30
0.0
 11
560.21413095745493
 21
-2728.0689308748019
 31
0.0
  0
LINE
  5
15B2F
  8
0
 10
556.21414026463219
 20
-2724.0689308748019
 30
0.0
 11
557.01413095745045
 21
-2728.0689308748019
 31
0.0
  0
LINE
  5
15B30
  8
0
 10
554.61414026463217
 20
-2724.0689308748019
 30
0.0
 11
555.41413095745054
 21
-2728.0689308748019
 31
0.0
  0
LINE
  5
15B31
  8
0
 10
544.31413212095742
 20
-2727.5689308748019
 30
0.0
 11
544.31413910134211
 21
-2724.5689308748019
 31
0.0
  0
LINE
  5
15B32
  8
0
 10
544.91413910122606
 20
-2724.5689308748019
 30
0.0
 11
545.01414026462373
 21
-2724.0689308748019
 31
0.0
  0
LINE
  5
15B33
  8
0
 10
545.01414026462373
 20
-2724.0689308748019
 30
0.0
 11
545.81413095744188
 21
-2728.0689308748019
 31
0.0
  0
LINE
  5
15B34
  8
0
 10
545.81413095744188
 20
-2728.0689308748019
 30
0.0
 11
545.91413212083955
 21
-2727.5689308748019
 31
0.0
  0
LINE
  5
15B35
  8
0
 10
546.51413910122585
 20
-2724.5689308748019
 30
0.0
 11
546.61414026462364
 21
-2724.0689308748019
 31
0.0
  0
LINE
  5
15B36
  8
0
 10
548.11413910122587
 20
-2724.5689308748019
 30
0.0
 11
548.21414026462355
 21
-2724.0689308748019
 31
0.0
  0
LINE
  5
15B37
  8
0
 10
548.21414026462355
 20
-2724.0689308748019
 30
0.0
 11
549.01413095744181
 21
-2728.0689308748019
 31
0.0
  0
LINE
  5
15B38
  8
0
 10
547.41413095744178
 20
-2728.0689308748019
 30
0.0
 11
547.51413212083946
 21
-2727.5689308748019
 31
0.0
  0
LINE
  5
15B39
  8
0
 10
549.01413095744181
 20
-2728.0689308748019
 30
0.0
 11
549.11413212083937
 21
-2727.5689308748019
 31
0.0
  0
LINE
  5
15B3A
  8
0
 10
546.61414026462364
 20
-2724.0689308748019
 30
0.0
 11
547.41413095744178
 21
-2728.0689308748019
 31
0.0
  0
LINE
  5
15B3B
  8
0
 10
549.71413910123022
 20
-2724.5689308748019
 30
0.0
 11
549.81414026462789
 21
-2724.0689308748019
 31
0.0
  0
LINE
  5
15B3C
  8
0
 10
574.31413561109571
 20
-2726.0689308748019
 30
0.0
 11
569.01413910123404
 21
-2724.5689308748019
 31
0.0
  0
LINE
  5
15B3D
  8
0
 10
569.01413910123404
 20
-2724.5689308748019
 30
0.0
 11
544.31413910134211
 21
-2724.5689308748019
 31
0.0
  0
LINE
  5
15B3E
  8
0
 10
574.31413561109571
 20
-2726.0689308748019
 30
0.0
 11
569.01413212085026
 21
-2727.5689308748019
 31
0.0
  0
LINE
  5
15B3F
  8
0
 10
544.31414375504005
 20
-2722.5688843389039
 30
0.0
 11
544.31413910134211
 21
-2724.5689308748019
 31
0.0
  0
LINE
  5
15B40
  8
0
 10
569.01413212085026
 20
-2727.5689308748019
 30
0.0
 11
544.31413212095742
 21
-2727.5689308748019
 31
0.0
  0
LINE
  5
15B41
  8
0
 10
544.31414375504005
 20
-2722.5688843389039
 30
0.0
 11
543.2141402648449
 21
-2722.5688843389039
 31
0.0
  0
LINE
  5
15B42
  8
0
 10
544.31413212095742
 20
-2727.5689308748019
 30
0.0
 11
544.31412746747594
 21
-2729.5688843389039
 31
0.0
  0
ARC
  5
15B43
  8
0
 10
543.2141402648449
 20
-2724.0688843389039
 30
0.0
 40
1.5
 50
90.0
 51
179.99986668447491
  0
LINE
  5
15B44
  8
0
 10
544.31412746747594
 20
-2729.5688843389039
 30
0.0
 11
543.21413095766525
 21
-2729.5688843389039
 31
0.0
  0
LINE
  5
15B45
  8
0
 10
541.71414026484888
 20
-2724.0688808487121
 30
0.0
 11
541.71413095766934
 21
-2728.0688808487121
 31
0.0
  0
ARC
  5
15B46
  8
0
 10
543.21413095766525
 20
-2728.0688843389039
 30
0.0
 40
1.5
 50
179.99986668447491
 51
270.0
  0
LINE
  5
15B47
  8
0
 10
574.31413561109571
 20
-2744.0689308748019
 30
0.0
 11
569.01413910123404
 21
-2742.5689308748019
 31
0.0
  0
LINE
  5
15B48
  8
0
 10
569.01413910123404
 20
-2742.5689308748019
 30
0.0
 11
544.31413910134211
 21
-2742.5689308748019
 31
0.0
  0
LINE
  5
15B49
  8
0
 10
574.31413561109571
 20
-2744.0689308748019
 30
0.0
 11
569.01413212085026
 21
-2745.5689308748019
 31
0.0
  0
LINE
  5
15B4A
  8
0
 10
544.31414375504005
 20
-2740.5688843389039
 30
0.0
 11
544.31413910134211
 21
-2742.5689308748019
 31
0.0
  0
LINE
  5
15B4B
  8
0
 10
569.01413212085026
 20
-2745.5689308748019
 30
0.0
 11
544.31413212095742
 21
-2745.5689308748019
 31
0.0
  0
LINE
  5
15B4C
  8
0
 10
544.31414375504005
 20
-2740.5688843389039
 30
0.0
 11
543.2141402648449
 21
-2740.5688843389039
 31
0.0
  0
LINE
  5
15B4D
  8
0
 10
544.31413212095742
 20
-2745.5689308748019
 30
0.0
 11
544.31412746747594
 21
-2747.5688843389039
 31
0.0
  0
ARC
  5
15B4E
  8
0
 10
543.2141402648449
 20
-2742.0688843389039
 30
0.0
 40
1.5
 50
90.0
 51
179.99986668447491
  0
LINE
  5
15B4F
  8
0
 10
544.31412746747594
 20
-2747.5688843389039
 30
0.0
 11
543.21413095766525
 21
-2747.5688843389039
 31
0.0
  0
LINE
  5
15B50
  8
0
 10
541.71414026484888
 20
-2742.0688808487121
 30
0.0
 11
541.71413095766934
 21
-2746.0688808487121
 31
0.0
  0
ARC
  5
15B51
  8
0
 10
543.21413095766525
 20
-2746.0688843389039
 30
0.0
 40
1.5
 50
179.99986668447491
 51
270.0
  0
LINE
  5
15B52
  8
0
 10
364.81418214715609
 20
-2601.0687877473902
 30
0.0
 11
363.31418214715609
 21
-2606.3687842572508
 31
0.0
  0
LINE
  5
15B53
  8
0
 10
363.31418214715609
 20
-2606.3687842572508
 30
0.0
 11
363.31418214715632
 21
-2631.0687842571442
 31
0.0
  0
LINE
  5
15B54
  8
0
 10
364.81418214715609
 20
-2601.0687877473902
 30
0.0
 11
366.3141821471562
 21
-2606.3687912376349
 31
0.0
  0
LINE
  5
15B55
  8
0
 10
361.31413561125828
 20
-2631.0687796034458
 30
0.0
 11
363.31418214715632
 21
-2631.0687842571442
 31
0.0
  0
LINE
  5
15B56
  8
0
 10
366.3141821471562
 20
-2606.3687912376349
 30
0.0
 11
366.31418214715609
 21
-2631.0687912375279
 31
0.0
  0
LINE
  5
15B57
  8
0
 10
361.31413561125828
 20
-2631.0687796034458
 30
0.0
 11
361.31413561125822
 21
-2632.1687830936412
 31
0.0
  0
LINE
  5
15B58
  8
0
 10
366.31418214715609
 20
-2631.0687912375279
 30
0.0
 11
368.31413561125822
 21
-2631.0687958910089
 31
0.0
  0
ARC
  5
15B59
  8
0
 10
362.81413561125822
 20
-2632.1687830936412
 30
0.0
 40
1.5
 50
180.0
 51
269.99986668447059
  0
LINE
  5
15B5A
  8
0
 10
368.31413561125822
 20
-2631.0687958910089
 30
0.0
 11
368.31413561125822
 21
-2632.1687924008211
 31
0.0
  0
LINE
  5
15B5B
  8
0
 10
362.81413212106582
 20
-2633.6687830936371
 30
0.0
 11
366.81413212106582
 21
-2633.6687924008161
 31
0.0
  0
ARC
  5
15B5C
  8
0
 10
366.81413561125811
 20
-2632.1687924008211
 30
0.0
 40
1.5
 50
269.99986668447059
 51
0.0
  0
LINE
  5
15B5D
  8
0
 10
352.31418214715609
 20
-2601.0687877473902
 30
0.0
 11
350.81418214715609
 21
-2606.3687842572508
 31
0.0
  0
LINE
  5
15B5E
  8
0
 10
350.81418214715609
 20
-2606.3687842572508
 30
0.0
 11
350.81418214715632
 21
-2631.0687842571442
 31
0.0
  0
LINE
  5
15B5F
  8
0
 10
352.31418214715609
 20
-2601.0687877473902
 30
0.0
 11
353.8141821471562
 21
-2606.3687912376349
 31
0.0
  0
LINE
  5
15B60
  8
0
 10
348.81413561125828
 20
-2631.0687796034458
 30
0.0
 11
350.81418214715632
 21
-2631.0687842571442
 31
0.0
  0
LINE
  5
15B61
  8
0
 10
353.8141821471562
 20
-2606.3687912376349
 30
0.0
 11
353.81418214715609
 21
-2631.0687912375279
 31
0.0
  0
LINE
  5
15B62
  8
0
 10
348.81413561125828
 20
-2631.0687796034458
 30
0.0
 11
348.81413561125822
 21
-2632.1687830936412
 31
0.0
  0
LINE
  5
15B63
  8
0
 10
353.81418214715609
 20
-2631.0687912375279
 30
0.0
 11
355.81413561125822
 21
-2631.0687958910089
 31
0.0
  0
ARC
  5
15B64
  8
0
 10
350.31413561125822
 20
-2632.1687830936412
 30
0.0
 40
1.5
 50
180.0
 51
269.99986668447059
  0
LINE
  5
15B65
  8
0
 10
355.81413561125822
 20
-2631.0687958910089
 30
0.0
 11
355.81413561125822
 21
-2632.1687924008211
 31
0.0
  0
LINE
  5
15B66
  8
0
 10
350.31413212106582
 20
-2633.6687830936371
 30
0.0
 11
354.31413212106582
 21
-2633.6687924008161
 31
0.0
  0
ARC
  5
15B67
  8
0
 10
354.31413561125811
 20
-2632.1687924008211
 30
0.0
 40
1.5
 50
269.99986668447059
 51
0.0
  0
LINE
  5
15B68
  8
0
 10
339.81418214715609
 20
-2601.0687877473902
 30
0.0
 11
338.31418214715609
 21
-2606.3687842572508
 31
0.0
  0
LINE
  5
15B69
  8
0
 10
338.31418214715609
 20
-2606.3687842572508
 30
0.0
 11
338.31418214715632
 21
-2631.0687842571442
 31
0.0
  0
LINE
  5
15B6A
  8
0
 10
339.81418214715609
 20
-2601.0687877473902
 30
0.0
 11
341.3141821471562
 21
-2606.3687912376349
 31
0.0
  0
LINE
  5
15B6B
  8
0
 10
336.31413561125828
 20
-2631.0687796034458
 30
0.0
 11
338.31418214715632
 21
-2631.0687842571442
 31
0.0
  0
LINE
  5
15B6C
  8
0
 10
341.3141821471562
 20
-2606.3687912376349
 30
0.0
 11
341.31418214715609
 21
-2631.0687912375279
 31
0.0
  0
LINE
  5
15B6D
  8
0
 10
336.31413561125828
 20
-2631.0687796034458
 30
0.0
 11
336.31413561125822
 21
-2632.1687830936412
 31
0.0
  0
LINE
  5
15B6E
  8
0
 10
341.31418214715609
 20
-2631.0687912375279
 30
0.0
 11
343.31413561125822
 21
-2631.0687958910089
 31
0.0
  0
ARC
  5
15B6F
  8
0
 10
337.81413561125822
 20
-2632.1687830936412
 30
0.0
 40
1.5
 50
180.0
 51
269.99986668447059
  0
LINE
  5
15B70
  8
0
 10
343.31413561125822
 20
-2631.0687958910089
 30
0.0
 11
343.31413561125822
 21
-2632.1687924008211
 31
0.0
  0
LINE
  5
15B71
  8
0
 10
337.81413212106582
 20
-2633.6687830936371
 30
0.0
 11
341.81413212106582
 21
-2633.6687924008161
 31
0.0
  0
ARC
  5
15B72
  8
0
 10
341.81413561125811
 20
-2632.1687924008211
 30
0.0
 40
1.5
 50
269.99986668447059
 51
0.0
  0
LINE
  5
15B73
  8
1DIM
 10
559.62915978713443
 20
-2685.061343509386
 30
0.0
 11
554.43658134818781
 21
-2672.478387549364
 31
0.0
1001
ACAD
1000
DSTYLE
1002
{
1070
   271
1070
     0
1002
}
  0
LINE
  5
15B74
  8
1DIM
 10
554.43658134818781
 20
-2672.478387549364
 30
0.0
 11
586.33658134818779
 21
-2672.478387549364
 31
0.0
1001
ACAD
1000
DSTYLE
1002
{
1070
   271
1070
     0
1002
}
  0
LINE
  5
15B75
  8
0
  6
BYBLOCK
 10
560.12453566026204
 20
-2684.8569179287711
 30
0.0
 11
560.39208644727728
 21
-2686.910111453516
 31
0.0
  0
LINE
  5
15B76
  8
0
  6
BYBLOCK
 10
560.39208644727728
 20
-2686.910111453516
 30
0.0
 11
559.1337839140067
 21
-2685.265769090001
 31
0.0
  0
LINE
  5
15B77
  8
0
  6
BYBLOCK
 10
560.39208644727728
 20
-2686.910111453516
 30
0.0
 11
559.62915978713443
 21
-2685.061343509386
 31
0.0
  0
LINE
  5
15B78
  8
1HATCH
 10
551.54553518659588
 20
-2684.9878973770528
 30
0.0
 11
548.2692368536492
 21
-2666.47704153224
 31
0.0
1001
ACAD
1000
DSTYLE
1002
{
1070
   271
1070
     0
1002
}
  0
LINE
  5
15B79
  8
1HATCH
 10
548.2692368536492
 20
-2666.47704153224
 30
0.0
 11
556.80257018698239
 21
-2666.47704153224
 31
0.0
1001
ACAD
1000
DSTYLE
1002
{
1070
   271
1070
     0
1002
}
  0
LINE
  5
15B7A
  8
0
  6
BYBLOCK
 10
552.07323182199912
 20
-2684.89449858332
 30
0.0
 11
551.89410423333607
 21
-2686.9572880492292
 31
0.0
  0
LINE
  5
15B7B
  8
0
  6
BYBLOCK
 10
551.89410423333607
 20
-2686.9572880492292
 30
0.0
 11
551.01783855119265
 21
-2685.0812961707861
 31
0.0
  0
LINE
  5
15B7C
  8
0
  6
BYBLOCK
 10
551.89410423333607
 20
-2686.9572880492292
 30
0.0
 11
551.54553518659588
 21
-2684.9878973770528
 31
0.0
  0
TEXT
  5
15B7D
  8
1DIM
 10
348.52246894459148
 20
-2687.368787747228
 30
0.0
 40
3.5
  1
190 
  0
LINE
  5
15B7E
  8
0
  6
BYBLOCK
 10
445.31413561125811
 20
-2687.5328893672272
 30
0.0
 11
447.31413561125822
 21
-2688.0687877472269
 31
0.0
  0
LINE
  5
15B7F
  8
0
  6
BYBLOCK
 10
447.31413561125822
 20
-2688.0687877472269
 30
0.0
 11
445.31413561125811
 21
-2688.604686127228
 31
0.0
  0
LINE
  5
15B80
  8
0
  6
BYBLOCK
 10
447.31413561125822
 20
-2688.0687877472269
 30
0.0
 11
445.31413561125811
 21
-2688.0687877472269
 31
0.0
  0
LINE
  5
15B81
  8
0
  6
BYBLOCK
 10
259.31413561125822
 20
-2688.604686127228
 30
0.0
 11
257.31413561125822
 21
-2688.0687877472269
 31
0.0
  0
LINE
  5
15B82
  8
0
  6
BYBLOCK
 10
257.31413561125822
 20
-2688.0687877472269
 30
0.0
 11
259.31413561125822
 21
-2687.5328893672272
 31
0.0
  0
LINE
  5
15B83
  8
0
  6
BYBLOCK
 10
257.31413561125822
 20
-2688.0687877472269
 30
0.0
 11
259.31413561125822
 21
-2688.0687877472269
 31
0.0
  0
TEXT
  5
15B84
  8
1DIM
 10
349.39746894459159
 20
-2772.5688843389039
 30
0.0
 40
3.5
  1
44 
  0
LINE
  5
15B85
  8
0
  6
BYBLOCK
 10
372.5141356112585
 20
-2772.732985958904
 30
0.0
 11
374.5141356112585
 21
-2773.2688843389042
 31
0.0
  0
LINE
  5
15B86
  8
0
  6
BYBLOCK
 10
374.5141356112585
 20
-2773.2688843389042
 30
0.0
 11
372.5141356112585
 21
-2773.8047827189039
 31
0.0
  0
LINE
  5
15B87
  8
0
  6
BYBLOCK
 10
374.5141356112585
 20
-2773.2688843389042
 30
0.0
 11
372.5141356112585
 21
-2773.2688843389042
 31
0.0
  0
LINE
  5
15B88
  8
0
  6
BYBLOCK
 10
332.11413561125812
 20
-2773.8047827189039
 30
0.0
 11
330.11413561125812
 21
-2773.2688843389042
 31
0.0
  0
LINE
  5
15B89
  8
0
  6
BYBLOCK
 10
330.11413561125812
 20
-2773.2688843389042
 30
0.0
 11
332.11413561125812
 21
-2772.732985958904
 31
0.0
  0
LINE
  5
15B8A
  8
0
  6
BYBLOCK
 10
330.11413561125812
 20
-2773.2688843389042
 30
0.0
 11
332.11413561125812
 21
-2773.2688843389042
 31
0.0
  0
TEXT
  5
15B8B
  8
1DIM
 10
349.39746894459148
 20
-2762.5688843389039
 30
0.0
 40
3.5
  1
25 
  0
LINE
  5
15B8C
  8
0
  6
BYBLOCK
 10
362.81413561125822
 20
-2762.732985958904
 30
0.0
 11
364.81413561125822
 21
-2763.2688843389042
 31
0.0
  0
LINE
  5
15B8D
  8
0
  6
BYBLOCK
 10
364.81413561125822
 20
-2763.2688843389042
 30
0.0
 11
362.81413561125822
 21
-2763.8047827189048
 31
0.0
  0
LINE
  5
15B8E
  8
0
  6
BYBLOCK
 10
364.81413561125822
 20
-2763.2688843389042
 30
0.0
 11
362.81413561125822
 21
-2763.2688843389042
 31
0.0
  0
LINE
  5
15B8F
  8
0
  6
BYBLOCK
 10
341.81413561125811
 20
-2763.8047827189048
 30
0.0
 11
339.81413561125822
 21
-2763.2688843389042
 31
0.0
  0
LINE
  5
15B90
  8
0
  6
BYBLOCK
 10
339.81413561125822
 20
-2763.2688843389042
 30
0.0
 11
341.81413561125811
 21
-2762.732985958904
 31
0.0
  0
LINE
  5
15B91
  8
0
  6
BYBLOCK
 10
339.81413561125822
 20
-2763.2688843389042
 30
0.0
 11
341.81413561125811
 21
-2763.2688843389042
 31
0.0
  0
TEXT
  5
15B92
  8
1DIM
 10
466.61413561125858
 20
-2756.2771210805608
 30
0.0
 40
3.5
  1
110 
 50
90.0
  0
LINE
  5
15B93
  8
0
  6
BYBLOCK
 10
466.77823723125812
 20
-2700.0687877472269
 30
0.0
 11
467.31413561125811
 21
-2698.0687877472278
 31
0.0
  0
LINE
  5
15B94
  8
0
  6
BYBLOCK
 10
467.31413561125811
 20
-2698.0687877472278
 30
0.0
 11
467.8500339912581
 21
-2700.0687877472269
 31
0.0
  0
LINE
  5
15B95
  8
0
  6
BYBLOCK
 10
467.31413561125811
 20
-2698.0687877472278
 30
0.0
 11
467.31413561125811
 21
-2700.0687877472269
 31
0.0
  0
LINE
  5
15B96
  8
0
  6
BYBLOCK
 10
467.8500339912581
 20
-2806.0687877472278
 30
0.0
 11
467.31413561125811
 21
-2808.0687877472278
 31
0.0
  0
LINE
  5
15B97
  8
0
  6
BYBLOCK
 10
467.31413561125811
 20
-2808.0687877472278
 30
0.0
 11
466.77823723125812
 21
-2806.0687877472278
 31
0.0
  0
LINE
  5
15B98
  8
0
  6
BYBLOCK
 10
467.31413561125811
 20
-2808.0687877472278
 30
0.0
 11
467.31413561125811
 21
-2806.0687877472278
 31
0.0
  0
TEXT
  5
15B99
  8
1DIM
 10
524.68913561125805
 20
-2687.368787747228
 30
0.0
 40
3.5
  1
40 
  0
LINE
  5
15B9A
  8
0
  6
BYBLOCK
 10
545.31413561125805
 20
-2687.5328893672272
 30
0.0
 11
547.31413561125817
 21
-2688.0687877472269
 31
0.0
  0
LINE
  5
15B9B
  8
0
  6
BYBLOCK
 10
547.31413561125817
 20
-2688.0687877472269
 30
0.0
 11
545.31413561125805
 21
-2688.604686127228
 31
0.0
  0
LINE
  5
15B9C
  8
0
  6
BYBLOCK
 10
547.31413561125817
 20
-2688.0687877472269
 30
0.0
 11
545.31413561125805
 21
-2688.0687877472269
 31
0.0
  0
LINE
  5
15B9D
  8
0
  6
BYBLOCK
 10
509.31413561125811
 20
-2688.604686127228
 30
0.0
 11
507.31413561125811
 21
-2688.0687877472269
 31
0.0
  0
LINE
  5
15B9E
  8
0
  6
BYBLOCK
 10
507.31413561125811
 20
-2688.0687877472269
 30
0.0
 11
509.31413561125811
 21
-2687.5328893672272
 31
0.0
  0
LINE
  5
15B9F
  8
0
  6
BYBLOCK
 10
507.31413561125811
 20
-2688.0687877472269
 30
0.0
 11
509.31413561125811
 21
-2688.0687877472269
 31
0.0
  0
TEXT
  5
15BA0
  8
1DIM
 10
519.68913561125817
 20
-2677.3687877472271
 30
0.0
 40
3.5
  1
50 
  0
LINE
  5
15BA1
  8
0
  6
BYBLOCK
 10
545.31413561125805
 20
-2677.5328893672272
 30
0.0
 11
547.31413561125817
 21
-2678.0687877472269
 31
0.0
  0
LINE
  5
15BA2
  8
0
  6
BYBLOCK
 10
547.31413561125817
 20
-2678.0687877472269
 30
0.0
 11
545.31413561125805
 21
-2678.6046861272271
 31
0.0
  0
LINE
  5
15BA3
  8
0
  6
BYBLOCK
 10
547.31413561125817
 20
-2678.0687877472269
 30
0.0
 11
545.31413561125805
 21
-2678.0687877472269
 31
0.0
  0
LINE
  5
15BA4
  8
0
  6
BYBLOCK
 10
499.31413561125811
 20
-2678.6046861272271
 30
0.0
 11
497.31413561125822
 21
-2678.0687877472269
 31
0.0
  0
LINE
  5
15BA5
  8
0
  6
BYBLOCK
 10
497.31413561125822
 20
-2678.0687877472269
 30
0.0
 11
499.31413561125811
 21
-2677.5328893672272
 31
0.0
  0
LINE
  5
15BA6
  8
0
  6
BYBLOCK
 10
497.31413561125822
 20
-2678.0687877472269
 30
0.0
 11
499.31413561125811
 21
-2678.0687877472269
 31
0.0
  0
TEXT
  5
15BA7
  8
1DIM
 10
486.61413561125858
 20
-2705.1104544138939
 30
0.0
 40
3.5
  1
10 
 50
90.0
  0
LINE
  5
15BA8
  8
0
  6
BYBLOCK
 10
487.8500339912581
 20
-2706.0687877472278
 30
0.0
 11
487.31413561125811
 21
-2708.0687877472278
 31
0.0
  0
LINE
  5
15BA9
  8
0
  6
BYBLOCK
 10
487.31413561125811
 20
-2708.0687877472278
 30
0.0
 11
486.77823723125812
 21
-2706.0687877472278
 31
0.0
  0
LINE
  5
15BAA
  8
0
  6
BYBLOCK
 10
487.31413561125811
 20
-2708.0687877472278
 30
0.0
 11
487.31413561125811
 21
-2706.0687877472278
 31
0.0
  0
LINE
  5
15BAB
  8
0
  6
BYBLOCK
 10
486.77823723125812
 20
-2700.0687877472269
 30
0.0
 11
487.31413561125811
 21
-2698.0687877472278
 31
0.0
  0
LINE
  5
15BAC
  8
0
  6
BYBLOCK
 10
487.31413561125811
 20
-2698.0687877472278
 30
0.0
 11
487.8500339912581
 21
-2700.0687877472269
 31
0.0
  0
LINE
  5
15BAD
  8
0
  6
BYBLOCK
 10
487.31413561125811
 20
-2698.0687877472278
 30
0.0
 11
487.31413561125811
 21
-2700.0687877472269
 31
0.0
  0
TEXT
  5
15BAE
  8
1DIM
 10
476.61413561125858
 20
-2710.6937877472269
 30
0.0
 40
3.5
  1
20 
 50
90.0
  0
LINE
  5
15BAF
  8
0
  6
BYBLOCK
 10
477.8500339912581
 20
-2716.0687877472269
 30
0.0
 11
477.31413561125811
 21
-2718.0687877472278
 31
0.0
  0
LINE
  5
15BB0
  8
0
  6
BYBLOCK
 10
477.31413561125811
 20
-2718.0687877472278
 30
0.0
 11
476.77823723125817
 21
-2716.0687877472269
 31
0.0
  0
LINE
  5
15BB1
  8
0
  6
BYBLOCK
 10
477.31413561125811
 20
-2718.0687877472278
 30
0.0
 11
477.31413561125811
 21
-2716.0687877472269
 31
0.0
  0
LINE
  5
15BB2
  8
0
  6
BYBLOCK
 10
476.77823723125817
 20
-2700.0687877472269
 30
0.0
 11
477.31413561125811
 21
-2698.0687877472278
 31
0.0
  0
LINE
  5
15BB3
  8
0
  6
BYBLOCK
 10
477.31413561125811
 20
-2698.0687877472278
 30
0.0
 11
477.8500339912581
 21
-2700.0687877472269
 31
0.0
  0
LINE
  5
15BB4
  8
0
  6
BYBLOCK
 10
477.31413561125811
 20
-2698.0687877472278
 30
0.0
 11
477.31413561125811
 21
-2700.0687877472269
 31
0.0
  0
TEXT
  5
15BB5
  8
1DIM
 10
586.61413561125835
 20
-2737.4022176722369
 30
0.0
 40
3.5
  1
18 
 50
90.0
  0
LINE
  5
15BB6
  8
0
  6
BYBLOCK
 10
586.77823723125789
 20
-2728.0688843389039
 30
0.0
 11
587.31413561125805
 21
-2726.0688843389039
 31
0.0
  0
LINE
  5
15BB7
  8
0
  6
BYBLOCK
 10
587.31413561125805
 20
-2726.0688843389039
 30
0.0
 11
587.8500339912581
 21
-2728.0688843389039
 31
0.0
  0
LINE
  5
15BB8
  8
0
  6
BYBLOCK
 10
587.31413561125805
 20
-2726.0688843389039
 30
0.0
 11
587.31413561125805
 21
-2728.0688843389039
 31
0.0
  0
LINE
  5
15BB9
  8
0
  6
BYBLOCK
 10
587.8500339912581
 20
-2742.0688843389039
 30
0.0
 11
587.31413561125805
 21
-2744.0688843389039
 31
0.0
  0
LINE
  5
15BBA
  8
0
  6
BYBLOCK
 10
587.31413561125805
 20
-2744.0688843389039
 30
0.0
 11
586.77823723125789
 21
-2742.0688843389039
 31
0.0
  0
LINE
  5
15BBB
  8
0
  6
BYBLOCK
 10
587.31413561125805
 20
-2744.0688843389039
 30
0.0
 11
587.31413561125805
 21
-2742.0688843389039
 31
0.0
  0
TEXT
  5
15BBC
  8
1DIM
 10
586.61413561125835
 20
-2714.9855027097319
 30
0.0
 40
3.5
  1
28 
 50
90.0
  0
LINE
  5
15BBD
  8
0
  6
BYBLOCK
 10
586.77823723125789
 20
-2700.0687877472269
 30
0.0
 11
587.31413561125805
 21
-2698.0687877472278
 31
0.0
  0
LINE
  5
15BBE
  8
0
  6
BYBLOCK
 10
587.31413561125805
 20
-2698.0687877472278
 30
0.0
 11
587.8500339912581
 21
-2700.0687877472269
 31
0.0
  0
LINE
  5
15BBF
  8
0
  6
BYBLOCK
 10
587.31413561125805
 20
-2698.0687877472278
 30
0.0
 11
587.31413561125805
 21
-2700.0687877472269
 31
0.0
  0
LINE
  5
15BC0
  8
0
  6
BYBLOCK
 10
587.8500339912581
 20
-2724.0688843389039
 30
0.0
 11
587.31413561125805
 21
-2726.0688843389039
 31
0.0
  0
LINE
  5
15BC1
  8
0
  6
BYBLOCK
 10
587.31413561125805
 20
-2726.0688843389039
 30
0.0
 11
586.77823723125789
 21
-2724.0688843389039
 31
0.0
  0
LINE
  5
15BC2
  8
0
  6
BYBLOCK
 10
587.31413561125805
 20
-2726.0688843389039
 30
0.0
 11
587.31413561125805
 21
-2724.0688843389039
 31
0.0
  0
TEXT
  5
15BC3
  8
1DIM
 10
393.81413561125891
 20
-2733.4855510055709
 30
0.0
 40
3.5
  1
45 
 50
90.0
  0
LINE
  5
15BC4
  8
0
  6
BYBLOCK
 10
393.97823723125839
 20
-2709.8688843389041
 30
0.0
 11
394.51413561125838
 21
-2707.868884338905
 31
0.0
  0
LINE
  5
15BC5
  8
0
  6
BYBLOCK
 10
394.51413561125838
 20
-2707.868884338905
 30
0.0
 11
395.05003399125837
 21
-2709.8688843389041
 31
0.0
  0
LINE
  5
15BC6
  8
0
  6
BYBLOCK
 10
394.51413561125838
 20
-2707.868884338905
 30
0.0
 11
394.51413561125838
 21
-2709.8688843389041
 31
0.0
  0
LINE
  5
15BC7
  8
0
  6
BYBLOCK
 10
395.05003399125837
 20
-2751.2688843389042
 30
0.0
 11
394.51413561125838
 21
-2753.2688843389051
 31
0.0
  0
LINE
  5
15BC8
  8
0
  6
BYBLOCK
 10
394.51413561125838
 20
-2753.2688843389051
 30
0.0
 11
393.97823723125839
 21
-2751.2688843389042
 31
0.0
  0
LINE
  5
15BC9
  8
0
  6
BYBLOCK
 10
394.51413561125838
 20
-2753.2688843389051
 30
0.0
 11
394.51413561125838
 21
-2751.2688843389042
 31
0.0
  0
TEXT
  5
15BCA
  8
1DIM
 10
466.61413561125858
 20
-2660.027217672236
 30
0.0
 40
3.5
  1
φ10
 50
90.0
  0
LINE
  5
15BCB
  8
0
  6
BYBLOCK
 10
466.77823723125812
 20
-2665.068884338903
 30
0.0
 11
467.31413561125811
 21
-2663.068884338903
 31
0.0
  0
LINE
  5
15BCC
  8
0
  6
BYBLOCK
 10
467.31413561125811
 20
-2663.068884338903
 30
0.0
 11
467.8500339912581
 21
-2665.068884338903
 31
0.0
  0
LINE
  5
15BCD
  8
0
  6
BYBLOCK
 10
467.31413561125811
 20
-2663.068884338903
 30
0.0
 11
467.31413561125811
 21
-2665.068884338903
 31
0.0
  0
LINE
  5
15BCE
  8
0
  6
BYBLOCK
 10
467.8500339912581
 20
-2671.068884338903
 30
0.0
 11
467.31413561125811
 21
-2673.068884338903
 31
0.0
  0
LINE
  5
15BCF
  8
0
  6
BYBLOCK
 10
467.31413561125811
 20
-2673.068884338903
 30
0.0
 11
466.77823723125812
 21
-2671.068884338903
 31
0.0
  0
LINE
  5
15BD0
  8
0
  6
BYBLOCK
 10
467.31413561125811
 20
-2673.068884338903
 30
0.0
 11
467.31413561125811
 21
-2671.068884338903
 31
0.0
  0
LINE
  5
15BD1
  8
1DIM
 10
363.62771955272791
 20
-2653.8151996372089
 30
0.0
 11
379.5998464170724
 21
-2635.825861945561
 31
0.0
1001
ACAD
1000
DSTYLE
1002
{
1070
   271
1070
     0
1002
}
  0
LINE
  5
15BD2
  8
1DIM
 10
379.5998464170724
 20
-2635.825861945561
 30
0.0
 11
427.56651308373898
 21
-2635.825861945561
 31
0.0
1001
ACAD
1000
DSTYLE
1002
{
1070
   271
1070
     0
1002
}
  0
LINE
  5
15BD3
  8
0
  6
BYBLOCK
 10
364.02845841100589
 20
-2654.1710021683311
 30
0.0
 11
362.29984641707239
 21
-2655.3107774304399
 31
0.0
  0
LINE
  5
15BD4
  8
0
  6
BYBLOCK
 10
362.29984641707239
 20
-2655.3107774304399
 30
0.0
 11
363.22698069444971
 21
-2653.4593971060872
 31
0.0
  0
LINE
  5
15BD5
  8
0
  6
BYBLOCK
 10
362.29984641707239
 20
-2655.3107774304399
 30
0.0
 11
363.62771955272791
 21
-2653.8151996372089
 31
0.0
  0
LINE
  5
15BD6
  8
1DIM
 10
336.48761176436068
 20
-2638.4451400588741
 30
0.0
 11
320.35164705523431
 21
-2660.9897860082719
 31
0.0
1001
ACAD
1000
DSTYLE
1002
{
1070
   271
1070
     0
1002
}
  0
LINE
  5
15BD7
  8
1DIM
 10
320.35164705523431
 20
-2660.9897860082719
 30
0.0
 11
284.98498038856758
 21
-2660.9897860082719
 31
0.0
1001
ACAD
1000
DSTYLE
1002
{
1070
   271
1070
     0
1002
}
  0
LINE
  5
15BD8
  8
0
  6
BYBLOCK
 10
336.05183197980023
 20
-2638.1332377455528
 30
0.0
 11
337.65164705523432
 21
-2636.8187877472269
 31
0.0
  0
LINE
  5
15BD9
  8
0
  6
BYBLOCK
 10
337.65164705523432
 20
-2636.8187877472269
 30
0.0
 11
336.9233915489213
 21
-2638.757042372195
 31
0.0
  0
LINE
  5
15BDA
  8
0
  6
BYBLOCK
 10
337.65164705523432
 20
-2636.8187877472269
 30
0.0
 11
336.48761176436068
 21
-2638.4451400588741
 31
0.0
  0
LINE
  5
15BDB
  8
1DIM
 10
382.10188919032561
 20
-2661.5733065456729
 30
0.0
 11
391.89714151877138
 21
-2650.5409560385729
 31
0.0
1001
ACAD
1000
DSTYLE
1002
{
1070
   271
1070
     0
1002
}
  0
LINE
  5
15BDC
  8
1DIM
 10
391.89714151877138
 20
-2650.5409560385729
 30
0.0
 11
427.26380818543799
 21
-2650.5409560385729
 31
0.0
1001
ACAD
1000
DSTYLE
1002
{
1070
   271
1070
     0
1002
}
  0
LINE
  5
15BDD
  8
0
  6
BYBLOCK
 10
382.50262804860358
 20
-2661.9291090767938
 30
0.0
 11
380.77401605467003
 21
-2663.068884338903
 31
0.0
  0
LINE
  5
15BDE
  8
0
  6
BYBLOCK
 10
380.77401605467003
 20
-2663.068884338903
 30
0.0
 11
381.7011503320474
 21
-2661.2175040145512
 31
0.0
  0
LINE
  5
15BDF
  8
0
  6
BYBLOCK
 10
380.77401605467003
 20
-2663.068884338903
 30
0.0
 11
382.10188919032561
 21
-2661.5733065456729
 31
0.0
  0
TEXT
  5
15BE0
  8
1DIM
 10
456.61413561125858
 20
-2759.3604544138939
 30
0.0
 40
3.5
  1
105 
 50
90.0
  0
LINE
  5
15BE1
  8
0
  6
BYBLOCK
 10
456.77823723125812
 20
-2705.0687877472278
 30
0.0
 11
457.31413561125811
 21
-2703.0687877472269
 31
0.0
  0
LINE
  5
15BE2
  8
0
  6
BYBLOCK
 10
457.31413561125811
 20
-2703.0687877472269
 30
0.0
 11
457.8500339912581
 21
-2705.0687877472278
 31
0.0
  0
LINE
  5
15BE3
  8
0
  6
BYBLOCK
 10
457.31413561125811
 20
-2703.0687877472269
 30
0.0
 11
457.31413561125811
 21
-2705.0687877472278
 31
0.0
  0
LINE
  5
15BE4
  8
0
  6
BYBLOCK
 10
457.8500339912581
 20
-2806.0687877472278
 30
0.0
 11
457.31413561125811
 21
-2808.0687877472278
 31
0.0
  0
LINE
  5
15BE5
  8
0
  6
BYBLOCK
 10
457.31413561125811
 20
-2808.0687877472278
 30
0.0
 11
456.77823723125812
 21
-2806.0687877472278
 31
0.0
  0
LINE
  5
15BE6
  8
0
  6
BYBLOCK
 10
457.31413561125811
 20
-2808.0687877472278
 30
0.0
 11
457.31413561125811
 21
-2806.0687877472278
 31
0.0
  0
VIEWPORT
  5
57
 67
     1
  8
0
 10
-12.71820014244039
 20
11.432474913404199
 30
0.0
 40
461.93713507282808
 41
306.30684023595933
 68
     1
 69
     1
1001
ACAD
1000
MVIEW
1002
{
1070
    16
1010
0.0
1020
0.0
1030
0.0
1010
0.0
1020
0.0
1030
1.0
1040
0.0
1040
306.30684023595933
1040
-12.71820014244039
1040
11.432474913404199
1040
50.0
1040
0.0
1040
0.0
1070
     0
1070
  1000
1070
     1
1070
     1
1070
     0
1070
     0
1070
     0
1070
     0
1040
0.0
1040
0.0
1040
0.0
1040
10.0
1040
10.0
1040
10.0
1040
10.0
1070
     0
1002
{
1002
}
1002
}
  0
ENDSEC
  0
EOF
