  0
SECTION
  2
HEADER
  9
$ACADVER
  1
AC1012
  9
$DWGCODEPAGE
  3
ansi_932
  9
$INSBASE
 10
0.0
 20
0.0
 30
0.0
  9
$EXTMIN
 10
140.9162416153646
 20
-737.0213303512669
 30
0.0
  9
$EXTMAX
 10
793.6645184759044
 20
-497.0217795748432
 30
0.0
  9
$LIMMIN
 10
0.0
 20
0.0
  9
$LIMMAX
 10
420.0
 20
297.0
  9
$ORTHOMODE
 70
     0
  9
$REGENMODE
 70
     1
  9
$FILLMODE
 70
     1
  9
$QTEXTMODE
 70
     0
  9
$MIRRTEXT
 70
     0
  9
$DRAGMODE
 70
     2
  9
$LTSCALE
 40
0.5
  9
$OSMODE
 70
  7471
  9
$ATTMODE
 70
     1
  9
$TEXTSIZE
 40
4.0
  9
$TRACEWID
 40
1.0
  9
$TEXTSTYLE
  7
STANDARD
  9
$CLAYER
  8
1TEXT
  9
$CELTYPE
  6
BYLAYER
  9
$CECOLOR
 62
   256
  9
$CELTSCALE
 40
1.0
  9
$DELOBJ
 70
     1
  9
$DISPSILH
 70
     0
  9
$DIMSCALE
 40
1.0
  9
$DIMASZ
 40
2.0
  9
$DIMEXO
 40
0.0
  9
$DIMDLI
 40
7.0
  9
$DIMRND
 40
0.0
  9
$DIMDLE
 40
0.0
  9
$DIMEXE
 40
1.0
  9
$DIMTP
 40
0.0
  9
$DIMTM
 40
0.0
  9
$DIMTXT
 40
3.5
  9
$DIMCEN
 40
0.0
  9
$DIMTSZ
 40
0.0
  9
$DIMTOL
 70
     0
  9
$DIMLIM
 70
     0
  9
$DIMTIH
 70
     0
  9
$DIMTOH
 70
     0
  9
$DIMSE1
 70
     0
  9
$DIMSE2
 70
     0
  9
$DIMTAD
 70
     1
  9
$DIMZIN
 70
     8
  9
$DIMBLK
  1

  9
$DIMASO
 70
     1
  9
$DIMSHO
 70
     1
  9
$DIMPOST
  1
 
  9
$DIMAPOST
  1

  9
$DIMALT
 70
     0
  9
$DIMALTD
 70
     2
  9
$DIMALTF
 40
25.4
  9
$DIMLFAC
 40
1.0
  9
$DIMTOFL
 70
     1
  9
$DIMTVP
 40
0.0
  9
$DIMTIX
 70
     0
  9
$DIMSOXD
 70
     0
  9
$DIMSAH
 70
     1
  9
$DIMBLK1
  1
OPEN30
  9
$DIMBLK2
  1
OPEN30
  9
$DIMSTYLE
  2
NEWX10
  9
$DIMCLRD
 70
   256
  9
$DIMCLRE
 70
   256
  9
$DIMCLRT
 70
   201
  9
$DIMTFAC
 40
0.7
  9
$DIMGAP
 40
0.7
  9
$DIMJUST
 70
     0
  9
$DIMSD1
 70
     0
  9
$DIMSD2
 70
     0
  9
$DIMTOLJ
 70
     1
  9
$DIMTZIN
 70
     8
  9
$DIMALTZ
 70
     0
  9
$DIMALTTZ
 70
     0
  9
$DIMFIT
 70
     3
  9
$DIMUPT
 70
     0
  9
$DIMUNIT
 70
     2
  9
$DIMDEC
 70
     2
  9
$DIMTDEC
 70
     4
  9
$DIMALTU
 70
     2
  9
$DIMALTTD
 70
     2
  9
$DIMTXSTY
  7
STANDARD
  9
$DIMAUNIT
 70
     0
  9
$LUNITS
 70
     2
  9
$LUPREC
 70
     4
  9
$SKETCHINC
 40
1.0
  9
$FILLETRAD
 40
0.0
  9
$AUNITS
 70
     0
  9
$AUPREC
 70
     2
  9
$MENU
  1
acad
  9
$ELEVATION
 40
0.0
  9
$PELEVATION
 40
0.0
  9
$THICKNESS
 40
0.0
  9
$LIMCHECK
 70
     0
  9
$CHAMFERA
 40
1.0
  9
$CHAMFERB
 40
1.0
  9
$CHAMFERC
 40
20.0
  9
$CHAMFERD
 40
0.0
  9
$SKPOLY
 70
     0
  9
$TDCREATE
 40
2453033.732663484
  9
$TDUPDATE
 40
2458093.380124364
  9
$TDINDWG
 40
2.3673193866
  9
$TDUSRTIMER
 40
2.3673193866
  9
$USRTIMER
 70
     1
  9
$ANGBASE
 50
0.0
  9
$ANGDIR
 70
     0
  9
$PDMODE
 70
     0
  9
$PDSIZE
 40
0.0
  9
$PLINEWID
 40
0.0
  9
$COORDS
 70
     3
  9
$SPLFRAME
 70
     0
  9
$SPLINETYPE
 70
     6
  9
$SPLINESEGS
 70
     8
  9
$ATTDIA
 70
     0
  9
$ATTREQ
 70
     1
  9
$HANDLING
 70
     1
  9
$HANDSEED
  5
2190B
  9
$SURFTAB1
 70
     6
  9
$SURFTAB2
 70
     6
  9
$SURFTYPE
 70
     6
  9
$SURFU
 70
     6
  9
$SURFV
 70
     6
  9
$UCSNAME
  2

  9
$UCSORG
 10
0.0
 20
0.0
 30
0.0
  9
$UCSXDIR
 10
1.0
 20
0.0
 30
0.0
  9
$UCSYDIR
 10
0.0
 20
1.0
 30
0.0
  9
$PUCSNAME
  2

  9
$PUCSORG
 10
0.0
 20
0.0
 30
0.0
  9
$PUCSXDIR
 10
1.0
 20
0.0
 30
0.0
  9
$PUCSYDIR
 10
0.0
 20
1.0
 30
0.0
  9
$USERI1
 70
     0
  9
$USERI2
 70
     0
  9
$USERI3
 70
     0
  9
$USERI4
 70
     0
  9
$USERI5
 70
     0
  9
$USERR1
 40
0.0
  9
$USERR2
 40
0.0
  9
$USERR3
 40
0.0
  9
$USERR4
 40
0.0
  9
$USERR5
 40
0.0
  9
$WORLDVIEW
 70
     1
  9
$SHADEDGE
 70
     3
  9
$SHADEDIF
 70
    70
  9
$TILEMODE
 70
     1
  9
$MAXACTVP
 70
    48
  9
$PINSBASE
 10
0.0
 20
0.0
 30
0.0
  9
$PLIMCHECK
 70
     0
  9
$PEXTMIN
 10
1.000000000000000E+20
 20
1.000000000000000E+20
 30
1.000000000000000E+20
  9
$PEXTMAX
 10
-1.000000000000000E+20
 20
-1.000000000000000E+20
 30
-1.000000000000000E+20
  9
$PLIMMIN
 10
0.0
 20
0.0
  9
$PLIMMAX
 10
420.0
 20
297.0
  9
$UNITMODE
 70
     0
  9
$VISRETAIN
 70
     1
  9
$PLINEGEN
 70
     0
  9
$PSLTSCALE
 70
     1
  9
$TREEDEPTH
 70
  3020
  9
$PICKSTYLE
 70
     1
  9
$CMLSTYLE
  2
STANDARD
  9
$CMLJUST
 70
     0
  9
$CMLSCALE
 40
20.0
  9
$SAVEIMAGES
 70
     1
  0
ENDSEC
  0
SECTION
  2
CLASSES
  0
CLASS
  1
DICTIONARYVAR
  2
AcDbDictionaryVar
  3
ObjectDBX Classes
 90
        0
280
     0
281
     0
  0
CLASS
  1
IDBUFFER
  2
AcDbIdBuffer
  3
ObjectDBX Classes
 90
    32768
280
     0
281
     0
  0
CLASS
  1
LWPOLYLINE
  2
AcDbPolyline
  3
ObjectDBX Classes
 90
    32768
280
     0
281
     1
  0
CLASS
  1
ACDBDICTIONARYWDFLT
  2
AcDbDictionaryWithDefault
  3
ObjectDBX Classes
 90
    32768
280
     0
281
     0
  0
CLASS
  1
ACDBPLACEHOLDER
  2
AcDbPlaceHolder
  3
ObjectDBX Classes
 90
        0
280
     0
281
     0
  0
CLASS
  1
LAYOUT
  2
AcDbLayout
  3
ObjectDBX Classes
 90
        0
280
     0
281
     0
  0
CLASS
  1
TABLESTYLE
  2
AcDbTableStyle
  3
ObjectDBX Classes
 90
     4095
280
     0
281
     0
  0
CLASS
  1
SORTENTSTABLE
  2
AcDbSortentsTable
  3
ObjectDBX Classes
 90
    32768
280
     0
281
     0
  0
CLASS
  1
DIMASSOC
  2
AcDbDimAssoc
  3
"AcDbDimAssoc|Product Desc:     AcDim ARX App For Dimension|Company:          Autodesk, Inc.|WEB Address:      www.autodesk.com"
 90
        0
280
     0
281
     0
  0
CLASS
  1
MATERIAL
  2
AcDbMaterial
  3
ObjectDBX Classes
 90
     1153
280
     0
281
     0
  0
CLASS
  1
VISUALSTYLE
  2
AcDbVisualStyle
  3
ObjectDBX Classes
 90
     4095
280
     0
281
     0
  0
CLASS
  1
SCALE
  2
AcDbScale
  3
ObjectDBX Classes
 90
     1153
280
     0
281
     0
  0
CLASS
  1
MLEADERSTYLE
  2
AcDbMLeaderStyle
  3
ACDB_MLEADERSTYLE_CLASS
 90
     4095
280
     0
281
     0
  0
CLASS
  1
CELLSTYLEMAP
  2
AcDbCellStyleMap
  3
ObjectDBX Classes
 90
     1152
280
     0
281
     0
  0
CLASS
  1
EXACXREFPANELOBJECT
  2
ExAcXREFPanelObject
  3
EXAC_ESW
 90
   -31743
280
     1
281
     0
  0
CLASS
  1
NPOCOLLECTION
  2
AcDbImpNonPersistentObjectsCollection
  3
ObjectDBX Classes
 90
   -31615
280
     1
281
     0
  0
CLASS
  1
SUN
  2
AcDbSun
  3
SCENEOE
 90
     1153
280
     0
281
     0
  0
CLASS
  1
XRECORD
  2
AcDbXrecord
  3
ObjectDBX Classes
 90
    32768
280
     0
281
     0
  0
CLASS
  1
HATCH
  2
AcDbHatch
  3
ObjectDBX Classes
 90
    32768
280
     0
281
     1
  0
ENDSEC
  0
SECTION
  2
TABLES
  0
TABLE
  2
VPORT
  5
8
330
0
100
AcDbSymbolTable
 70
     1
  0
VPORT
  5
19DC2
330
8
100
AcDbSymbolTableRecord
100
AcDbViewportTableRecord
  2
*ACTIVE
 70
     0
 10
0.0
 20
0.0
 11
1.0
 21
1.0
 12
467.2903800456345
 22
-617.021554963055
 13
0.0
 23
0.0
 14
10.0
 24
10.0
 15
10.0
 25
10.0
 16
0.0
 26
0.0
 36
1.0
 17
0.0
 27
0.0
 37
0.0
 40
330.131018091957
 41
2.122931442080378
 42
50.0
 43
0.0
 44
0.0
 50
0.0
 51
0.0
 71
    16
 72
  1000
 73
     1
 74
     1
 75
     0
 76
     0
 77
     0
 78
     0
1001
ACAD_NAV_VCDISPLAY
1070
     3
  0
ENDTAB
  0
TABLE
  2
LTYPE
  5
5
330
0
100
AcDbSymbolTable
 70
     4
  0
LTYPE
  5
12
330
5
100
AcDbSymbolTableRecord
100
AcDbLinetypeTableRecord
  2
BYBLOCK
 70
     0
  3

 72
    65
 73
     0
 40
0.0
  0
LTYPE
  5
13
330
5
100
AcDbSymbolTableRecord
100
AcDbLinetypeTableRecord
  2
BYLAYER
 70
     0
  3

 72
    65
 73
     0
 40
0.0
  0
LTYPE
  5
14
330
5
100
AcDbSymbolTableRecord
100
AcDbLinetypeTableRecord
  2
CONTINUOUS
 70
     0
  3
Solid line
 72
    65
 73
     0
 40
0.0
  0
LTYPE
  5
FF
330
5
100
AcDbSymbolTableRecord
100
AcDbLinetypeTableRecord
  2
HIDDEN
 70
     0
  3
Hidden __ __ __ __ __ __ __ __ __ __ __ __ __ _
 72
    65
 73
     2
 40
9.524999999999999
 49
6.35
 74
     0
 49
-3.175
 74
     0
  0
LTYPE
  5
100
330
5
100
AcDbSymbolTableRecord
100
AcDbLinetypeTableRecord
  2
PHANTOM2
 70
     0
  3
Phantom (0.5x) ___ _ _ ___ _ _ ___ _ _ ___ _ _
 72
    65
 73
     6
 40
31.75
 49
15.875
 74
     0
 49
-3.175
 74
     0
 49
3.175
 74
     0
 49
-3.175
 74
     0
 49
3.175
 74
     0
 49
-3.175
 74
     0
  0
LTYPE
  5
212A6
330
5
100
AcDbSymbolTableRecord
100
AcDbLinetypeTableRecord
  2
CENTER2
 70
     0
  3
Center (.5x) ___ _ ___ _ ___ _ ___ _ ___ _ ___
 72
    65
 73
     4
 40
28.575
 49
19.05
 74
     0
 49
-3.175
 74
     0
 49
3.175
 74
     0
 49
-3.175
 74
     0
  0
ENDTAB
  0
TABLE
  2
LAYER
  5
2
102
{ACAD_XDICTIONARY
360
18FE8
102
}
330
0
100
AcDbSymbolTable
 70
     8
  0
LAYER
  5
E
102
{ACAD_XDICTIONARY
360
1A20A
102
}
330
2
100
AcDbSymbolTableRecord
100
AcDbLayerTableRecord
  2
0
 70
     0
 62
     7
  6
CONTINUOUS
  0
LAYER
  5
29
102
{ACAD_XDICTIONARY
360
1A20C
102
}
330
2
100
AcDbSymbolTableRecord
100
AcDbLayerTableRecord
  2
1CENTER
 70
     0
 62
     7
  6
CENTER2
  0
LAYER
  5
31
102
{ACAD_XDICTIONARY
360
1A20E
102
}
330
2
100
AcDbSymbolTableRecord
100
AcDbLayerTableRecord
  2
1TEXT
 70
     0
 62
     7
  6
CONTINUOUS
  0
LAYER
  5
101
102
{ACAD_XDICTIONARY
360
1A218
102
}
330
2
100
AcDbSymbolTableRecord
100
AcDbLayerTableRecord
  2
1DIM
 70
     0
 62
     7
  6
CONTINUOUS
  0
LAYER
  5
102
102
{ACAD_XDICTIONARY
360
1A21A
102
}
330
2
100
AcDbSymbolTableRecord
100
AcDbLayerTableRecord
  2
1HIDDEN
 70
     0
 62
     7
  6
HIDDEN
  0
LAYER
  5
103
102
{ACAD_XDICTIONARY
360
1A21C
102
}
330
2
100
AcDbSymbolTableRecord
100
AcDbLayerTableRecord
  2
1PHANTOM
 70
     0
 62
     7
  6
PHANTOM2
  0
LAYER
  5
25F
102
{ACAD_XDICTIONARY
360
1A220
102
}
330
2
100
AcDbSymbolTableRecord
100
AcDbLayerTableRecord
  2
01
 70
     0
 62
     1
  6
CONTINUOUS
  0
LAYER
  5
26A
102
{ACAD_XDICTIONARY
360
1A236
102
}
330
2
100
AcDbSymbolTableRecord
100
AcDbLayerTableRecord
  2
1DIM1
 70
     0
 62
     7
  6
CONTINUOUS
  0
ENDTAB
  0
TABLE
  2
STYLE
  5
3
330
0
100
AcDbSymbolTable
 70
     1
  0
STYLE
  5
F
330
3
100
AcDbSymbolTableRecord
100
AcDbTextStyleTableRecord
  2
STANDARD
 70
     0
 40
0.0
 41
1.0
 50
0.0
 71
     0
 42
4.0
  3
txt.shx
  4
extfont.shx
  0
ENDTAB
  0
TABLE
  2
VIEW
  5
6
330
0
100
AcDbSymbolTable
 70
     0
  0
ENDTAB
  0
TABLE
  2
UCS
  5
7
330
0
100
AcDbSymbolTable
 70
     5
  0
UCS
  5
211A5
330
7
100
AcDbSymbolTableRecord
100
AcDbUCSTableRecord
  2
U
 70
     0
 10
0.0
 20
0.0
 30
0.0
 11
1.0
 21
0.0
 31
0.0
 12
0.0
 22
2.220446049250313E-16
 32
1.0
 79
     0
146
0.0
  0
UCS
  5
211A6
330
7
100
AcDbSymbolTableRecord
100
AcDbUCSTableRecord
  2
L
 70
     0
 10
0.0
 20
0.0
 30
0.0
 11
-2.220446049250313E-16
 21
-1.0
 31
2.220446049250313E-16
 12
0.0
 22
2.220446049250313E-16
 32
1.0
 79
     0
146
0.0
  0
UCS
  5
211A7
330
7
100
AcDbSymbolTableRecord
100
AcDbUCSTableRecord
  2
R
 70
     0
 10
0.0
 20
0.0
 30
0.0
 11
3.445092848397667E-16
 21
1.0
 31
-2.220446049250313E-16
 12
0.0
 22
2.220446049250313E-16
 32
1.0
 79
     0
146
0.0
  0
UCS
  5
211A8
330
7
100
AcDbSymbolTableRecord
100
AcDbUCSTableRecord
  2
ISOME
 70
     0
 10
0.0
 20
0.0
 30
0.0
 11
0.7071450863198265
 21
-0.7070684729403536
 31
-3.830824619466267E-5
 12
0.4082704059428734
 22
0.4082704077401151
 32
0.8164744636514736
 79
     0
146
0.0
  0
UCS
  5
211A9
330
7
100
AcDbSymbolTableRecord
100
AcDbUCSTableRecord
  2
PERSPECTIVE
 70
     0
 10
0.0
 20
0.0
 30
0.0
 11
0.8191477691768964
 21
-0.5735823260466403
 31
-0.0004974931557765462
 12
0.1584844715982971
 22
0.225502028986108
 32
0.961265575782966
 79
     0
146
0.0
  0
ENDTAB
  0
TABLE
  2
APPID
  5
9
330
0
100
AcDbSymbolTable
 70
    16
  0
APPID
  5
10
330
9
100
AcDbSymbolTableRecord
100
AcDbRegAppTableRecord
  2
ACAD
 70
     0
  0
APPID
  5
21
330
9
100
AcDbSymbolTableRecord
100
AcDbRegAppTableRecord
  2
DRAWINGVARIABLESXDATA
 70
     0
  0
APPID
  5
64
330
9
100
AcDbSymbolTableRecord
100
AcDbRegAppTableRecord
  2
CONTENTTABDATA
 70
     0
  0
APPID
  5
65
330
9
100
AcDbSymbolTableRecord
100
AcDbRegAppTableRecord
  2
CONTENTCURRENTTAB
 70
     0
  0
APPID
  5
66
330
9
100
AcDbSymbolTableRecord
100
AcDbRegAppTableRecord
  2
CONTENTBLOCKDESCRIPTION
 70
     0
  0
APPID
  5
67
330
9
100
AcDbSymbolTableRecord
100
AcDbRegAppTableRecord
  2
CONTENTBLOCKICON
 70
     0
  0
APPID
  5
68
330
9
100
AcDbSymbolTableRecord
100
AcDbRegAppTableRecord
  2
CONTENTLONGBLOCKNAME
 70
     0
  0
APPID
  5
5A9
330
9
100
AcDbSymbolTableRecord
100
AcDbRegAppTableRecord
  2
ACAD_PSEXT
 70
     0
  0
APPID
  5
18AC
330
9
100
AcDbSymbolTableRecord
100
AcDbRegAppTableRecord
  2
ACAD_DSTYLE_DIMTEXT_FILL
 70
     0
  0
APPID
  5
19E1A
330
9
100
AcDbSymbolTableRecord
100
AcDbRegAppTableRecord
  2
ACAD_MLEADERVER
 70
     0
  0
APPID
  5
1A2FA
330
9
100
AcDbSymbolTableRecord
100
AcDbRegAppTableRecord
  2
ACAD_DSTYLE_DIMRADIAL_EXTE
 70
     0
  0
APPID
  5
1DBC1
330
9
100
AcDbSymbolTableRecord
100
AcDbRegAppTableRecord
  2
ACADANNOTATIVE
 70
     0
  0
APPID
  5
1E991
330
9
100
AcDbSymbolTableRecord
100
AcDbRegAppTableRecord
  2
ACAD_EXEMPT_FROM_CAD_STAND
 70
     0
  0
APPID
  5
202C7
330
9
100
AcDbSymbolTableRecord
100
AcDbRegAppTableRecord
  2
ACDBBLOCKREPETAG
 70
     0
  0
APPID
  5
20AA7
330
9
100
AcDbSymbolTableRecord
100
AcDbRegAppTableRecord
  2
ACAD_OBJECT_CHANGE_GUID
 70
     0
  0
APPID
  5
20B32
330
9
100
AcDbSymbolTableRecord
100
AcDbRegAppTableRecord
  2
ACAD_NAV_VCDISPLAY
 70
     0
  0
ENDTAB
  0
TABLE
  2
DIMSTYLE
  5
A
330
0
100
AcDbSymbolTable
 70
     1
  0
DIMSTYLE
105
48
102
{ACAD_REACTORS
102
}
330
A
100
AcDbSymbolTableRecord
100
AcDbDimStyleTableRecord
  2
NEWX10
 70
     0
  3
 
  4

  5

  6
OPEN30
  7
OPEN30
 40
1.0
 41
2.0
 42
0.0
 43
7.0
 44
1.0
 45
0.0
 46
0.0
 47
0.0
 48
0.0
140
3.5
141
0.0
142
0.0
143
25.4
144
1.0
145
0.0
146
0.7
147
0.7
 71
     0
 72
     0
 73
     0
 74
     0
 75
     0
 76
     0
 77
     1
 78
     8
170
     0
171
     2
172
     1
173
     1
174
     0
175
     0
176
   256
177
   256
178
   201
179
     1
270
     2
271
     2
272
     4
273
     2
274
     2
340
F
275
     0
280
     0
281
     0
282
     0
283
     1
284
     8
285
     0
286
     0
287
     3
288
     0
  0
ENDTAB
  0
TABLE
  2
BLOCK_RECORD
  5
1
330
0
100
AcDbSymbolTable
 70
     8
  0
BLOCK_RECORD
  5
18
102
{ACAD_XDICTIONARY
360
6E9
102
}
330
1
100
AcDbSymbolTableRecord
100
AcDbBlockTableRecord
  2
*MODEL_SPACE
  0
BLOCK_RECORD
  5
15
102
{ACAD_XDICTIONARY
360
59B
102
}
330
1
100
AcDbSymbolTableRecord
100
AcDbBlockTableRecord
  2
*PAPER_SPACE
  0
BLOCK_RECORD
  5
42
330
1
100
AcDbSymbolTableRecord
100
AcDbBlockTableRecord
  2
_OPEN30
  0
BLOCK_RECORD
  5
20316
330
1
100
AcDbSymbolTableRecord
100
AcDbBlockTableRecord
  2
A3WAKUKAWAJUN2017_HYOUDAI_
  0
BLOCK_RECORD
  5
2176B
330
1
100
AcDbSymbolTableRecord
100
AcDbBlockTableRecord
  2
*X29
  0
BLOCK_RECORD
  5
217B9
330
1
100
AcDbSymbolTableRecord
100
AcDbBlockTableRecord
  2
*X30
  0
BLOCK_RECORD
  5
2180B
330
1
100
AcDbSymbolTableRecord
100
AcDbBlockTableRecord
  2
*X31
  0
BLOCK_RECORD
  5
2185C
330
1
100
AcDbSymbolTableRecord
100
AcDbBlockTableRecord
  2
*X32
  0
BLOCK_RECORD
  5
21899
330
1
100
AcDbSymbolTableRecord
100
AcDbBlockTableRecord
  2
*X33
  0
BLOCK_RECORD
  5
218D9
330
1
100
AcDbSymbolTableRecord
100
AcDbBlockTableRecord
  2
*X34
  0
ENDTAB
  0
ENDSEC
  0
SECTION
  2
BLOCKS
  0
BLOCK
  5
19
330
18
100
AcDbEntity
  8
0
100
AcDbBlockBegin
  2
*MODEL_SPACE
 70
     0
 10
0.0
 20
0.0
 30
0.0
  3
*MODEL_SPACE
  1

  0
ENDBLK
  5
1A
330
18
100
AcDbEntity
  8
0
100
AcDbBlockEnd
  0
BLOCK
  5
16
330
15
100
AcDbEntity
 67
     1
  8
0
100
AcDbBlockBegin
  2
*PAPER_SPACE
 70
     0
 10
0.0
 20
0.0
 30
0.0
  3
*PAPER_SPACE
  1

  0
ENDBLK
  5
17
330
15
100
AcDbEntity
 67
     1
  8
0
100
AcDbBlockEnd
  0
BLOCK
  5
43
330
42
100
AcDbEntity
  8
0
100
AcDbBlockBegin
  2
_OPEN30
 70
     0
 10
0.0
 20
0.0
 30
0.0
  3
_OPEN30
  1

  0
LINE
  5
44
330
42
100
AcDbEntity
  8
0
  6
BYBLOCK
 62
     0
100
AcDbLine
 10
-1.0
 20
0.26794919
 30
0.0
 11
0.0
 21
0.0
 31
0.0
  0
LINE
  5
45
330
42
100
AcDbEntity
  8
0
  6
BYBLOCK
 62
     0
100
AcDbLine
 10
0.0
 20
0.0
 30
0.0
 11
-1.0
 21
-0.26794919
 31
0.0
  0
LINE
  5
46
330
42
100
AcDbEntity
  8
0
  6
BYBLOCK
 62
     0
100
AcDbLine
 10
0.0
 20
0.0
 30
0.0
 11
-1.0
 21
0.0
 31
0.0
  0
ENDBLK
  5
47
330
42
100
AcDbEntity
  8
0
100
AcDbBlockEnd
  0
BLOCK
  5
20A15
330
20316
100
AcDbEntity
  8
0
100
AcDbBlockBegin
  2
A3WAKUKAWAJUN2017_HYOUDAI_
 70
     0
 10
0.0
 20
0.0
 30
0.0
  3
A3WAKUKAWAJUN2017_HYOUDAI_
  1

  0
LINE
  5
20318
330
20316
100
AcDbEntity
  8
0
100
AcDbLine
 10
13.26299999998673
 20
-0.0001000000000317
 30
0.0
 11
9.236999999990758
 21
8.999899999990987
 31
0.0
1001
ACAD
1000
ASC_BOUNDS
1002
{
1070
    19
1005
20359
1002
}
  0
LINE
  5
20319
330
20316
100
AcDbEntity
  8
0
100
AcDbLine
 10
5.657999999994331
 20
0.9999999999989768
 30
0.0
 11
9.236999999990758
 21
8.999999999991019
 31
0.0
1001
ACAD
1000
ASC_BOUNDS
1002
{
1070
    19
1005
20359
1002
}
  0
LINE
  5
2031A
330
20316
100
AcDbEntity
  8
0
100
AcDbLine
 10
18.59199999998134
 20
-0.2368999999997641
 30
0.0
 11
16.46099999998353
 21
5.432899999994561
 31
0.0
1001
ACAD
1000
ASC_BOUNDS
1002
{
1070
    19
1005
2035A
1002
}
  0
LINE
  5
2031B
330
20316
100
AcDbEntity
  8
0
100
AcDbLine
 10
18.59199999998134
 20
-0.2368999999997641
 30
0.0
 11
22.38199999997767
 21
8.763099999991255
 31
0.0
1001
ACAD
1000
ASC_BOUNDS
1002
{
1070
    19
1005
2035A
1002
}
  0
LINE
  5
2031C
330
20316
100
AcDbEntity
  8
0
100
AcDbLine
 10
14.32899999998563
 20
-0.2368999999997641
 30
0.0
 11
16.46099999998353
 21
5.432899999994561
 31
0.0
1001
ACAD
1000
ASC_BOUNDS
1002
{
1070
    19
1005
2035A
1002
}
  0
LINE
  5
2031D
330
20316
100
AcDbEntity
  8
0
100
AcDbLine
 10
14.32899999998563
 20
-0.2368999999997641
 30
0.0
 11
10.53899999998941
 21
8.763099999991255
 31
0.0
1001
ACAD
1000
ASC_BOUNDS
1002
{
1070
    19
1005
2035A
1002
}
  0
LINE
  5
2031E
330
20316
100
AcDbEntity
  8
0
100
AcDbLine
 10
19.53899999998043
 20
-0.0001000000000317
 30
0.0
 11
23.56599999997638
 21
8.999899999990987
 31
0.0
1001
ACAD
1000
ASC_BOUNDS
1002
{
1070
    19
1005
2035B
1002
}
  0
LINE
  5
2031F
330
20316
100
AcDbEntity
  8
0
100
AcDbLine
 10
26.97358892824991
 20
1.383099999991202
 30
0.0
 11
23.56599999997638
 21
8.999899999990987
 31
0.0
1001
ACAD
1000
ASC_BOUNDS
1002
{
1070
    19
1005
2035B
1002
}
  0
LINE
  5
20320
330
20316
100
AcDbEntity
  8
0
100
AcDbLine
 10
5.657999999994331
 20
0.9999999999989768
 30
0.0
 11
3.181999999996833
 21
4.668599999995308
 31
0.0
1001
ACAD
1000
ASC_BOUNDS
1002
{
1070
    19
1005
20359
1002
}
  0
LINE
  5
20321
330
20316
100
AcDbEntity
  8
0
100
AcDbLine
 10
4.617999999995391
 20
-0.0001000000000317
 30
0.0
 11
1.420999999998571
 21
4.736799999995242
 31
0.0
1001
ACAD
1000
ASC_BOUNDS
1002
{
1070
    19
1005
20359
1002
}
  0
LINE
  5
20322
330
20316
100
AcDbEntity
  8
0
100
AcDbLine
 10
1.420999999998571
 20
8.763099999991255
 30
0.0
 11
1.420999999998571
 21
0.0
 31
0.0
1001
ACAD
1000
ASC_BOUNDS
1002
{
1070
    19
1005
2035E
1002
}
  0
LINE
  5
20323
330
20316
100
AcDbEntity
  8
0
100
AcDbLine
 10
0.0
 20
8.763099999991255
 30
0.0
 11
0.0
 21
0.0
 31
0.0
1001
ACAD
1000
ASC_BOUNDS
1002
{
1070
    19
1005
2035E
1002
}
  0
LINE
  5
20324
330
20316
100
AcDbEntity
  8
0
100
AcDbLine
 10
6.766999999993232
 20
-0.0001000000000317
 30
0.0
 11
7.826999999992154
 21
2.368399999997621
 31
0.0
1001
ACAD
1000
ASC_BOUNDS
1002
{
1070
    19
1005
20359
1002
}
  0
LINE
  5
20325
330
20316
100
AcDbEntity
  8
0
100
AcDbLine
 10
0.0
 20
0.0
 30
0.0
 11
1.420999999998571
 21
0.0
 31
0.0
1001
ACAD
1000
ASC_BOUNDS
1002
{
1070
    19
1005
2035E
1002
}
  0
LINE
  5
20326
330
20316
100
AcDbEntity
  8
0
100
AcDbLine
 10
4.617999999995391
 20
0.0
 30
0.0
 11
6.766999999993232
 21
0.0
 31
0.0
1001
ACAD
1000
ASC_BOUNDS
1002
{
1070
    19
1005
20359
1002
}
  0
LINE
  5
20327
330
20316
100
AcDbEntity
  8
0
100
AcDbLine
 10
11.70599999998831
 20
-0.0001000000000317
 30
0.0
 11
10.64699999998936
 21
2.368399999997621
 31
0.0
1001
ACAD
1000
ASC_BOUNDS
1002
{
1070
    19
1005
20359
1002
}
  0
LINE
  5
20328
330
20316
100
AcDbEntity
  8
0
100
AcDbLine
 10
7.826999999992154
 20
2.368399999997621
 30
0.0
 11
10.64699999998936
 21
2.368399999997621
 31
0.0
1001
ACAD
1000
ASC_BOUNDS
1002
{
1070
    19
1005
20359
1002
}
  0
LINE
  5
20329
330
20316
100
AcDbEntity
  8
0
100
AcDbLine
 10
11.70599999998831
 20
0.0
 30
0.0
 11
13.26299999998673
 21
0.0
 31
0.0
1001
ACAD
1000
ASC_BOUNDS
1002
{
1070
    19
1005
20359
1002
}
  0
LINE
  5
2032A
330
20316
100
AcDbEntity
  8
0
100
AcDbLine
 10
22.15599999997789
 20
2.368399999997621
 30
0.0
 11
24.97599999997499
 21
2.368399999997621
 31
0.0
1001
ACAD
1000
ASC_BOUNDS
1002
{
1070
    19
1005
2035B
1002
}
  0
LINE
  5
2032B
330
20316
100
AcDbEntity
  8
0
100
AcDbLine
 10
19.53899999998043
 20
0.0
 30
0.0
 11
21.09599999997886
 21
0.0
 31
0.0
1001
ACAD
1000
ASC_BOUNDS
1002
{
1070
    19
1005
2035B
1002
}
  0
LINE
  5
2032C
330
20316
100
AcDbEntity
  8
0
100
AcDbLine
 10
21.09599999997886
 20
-0.0001000000000317
 30
0.0
 11
22.15599999997789
 21
2.368399999997621
 31
0.0
1001
ACAD
1000
ASC_BOUNDS
1002
{
1070
    19
1005
2035B
1002
}
  0
LINE
  5
2032D
330
20316
100
AcDbEntity
  8
0
100
AcDbLine
 10
26.02015566812236
 20
0.0330999999912365
 30
0.0
 11
24.97599999997499
 21
2.368399999997621
 31
0.0
1001
ACAD
1000
ASC_BOUNDS
1002
{
1070
    19
1005
2035B
1002
}
  0
LINE
  5
2032E
330
20316
100
AcDbEntity
  8
0
100
AcDbLine
 10
14.32399999998563
 20
3.315799999996671
 30
0.0
 11
16.46099999998353
 21
8.999899999990987
 31
0.0
1001
ACAD
1000
ASC_BOUNDS
1002
{
1070
    19
1005
2035A
1002
}
  0
LINE
  5
2032F
330
20316
100
AcDbEntity
  8
0
100
AcDbLine
 10
6.432999999993513
 20
8.763099999991255
 30
0.0
 11
3.181999999996833
 21
4.668599999995308
 31
0.0
1001
ACAD
1000
ASC_BOUNDS
1002
{
1070
    19
1005
20359
1002
}
  0
LINE
  5
20330
330
20316
100
AcDbEntity
  8
0
100
AcDbLine
 10
4.617999999995391
 20
8.763099999991255
 30
0.0
 11
1.420999999998571
 21
4.736799999995242
 31
0.0
1001
ACAD
1000
ASC_BOUNDS
1002
{
1070
    19
1005
20359
1002
}
  0
LINE
  5
20331
330
20316
100
AcDbEntity
  8
0
100
AcDbLine
 10
0.0
 20
8.763099999991255
 30
0.0
 11
1.420999999998571
 21
8.763099999991255
 31
0.0
1001
ACAD
1000
ASC_BOUNDS
1002
{
1070
    19
1005
2035E
1002
}
  0
LINE
  5
20332
330
20316
100
AcDbEntity
  8
0
100
AcDbLine
 10
4.617999999995391
 20
8.763099999991255
 30
0.0
 11
6.432999999993513
 21
8.763099999991255
 31
0.0
1001
ACAD
1000
ASC_BOUNDS
1002
{
1070
    19
1005
20359
1002
}
  0
LINE
  5
20333
330
20316
100
AcDbEntity
  8
0
100
AcDbLine
 10
14.32399999998563
 20
3.315799999996671
 30
0.0
 11
12.02999999998792
 21
8.763099999991255
 31
0.0
1001
ACAD
1000
ASC_BOUNDS
1002
{
1070
    19
1005
2035A
1002
}
  0
LINE
  5
20334
330
20316
100
AcDbEntity
  8
0
100
AcDbLine
 10
10.06399999998996
 20
3.670999999996297
 30
0.0
 11
9.236999999990758
 21
5.5200999999945
 31
0.0
1001
ACAD
1000
ASC_BOUNDS
1002
{
1070
    19
1005
20359
1002
}
  0
LINE
  5
20335
330
20316
100
AcDbEntity
  8
0
100
AcDbLine
 10
8.409999999991555
 20
3.670999999996297
 30
0.0
 11
9.236999999990758
 21
5.5200999999945
 31
0.0
1001
ACAD
1000
ASC_BOUNDS
1002
{
1070
    19
1005
20359
1002
}
  0
LINE
  5
20336
330
20316
100
AcDbEntity
  8
0
100
AcDbLine
 10
8.409999999991555
 20
3.670999999996297
 30
0.0
 11
10.06399999998996
 21
3.670999999996297
 31
0.0
1001
ACAD
1000
ASC_BOUNDS
1002
{
1070
    19
1005
20359
1002
}
  0
LINE
  5
20337
330
20316
100
AcDbEntity
  8
0
100
AcDbLine
 10
10.53899999998941
 20
8.763099999991255
 30
0.0
 11
12.02999999998792
 21
8.763099999991255
 31
0.0
1001
ACAD
1000
ASC_BOUNDS
1002
{
1070
    19
1005
2035A
1002
}
  0
LINE
  5
20338
330
20316
100
AcDbEntity
  8
0
100
AcDbLine
 10
22.7389999999773
 20
3.670999999996297
 30
0.0
 11
23.56599999997638
 21
5.5200999999945
 31
0.0
1001
ACAD
1000
ASC_BOUNDS
1002
{
1070
    19
1005
2035B
1002
}
  0
LINE
  5
20339
330
20316
100
AcDbEntity
  8
0
100
AcDbLine
 10
22.7389999999773
 20
3.670999999996297
 30
0.0
 11
24.39299999997559
 21
3.670999999996297
 31
0.0
1001
ACAD
1000
ASC_BOUNDS
1002
{
1070
    19
1005
2035B
1002
}
  0
LINE
  5
2033A
330
20316
100
AcDbEntity
  8
0
100
AcDbLine
 10
18.59799999998143
 20
3.315799999996671
 30
0.0
 11
20.89099999997916
 21
8.763099999991255
 31
0.0
1001
ACAD
1000
ASC_BOUNDS
1002
{
1070
    19
1005
2035A
1002
}
  0
LINE
  5
2033B
330
20316
100
AcDbEntity
  8
0
100
AcDbLine
 10
18.59799999998143
 20
3.315799999996671
 30
0.0
 11
16.46099999998353
 21
8.999899999990987
 31
0.0
1001
ACAD
1000
ASC_BOUNDS
1002
{
1070
    19
1005
2035A
1002
}
  0
LINE
  5
2033C
330
20316
100
AcDbEntity
  8
0
100
AcDbLine
 10
20.89099999997916
 20
8.763099999991255
 30
0.0
 11
22.38199999997767
 21
8.763099999991255
 31
0.0
1001
ACAD
1000
ASC_BOUNDS
1002
{
1070
    19
1005
2035A
1002
}
  0
LINE
  5
2033D
330
20316
100
AcDbEntity
  8
0
100
AcDbLine
 10
24.39299999997559
 20
3.670999999996297
 30
0.0
 11
23.56599999997638
 21
5.5200999999945
 31
0.0
1001
ACAD
1000
ASC_BOUNDS
1002
{
1070
    19
1005
2035B
1002
}
  0
LINE
  5
2033E
330
20316
100
AcDbEntity
  8
0
100
AcDbLine
 10
44.99999999995498
 20
-0.2368999999997641
 30
0.0
 11
40.02599999995994
 21
5.341799999994635
 31
0.0
1001
ACAD
1000
ASC_BOUNDS
1002
{
1070
    19
1005
2035D
1002
}
  0
LINE
  5
2033F
330
20316
100
AcDbEntity
  8
0
100
AcDbLine
 10
40.02599999995994
 20
5.341799999994635
 30
0.0
 11
40.02599999995994
 21
0.0
 31
0.0
1001
ACAD
1000
ASC_BOUNDS
1002
{
1070
    19
1005
2035D
1002
}
  0
LINE
  5
20340
330
20316
100
AcDbEntity
  8
0
100
AcDbLine
 10
38.60499999996136
 20
8.999999999991019
 30
0.0
 11
38.60499999996136
 21
0.0
 31
0.0
1001
ACAD
1000
ASC_BOUNDS
1002
{
1070
    19
1005
2035D
1002
}
  0
LINE
  5
20341
330
20316
100
AcDbEntity
  8
0
100
AcDbLine
 10
44.99999999995498
 20
8.763099999991255
 30
0.0
 11
44.99999999995498
 21
-0.2368999999997641
 31
0.0
1001
ACAD
1000
ASC_BOUNDS
1002
{
1070
    19
1005
2035D
1002
}
  0
LINE
  5
20342
330
20316
100
AcDbEntity
  8
0
100
AcDbLine
 10
38.60499999996136
 20
0.0
 30
0.0
 11
40.02599999995994
 21
0.0
 31
0.0
1001
ACAD
1000
ASC_BOUNDS
1002
{
1070
    19
1005
2035D
1002
}
  0
LINE
  5
20343
330
20316
100
AcDbEntity
  8
0
100
AcDbLine
 10
43.57899999995641
 20
3.421199999996588
 30
0.0
 11
38.60499999996136
 21
8.999899999990987
 31
0.0
1001
ACAD
1000
ASC_BOUNDS
1002
{
1070
    19
1005
2035D
1002
}
  0
LINE
  5
20344
330
20316
100
AcDbEntity
  8
0
100
AcDbLine
 10
43.57899999995641
 20
8.763099999991255
 30
0.0
 11
43.57899999995641
 21
3.421199999996588
 31
0.0
1001
ACAD
1000
ASC_BOUNDS
1002
{
1070
    19
1005
2035D
1002
}
  0
LINE
  5
20345
330
20316
100
AcDbEntity
  8
0
100
AcDbLine
 10
43.57899999995641
 20
8.763099999991255
 30
0.0
 11
44.99999999995498
 21
8.763099999991255
 31
0.0
1001
ACAD
1000
ASC_BOUNDS
1002
{
1070
    19
1005
2035D
1002
}
  0
LINE
  5
20346
330
20316
100
AcDbEntity
  8
0
100
AcDbLine
 10
37.67199999996831
 20
8.763099999991255
 30
0.0
 11
36.23199999996837
 21
8.763099999991255
 31
0.0
  0
LINE
  5
20347
330
20316
100
AcDbEntity
  8
0
100
AcDbLine
 10
31.64199999996833
 20
8.763099999991255
 30
0.0
 11
31.64199999996833
 21
2.481619422925121
 31
0.0
  0
LINE
  5
20348
330
20316
100
AcDbEntity
  8
0
100
AcDbLine
 10
37.67199999996831
 20
8.763099999991255
 30
0.0
 11
37.67199999996831
 21
2.481619422925121
 31
0.0
  0
LINE
  5
20349
330
20316
100
AcDbEntity
  8
0
100
AcDbLine
 10
36.23199999996837
 20
8.763099999991255
 30
0.0
 11
36.23199999996837
 21
2.481619422925064
 31
0.0
  0
LINE
  5
2034A
330
20316
100
AcDbEntity
  8
0
100
AcDbLine
 10
33.08199999996839
 20
8.763099999991255
 30
0.0
 11
33.08199999996839
 21
2.481619422925121
 31
0.0
  0
ARC
  5
2034B
330
20316
100
AcDbEntity
  8
0
100
AcDbCircle
 10
34.65699999996832
 20
3.183099999991214
 30
0.0
 40
3.420000000000007
100
AcDbArc
 50
240.0000000000255
 51
299.9999999999766
  0
ARC
  5
2034C
330
20316
100
AcDbEntity
  8
0
100
AcDbCircle
 10
34.65699999996832
 20
3.183099999991214
 30
0.0
 40
1.97999999999999
100
AcDbArc
 50
240.000000000026
 51
299.9999999999703
  0
LINE
  5
2034D
330
20316
100
AcDbEntity
  8
0
100
AcDbLine
 10
33.08199999996828
 20
8.763099999991255
 30
0.0
 11
31.64199999996833
 21
8.763099999991255
 31
0.0
  0
ARC
  5
2034E
330
20316
100
AcDbEntity
  8
0
100
AcDbCircle
 10
35.06199999996829
 20
2.481619422925064
 30
0.0
 40
1.17
100
AcDbArc
 50
299.9999999999699
 51
0.0
  0
ARC
  5
2034F
330
20316
100
AcDbEntity
  8
0
100
AcDbCircle
 10
34.25199999996835
 20
2.481619422925121
 30
0.0
 40
1.17
100
AcDbArc
 50
180.0
 51
240.0000000000238
  0
ARC
  5
20350
330
20316
100
AcDbEntity
  8
0
100
AcDbCircle
 10
35.06199999996841
 20
2.481619422925121
 30
0.0
 40
2.61
100
AcDbArc
 50
299.9999999999756
 51
0.0
  0
ARC
  5
20351
330
20316
100
AcDbEntity
  8
0
100
AcDbCircle
 10
34.25199999996835
 20
2.481619422925121
 30
0.0
 40
2.61
100
AcDbArc
 50
180.0
 51
240.0000000000244
  0
LINE
  5
20352
330
20316
100
AcDbEntity
  8
0
100
AcDbLine
 10
29.30199999996933
 20
8.763099999991255
 30
0.0
 11
30.74199999996927
 21
8.763099999991255
 31
0.0
1001
ACAD
1000
ASC_BOUNDS
1002
{
1070
    19
1005
2035B
1002
}
  0
LINE
  5
20353
330
20316
100
AcDbEntity
  8
0
100
AcDbLine
 10
30.74199999996927
 20
8.763099999991255
 30
0.0
 11
30.74199999996927
 21
2.373099999991211
 31
0.0
1001
ACAD
1000
ASC_BOUNDS
1002
{
1070
    19
1005
2035B
1002
}
  0
LINE
  5
20354
330
20316
100
AcDbEntity
  8
0
100
AcDbLine
 10
26.02015566812236
 20
0.0330999999912365
 30
0.0
 11
28.40199999996923
 21
0.0330999999912365
 31
0.0
1001
ACAD
1000
ASC_BOUNDS
1002
{
1070
    19
1005
2035B
1002
}
  0
LINE
  5
20355
330
20316
100
AcDbEntity
  8
0
100
AcDbLine
 10
29.30199999996933
 20
8.763099999991255
 30
0.0
 11
29.30199999996933
 21
2.283099999991236
 31
0.0
1001
ACAD
1000
ASC_BOUNDS
1002
{
1070
    19
1005
2035B
1002
}
  0
LINE
  5
20356
330
20316
100
AcDbEntity
  8
0
100
AcDbLine
 10
26.97358892824991
 20
1.383099999991202
 30
0.0
 11
28.40199999996923
 21
1.383099999991202
 31
0.0
1001
ACAD
1000
ASC_BOUNDS
1002
{
1070
    19
1005
2035B
1002
}
  0
ARC
  5
20357
330
20316
100
AcDbEntity
  8
0
100
AcDbCircle
 10
28.40199999996923
 20
2.283099999991236
 30
0.0
 40
0.9
100
AcDbArc
 50
270.0
 51
0.0
1001
ACAD
1000
ASC_BOUNDS
1002
{
1070
    19
1005
2035B
1002
}
  0
ARC
  5
20358
330
20316
100
AcDbEntity
  8
0
100
AcDbCircle
 10
28.40199999996923
 20
2.373099999991211
 30
0.0
 40
2.34
100
AcDbArc
 50
270.0
 51
0.0
1001
ACAD
1000
ASC_BOUNDS
1002
{
1070
    19
1005
2035B
1002
}
  0
INSERT
  5
20359
330
20316
100
AcDbEntity
  8
0
100
AcDbBlockReference
  2
*X29
 10
0.0
 20
0.0
 30
0.0
1001
ACAD
1000
HATCH
1002
{
1070
    19
1000
ANSI37
1040
0.15
1040
0.0
1000
ASC_BOUNDS
1070
     2
1070
     2
1070
    12
1005
20318
1005
20319
1005
20320
1005
2032F
1005
20332
1005
20330
1005
20321
1005
20326
1005
20324
1005
20328
1005
20327
1005
20329
1070
     2
1070
     3
1005
20334
1005
20336
1005
20335
1000
ASC_SEEDPOINT
1011
3.614004224891801
1021
2.996669441146025
1031
0.0
1000
R14_HATCH_DATA
1000
20359
1011
1.0
1021
0.0
1031
0.0
1011
0.0
1021
1.0
1031
0.0
1011
0.0
1021
0.0
1031
1.0
1040
0.0
1010
0.0
1020
0.0
1030
1.0
1000
ANSI37
1070
     0
1070
     1
1071
        2
1071
        7
1070
     0
1070
     1
1071
       17
1040
13.26299999998673
1040
-0.0001000000000317
1040
9.236999999990758
1040
8.999899999990987
1040
9.236999999990758
1040
8.999999999991019
1040
5.657999999994331
1040
0.9999999999989768
1040
3.181999999996833
1040
4.668599999995308
1040
6.432999999993513
1040
8.763099999991255
1040
4.617999999995391
1040
8.763099999991255
1040
1.420999999998571
1040
4.736799999995242
1040
4.617999999995391
1040
-0.0001000000000317
1040
4.617999999995391
1040
0.0
1040
6.766999999993232
1040
0.0
1040
6.766999999993232
1040
-0.0001000000000317
1040
7.826999999992154
1040
2.368399999997621
1040
10.64699999998936
1040
2.368399999997621
1040
11.70599999998831
1040
-0.0001000000000317
1040
11.70599999998831
1040
0.0
1040
13.26299999998673
1040
0.0
1071
       12
1005
20318
1005
20319
1005
20320
1005
2032F
1005
20332
1005
20330
1005
20321
1005
20326
1005
20324
1005
20328
1005
20327
1005
20329
1071
       22
1070
     0
1070
     1
1071
        3
1040
9.236999999990758
1040
5.5200999999945
1040
10.06399999998996
1040
3.670999999996297
1040
8.409999999991555
1040
3.670999999996297
1071
        3
1005
20334
1005
20336
1005
20335
1070
     0
1070
     1
1040
0.0
1040
0.15
1070
     0
1070
     2
1040
0.7853981633974483
1040
49.29960901727088
1040
-10.17736998311392
1040
-0.3367596045400932
1040
0.3367596045400932
1070
     0
1040
2.356194490192345
1040
49.29960901727088
1040
-10.17736998311392
1040
-0.3367596045400932
1040
-0.3367596045400932
1070
     0
1040
0.0110235143455945
1071
        2
1040
3.614004224891801
1040
2.996669441146025
1040
0.0
1040
3.614004224891801
1040
2.996669441146025
1040
0.0
1002
}
  0
INSERT
  5
2035A
330
20316
100
AcDbEntity
  8
0
100
AcDbBlockReference
  2
*X30
 10
0.0
 20
0.0
 30
0.0
1001
ACAD
1000
HATCH
1002
{
1070
    19
1000
ANSI37
1040
0.15
1040
0.0
1000
ASC_BOUNDS
1070
     1
1070
     2
1070
    10
1005
2031A
1005
2031B
1005
2033C
1005
2033A
1005
2033B
1005
2032E
1005
20333
1005
20337
1005
2031D
1005
2031C
1000
ASC_SEEDPOINT
1011
14.73245321214324
1021
2.798246178283421
1031
0.0
1000
R14_HATCH_DATA
1000
2035A
1011
1.0
1021
0.0
1031
0.0
1011
0.0
1021
1.0
1031
0.0
1011
0.0
1021
0.0
1031
1.0
1040
0.0
1010
0.0
1020
0.0
1030
1.0
1000
ANSI37
1070
     0
1070
     1
1071
        1
1071
        7
1070
     0
1070
     1
1071
       10
1040
16.46099999998353
1040
5.432899999994561
1040
18.59199999998134
1040
-0.2368999999997641
1040
22.38199999997767
1040
8.763099999991255
1040
20.89099999997916
1040
8.763099999991255
1040
18.59799999998143
1040
3.315799999996671
1040
16.46099999998353
1040
8.999899999990987
1040
14.32399999998563
1040
3.315799999996671
1040
12.02999999998792
1040
8.763099999991255
1040
10.53899999998941
1040
8.763099999991255
1040
14.32899999998563
1040
-0.2368999999997641
1071
       10
1005
2031A
1005
2031B
1005
2033C
1005
2033A
1005
2033B
1005
2032E
1005
20333
1005
20337
1005
2031D
1005
2031C
1070
     0
1070
     1
1040
0.0
1040
0.15
1070
     0
1070
     2
1040
0.7853981633974483
1040
49.29960901727088
1040
-10.17736998311392
1040
-0.3367596045400932
1040
0.3367596045400932
1070
     0
1040
2.356194490192345
1040
49.29960901727088
1040
-10.17736998311392
1040
-0.3367596045400932
1040
-0.3367596045400932
1070
     0
1040
0.0110235143455945
1071
        1
1040
14.73245321214324
1040
2.798246178283421
1040
0.0
1002
}
  0
INSERT
  5
2035B
330
20316
100
AcDbEntity
  8
0
100
AcDbBlockReference
  2
*X31
 10
0.0
 20
0.0
 30
0.0
1001
ACAD
1000
HATCH
1002
{
1070
    19
1000
ANSI37
1040
0.15
1040
0.0
1000
ASC_BOUNDS
1070
     2
1070
     2
1070
    13
1005
2031E
1005
2032B
1005
2032C
1005
2032A
1005
2032D
1005
20354
1005
20358
1005
20353
1005
20352
1005
20355
1005
20357
1005
20356
1005
2031F
1070
     2
1070
     3
1005
20338
1005
2033D
1005
20339
1000
ASC_SEEDPOINT
1011
21.97929957367762
1021
3.294304244259308
1031
0.0
1000
R14_HATCH_DATA
1000
2035B
1011
1.0
1021
0.0
1031
0.0
1011
0.0
1021
1.0
1031
0.0
1011
0.0
1021
0.0
1031
1.0
1040
0.0
1010
0.0
1020
0.0
1030
1.0
1000
ANSI37
1070
     0
1070
     1
1071
        2
1071
        7
1070
     1
1070
     1
1071
       15
1040
23.56599999997638
1040
8.999899999990987
1040
0.0
1040
19.53899999998043
1040
-0.0001000000000317
1040
0.0
1040
19.53899999998043
1040
0.0
1040
0.0
1040
21.09599999997886
1040
0.0
1040
0.0
1040
21.09599999997886
1040
-0.0001000000000317
1040
0.0
1040
22.15599999997789
1040
2.368399999997621
1040
0.0
1040
24.97599999997499
1040
2.368399999997621
1040
0.0
1040
26.02015566812236
1040
0.0330999999912365
1040
0.0
1040
28.40199999996923
1040
0.0330999999912365
1040
0.414213562373095
1040
30.74199999996923
1040
2.373099999991211
1040
0.0
1040
30.74199999996927
1040
8.763099999991255
1040
0.0
1040
29.30199999996933
1040
8.763099999991255
1040
0.0
1040
29.30199999996933
1040
2.283099999991236
1040
-0.414213562373095
1040
28.40199999996923
1040
1.383099999991237
1040
0.0
1040
26.97358892824991
1040
1.383099999991202
1040
0.0
1071
       13
1005
2031E
1005
2032B
1005
2032C
1005
2032A
1005
2032D
1005
20354
1005
20358
1005
20353
1005
20352
1005
20355
1005
20357
1005
20356
1005
2031F
1071
       22
1070
     0
1070
     1
1071
        3
1040
22.7389999999773
1040
3.670999999996297
1040
23.56599999997638
1040
5.5200999999945
1040
24.39299999997559
1040
3.670999999996297
1071
        3
1005
20338
1005
2033D
1005
20339
1070
     0
1070
     1
1040
0.0
1040
0.15
1070
     0
1070
     2
1040
0.7853981633974483
1040
49.29960901727088
1040
-10.17736998311392
1040
-0.3367596045400932
1040
0.3367596045400932
1070
     0
1040
2.356194490192345
1040
49.29960901727088
1040
-10.17736998311392
1040
-0.3367596045400932
1040
-0.3367596045400932
1070
     0
1040
0.0110235143455945
1071
        2
1040
21.97929957367762
1040
3.294304244259308
1040
0.0
1040
21.97929957367762
1040
3.294304244259308
1040
0.0
1002
}
  0
INSERT
  5
2035C
330
20316
100
AcDbEntity
  8
0
100
AcDbBlockReference
  2
*X32
 10
0.0
 20
0.0
 30
0.0
1001
ACAD
1000
HATCH
1002
{
1070
    19
1000
ANSI37
1040
0.15
1040
0.0
1000
R14_HATCH_DATA
1000
2035C
1011
1.0
1021
0.0
1031
0.0
1011
0.0
1021
1.0
1031
0.0
1011
0.0
1021
0.0
1031
1.0
1040
0.0
1010
0.0
1020
0.0
1030
1.0
1000
ANSI37
1070
     0
1070
     1
1071
        1
1071
        7
1070
     1
1070
     1
1071
       12
1040
31.64199999996833
1040
2.481619422925121
1040
0.2679491924310942
1040
32.94699999997067
1040
0.2212931190493919
1040
0.2679491924301353
1040
36.36699999995983
1040
0.2212931190459813
1040
0.2679491924321411
1040
37.67199999996831
1040
2.481619422928361
1040
0.0
1040
37.67199999996831
1040
8.763099999991255
1040
0.0
1040
36.23199999996837
1040
8.763099999991255
1040
0.0
1040
36.23199999996837
1040
2.481619422925064
1040
-0.2679491924310291
1040
35.64699999996708
1040
1.468369700498386
1040
-0.267949192430519
1040
33.66699999997093
1040
1.468369700497703
1040
-0.267949192431809
1040
33.08199999996839
1040
2.481619422926997
1040
0.0
1040
33.08199999996839
1040
8.763099999991255
1040
0.0
1040
31.64199999996833
1040
8.763099999991255
1040
0.0
1071
        0
1070
     0
1070
     1
1040
0.0
1040
0.15
1070
     0
1070
     2
1040
0.7853981633974483
1040
49.29960901727088
1040
-10.17736998311392
1040
-0.3367596045400932
1040
0.3367596045400932
1070
     0
1040
2.356194490192345
1040
49.29960901727088
1040
-10.17736998311392
1040
-0.3367596045400932
1040
-0.3367596045400932
1070
     0
1040
0.0110235143455945
1071
        1
1040
32.30357378967278
1040
3.988785755459219
1040
0.0
1002
}
  0
INSERT
  5
2035D
330
20316
100
AcDbEntity
  8
0
100
AcDbBlockReference
  2
*X33
 10
0.0
 20
0.0
 30
0.0
1001
ACAD
1000
HATCH
1002
{
1070
    19
1000
ANSI37
1040
0.15
1040
0.0
1000
ASC_BOUNDS
1070
     1
1070
     2
1070
     8
1005
2033E
1005
20341
1005
20345
1005
20344
1005
20343
1005
20340
1005
20342
1005
2033F
1000
ASC_SEEDPOINT
1011
39.74896370716704
1021
4.484843821435049
1031
0.0
1000
R14_HATCH_DATA
1000
2035D
1011
1.0
1021
0.0
1031
0.0
1011
0.0
1021
1.0
1031
0.0
1011
0.0
1021
0.0
1031
1.0
1040
0.0
1010
0.0
1020
0.0
1030
1.0
1000
ANSI37
1070
     0
1070
     1
1071
        1
1071
        7
1070
     0
1070
     1
1071
        9
1040
40.02599999995994
1040
5.341799999994635
1040
44.99999999995498
1040
-0.2368999999997641
1040
44.99999999995498
1040
8.763099999991255
1040
43.57899999995641
1040
8.763099999991255
1040
43.57899999995641
1040
3.421199999996588
1040
38.60499999996136
1040
8.999899999990987
1040
38.60499999996136
1040
8.999999999991019
1040
38.60499999996136
1040
0.0
1040
40.02599999995994
1040
0.0
1071
        8
1005
2033E
1005
20341
1005
20345
1005
20344
1005
20343
1005
20340
1005
20342
1005
2033F
1070
     0
1070
     1
1040
0.0
1040
0.15
1070
     0
1070
     2
1040
0.7853981633974483
1040
49.29960901727088
1040
-10.17736998311392
1040
-0.3367596045400932
1040
0.3367596045400932
1070
     0
1040
2.356194490192345
1040
49.29960901727088
1040
-10.17736998311392
1040
-0.3367596045400932
1040
-0.3367596045400932
1070
     0
1040
0.0110235143455945
1071
        1
1040
39.74896370716704
1040
4.484843821435049
1040
0.0
1002
}
  0
INSERT
  5
2035E
330
20316
100
AcDbEntity
  8
0
100
AcDbBlockReference
  2
*X34
 10
0.0
 20
0.0
 30
0.0
1001
ACAD
1000
HATCH
1002
{
1070
    19
1000
ANSI37
1040
0.15
1040
0.0
1000
ASC_BOUNDS
1070
     1
1070
     2
1070
     4
1005
20322
1005
20331
1005
20323
1005
20325
1000
ASC_SEEDPOINT
1011
1.079051535452663
1021
4.148538732891836
1031
0.0
1000
R14_HATCH_DATA
1000
2035E
1011
1.0
1021
0.0
1031
0.0
1011
0.0
1021
1.0
1031
0.0
1011
0.0
1021
0.0
1031
1.0
1040
0.0
1010
0.0
1020
0.0
1030
1.0
1000
ANSI37
1070
     0
1070
     1
1071
        1
1071
        7
1070
     0
1070
     1
1071
        4
1040
1.420999999998571
1040
0.0
1040
1.420999999998571
1040
8.763099999991255
1040
0.0
1040
8.763099999991255
1040
0.0
1040
0.0
1071
        4
1005
20322
1005
20331
1005
20323
1005
20325
1070
     0
1070
     1
1040
0.0
1040
0.15
1070
     0
1070
     2
1040
0.7853981633974483
1040
49.29960901727088
1040
-10.17736998311392
1040
-0.3367596045400932
1040
0.3367596045400932
1070
     0
1040
2.356194490192345
1040
49.29960901727088
1040
-10.17736998311392
1040
-0.3367596045400932
1040
-0.3367596045400932
1070
     0
1040
0.0053004257112761
1071
        1
1040
1.079051535452663
1040
4.148538732891836
1040
0.0
1002
}
  0
ENDBLK
  5
20A16
330
20316
100
AcDbEntity
  8
0
100
AcDbBlockEnd
  0
BLOCK
  5
218F9
330
2176B
100
AcDbEntity
  8
0
100
AcDbBlockBegin
  2
*X29
 70
     1
 10
0.0
 20
0.0
 30
0.0
  3
*X29
  1

  0
LINE
  5
2176C
330
2176B
100
AcDbEntity
  8
0
  6
CONTINUOUS
100
AcDbLine
 10
3.418023043697893
 20
7.251849696850613
 30
0.0
 11
4.929273346838536
 21
8.763099999991255
 31
0.0
  0
LINE
  5
2176D
330
2176B
100
AcDbEntity
  8
0
  6
CONTINUOUS
100
AcDbLine
 10
1.483656411257782
 20
4.643963855330318
 30
0.0
 11
5.60279255591872
 21
8.763099999991255
 31
0.0
  0
LINE
  5
2176E
330
2176B
100
AcDbEntity
  8
0
  6
CONTINUOUS
100
AcDbLine
 10
1.755053947328235
 20
4.241842182320584
 30
0.0
 11
6.276311764998907
 21
8.763099999991255
 31
0.0
  0
LINE
  5
2176F
330
2176B
100
AcDbEntity
  8
0
  6
CONTINUOUS
100
AcDbLine
 10
2.026451483398688
 20
3.839720509310849
 30
0.0
 11
4.441040904851878
 21
6.254309930764039
 31
0.0
  0
LINE
  5
21770
330
2176B
100
AcDbEntity
  8
0
  6
CONTINUOUS
100
AcDbLine
 10
2.297849019469139
 20
3.437598836301114
 30
0.0
 11
3.321765168359338
 21
4.461514985191313
 31
0.0
  0
LINE
  5
21771
330
2176B
100
AcDbEntity
  8
0
  6
CONTINUOUS
100
AcDbLine
 10
2.569246555539591
 20
3.03547716329138
 30
0.0
 11
3.593163397972743
 21
4.059394005724531
 31
0.0
  0
LINE
  5
21772
330
2176B
100
AcDbEntity
  8
0
  6
CONTINUOUS
100
AcDbLine
 10
2.840644091610043
 20
2.633355490281646
 30
0.0
 11
3.864561627586149
 21
3.657273026257751
 31
0.0
  0
LINE
  5
21773
330
2176B
100
AcDbEntity
  8
0
  6
CONTINUOUS
100
AcDbLine
 10
3.112041627680496
 20
2.231233817271911
 30
0.0
 11
4.135959857199554
 21
3.25515204679097
 31
0.0
  0
LINE
  5
21774
330
2176B
100
AcDbEntity
  8
0
  6
CONTINUOUS
100
AcDbLine
 10
3.383439163750948
 20
1.829112144262177
 30
0.0
 11
4.40735808681296
 21
2.853031067324189
 31
0.0
  0
LINE
  5
21775
330
2176B
100
AcDbEntity
  8
0
  6
CONTINUOUS
100
AcDbLine
 10
3.654836699821399
 20
1.426990471252442
 30
0.0
 11
4.678756316426365
 21
2.450910087857407
 31
0.0
  0
LINE
  5
21776
330
2176B
100
AcDbEntity
  8
0
  6
CONTINUOUS
100
AcDbLine
 10
3.926234235891853
 20
1.024868798242709
 30
0.0
 11
4.95015454603977
 21
2.048789108390626
 31
0.0
  0
LINE
  5
21777
330
2176B
100
AcDbEntity
  8
0
  6
CONTINUOUS
100
AcDbLine
 10
4.197631771962304
 20
0.6227471252329737
 30
0.0
 11
5.221552775653176
 21
1.646668128923846
 31
0.0
  0
LINE
  5
21778
330
2176B
100
AcDbEntity
  8
0
  6
CONTINUOUS
100
AcDbLine
 10
8.715877546767851
 20
7.835069736359266
 30
0.0
 11
9.435953450375058
 21
8.555145639966472
 31
0.0
  0
LINE
  5
21779
330
2176B
100
AcDbEntity
  8
0
  6
CONTINUOUS
100
AcDbLine
 10
8.170620868422267
 20
6.616293848933497
 30
0.0
 11
9.644120833743461
 21
8.08979381425469
 31
0.0
  0
LINE
  5
2177A
330
2176B
100
AcDbEntity
  8
0
  6
CONTINUOUS
100
AcDbLine
 10
7.625364190076684
 20
5.397517961507727
 30
0.0
 11
9.852288217111864
 21
7.624441988542907
 31
0.0
  0
LINE
  5
2177B
330
2176B
100
AcDbEntity
  8
0
  6
CONTINUOUS
100
AcDbLine
 10
7.080107511731101
 20
4.178742074081957
 30
0.0
 11
10.06045560048027
 21
7.159090162831124
 31
0.0
  0
LINE
  5
2177C
330
2176B
100
AcDbEntity
  8
0
  6
CONTINUOUS
100
AcDbLine
 10
6.534850833385518
 20
2.959966186656187
 30
0.0
 11
10.26862298384867
 21
6.693738337119342
 31
0.0
  0
LINE
  5
2177D
330
2176B
100
AcDbEntity
  8
0
  6
CONTINUOUS
100
AcDbLine
 10
4.469029308032756
 20
0.2206254522232385
 30
0.0
 11
5.492951005266582
 21
1.244547149457064
 31
0.0
  0
LINE
  5
2177E
330
2176B
100
AcDbEntity
  8
0
  6
CONTINUOUS
100
AcDbLine
 10
5.989594155039935
 20
1.741190299230417
 30
0.0
 11
8.806950407233131
 21
4.558546551423613
 31
0.0
  0
LINE
  5
2177F
330
2176B
100
AcDbEntity
  8
0
  6
CONTINUOUS
100
AcDbLine
 10
9.401251593263643
 20
5.152847737454126
 30
0.0
 11
10.47679036721708
 21
6.228386511407559
 31
0.0
  0
LINE
  5
21780
330
2176B
100
AcDbEntity
  8
0
  6
CONTINUOUS
100
AcDbLine
 10
4.921837203428691
 20
-0.0000858614610131
 30
0.0
 11
8.592923064886001
 21
3.670999999996297
 31
0.0
  0
LINE
  5
21781
330
2176B
100
AcDbEntity
  8
0
  6
CONTINUOUS
100
AcDbLine
 10
9.609390446785305
 20
4.6874673818956
 30
0.0
 11
10.68495775058548
 21
5.763034685695775
 31
0.0
  0
LINE
  5
21782
330
2176B
100
AcDbEntity
  8
0
  6
CONTINUOUS
100
AcDbLine
 10
5.595387755019432
 20
-0.0000545189504582
 30
0.0
 11
7.716137258923768
 21
2.120694984953879
 31
0.0
  0
LINE
  5
21783
330
2176B
100
AcDbEntity
  8
0
  6
CONTINUOUS
100
AcDbLine
 10
6.268938306610172
 20
-0.000023176439905
 30
0.0
 11
7.170485805526503
 21
0.9015243224764267
 31
0.0
  0
LINE
  5
21784
330
2176B
100
AcDbEntity
  8
0
  6
CONTINUOUS
100
AcDbLine
 10
7.963842273967511
 20
2.368399999997621
 30
0.0
 11
9.266442273966188
 21
3.670999999996297
 31
0.0
  0
LINE
  5
21785
330
2176B
100
AcDbEntity
  8
0
  6
CONTINUOUS
100
AcDbLine
 10
8.637361483047696
 20
2.368399999997621
 30
0.0
 11
9.939961483046375
 21
3.670999999996297
 31
0.0
  0
LINE
  5
21786
330
2176B
100
AcDbEntity
  8
0
  6
CONTINUOUS
100
AcDbLine
 10
9.817529300306965
 20
4.222087026337075
 30
0.0
 11
10.89312513395388
 21
5.297682859983993
 31
0.0
  0
LINE
  5
21787
330
2176B
100
AcDbEntity
  8
0
  6
CONTINUOUS
100
AcDbLine
 10
10.02566815382863
 20
3.756706670778549
 30
0.0
 11
11.10129251732229
 21
4.832331034272211
 31
0.0
  0
LINE
  5
21788
330
2176B
100
AcDbEntity
  8
0
  6
CONTINUOUS
100
AcDbLine
 10
9.310880692127883
 20
2.368399999997621
 30
0.0
 11
11.30945990069069
 21
4.366979208560428
 31
0.0
  0
LINE
  5
21789
330
2176B
100
AcDbEntity
  8
0
  6
CONTINUOUS
100
AcDbLine
 10
9.98439990120807
 20
2.36839999999762
 30
0.0
 11
11.5176272840591
 21
3.901627382848645
 31
0.0
  0
LINE
  5
2178A
330
2176B
100
AcDbEntity
  8
0
  6
CONTINUOUS
100
AcDbLine
 10
10.65037369446246
 20
2.36085458417182
 30
0.0
 11
11.7257946674275
 21
3.436275557136862
 31
0.0
  0
LINE
  5
2178B
330
2176B
100
AcDbEntity
  8
0
  6
CONTINUOUS
100
AcDbLine
 10
10.85847197087848
 20
1.895433651507656
 30
0.0
 11
11.9339620507959
 21
2.97092373142508
 31
0.0
  0
LINE
  5
2178C
330
2176B
100
AcDbEntity
  8
0
  6
CONTINUOUS
100
AcDbLine
 10
11.0665702472945
 20
1.430012718843491
 30
0.0
 11
12.14212943416431
 21
2.505571905713296
 31
0.0
  0
LINE
  5
2178D
330
2176B
100
AcDbEntity
  8
0
  6
CONTINUOUS
100
AcDbLine
 10
11.27466852371052
 20
0.9645917861793256
 30
0.0
 11
12.35029681753271
 21
2.040220080001513
 31
0.0
  0
LINE
  5
2178E
330
2176B
100
AcDbEntity
  8
0
  6
CONTINUOUS
100
AcDbLine
 10
11.48276680012654
 20
0.4991708535151611
 30
0.0
 11
12.55846420090111
 21
1.57486825428973
 31
0.0
  0
LINE
  5
2178F
330
2176B
100
AcDbEntity
  8
0
  6
CONTINUOUS
100
AcDbLine
 10
11.69086507654257
 20
0.0337499208509957
 30
0.0
 11
12.76663158426952
 21
1.109516428577947
 31
0.0
  0
LINE
  5
21790
330
2176B
100
AcDbEntity
  8
0
  6
CONTINUOUS
100
AcDbLine
 10
12.33057447873954
 20
-0.0000598860322123
 30
0.0
 11
12.97479896763792
 21
0.6441646028661663
 31
0.0
  0
LINE
  5
21791
330
2176B
100
AcDbEntity
  8
0
  6
CONTINUOUS
100
AcDbLine
 10
13.00413694809395
 20
-0.0000166257579952
 30
0.0
 11
13.18296635100632
 21
0.1788127771543824
 31
0.0
  0
LINE
  5
21792
330
2176B
100
AcDbEntity
  8
0
  6
CONTINUOUS
100
AcDbLine
 10
4.772852165289667
 20
-0.000092794222212
 30
0.0
 11
4.296495091028902
 21
0.4762642800385528
 31
0.0
  0
LINE
  5
21793
330
2176B
100
AcDbEntity
  8
0
  6
CONTINUOUS
100
AcDbLine
 10
5.446340034776103
 20
-0.0000614546284616
 30
0.0
 11
2.898195908335625
 21
2.548082671812017
 31
0.0
  0
LINE
  5
21794
330
2176B
100
AcDbEntity
  8
0
  6
CONTINUOUS
100
AcDbLine
 10
6.119827904262539
 20
-0.0000301150347113
 30
0.0
 11
1.499896725642348
 21
4.61990106358548
 31
0.0
  0
LINE
  5
21795
330
2176B
100
AcDbEntity
  8
0
  6
CONTINUOUS
100
AcDbLine
 10
6.775136745476159
 20
0.0181802528318542
 30
0.0
 11
5.699826040202669
 21
1.093490958105344
 31
0.0
  0
LINE
  5
21796
330
2176B
100
AcDbEntity
  8
0
  6
CONTINUOUS
100
AcDbLine
 10
6.983376846288489
 20
0.4834593610997118
 30
0.0
 11
5.908008617934405
 21
1.558827589453796
 31
0.0
  0
LINE
  5
21797
330
2176B
100
AcDbEntity
  8
0
  6
CONTINUOUS
100
AcDbLine
 10
5.377063484962296
 20
1.416253513345719
 30
0.0
 11
1.702276957014131
 21
5.091040041293883
 31
0.0
  0
LINE
  5
21798
330
2176B
100
AcDbEntity
  8
0
  6
CONTINUOUS
100
AcDbLine
 10
3.978745891735324
 20
3.488090315652877
 30
0.0
 11
2.000373521109399
 21
5.466462686278803
 31
0.0
  0
LINE
  5
21799
330
2176B
100
AcDbEntity
  8
0
  6
CONTINUOUS
100
AcDbLine
 10
7.191616947100819
 20
0.948738469367568
 30
0.0
 11
6.11619119566614
 21
2.024164220802247
 31
0.0
  0
LINE
  5
2179A
330
2176B
100
AcDbEntity
  8
0
  6
CONTINUOUS
100
AcDbLine
 10
7.399857047913149
 20
1.414017577635424
 30
0.0
 11
6.324373773397875
 21
2.489500852150698
 31
0.0
  0
LINE
  5
2179B
330
2176B
100
AcDbEntity
  8
0
  6
CONTINUOUS
100
AcDbLine
 10
7.608097148725479
 20
1.879296685903281
 30
0.0
 11
6.53255635112961
 21
2.95483748349915
 31
0.0
  0
LINE
  5
2179C
330
2176B
100
AcDbEntity
  8
0
  6
CONTINUOUS
100
AcDbLine
 10
7.816337249537808
 20
2.344575794171138
 30
0.0
 11
6.740738928861345
 21
3.420174114847601
 31
0.0
  0
LINE
  5
2179D
330
2176B
100
AcDbEntity
  8
0
  6
CONTINUOUS
100
AcDbLine
 10
3.310241080789734
 20
4.830114335678653
 30
0.0
 11
2.298470085204666
 21
5.84188533126372
 31
0.0
  0
LINE
  5
2179E
330
2176B
100
AcDbEntity
  8
0
  6
CONTINUOUS
100
AcDbLine
 10
3.60832983563551
 20
5.205544789913063
 30
0.0
 11
2.596566649299935
 21
6.217307976248638
 31
0.0
  0
LINE
  5
2179F
330
2176B
100
AcDbEntity
  8
0
  6
CONTINUOUS
100
AcDbLine
 10
3.906418590481286
 20
5.580975244147473
 30
0.0
 11
2.894663213395203
 21
6.592730621233557
 31
0.0
  0
LINE
  5
217A0
330
2176B
100
AcDbEntity
  8
0
  6
CONTINUOUS
100
AcDbLine
 10
4.204507345327062
 20
5.956405698381884
 30
0.0
 11
3.192759777490472
 21
6.968153266218474
 31
0.0
  0
LINE
  5
217A1
330
2176B
100
AcDbEntity
  8
0
  6
CONTINUOUS
100
AcDbLine
 10
8.466032252791512
 20
2.368399999997621
 30
0.0
 11
6.948921506593081
 21
3.885510746196053
 31
0.0
  0
LINE
  5
217A2
330
2176B
100
AcDbEntity
  8
0
  6
CONTINUOUS
100
AcDbLine
 10
9.139551461871699
 20
2.36839999999762
 30
0.0
 11
7.157104084324816
 21
4.350847377544504
 31
0.0
  0
LINE
  5
217A3
330
2176B
100
AcDbEntity
  8
0
  6
CONTINUOUS
100
AcDbLine
 10
4.502596100172839
 20
6.331836152616295
 30
0.0
 11
3.49085634158574
 21
7.343575911203393
 31
0.0
  0
LINE
  5
217A4
330
2176B
100
AcDbEntity
  8
0
  6
CONTINUOUS
100
AcDbLine
 10
4.800684855018615
 20
6.707266606850705
 30
0.0
 11
3.788952905681008
 21
7.718998556188312
 31
0.0
  0
LINE
  5
217A5
330
2176B
100
AcDbEntity
  8
0
  6
CONTINUOUS
100
AcDbLine
 10
12.18154012887317
 20
-0.0000694579236642
 30
0.0
 11
11.32140332908496
 21
0.8600673418645499
 31
0.0
  0
LINE
  5
217A6
330
2176B
100
AcDbEntity
  8
0
  6
CONTINUOUS
100
AcDbLine
 10
12.85501608323566
 20
-0.0000262032059659
 30
0.0
 11
10.77672456435345
 21
2.078265315676246
 31
0.0
  0
LINE
  5
217A7
330
2176B
100
AcDbEntity
  8
0
  6
CONTINUOUS
100
AcDbLine
 10
9.813070670951886
 20
2.36839999999762
 30
0.0
 11
8.51047067095321
 21
3.670999999996297
 31
0.0
  0
LINE
  5
217A8
330
2176B
100
AcDbEntity
  8
0
  6
CONTINUOUS
100
AcDbLine
 10
10.48658988003207
 20
2.36839999999762
 30
0.0
 11
9.183989880033396
 21
3.670999999996297
 31
0.0
  0
LINE
  5
217A9
330
2176B
100
AcDbEntity
  8
0
  6
CONTINUOUS
100
AcDbLine
 10
8.441048632286794
 20
3.740422038662712
 30
0.0
 11
7.365286662056551
 21
4.816184008892956
 31
0.0
  0
LINE
  5
217AA
330
2176B
100
AcDbEntity
  8
0
  6
CONTINUOUS
100
AcDbLine
 10
8.649187485808454
 20
4.205802394221237
 30
0.0
 11
7.573469239788285
 21
5.281520640241407
 31
0.0
  0
LINE
  5
217AB
330
2176B
100
AcDbEntity
  8
0
  6
CONTINUOUS
100
AcDbLine
 10
5.098773609864391
 20
7.082697061085115
 30
0.0
 11
4.087049469776277
 21
8.09442120117323
 31
0.0
  0
LINE
  5
217AC
330
2176B
100
AcDbEntity
  8
0
  6
CONTINUOUS
100
AcDbLine
 10
5.396862364710167
 20
7.458127515319526
 30
0.0
 11
4.385146033871544
 21
8.469843846158149
 31
0.0
  0
LINE
  5
217AD
330
2176B
100
AcDbEntity
  8
0
  6
CONTINUOUS
100
AcDbLine
 10
13.04801363231285
 20
0.4804954567970334
 30
0.0
 11
9.85750908911358
 21
3.670999999996297
 31
0.0
  0
LINE
  5
217AE
330
2176B
100
AcDbEntity
  8
0
  6
CONTINUOUS
100
AcDbLine
 10
8.857326339330116
 20
4.671182749779763
 30
0.0
 11
7.781651817520021
 21
5.746857271589858
 31
0.0
  0
LINE
  5
217AF
330
2176B
100
AcDbEntity
  8
0
  6
CONTINUOUS
100
AcDbLine
 10
5.694951119555943
 20
7.833557969553937
 30
0.0
 11
4.765409089118624
 21
8.763099999991255
 31
0.0
  0
LINE
  5
217B0
330
2176B
100
AcDbEntity
  8
0
  6
CONTINUOUS
100
AcDbLine
 10
12.50286117236978
 20
1.699167125820288
 30
0.0
 11
9.68611877250287
 21
4.515909525687196
 31
0.0
  0
LINE
  5
217B1
330
2176B
100
AcDbEntity
  8
0
  6
CONTINUOUS
100
AcDbLine
 10
9.065465192851777
 20
5.136563105338288
 30
0.0
 11
7.989834395251757
 21
6.21219390293831
 31
0.0
  0
LINE
  5
217B2
330
2176B
100
AcDbEntity
  8
0
  6
CONTINUOUS
100
AcDbLine
 10
5.993039874401719
 20
8.208988423788346
 30
0.0
 11
5.43892829819881
 21
8.763099999991255
 31
0.0
  0
LINE
  5
217B3
330
2176B
100
AcDbEntity
  8
0
  6
CONTINUOUS
100
AcDbLine
 10
11.95770871242671
 20
2.917838794843543
 30
0.0
 11
8.19801697298349
 21
6.677530534286761
 31
0.0
  0
LINE
  5
217B4
330
2176B
100
AcDbEntity
  8
0
  6
CONTINUOUS
100
AcDbLine
 10
6.291128629247495
 20
8.584418878022756
 30
0.0
 11
6.112447507278997
 21
8.763099999991255
 31
0.0
  0
LINE
  5
217B5
330
2176B
100
AcDbEntity
  8
0
  6
CONTINUOUS
100
AcDbLine
 10
11.41255625248364
 20
4.136510463866797
 30
0.0
 11
8.406199550715227
 21
7.142867165635211
 31
0.0
  0
LINE
  5
217B6
330
2176B
100
AcDbEntity
  8
0
  6
CONTINUOUS
100
AcDbLine
 10
10.86740379254057
 20
5.355182132890051
 30
0.0
 11
8.614382128446962
 21
7.608203796983664
 31
0.0
  0
LINE
  5
217B7
330
2176B
100
AcDbEntity
  8
0
  6
CONTINUOUS
100
AcDbLine
 10
10.3222513325975
 20
6.573853801913305
 30
0.0
 11
8.822564706178696
 21
8.073540428332114
 31
0.0
  0
LINE
  5
217B8
330
2176B
100
AcDbEntity
  8
0
  6
CONTINUOUS
100
AcDbLine
 10
9.777098872654436
 20
7.792525470936562
 30
0.0
 11
9.030747283910433
 21
8.538877059680566
 31
0.0
  0
ENDBLK
  5
218FA
330
2176B
100
AcDbEntity
  8
0
100
AcDbBlockEnd
  0
BLOCK
  5
218FB
330
217B9
100
AcDbEntity
  8
0
100
AcDbBlockBegin
  2
*X30
 70
     1
 10
0.0
 20
0.0
 30
0.0
  3
*X30
  1

  0
LINE
  5
217BA
330
217B9
100
AcDbEntity
  8
0
  6
CONTINUOUS
100
AcDbLine
 10
10.67292308101235
 20
8.445076852443387
 30
0.0
 11
10.99094622856022
 21
8.763099999991255
 31
0.0
  0
LINE
  5
217BB
330
217B9
100
AcDbEntity
  8
0
  6
CONTINUOUS
100
AcDbLine
 10
10.87250383178748
 20
7.971138394138331
 30
0.0
 11
11.6644654376404
 21
8.763099999991255
 31
0.0
  0
LINE
  5
217BC
330
217B9
100
AcDbEntity
  8
0
  6
CONTINUOUS
100
AcDbLine
 10
11.07208458256261
 20
7.497199935833273
 30
0.0
 11
12.12126590876355
 21
8.546381262034211
 31
0.0
  0
LINE
  5
217BD
330
217B9
100
AcDbEntity
  8
0
  6
CONTINUOUS
100
AcDbLine
 10
11.27166533333774
 20
7.023261477528216
 30
0.0
 11
12.32085164573666
 21
8.072447789927136
 31
0.0
  0
LINE
  5
217BE
330
217B9
100
AcDbEntity
  8
0
  6
CONTINUOUS
100
AcDbLine
 10
11.47124608411287
 20
6.549323019223158
 30
0.0
 11
12.52043738270977
 21
7.59851431782006
 31
0.0
  0
LINE
  5
217BF
330
217B9
100
AcDbEntity
  8
0
  6
CONTINUOUS
100
AcDbLine
 10
11.670826834888
 20
6.075384560918101
 30
0.0
 11
12.72002311968288
 21
7.124580845712984
 31
0.0
  0
LINE
  5
217C0
330
217B9
100
AcDbEntity
  8
0
  6
CONTINUOUS
100
AcDbLine
 10
11.87040758566313
 20
5.601446102613043
 30
0.0
 11
12.91960885665599
 21
6.650647373605907
 31
0.0
  0
LINE
  5
217C1
330
217B9
100
AcDbEntity
  8
0
  6
CONTINUOUS
100
AcDbLine
 10
12.06998833643825
 20
5.127507644307986
 30
0.0
 11
13.1191945936291
 21
6.176713901498832
 31
0.0
  0
LINE
  5
217C2
330
217B9
100
AcDbEntity
  8
0
  6
CONTINUOUS
100
AcDbLine
 10
12.26956908721338
 20
4.65356918600293
 30
0.0
 11
13.31878033060221
 21
5.702780429391757
 31
0.0
  0
LINE
  5
217C3
330
217B9
100
AcDbEntity
  8
0
  6
CONTINUOUS
100
AcDbLine
 10
12.46914983798851
 20
4.179630727697873
 30
0.0
 11
13.51836606757532
 21
5.228846957284683
 31
0.0
  0
LINE
  5
217C4
330
217B9
100
AcDbEntity
  8
0
  6
CONTINUOUS
100
AcDbLine
 10
12.66873058876364
 20
3.705692269392816
 30
0.0
 11
13.71795180454843
 21
4.754913485177607
 31
0.0
  0
LINE
  5
217C5
330
217B9
100
AcDbEntity
  8
0
  6
CONTINUOUS
100
AcDbLine
 10
12.86831133953877
 20
3.231753811087759
 30
0.0
 11
13.91753754152154
 21
4.280980013070531
 31
0.0
  0
LINE
  5
217C6
330
217B9
100
AcDbEntity
  8
0
  6
CONTINUOUS
100
AcDbLine
 10
13.0678920903139
 20
2.757815352782702
 30
0.0
 11
14.11712327849465
 21
3.807046540963456
 31
0.0
  0
LINE
  5
217C7
330
217B9
100
AcDbEntity
  8
0
  6
CONTINUOUS
100
AcDbLine
 10
13.26747284108903
 20
2.283876894477644
 30
0.0
 11
14.31670901546777
 21
3.333113068856379
 31
0.0
  0
LINE
  5
217C8
330
217B9
100
AcDbEntity
  8
0
  6
CONTINUOUS
100
AcDbLine
 10
16.36767838827179
 20
8.751678487061342
 30
0.0
 11
16.50332410898388
 21
8.887324207773432
 31
0.0
  0
LINE
  5
217C9
330
217B9
100
AcDbEntity
  8
0
  6
CONTINUOUS
100
AcDbLine
 10
15.96190732182191
 20
7.67238821153127
 30
0.0
 11
16.68735328004734
 21
8.397834169756699
 31
0.0
  0
LINE
  5
217CA
330
217B9
100
AcDbEntity
  8
0
  6
CONTINUOUS
100
AcDbLine
 10
15.55613625537202
 20
6.593097936001196
 30
0.0
 11
16.87138245111079
 21
7.908344131739965
 31
0.0
  0
LINE
  5
217CB
330
217B9
100
AcDbEntity
  8
0
  6
CONTINUOUS
100
AcDbLine
 10
15.15036518892213
 20
5.513807660471122
 30
0.0
 11
17.05541162217424
 21
7.418854093723231
 31
0.0
  0
LINE
  5
217CC
330
217B9
100
AcDbEntity
  8
0
  6
CONTINUOUS
100
AcDbLine
 10
14.74459412247225
 20
4.434517384941048
 30
0.0
 11
17.2394407932377
 21
6.929364055706499
 31
0.0
  0
LINE
  5
217CD
330
217B9
100
AcDbEntity
  8
0
  6
CONTINUOUS
100
AcDbLine
 10
14.33882305602236
 20
3.355227109410975
 30
0.0
 11
17.42346996430115
 21
6.439874017689766
 31
0.0
  0
LINE
  5
217CE
330
217B9
100
AcDbEntity
  8
0
  6
CONTINUOUS
100
AcDbLine
 10
13.46705359186416
 20
1.809938436172586
 30
0.0
 11
16.0819338255367
 21
4.424818669845129
 31
0.0
  0
LINE
  5
217CF
330
217B9
100
AcDbEntity
  8
0
  6
CONTINUOUS
100
AcDbLine
 10
16.63283254238972
 20
4.975717386698149
 30
0.0
 11
17.60749913536461
 21
5.950383979673033
 31
0.0
  0
LINE
  5
217D0
330
217B9
100
AcDbEntity
  8
0
  6
CONTINUOUS
100
AcDbLine
 10
13.66663434263929
 20
1.335999977867529
 30
0.0
 11
15.67604797733754
 21
3.345413612565779
 31
0.0
  0
LINE
  5
217D1
330
217B9
100
AcDbEntity
  8
0
  6
CONTINUOUS
100
AcDbLine
 10
13.86621509341442
 20
0.8620615195624723
 30
0.0
 11
15.27016212913838
 21
2.26600855528643
 31
0.0
  0
LINE
  5
217D2
330
217B9
100
AcDbEntity
  8
0
  6
CONTINUOUS
100
AcDbLine
 10
16.81682257348267
 20
4.486188208710908
 30
0.0
 11
17.79152830642806
 21
5.460893941656299
 31
0.0
  0
LINE
  5
217D3
330
217B9
100
AcDbEntity
  8
0
  6
CONTINUOUS
100
AcDbLine
 10
17.00081260457561
 20
3.996659030723667
 30
0.0
 11
17.97555747749151
 21
4.971403903639565
 31
0.0
  0
LINE
  5
217D4
330
217B9
100
AcDbEntity
  8
0
  6
CONTINUOUS
100
AcDbLine
 10
20.74362343514722
 20
8.412989070375462
 30
0.0
 11
21.09373436476302
 21
8.763099999991256
 31
0.0
  0
LINE
  5
217D5
330
217B9
100
AcDbEntity
  8
0
  6
CONTINUOUS
100
AcDbLine
 10
20.25401257174777
 20
7.249858997895826
 30
0.0
 11
21.7672535738432
 21
8.763099999991255
 31
0.0
  0
LINE
  5
217D6
330
217B9
100
AcDbEntity
  8
0
  6
CONTINUOUS
100
AcDbLine
 10
14.06579584418955
 20
0.3881230612574149
 30
0.0
 11
14.86427628093921
 21
1.186603498007082
 31
0.0
  0
LINE
  5
217D7
330
217B9
100
AcDbEntity
  8
0
  6
CONTINUOUS
100
AcDbLine
 10
14.26537659496467
 20
-0.0858153970476412
 30
0.0
 11
14.45839043274005
 21
0.1071984407277329
 31
0.0
  0
LINE
  5
217D8
330
217B9
100
AcDbEntity
  8
0
  6
CONTINUOUS
100
AcDbLine
 10
17.18480263566856
 20
3.507129852736426
 30
0.0
 11
18.15958664855496
 21
4.481913865622833
 31
0.0
  0
LINE
  5
217D9
330
217B9
100
AcDbEntity
  8
0
  6
CONTINUOUS
100
AcDbLine
 10
17.3687926667615
 20
3.017600674749186
 30
0.0
 11
18.34361581961842
 21
3.9924238276061
 31
0.0
  0
LINE
  5
217DA
330
217B9
100
AcDbEntity
  8
0
  6
CONTINUOUS
100
AcDbLine
 10
19.76440170834832
 20
6.086728925416191
 30
0.0
 11
22.33924590259489
 21
8.661573119662755
 31
0.0
  0
LINE
  5
217DB
330
217B9
100
AcDbEntity
  8
0
  6
CONTINUOUS
100
AcDbLine
 10
19.27479084494887
 20
4.923598852936555
 30
0.0
 11
21.84929622842713
 21
7.498104236414807
 31
0.0
  0
LINE
  5
217DC
330
217B9
100
AcDbEntity
  8
0
  6
CONTINUOUS
100
AcDbLine
 10
17.55278269785445
 20
2.528071496761945
 30
0.0
 11
18.52764499068187
 21
3.502933789589366
 31
0.0
  0
LINE
  5
217DD
330
217B9
100
AcDbEntity
  8
0
  6
CONTINUOUS
100
AcDbLine
 10
18.78517998154942
 20
3.760468780456919
 30
0.0
 11
21.35934655425936
 21
6.33463535316686
 31
0.0
  0
LINE
  5
217DE
330
217B9
100
AcDbEntity
  8
0
  6
CONTINUOUS
100
AcDbLine
 10
17.73677272894739
 20
2.038542318774704
 30
0.0
 11
20.8693968800916
 21
5.171166469918914
 31
0.0
  0
LINE
  5
217DF
330
217B9
100
AcDbEntity
  8
0
  6
CONTINUOUS
100
AcDbLine
 10
17.92076276004034
 20
1.549013140787464
 30
0.0
 11
20.37944720592384
 21
4.007697586670968
 31
0.0
  0
LINE
  5
217E0
330
217B9
100
AcDbEntity
  8
0
  6
CONTINUOUS
100
AcDbLine
 10
18.10475279113329
 20
1.059483962800223
 30
0.0
 11
19.88949753175608
 21
2.84422870342302
 31
0.0
  0
LINE
  5
217E1
330
217B9
100
AcDbEntity
  8
0
  6
CONTINUOUS
100
AcDbLine
 10
18.28874282222623
 20
0.5699547848129822
 30
0.0
 11
19.39954785758832
 21
1.680759820175074
 31
0.0
  0
LINE
  5
217E2
330
217B9
100
AcDbEntity
  8
0
  6
CONTINUOUS
100
AcDbLine
 10
18.47273285331918
 20
0.0804256068257416
 30
0.0
 11
18.90959818342056
 21
0.517290936927127
 31
0.0
  0
LINE
  5
217E3
330
217B9
100
AcDbEntity
  8
0
  6
CONTINUOUS
100
AcDbLine
 10
14.3590401358224
 20
-0.1570118376323384
 30
0.0
 11
14.24903296539946
 21
-0.0470046672093929
 31
0.0
  0
LINE
  5
217E4
330
217B9
100
AcDbEntity
  8
0
  6
CONTINUOUS
100
AcDbLine
 10
14.54309291258661
 20
0.332454594683643
 30
0.0
 11
13.75908329123172
 21
1.116464216038529
 31
0.0
  0
LINE
  5
217E5
330
217B9
100
AcDbEntity
  8
0
  6
CONTINUOUS
100
AcDbLine
 10
14.72714568935081
 20
0.8219210269996244
 30
0.0
 11
13.26913361706399
 21
2.27993309928645
 31
0.0
  0
LINE
  5
217E6
330
217B9
100
AcDbEntity
  8
0
  6
CONTINUOUS
100
AcDbLine
 10
14.91119846611502
 20
1.311387459315606
 30
0.0
 11
12.77918394289625
 21
3.443401982534371
 31
0.0
  0
LINE
  5
217E7
330
217B9
100
AcDbEntity
  8
0
  6
CONTINUOUS
100
AcDbLine
 10
15.09525124287922
 20
1.800853891631587
 30
0.0
 11
12.28923426872852
 21
4.606870865782293
 31
0.0
  0
LINE
  5
217E8
330
217B9
100
AcDbEntity
  8
0
  6
CONTINUOUS
100
AcDbLine
 10
15.27930401964343
 20
2.290320323947569
 30
0.0
 11
11.79928459456078
 21
5.770339749030213
 31
0.0
  0
LINE
  5
217E9
330
217B9
100
AcDbEntity
  8
0
  6
CONTINUOUS
100
AcDbLine
 10
15.46335679640763
 20
2.77978675626355
 30
0.0
 11
14.48885470994921
 21
3.754288842721972
 31
0.0
  0
LINE
  5
217EA
330
217B9
100
AcDbEntity
  8
0
  6
CONTINUOUS
100
AcDbLine
 10
13.88507249233704
 20
4.358071060334137
 30
0.0
 11
11.30933492039305
 21
6.933808632278135
 31
0.0
  0
LINE
  5
217EB
330
217B9
100
AcDbEntity
  8
0
  6
CONTINUOUS
100
AcDbLine
 10
18.75840522805855
 20
0.1582575336928151
 30
0.0
 11
18.25383727664818
 21
0.6628254851031863
 31
0.0
  0
LINE
  5
217EC
330
217B9
100
AcDbEntity
  8
0
  6
CONTINUOUS
100
AcDbLine
 10
15.64740957317184
 20
3.269253188579531
 30
0.0
 11
14.67288388101266
 21
4.243778880738705
 31
0.0
  0
LINE
  5
217ED
330
217B9
100
AcDbEntity
  8
0
  6
CONTINUOUS
100
AcDbLine
 10
13.39509276772158
 20
5.521569994029786
 30
0.0
 11
10.81938524622531
 21
8.097277515526056
 31
0.0
  0
LINE
  5
217EE
330
217B9
100
AcDbEntity
  8
0
  6
CONTINUOUS
100
AcDbLine
 10
18.95798597883369
 20
0.6321959919978686
 30
0.0
 11
17.84825644852853
 21
1.741925522303024
 31
0.0
  0
LINE
  5
217EF
330
217B9
100
AcDbEntity
  8
0
  6
CONTINUOUS
100
AcDbLine
 10
19.15756672960882
 20
1.106134450302922
 30
0.0
 11
17.44267562040888
 21
2.821025559502861
 31
0.0
  0
LINE
  5
217F0
330
217B9
100
AcDbEntity
  8
0
  6
CONTINUOUS
100
AcDbLine
 10
15.83146234993604
 20
3.758719620895513
 30
0.0
 11
14.85691305207612
 21
4.733268918755439
 31
0.0
  0
LINE
  5
217F1
330
217B9
100
AcDbEntity
  8
0
  6
CONTINUOUS
100
AcDbLine
 10
16.01551512670025
 20
4.248186053211494
 30
0.0
 11
15.04094222313957
 21
5.222758956772172
 31
0.0
  0
LINE
  5
217F2
330
217B9
100
AcDbEntity
  8
0
  6
CONTINUOUS
100
AcDbLine
 10
12.90511304310612
 20
6.685068927725435
 30
0.0
 11
10.8270819708403
 21
8.763099999991255
 31
0.0
  0
LINE
  5
217F3
330
217B9
100
AcDbEntity
  8
0
  6
CONTINUOUS
100
AcDbLine
 10
12.41513331849066
 20
7.848567861421083
 30
0.0
 11
11.50060117992049
 21
8.763099999991255
 31
0.0
  0
LINE
  5
217F4
330
217B9
100
AcDbEntity
  8
0
  6
CONTINUOUS
100
AcDbLine
 10
19.35714748038395
 20
1.580072908607975
 30
0.0
 11
17.03709479228923
 21
3.900125596702697
 31
0.0
  0
LINE
  5
217F5
330
217B9
100
AcDbEntity
  8
0
  6
CONTINUOUS
100
AcDbLine
 10
19.55672823115909
 20
2.054011366913028
 30
0.0
 11
16.63151396416958
 21
4.979225633902534
 31
0.0
  0
LINE
  5
217F6
330
217B9
100
AcDbEntity
  8
0
  6
CONTINUOUS
100
AcDbLine
 10
16.19956790346445
 20
4.737652485527476
 30
0.0
 11
15.22497139420302
 21
5.712248994788904
 31
0.0
  0
LINE
  5
217F7
330
217B9
100
AcDbEntity
  8
0
  6
CONTINUOUS
100
AcDbLine
 10
16.38362068022866
 20
5.227118917843457
 30
0.0
 11
15.40900056526648
 21
6.201739032805637
 31
0.0
  0
LINE
  5
217F8
330
217B9
100
AcDbEntity
  8
0
  6
CONTINUOUS
100
AcDbLine
 10
19.75630898193422
 20
2.527949825218081
 30
0.0
 11
18.70774536448286
 21
3.576513442669441
 31
0.0
  0
LINE
  5
217F9
330
217B9
100
AcDbEntity
  8
0
  6
CONTINUOUS
100
AcDbLine
 10
19.95588973270936
 20
3.001888283523134
 30
0.0
 11
18.90726987211446
 21
4.050508144118028
 31
0.0
  0
LINE
  5
217FA
330
217B9
100
AcDbEntity
  8
0
  6
CONTINUOUS
100
AcDbLine
 10
20.15547048348449
 20
3.475826741828186
 30
0.0
 11
19.10679437974606
 21
4.524502845566614
 31
0.0
  0
LINE
  5
217FB
330
217B9
100
AcDbEntity
  8
0
  6
CONTINUOUS
100
AcDbLine
 10
20.35505123425962
 20
3.94976520013324
 30
0.0
 11
19.30631888737766
 21
4.998497547015201
 31
0.0
  0
LINE
  5
217FC
330
217B9
100
AcDbEntity
  8
0
  6
CONTINUOUS
100
AcDbLine
 10
20.55463198503475
 20
4.423703658438292
 30
0.0
 11
19.50584339500926
 21
5.472492248463787
 31
0.0
  0
LINE
  5
217FD
330
217B9
100
AcDbEntity
  8
0
  6
CONTINUOUS
100
AcDbLine
 10
18.37481191085755
 20
3.909446896294752
 30
0.0
 11
15.59302973632993
 21
6.691229070822371
 31
0.0
  0
LINE
  5
217FE
330
217B9
100
AcDbEntity
  8
0
  6
CONTINUOUS
100
AcDbLine
 10
17.96904084440766
 20
4.988737171824825
 30
0.0
 11
15.77705890739338
 21
7.180719108839104
 31
0.0
  0
LINE
  5
217FF
330
217B9
100
AcDbEntity
  8
0
  6
CONTINUOUS
100
AcDbLine
 10
17.56326977795777
 20
6.068027447354899
 30
0.0
 11
15.96108807845684
 21
7.670209146855838
 31
0.0
  0
LINE
  5
21800
330
217B9
100
AcDbEntity
  8
0
  6
CONTINUOUS
100
AcDbLine
 10
17.15749871150789
 20
7.147317722884972
 30
0.0
 11
16.14511724952029
 21
8.15969918487257
 31
0.0
  0
LINE
  5
21801
330
217B9
100
AcDbEntity
  8
0
  6
CONTINUOUS
100
AcDbLine
 10
16.751727645058
 20
8.226607998415046
 30
0.0
 11
16.32914642058374
 21
8.649189222889303
 31
0.0
  0
LINE
  5
21802
330
217B9
100
AcDbEntity
  8
0
  6
CONTINUOUS
100
AcDbLine
 10
20.75421273580989
 20
4.897642116743345
 30
0.0
 11
19.70536790264086
 21
5.946486949912374
 31
0.0
  0
LINE
  5
21803
330
217B9
100
AcDbEntity
  8
0
  6
CONTINUOUS
100
AcDbLine
 10
20.95379348658502
 20
5.371580575048398
 30
0.0
 11
19.90489241027246
 21
6.42048165136096
 31
0.0
  0
LINE
  5
21804
330
217B9
100
AcDbEntity
  8
0
  6
CONTINUOUS
100
AcDbLine
 10
21.15337423736015
 20
5.845519033353452
 30
0.0
 11
20.10441691790406
 21
6.894476352809547
 31
0.0
  0
LINE
  5
21805
330
217B9
100
AcDbEntity
  8
0
  6
CONTINUOUS
100
AcDbLine
 10
21.35295498813529
 20
6.319457491658505
 30
0.0
 11
20.30394142553566
 21
7.368471054258134
 31
0.0
  0
LINE
  5
21806
330
217B9
100
AcDbEntity
  8
0
  6
CONTINUOUS
100
AcDbLine
 10
21.55253573891042
 20
6.793395949963558
 30
0.0
 11
20.50346593316726
 21
7.842465755706721
 31
0.0
  0
LINE
  5
21807
330
217B9
100
AcDbEntity
  8
0
  6
CONTINUOUS
100
AcDbLine
 10
21.75211648968556
 20
7.267334408268612
 30
0.0
 11
20.70299044079886
 21
8.316460457155308
 31
0.0
  0
LINE
  5
21808
330
217B9
100
AcDbEntity
  8
0
  6
CONTINUOUS
100
AcDbLine
 10
21.95169724046069
 20
7.741272866573663
 30
0.0
 11
20.9298701070431
 21
8.763099999991256
 31
0.0
  0
LINE
  5
21809
330
217B9
100
AcDbEntity
  8
0
  6
CONTINUOUS
100
AcDbLine
 10
22.15127799123582
 20
8.215211324878716
 30
0.0
 11
21.60338931612328
 21
8.763099999991256
 31
0.0
  0
LINE
  5
2180A
330
217B9
100
AcDbEntity
  8
0
  6
CONTINUOUS
100
AcDbLine
 10
22.35085874201096
 20
8.689149783183769
 30
0.0
 11
22.27690852520347
 21
8.763099999991255
 31
0.0
  0
ENDBLK
  5
218FC
330
217B9
100
AcDbEntity
  8
0
100
AcDbBlockEnd
  0
BLOCK
  5
218FD
330
2180B
100
AcDbEntity
  8
0
100
AcDbBlockBegin
  2
*X31
 70
     1
 10
0.0
 20
0.0
 30
0.0
  3
*X31
  1

  0
LINE
  5
2180C
330
2180B
100
AcDbEntity
  8
0
  6
CONTINUOUS
100
AcDbLine
 10
23.19462913593892
 20
8.169917934846424
 30
0.0
 11
23.70775465517246
 21
8.683043454079957
 31
0.0
  0
LINE
  5
2180D
330
2180B
100
AcDbEntity
  8
0
  6
CONTINUOUS
100
AcDbLine
 10
22.64923161835078
 20
6.951001208178088
 30
0.0
 11
23.9159364069932
 21
8.217705996820516
 31
0.0
  0
LINE
  5
2180E
330
2180B
100
AcDbEntity
  8
0
  6
CONTINUOUS
100
AcDbLine
 10
22.10383410076263
 20
5.732084481509751
 30
0.0
 11
24.12411815881395
 21
7.752368539561078
 31
0.0
  0
LINE
  5
2180F
330
2180B
100
AcDbEntity
  8
0
  6
CONTINUOUS
100
AcDbLine
 10
21.55843658317447
 20
4.513167754841414
 30
0.0
 11
24.3322999106347
 21
7.287031082301639
 31
0.0
  0
LINE
  5
21810
330
2180B
100
AcDbEntity
  8
0
  6
CONTINUOUS
100
AcDbLine
 10
21.01303906558632
 20
3.294251028173077
 30
0.0
 11
24.54048166245544
 21
6.821693625042199
 31
0.0
  0
LINE
  5
21811
330
2180B
100
AcDbEntity
  8
0
  6
CONTINUOUS
100
AcDbLine
 10
20.46764154799817
 20
2.075334301504738
 30
0.0
 11
23.28571549467848
 21
4.89340824818505
 31
0.0
  0
LINE
  5
21812
330
2180B
100
AcDbEntity
  8
0
  6
CONTINUOUS
100
AcDbLine
 10
19.92224403041002
 20
0.8564175748364002
 30
0.0
 11
22.74075865492779
 21
3.674932199354171
 31
0.0
  0
LINE
  5
21813
330
2180B
100
AcDbEntity
  8
0
  6
CONTINUOUS
100
AcDbLine
 10
23.67305085490148
 20
5.280743608408048
 30
0.0
 11
24.74866341427619
 21
6.356356167782759
 31
0.0
  0
LINE
  5
21814
330
2180B
100
AcDbEntity
  8
0
  6
CONTINUOUS
100
AcDbLine
 10
23.88118970842314
 20
4.815363252849522
 30
0.0
 11
24.95684516609694
 21
5.89101871052332
 31
0.0
  0
LINE
  5
21815
330
2180B
100
AcDbEntity
  8
0
  6
CONTINUOUS
100
AcDbLine
 10
19.73925852647308
 20
-0.0000871381807288
 30
0.0
 11
23.4103456646501
 21
3.670999999996297
 31
0.0
  0
LINE
  5
21816
330
2180B
100
AcDbEntity
  8
0
  6
CONTINUOUS
100
AcDbLine
 10
24.0893285619448
 20
4.349982897290997
 30
0.0
 11
25.16502691791769
 21
5.42568125326388
 31
0.0
  0
LINE
  5
21817
330
2180B
100
AcDbEntity
  8
0
  6
CONTINUOUS
100
AcDbLine
 10
20.41282099582748
 20
-0.0000438779065108
 30
0.0
 11
21.64944178675636
 21
1.236576913022366
 31
0.0
  0
LINE
  5
21818
330
2180B
100
AcDbEntity
  8
0
  6
CONTINUOUS
100
AcDbLine
 10
22.78126487373161
 20
2.36839999999762
 30
0.0
 11
24.08386487373029
 21
3.670999999996297
 31
0.0
  0
LINE
  5
21819
330
2180B
100
AcDbEntity
  8
0
  6
CONTINUOUS
100
AcDbLine
 10
24.29746741546646
 20
3.884602541732471
 30
0.0
 11
25.37320866973843
 21
4.960343796004441
 31
0.0
  0
LINE
  5
2181A
330
2180B
100
AcDbEntity
  8
0
  6
CONTINUOUS
100
AcDbLine
 10
21.08638346518189
 20
-0.0000006176322938
 30
0.0
 11
21.10379033335899
 21
0.0174062505448083
 31
0.0
  0
LINE
  5
2181B
330
2180B
100
AcDbEntity
  8
0
  6
CONTINUOUS
100
AcDbLine
 10
23.4547840828118
 20
2.36839999999762
 30
0.0
 11
25.58139042155918
 21
4.495006338745002
 31
0.0
  0
LINE
  5
2181C
330
2180B
100
AcDbEntity
  8
0
  6
CONTINUOUS
100
AcDbLine
 10
29.30199999996933
 20
8.215615917155148
 30
0.0
 11
29.84948408280543
 21
8.763099999991255
 31
0.0
  0
LINE
  5
2181D
330
2180B
100
AcDbEntity
  8
0
  6
CONTINUOUS
100
AcDbLine
 10
24.12830329189199
 20
2.36839999999762
 30
0.0
 11
25.78957217337993
 21
4.029668881485562
 31
0.0
  0
LINE
  5
2181E
330
2180B
100
AcDbEntity
  8
0
  6
CONTINUOUS
100
AcDbLine
 10
29.30199999996933
 20
7.54209670807496
 30
0.0
 11
30.52300329188562
 21
8.763099999991255
 31
0.0
  0
LINE
  5
2181F
330
2180B
100
AcDbEntity
  8
0
  6
CONTINUOUS
100
AcDbLine
 10
24.80182250097217
 20
2.36839999999762
 30
0.0
 11
25.99775392520067
 21
3.564331424226122
 31
0.0
  0
LINE
  5
21820
330
2180B
100
AcDbEntity
  8
0
  6
CONTINUOUS
100
AcDbLine
 10
29.30199999996933
 20
6.868577498994774
 30
0.0
 11
30.74199999996926
 21
8.308577498994712
 31
0.0
  0
LINE
  5
21821
330
2180B
100
AcDbEntity
  8
0
  6
CONTINUOUS
100
AcDbLine
 10
25.13028238392013
 20
2.023340673865392
 30
0.0
 11
26.20593567702142
 21
3.098993966966683
 31
0.0
  0
LINE
  5
21822
330
2180B
100
AcDbEntity
  8
0
  6
CONTINUOUS
100
AcDbLine
 10
25.33838066033617
 20
1.557919741201244
 30
0.0
 11
26.41411742884217
 21
2.633656509707244
 31
0.0
  0
LINE
  5
21823
330
2180B
100
AcDbEntity
  8
0
  6
CONTINUOUS
100
AcDbLine
 10
25.54647893675221
 20
1.092498808537098
 30
0.0
 11
26.62229918066291
 21
2.168319052447804
 31
0.0
  0
LINE
  5
21824
330
2180B
100
AcDbEntity
  8
0
  6
CONTINUOUS
100
AcDbLine
 10
25.75457721316825
 20
0.62707787587295
 30
0.0
 11
26.83048093248366
 21
1.702981595188365
 31
0.0
  0
LINE
  5
21825
330
2180B
100
AcDbEntity
  8
0
  6
CONTINUOUS
100
AcDbLine
 10
29.30199999996933
 20
6.195058289914587
 30
0.0
 11
30.74199999996926
 21
7.635058289914522
 31
0.0
  0
LINE
  5
21826
330
2180B
100
AcDbEntity
  8
0
  6
CONTINUOUS
100
AcDbLine
 10
29.30199999996933
 20
5.521539080834401
 30
0.0
 11
30.74199999996926
 21
6.961539080834331
 31
0.0
  0
LINE
  5
21827
330
2180B
100
AcDbEntity
  8
0
  6
CONTINUOUS
100
AcDbLine
 10
29.30199999996933
 20
4.848019871754214
 30
0.0
 11
30.74199999996925
 21
6.288019871754143
 31
0.0
  0
LINE
  5
21828
330
2180B
100
AcDbEntity
  8
0
  6
CONTINUOUS
100
AcDbLine
 10
29.30199999996933
 20
4.174500662674028
 30
0.0
 11
30.74199999996925
 21
5.614500662673953
 31
0.0
  0
LINE
  5
21829
330
2180B
100
AcDbEntity
  8
0
  6
CONTINUOUS
100
AcDbLine
 10
25.96267548958429
 20
0.1616569432088024
 30
0.0
 11
27.18411854636669
 21
1.383099999991207
 31
0.0
  0
LINE
  5
2182A
330
2180B
100
AcDbEntity
  8
0
  6
CONTINUOUS
100
AcDbLine
 10
29.30199999996933
 20
3.500981453593841
 30
0.0
 11
30.74199999996925
 21
4.940981453593762
 31
0.0
  0
LINE
  5
2182B
330
2180B
100
AcDbEntity
  8
0
  6
CONTINUOUS
100
AcDbLine
 10
26.50763775544691
 20
0.0330999999912356
 30
0.0
 11
27.85763775544689
 21
1.383099999991223
 31
0.0
  0
LINE
  5
2182C
330
2180B
100
AcDbEntity
  8
0
  6
CONTINUOUS
100
AcDbLine
 10
29.30199999996933
 20
2.827462244513656
 30
0.0
 11
30.74199999996925
 21
4.267462244513574
 31
0.0
  0
LINE
  5
2182D
330
2180B
100
AcDbEntity
  8
0
  6
CONTINUOUS
100
AcDbLine
 10
27.18115696452709
 20
0.0330999999912356
 30
0.0
 11
28.57843169463094
 21
1.430374730095086
 31
0.0
  0
LINE
  5
2182E
330
2180B
100
AcDbEntity
  8
0
  6
CONTINUOUS
100
AcDbLine
 10
29.2547252698654
 20
2.106668305329547
 30
0.0
 11
30.74199999996924
 21
3.593943035433384
 31
0.0
  0
LINE
  5
2182F
330
2180B
100
AcDbEntity
  8
0
  6
CONTINUOUS
100
AcDbLine
 10
27.85467617360728
 20
0.0330999999912356
 30
0.0
 11
30.74199999996924
 21
2.920423826353195
 31
0.0
  0
LINE
  5
21830
330
2180B
100
AcDbEntity
  8
0
  6
CONTINUOUS
100
AcDbLine
 10
28.55194421293851
 20
0.0568488302422763
 30
0.0
 11
30.71825116971818
 21
2.223155787021951
 31
0.0
  0
LINE
  5
21831
330
2180B
100
AcDbEntity
  8
0
  6
CONTINUOUS
100
AcDbLine
 10
29.51480923620385
 20
0.346194644427432
 30
0.0
 11
30.42890535553301
 21
1.260290763756593
 31
0.0
  0
LINE
  5
21832
330
2180B
100
AcDbEntity
  8
0
  6
CONTINUOUS
100
AcDbLine
 10
19.59027867740337
 20
-0.0000967065718083
 30
0.0
 11
19.55485265190471
 21
0.035329318926844
 31
0.0
  0
LINE
  5
21833
330
2180B
100
AcDbEntity
  8
0
  6
CONTINUOUS
100
AcDbLine
 10
20.26375463176586
 20
-0.0000534518541091
 30
0.0
 11
19.76305575737534
 21
0.5006454225364014
 31
0.0
  0
LINE
  5
21834
330
2180B
100
AcDbEntity
  8
0
  6
CONTINUOUS
100
AcDbLine
 10
20.93723058612834
 20
-0.0000101971364099
 30
0.0
 11
19.97125886284597
 21
0.965961526145958
 31
0.0
  0
LINE
  5
21835
330
2180B
100
AcDbEntity
  8
0
  6
CONTINUOUS
100
AcDbLine
 10
21.25514828313686
 20
0.355591314935257
 30
0.0
 11
20.1794619683166
 21
1.431277629755512
 31
0.0
  0
LINE
  5
21836
330
2180B
100
AcDbEntity
  8
0
  6
CONTINUOUS
100
AcDbLine
 10
21.46338838394921
 20
0.8208704232030986
 30
0.0
 11
20.38766507378723
 21
1.896593733365069
 31
0.0
  0
LINE
  5
21837
330
2180B
100
AcDbEntity
  8
0
  6
CONTINUOUS
100
AcDbLine
 10
21.67162848476155
 20
1.28614953147094
 30
0.0
 11
20.59586817925786
 21
2.361909836974626
 31
0.0
  0
LINE
  5
21838
330
2180B
100
AcDbEntity
  8
0
  6
CONTINUOUS
100
AcDbLine
 10
21.8798685855739
 20
1.751428639738782
 30
0.0
 11
20.80407128472849
 21
2.827225940584183
 31
0.0
  0
LINE
  5
21839
330
2180B
100
AcDbEntity
  8
0
  6
CONTINUOUS
100
AcDbLine
 10
22.08810868638624
 20
2.216707748006623
 30
0.0
 11
21.01227439019912
 21
3.292542044193739
 31
0.0
  0
LINE
  5
2183A
330
2180B
100
AcDbEntity
  8
0
  6
CONTINUOUS
100
AcDbLine
 10
22.60993564347543
 20
2.36839999999762
 30
0.0
 11
21.22047749566975
 21
3.757858147803296
 31
0.0
  0
LINE
  5
2183B
330
2180B
100
AcDbEntity
  8
0
  6
CONTINUOUS
100
AcDbLine
 10
23.28345485255561
 20
2.36839999999762
 30
0.0
 11
21.42868060114038
 21
4.223174251412853
 31
0.0
  0
LINE
  5
2183C
330
2180B
100
AcDbEntity
  8
0
  6
CONTINUOUS
100
AcDbLine
 10
26.29227406164219
 20
0.0330999999912356
 30
0.0
 11
25.80009199592872
 21
0.5252820657046957
 31
0.0
  0
LINE
  5
2183D
330
2180B
100
AcDbEntity
  8
0
  6
CONTINUOUS
100
AcDbLine
 10
23.9569740616358
 20
2.36839999999762
 30
0.0
 11
21.63688370661101
 21
4.688490355022409
 31
0.0
  0
LINE
  5
2183E
330
2180B
100
AcDbEntity
  8
0
  6
CONTINUOUS
100
AcDbLine
 10
26.96579327072237
 20
0.0330999999912356
 30
0.0
 11
25.2554132311971
 21
1.743480039516508
 31
0.0
  0
LINE
  5
2183F
330
2180B
100
AcDbEntity
  8
0
  6
CONTINUOUS
100
AcDbLine
 10
24.63049327071599
 20
2.36839999999762
 30
0.0
 11
23.32789327071731
 21
3.670999999996297
 31
0.0
  0
LINE
  5
21840
330
2180B
100
AcDbEntity
  8
0
  6
CONTINUOUS
100
AcDbLine
 10
22.92098674744635
 20
4.077906523267254
 30
0.0
 11
21.84508681208164
 21
5.153806458631966
 31
0.0
  0
LINE
  5
21841
330
2180B
100
AcDbEntity
  8
0
  6
CONTINUOUS
100
AcDbLine
 10
27.63931247980256
 20
0.0330999999912356
 30
0.0
 11
24.0014124797975
 21
3.670999999996297
 31
0.0
  0
LINE
  5
21842
330
2180B
100
AcDbEntity
  8
0
  6
CONTINUOUS
100
AcDbLine
 10
23.129125600968
 20
4.5432868788258
 30
0.0
 11
22.05328991755227
 21
5.619122562241522
 31
0.0
  0
LINE
  5
21843
330
2180B
100
AcDbEntity
  8
0
  6
CONTINUOUS
100
AcDbLine
 10
28.31283168888275
 20
0.0330999999912356
 30
0.0
 11
24.16488385994816
 21
4.181047828925828
 31
0.0
  0
LINE
  5
21844
330
2180B
100
AcDbEntity
  8
0
  6
CONTINUOUS
100
AcDbLine
 10
23.33726445448964
 20
5.008667234384345
 30
0.0
 11
22.2614930230229
 21
6.084438665851079
 31
0.0
  0
LINE
  5
21845
330
2180B
100
AcDbEntity
  8
0
  6
CONTINUOUS
100
AcDbLine
 10
28.90645333830136
 20
0.1129975596528112
 30
0.0
 11
27.63635089796295
 21
1.383099999991217
 31
0.0
  0
LINE
  5
21846
330
2180B
100
AcDbEntity
  8
0
  6
CONTINUOUS
100
AcDbLine
 10
26.43704649509776
 20
2.582404402856405
 30
0.0
 11
23.61992702019732
 21
5.399523877756844
 31
0.0
  0
LINE
  5
21847
330
2180B
100
AcDbEntity
  8
0
  6
CONTINUOUS
100
AcDbLine
 10
23.54540330801128
 20
5.47404758994289
 30
0.0
 11
22.46969612849353
 21
6.549754769460635
 31
0.0
  0
LINE
  5
21848
330
2180B
100
AcDbEntity
  8
0
  6
CONTINUOUS
100
AcDbLine
 10
29.40349360806839
 20
0.2894764989659606
 30
0.0
 11
28.30987010704312
 21
1.383099999991234
 31
0.0
  0
LINE
  5
21849
330
2180B
100
AcDbEntity
  8
0
  6
CONTINUOUS
100
AcDbLine
 10
25.89179548232307
 20
3.801174624711282
 30
0.0
 11
22.67789923396416
 21
7.015070873070191
 31
0.0
  0
LINE
  5
2184A
330
2180B
100
AcDbEntity
  8
0
  6
CONTINUOUS
100
AcDbLine
 10
29.83195328664716
 20
0.5345360294673855
 30
0.0
 11
28.85740608974929
 21
1.50908322636525
 31
0.0
  0
LINE
  5
2184B
330
2180B
100
AcDbEntity
  8
0
  6
CONTINUOUS
100
AcDbLine
 10
25.34654446954838
 20
5.01994484656616
 30
0.0
 11
22.88610233943479
 21
7.480386976679748
 31
0.0
  0
LINE
  5
2184C
330
2180B
100
AcDbEntity
  8
0
  6
CONTINUOUS
100
AcDbLine
 10
30.16871289118725
 20
0.8712956340074771
 30
0.0
 11
29.18680861743091
 21
1.853199907763824
 31
0.0
  0
LINE
  5
2184D
330
2180B
100
AcDbEntity
  8
0
  6
CONTINUOUS
100
AcDbLine
 10
24.80129345677369
 20
6.238715068421037
 30
0.0
 11
23.09430544490542
 21
7.945703080289305
 31
0.0
  0
LINE
  5
2184E
330
2180B
100
AcDbEntity
  8
0
  6
CONTINUOUS
100
AcDbLine
 10
30.43711825255073
 20
1.276409481724182
 30
0.0
 11
29.30199999996933
 21
2.411527734305588
 31
0.0
  0
LINE
  5
2184F
330
2180B
100
AcDbEntity
  8
0
  6
CONTINUOUS
100
AcDbLine
 10
24.256042443999
 20
7.457485290275915
 30
0.0
 11
23.30250855037605
 21
8.411019183898862
 31
0.0
  0
LINE
  5
21850
330
2180B
100
AcDbEntity
  8
0
  6
CONTINUOUS
100
AcDbLine
 10
30.6424542258006
 20
1.744592717554502
 30
0.0
 11
29.30199999996933
 21
3.085046943385775
 31
0.0
  0
LINE
  5
21851
330
2180B
100
AcDbEntity
  8
0
  6
CONTINUOUS
100
AcDbLine
 10
23.71079143122431
 20
8.676255512130794
 30
0.0
 11
23.51071165584668
 21
8.876335287508416
 31
0.0
  0
LINE
  5
21852
330
2180B
100
AcDbEntity
  8
0
  6
CONTINUOUS
100
AcDbLine
 10
30.73454365592805
 20
2.326022496507238
 30
0.0
 11
29.30199999996933
 21
3.758566152465961
 31
0.0
  0
LINE
  5
21853
330
2180B
100
AcDbEntity
  8
0
  6
CONTINUOUS
100
AcDbLine
 10
30.74199999996924
 20
2.992085361546236
 30
0.0
 11
29.30199999996933
 21
4.432085361546148
 31
0.0
  0
LINE
  5
21854
330
2180B
100
AcDbEntity
  8
0
  6
CONTINUOUS
100
AcDbLine
 10
30.74199999996924
 20
3.665604570626419
 30
0.0
 11
29.30199999996933
 21
5.105604570626333
 31
0.0
  0
LINE
  5
21855
330
2180B
100
AcDbEntity
  8
0
  6
CONTINUOUS
100
AcDbLine
 10
30.74199999996925
 20
4.339123779706602
 30
0.0
 11
29.30199999996933
 21
5.77912377970652
 31
0.0
  0
LINE
  5
21856
330
2180B
100
AcDbEntity
  8
0
  6
CONTINUOUS
100
AcDbLine
 10
30.74199999996925
 20
5.012642988786785
 30
0.0
 11
29.30199999996933
 21
6.452642988786707
 31
0.0
  0
LINE
  5
21857
330
2180B
100
AcDbEntity
  8
0
  6
CONTINUOUS
100
AcDbLine
 10
30.74199999996925
 20
5.68616219786697
 30
0.0
 11
29.30199999996933
 21
7.126162197866894
 31
0.0
  0
LINE
  5
21858
330
2180B
100
AcDbEntity
  8
0
  6
CONTINUOUS
100
AcDbLine
 10
30.74199999996925
 20
6.359681406947153
 30
0.0
 11
29.30199999996933
 21
7.799681406947081
 31
0.0
  0
LINE
  5
21859
330
2180B
100
AcDbEntity
  8
0
  6
CONTINUOUS
100
AcDbLine
 10
30.74199999996926
 20
7.033200616027337
 30
0.0
 11
29.30199999996933
 21
8.473200616027269
 31
0.0
  0
LINE
  5
2185A
330
2180B
100
AcDbEntity
  8
0
  6
CONTINUOUS
100
AcDbLine
 10
30.74199999996926
 20
7.706719825107518
 30
0.0
 11
29.68561982508552
 21
8.763099999991255
 31
0.0
  0
LINE
  5
2185B
330
2180B
100
AcDbEntity
  8
0
  6
CONTINUOUS
100
AcDbLine
 10
30.74199999996926
 20
8.380239034187703
 30
0.0
 11
30.35913903416571
 21
8.763099999991255
 31
0.0
  0
ENDBLK
  5
218FE
330
2180B
100
AcDbEntity
  8
0
100
AcDbBlockEnd
  0
BLOCK
  5
218FF
330
2185C
100
AcDbEntity
  8
0
100
AcDbBlockBegin
  2
*X32
 70
     1
 10
0.0
 20
0.0
 30
0.0
  3
*X32
  1

  0
LINE
  5
2185D
330
2185C
100
AcDbEntity
  8
0
  6
CONTINUOUS
100
AcDbLine
 10
31.64199999996833
 20
8.5350582899136
 30
0.0
 11
31.87004171004599
 21
8.763099999991255
 31
0.0
  0
LINE
  5
2185E
330
2185C
100
AcDbEntity
  8
0
  6
CONTINUOUS
100
AcDbLine
 10
31.64199999996833
 20
7.861539080833413
 30
0.0
 11
32.54356091912618
 21
8.763099999991255
 31
0.0
  0
LINE
  5
2185F
330
2185C
100
AcDbEntity
  8
0
  6
CONTINUOUS
100
AcDbLine
 10
31.64199999996833
 20
7.188019871753227
 30
0.0
 11
33.08199999996839
 21
8.628019871753281
 31
0.0
  0
LINE
  5
21860
330
2185C
100
AcDbEntity
  8
0
  6
CONTINUOUS
100
AcDbLine
 10
31.64199999996833
 20
6.514500662673041
 30
0.0
 11
33.08199999996839
 21
7.954500662673095
 31
0.0
  0
LINE
  5
21861
330
2185C
100
AcDbEntity
  8
0
  6
CONTINUOUS
100
AcDbLine
 10
31.64199999996833
 20
5.840981453592855
 30
0.0
 11
33.08199999996839
 21
7.28098145359291
 31
0.0
  0
LINE
  5
21862
330
2185C
100
AcDbEntity
  8
0
  6
CONTINUOUS
100
AcDbLine
 10
31.64199999996833
 20
5.167462244512668
 30
0.0
 11
33.08199999996839
 21
6.607462244512723
 31
0.0
  0
LINE
  5
21863
330
2185C
100
AcDbEntity
  8
0
  6
CONTINUOUS
100
AcDbLine
 10
31.64199999996833
 20
4.493943035432482
 30
0.0
 11
33.08199999996839
 21
5.933943035432536
 31
0.0
  0
LINE
  5
21864
330
2185C
100
AcDbEntity
  8
0
  6
CONTINUOUS
100
AcDbLine
 10
31.64199999996833
 20
3.820423826352294
 30
0.0
 11
33.08199999996839
 21
5.260423826352349
 31
0.0
  0
LINE
  5
21865
330
2185C
100
AcDbEntity
  8
0
  6
CONTINUOUS
100
AcDbLine
 10
31.64199999996833
 20
3.146904617272108
 30
0.0
 11
33.08199999996839
 21
4.586904617272163
 31
0.0
  0
LINE
  5
21866
330
2185C
100
AcDbEntity
  8
0
  6
CONTINUOUS
100
AcDbLine
 10
36.23199999996837
 20
8.410423826352327
 30
0.0
 11
36.58467617360729
 21
8.763099999991255
 31
0.0
  0
LINE
  5
21867
330
2185C
100
AcDbEntity
  8
0
  6
CONTINUOUS
100
AcDbLine
 10
36.23199999996837
 20
7.73690461727214
 30
0.0
 11
37.25819538268748
 21
8.763099999991255
 31
0.0
  0
LINE
  5
21868
330
2185C
100
AcDbEntity
  8
0
  6
CONTINUOUS
100
AcDbLine
 10
31.64295791647285
 20
2.474343324696431
 30
0.0
 11
33.08199999996839
 21
3.913385408191976
 31
0.0
  0
LINE
  5
21869
330
2185C
100
AcDbEntity
  8
0
  6
CONTINUOUS
100
AcDbLine
 10
31.72131278798881
 20
1.879178987132208
 30
0.0
 11
33.08199999996839
 21
3.239866199111789
 31
0.0
  0
LINE
  5
2186A
330
2185C
100
AcDbEntity
  8
0
  6
CONTINUOUS
100
AcDbLine
 10
36.23199999996837
 20
7.063385408191953
 30
0.0
 11
37.67199999996831
 21
8.503385408191894
 31
0.0
  0
LINE
  5
2186B
330
2185C
100
AcDbEntity
  8
0
  6
CONTINUOUS
100
AcDbLine
 10
36.23199999996837
 20
6.389866199111767
 30
0.0
 11
37.67199999996831
 21
7.829866199111708
 31
0.0
  0
LINE
  5
2186C
330
2185C
100
AcDbEntity
  8
0
  6
CONTINUOUS
100
AcDbLine
 10
31.90398109638795
 20
1.388328086451165
 30
0.0
 11
33.08199999996839
 21
2.566346990031603
 31
0.0
  0
LINE
  5
2186D
330
2185C
100
AcDbEntity
  8
0
  6
CONTINUOUS
100
AcDbLine
 10
36.23199999996837
 20
5.71634699003158
 30
0.0
 11
37.67199999996831
 21
7.156346990031522
 31
0.0
  0
LINE
  5
2186E
330
2185C
100
AcDbEntity
  8
0
  6
CONTINUOUS
100
AcDbLine
 10
32.15410588803598
 20
0.9649336690190076
 30
0.0
 11
33.19577568229511
 21
2.006603463278144
 31
0.0
  0
LINE
  5
2186F
330
2185C
100
AcDbEntity
  8
0
  6
CONTINUOUS
100
AcDbLine
 10
36.23199999996837
 20
5.042827780951393
 30
0.0
 11
37.67199999996831
 21
6.482827780951334
 31
0.0
  0
LINE
  5
21870
330
2185C
100
AcDbEntity
  8
0
  6
CONTINUOUS
100
AcDbLine
 10
32.45868320364774
 20
0.5959917755505852
 30
0.0
 11
33.48433514284099
 21
1.621643714743831
 31
0.0
  0
LINE
  5
21871
330
2185C
100
AcDbEntity
  8
0
  6
CONTINUOUS
100
AcDbLine
 10
36.23199999996837
 20
4.369308571871207
 30
0.0
 11
37.67199999996831
 21
5.809308571871148
 31
0.0
  0
LINE
  5
21872
330
2185C
100
AcDbEntity
  8
0
  6
CONTINUOUS
100
AcDbLine
 10
32.83977805121244
 20
0.3035674140350983
 30
0.0
 11
33.9144983171802
 21
1.378287680002859
 31
0.0
  0
LINE
  5
21873
330
2185C
100
AcDbEntity
  8
0
  6
CONTINUOUS
100
AcDbLine
 10
36.23199999996837
 20
3.695789362791021
 30
0.0
 11
37.67199999996831
 21
5.135789362790963
 31
0.0
  0
LINE
  5
21874
330
2185C
100
AcDbEntity
  8
0
  6
CONTINUOUS
100
AcDbLine
 10
33.28925592101007
 20
0.0795260747525335
 30
0.0
 11
34.4429104952855
 21
1.233180649027971
 31
0.0
  0
LINE
  5
21875
330
2185C
100
AcDbEntity
  8
0
  6
CONTINUOUS
100
AcDbLine
 10
36.23199999996837
 20
3.022270153710834
 30
0.0
 11
37.67199999996831
 21
4.462270153710776
 31
0.0
  0
LINE
  5
21876
330
2185C
100
AcDbEntity
  8
0
  6
CONTINUOUS
100
AcDbLine
 10
33.76550592101022
 20
-0.1177431343275011
 30
0.0
 11
35.18258581678813
 21
1.299336761450407
 31
0.0
  0
LINE
  5
21877
330
2185C
100
AcDbEntity
  8
0
  6
CONTINUOUS
100
AcDbLine
 10
36.20355631289775
 20
2.320307257560033
 30
0.0
 11
37.67199999996831
 21
3.788750944630589
 31
0.0
  0
LINE
  5
21878
330
2185C
100
AcDbEntity
  8
0
  6
CONTINUOUS
100
AcDbLine
 10
34.35908899259119
 20
-0.1976792718267175
 30
0.0
 11
37.67199999996831
 21
3.115231735550402
 31
0.0
  0
LINE
  5
21879
330
2185C
100
AcDbEntity
  8
0
  6
CONTINUOUS
100
AcDbLine
 10
35.04438808203069
 20
-0.1858993914674008
 30
0.0
 11
37.66594960818956
 21
2.435662134691464
 31
0.0
  0
LINE
  5
2187A
330
2185C
100
AcDbEntity
  8
0
  6
CONTINUOUS
100
AcDbLine
 10
35.95405053101277
 20
0.0502438484344916
 30
0.0
 11
37.49337557446166
 21
1.589568891883381
 31
0.0
  0
LINE
  5
2187B
330
2185C
100
AcDbEntity
  8
0
  6
CONTINUOUS
100
AcDbLine
 10
32.48400274193772
 20
0.5765634104975641
 30
0.0
 11
32.34694398754057
 21
0.7136221648947103
 31
0.0
  0
LINE
  5
2187C
330
2185C
100
AcDbEntity
  8
0
  6
CONTINUOUS
100
AcDbLine
 10
33.86697683926317
 20
-0.1328914777477044
 30
0.0
 11
31.70105830546678
 21
2.033027056048692
 31
0.0
  0
LINE
  5
2187D
330
2185C
100
AcDbEntity
  8
0
  6
CONTINUOUS
100
AcDbLine
 10
34.64261010498837
 20
-0.2350055343927187
 30
0.0
 11
31.64199999996833
 21
2.765604570627322
 31
0.0
  0
LINE
  5
2187E
330
2185C
100
AcDbEntity
  8
0
  6
CONTINUOUS
100
AcDbLine
 10
35.24112258276081
 20
-0.1599988030849646
 30
0.0
 11
31.64199999996833
 21
3.439123779707508
 31
0.0
  0
LINE
  5
2187F
330
2185C
100
AcDbEntity
  8
0
  6
CONTINUOUS
100
AcDbLine
 10
35.777520339722
 20
-0.0228773509659694
 30
0.0
 11
34.52146233972803
 21
1.233180649027998
 31
0.0
  0
LINE
  5
21880
330
2185C
100
AcDbEntity
  8
0
  6
CONTINUOUS
100
AcDbLine
 10
33.08199999996839
 20
2.672642988787641
 30
0.0
 11
31.64199999996833
 21
4.112642988787695
 31
0.0
  0
LINE
  5
21881
330
2185C
100
AcDbEntity
  8
0
  6
CONTINUOUS
100
AcDbLine
 10
36.25377033972294
 20
0.1743918581132773
 30
0.0
 11
35.14317118804349
 21
1.284991009792725
 31
0.0
  0
LINE
  5
21882
330
2185C
100
AcDbEntity
  8
0
  6
CONTINUOUS
100
AcDbLine
 10
33.08199999996839
 20
3.346162197867827
 30
0.0
 11
31.64199999996833
 21
4.786162197867881
 31
0.0
  0
LINE
  5
21883
330
2185C
100
AcDbEntity
  8
0
  6
CONTINUOUS
100
AcDbLine
 10
36.65748856908375
 20
0.4441928378326456
 30
0.0
 11
35.63696437513804
 21
1.464717031778358
 31
0.0
  0
LINE
  5
21884
330
2185C
100
AcDbEntity
  8
0
  6
CONTINUOUS
100
AcDbLine
 10
33.08199999996839
 20
4.019681406948013
 30
0.0
 11
31.64199999996833
 21
5.459681406948068
 31
0.0
  0
LINE
  5
21885
330
2185C
100
AcDbEntity
  8
0
  6
CONTINUOUS
100
AcDbLine
 10
37.00809517418186
 20
0.7671054418147287
 30
0.0
 11
35.99025189342645
 21
1.784948722570141
 31
0.0
  0
LINE
  5
21886
330
2185C
100
AcDbEntity
  8
0
  6
CONTINUOUS
100
AcDbLine
 10
33.08199999996839
 20
4.6932006160282
 30
0.0
 11
31.64199999996833
 21
6.133200616028255
 31
0.0
  0
LINE
  5
21887
330
2185C
100
AcDbEntity
  8
0
  6
CONTINUOUS
100
AcDbLine
 10
37.30051953569851
 20
1.148200289378269
 30
0.0
 11
36.19229254868971
 21
2.256427276387067
 31
0.0
  0
LINE
  5
21888
330
2185C
100
AcDbEntity
  8
0
  6
CONTINUOUS
100
AcDbLine
 10
33.08199999996839
 20
5.366719825108387
 30
0.0
 11
31.64199999996833
 21
6.806719825108441
 31
0.0
  0
LINE
  5
21889
330
2185C
100
AcDbEntity
  8
0
  6
CONTINUOUS
100
AcDbLine
 10
37.50488468691001
 20
1.617354347246954
 30
0.0
 11
36.23199999996837
 21
2.890239034188595
 31
0.0
  0
LINE
  5
2188A
330
2185C
100
AcDbEntity
  8
0
  6
CONTINUOUS
100
AcDbLine
 10
33.08199999996839
 20
6.040239034188573
 30
0.0
 11
31.64199999996833
 21
7.480239034188628
 31
0.0
  0
LINE
  5
2188B
330
2185C
100
AcDbEntity
  8
0
  6
CONTINUOUS
100
AcDbLine
 10
37.63036768068979
 20
2.165390562547355
 30
0.0
 11
36.23199999996837
 21
3.563758243268782
 31
0.0
  0
LINE
  5
2188C
330
2185C
100
AcDbEntity
  8
0
  6
CONTINUOUS
100
AcDbLine
 10
33.08199999996839
 20
6.713758243268759
 30
0.0
 11
31.64199999996833
 21
8.153758243268815
 31
0.0
  0
LINE
  5
2188D
330
2185C
100
AcDbEntity
  8
0
  6
CONTINUOUS
100
AcDbLine
 10
37.67199999996831
 20
2.797277452349027
 30
0.0
 11
36.23199999996837
 21
4.237277452348969
 31
0.0
  0
LINE
  5
2188E
330
2185C
100
AcDbEntity
  8
0
  6
CONTINUOUS
100
AcDbLine
 10
37.67199999996831
 20
3.470796661429214
 30
0.0
 11
36.23199999996837
 21
4.910796661429155
 31
0.0
  0
LINE
  5
2188F
330
2185C
100
AcDbEntity
  8
0
  6
CONTINUOUS
100
AcDbLine
 10
37.67199999996831
 20
4.1443158705094
 30
0.0
 11
36.23199999996837
 21
5.584315870509341
 31
0.0
  0
LINE
  5
21890
330
2185C
100
AcDbEntity
  8
0
  6
CONTINUOUS
100
AcDbLine
 10
33.08199999996839
 20
7.387277452348947
 30
0.0
 11
31.70617745232608
 21
8.763099999991255
 31
0.0
  0
LINE
  5
21891
330
2185C
100
AcDbEntity
  8
0
  6
CONTINUOUS
100
AcDbLine
 10
33.08199999996839
 20
8.060796661429134
 30
0.0
 11
32.37969666140626
 21
8.763099999991255
 31
0.0
  0
LINE
  5
21892
330
2185C
100
AcDbEntity
  8
0
  6
CONTINUOUS
100
AcDbLine
 10
33.08199999996839
 20
8.73431587050932
 30
0.0
 11
33.05321587048645
 21
8.763099999991255
 31
0.0
  0
LINE
  5
21893
330
2185C
100
AcDbEntity
  8
0
  6
CONTINUOUS
100
AcDbLine
 10
37.67199999996831
 20
4.817835079589587
 30
0.0
 11
36.23199999996837
 21
6.257835079589528
 31
0.0
  0
LINE
  5
21894
330
2185C
100
AcDbEntity
  8
0
  6
CONTINUOUS
100
AcDbLine
 10
37.67199999996831
 20
5.491354288669773
 30
0.0
 11
36.23199999996837
 21
6.931354288669715
 31
0.0
  0
LINE
  5
21895
330
2185C
100
AcDbEntity
  8
0
  6
CONTINUOUS
100
AcDbLine
 10
37.67199999996831
 20
6.164873497749959
 30
0.0
 11
36.23199999996837
 21
7.6048734977499
 31
0.0
  0
LINE
  5
21896
330
2185C
100
AcDbEntity
  8
0
  6
CONTINUOUS
100
AcDbLine
 10
37.67199999996831
 20
6.838392706830145
 30
0.0
 11
36.23199999996837
 21
8.278392706830086
 31
0.0
  0
LINE
  5
21897
330
2185C
100
AcDbEntity
  8
0
  6
CONTINUOUS
100
AcDbLine
 10
37.67199999996831
 20
7.511911915910333
 30
0.0
 11
36.42081191588738
 21
8.763099999991255
 31
0.0
  0
LINE
  5
21898
330
2185C
100
AcDbEntity
  8
0
  6
CONTINUOUS
100
AcDbLine
 10
37.67199999996831
 20
8.18543112499052
 30
0.0
 11
37.09433112496757
 21
8.763099999991255
 31
0.0
  0
ENDBLK
  5
21900
330
2185C
100
AcDbEntity
  8
0
100
AcDbBlockEnd
  0
BLOCK
  5
21901
330
21899
100
AcDbEntity
  8
0
100
AcDbBlockBegin
  2
*X33
 70
     1
 10
0.0
 20
0.0
 30
0.0
  3
*X33
  1

  0
LINE
  5
2189A
330
21899
100
AcDbEntity
  8
0
  6
CONTINUOUS
100
AcDbLine
 10
38.60499999996136
 20
8.762866199104765
 30
0.0
 11
38.71672554182345
 21
8.874591740966855
 31
0.0
  0
LINE
  5
2189B
330
21899
100
AcDbEntity
  8
0
  6
CONTINUOUS
100
AcDbLine
 10
38.60499999996136
 20
8.089346990024577
 30
0.0
 11
39.03418785440363
 21
8.518534844466847
 31
0.0
  0
LINE
  5
2189C
330
21899
100
AcDbEntity
  8
0
  6
CONTINUOUS
100
AcDbLine
 10
38.60499999996136
 20
7.41582778094439
 30
0.0
 11
39.35165016698382
 21
8.16247794796684
 31
0.0
  0
LINE
  5
2189D
330
21899
100
AcDbEntity
  8
0
  6
CONTINUOUS
100
AcDbLine
 10
38.60499999996136
 20
6.742308571864204
 30
0.0
 11
39.66911247956399
 21
7.806421051466834
 31
0.0
  0
LINE
  5
2189E
330
21899
100
AcDbEntity
  8
0
  6
CONTINUOUS
100
AcDbLine
 10
38.60499999996136
 20
6.068789362784018
 30
0.0
 11
39.98657479214418
 21
7.450364154966827
 31
0.0
  0
LINE
  5
2189F
330
21899
100
AcDbEntity
  8
0
  6
CONTINUOUS
100
AcDbLine
 10
38.60499999996136
 20
5.395270153703832
 30
0.0
 11
40.30403710472435
 21
7.09430725846682
 31
0.0
  0
LINE
  5
218A0
330
21899
100
AcDbEntity
  8
0
  6
CONTINUOUS
100
AcDbLine
 10
38.60499999996136
 20
4.721750944623645
 30
0.0
 11
40.62149941730453
 21
6.738250361966813
 31
0.0
  0
LINE
  5
218A1
330
21899
100
AcDbEntity
  8
0
  6
CONTINUOUS
100
AcDbLine
 10
38.60499999996136
 20
4.048231735543458
 30
0.0
 11
40.93896172988471
 21
6.382193465466806
 31
0.0
  0
LINE
  5
218A2
330
21899
100
AcDbEntity
  8
0
  6
CONTINUOUS
100
AcDbLine
 10
38.60499999996136
 20
3.374712526463272
 30
0.0
 11
40.02599999995994
 21
4.795712526461843
 31
0.0
  0
LINE
  5
218A3
330
21899
100
AcDbEntity
  8
0
  6
CONTINUOUS
100
AcDbLine
 10
38.60499999996136
 20
2.701193317383085
 30
0.0
 11
40.02599999995994
 21
4.122193317381657
 31
0.0
  0
LINE
  5
218A4
330
21899
100
AcDbEntity
  8
0
  6
CONTINUOUS
100
AcDbLine
 10
40.28339754687704
 20
5.053110073378947
 30
0.0
 11
41.25642404246489
 21
6.026136568966799
 31
0.0
  0
LINE
  5
218A5
330
21899
100
AcDbEntity
  8
0
  6
CONTINUOUS
100
AcDbLine
 10
40.60085985945722
 20
4.697053176878939
 30
0.0
 11
41.57388635504507
 21
5.670079672466793
 31
0.0
  0
LINE
  5
218A6
330
21899
100
AcDbEntity
  8
0
  6
CONTINUOUS
100
AcDbLine
 10
43.57899999995641
 20
8.348712526458318
 30
0.0
 11
43.99338747348935
 21
8.763099999991255
 31
0.0
  0
LINE
  5
218A7
330
21899
100
AcDbEntity
  8
0
  6
CONTINUOUS
100
AcDbLine
 10
43.57899999995641
 20
7.675193317378131
 30
0.0
 11
44.66690668256953
 21
8.763099999991255
 31
0.0
  0
LINE
  5
218A8
330
21899
100
AcDbEntity
  8
0
  6
CONTINUOUS
100
AcDbLine
 10
38.60499999996136
 20
2.027674108302898
 30
0.0
 11
40.02599999995994
 21
3.44867410830147
 31
0.0
  0
LINE
  5
218A9
330
21899
100
AcDbEntity
  8
0
  6
CONTINUOUS
100
AcDbLine
 10
38.60499999996136
 20
1.354154899222712
 30
0.0
 11
40.02599999995994
 21
2.775154899221284
 31
0.0
  0
LINE
  5
218AA
330
21899
100
AcDbEntity
  8
0
  6
CONTINUOUS
100
AcDbLine
 10
38.60499999996136
 20
0.6806356901425255
 30
0.0
 11
40.02599999995994
 21
2.101635690141098
 31
0.0
  0
LINE
  5
218AB
330
21899
100
AcDbEntity
  8
0
  6
CONTINUOUS
100
AcDbLine
 10
38.60499999996136
 20
0.0071164810623383
 30
0.0
 11
40.02599999995994
 21
1.428116481060911
 31
0.0
  0
LINE
  5
218AC
330
21899
100
AcDbEntity
  8
0
  6
CONTINUOUS
100
AcDbLine
 10
40.9183221720374
 20
4.340996280378933
 30
0.0
 11
41.89134866762525
 21
5.314022775966786
 31
0.0
  0
LINE
  5
218AD
330
21899
100
AcDbEntity
  8
0
  6
CONTINUOUS
100
AcDbLine
 10
41.23578448461758
 20
3.984939383878926
 30
0.0
 11
42.20881098020543
 21
4.957965879466778
 31
0.0
  0
LINE
  5
218AE
330
21899
100
AcDbEntity
  8
0
  6
CONTINUOUS
100
AcDbLine
 10
41.55324679719776
 20
3.628882487378919
 30
0.0
 11
42.52627329278561
 21
4.601908982966772
 31
0.0
  0
LINE
  5
218AF
330
21899
100
AcDbEntity
  8
0
  6
CONTINUOUS
100
AcDbLine
 10
41.87070910977793
 20
3.272825590878912
 30
0.0
 11
42.84373560536579
 21
4.245852086466765
 31
0.0
  0
LINE
  5
218B0
330
21899
100
AcDbEntity
  8
0
  6
CONTINUOUS
100
AcDbLine
 10
43.57899999995641
 20
7.001674108297943
 30
0.0
 11
44.99999999995498
 21
8.422674108296516
 31
0.0
  0
LINE
  5
218B1
330
21899
100
AcDbEntity
  8
0
  6
CONTINUOUS
100
AcDbLine
 10
43.57899999995641
 20
6.328154899217758
 30
0.0
 11
44.99999999995498
 21
7.749154899216329
 31
0.0
  0
LINE
  5
218B2
330
21899
100
AcDbEntity
  8
0
  6
CONTINUOUS
100
AcDbLine
 10
43.57899999995641
 20
5.654635690137571
 30
0.0
 11
44.99999999995498
 21
7.075635690136142
 31
0.0
  0
LINE
  5
218B3
330
21899
100
AcDbEntity
  8
0
  6
CONTINUOUS
100
AcDbLine
 10
43.57899999995641
 20
4.981116481057384
 30
0.0
 11
44.99999999995498
 21
6.402116481055955
 31
0.0
  0
LINE
  5
218B4
330
21899
100
AcDbEntity
  8
0
  6
CONTINUOUS
100
AcDbLine
 10
39.27140272797921
 20
-0.0000000000000009
 30
0.0
 11
40.02599999995994
 21
0.7545972719807246
 31
0.0
  0
LINE
  5
218B5
330
21899
100
AcDbEntity
  8
0
  6
CONTINUOUS
100
AcDbLine
 10
39.9449219370594
 20
-0.0000000000000009
 30
0.0
 11
40.02599999995994
 21
0.0810780629005379
 31
0.0
  0
LINE
  5
218B6
330
21899
100
AcDbEntity
  8
0
  6
CONTINUOUS
100
AcDbLine
 10
42.18817142235812
 20
2.916768694378905
 30
0.0
 11
43.16119791794597
 21
3.889795189966758
 31
0.0
  0
LINE
  5
218B7
330
21899
100
AcDbEntity
  8
0
  6
CONTINUOUS
100
AcDbLine
 10
42.50563373493829
 20
2.560711797878898
 30
0.0
 11
43.47866023052615
 21
3.533738293466751
 31
0.0
  0
LINE
  5
218B8
330
21899
100
AcDbEntity
  8
0
  6
CONTINUOUS
100
AcDbLine
 10
43.57899999995641
 20
4.307597271977198
 30
0.0
 11
44.99999999995498
 21
5.728597271975769
 31
0.0
  0
LINE
  5
218B9
330
21899
100
AcDbEntity
  8
0
  6
CONTINUOUS
100
AcDbLine
 10
43.57899999995641
 20
3.634078062897011
 30
0.0
 11
44.99999999995498
 21
5.055078062895582
 31
0.0
  0
LINE
  5
218BA
330
21899
100
AcDbEntity
  8
0
  6
CONTINUOUS
100
AcDbLine
 10
42.82309604751848
 20
2.204654901378891
 30
0.0
 11
44.99999999995498
 21
4.381558853815395
 31
0.0
  0
LINE
  5
218BB
330
21899
100
AcDbEntity
  8
0
  6
CONTINUOUS
100
AcDbLine
 10
43.14055836009865
 20
1.848598004878885
 30
0.0
 11
44.99999999995498
 21
3.70803964473521
 31
0.0
  0
LINE
  5
218BC
330
21899
100
AcDbEntity
  8
0
  6
CONTINUOUS
100
AcDbLine
 10
43.45802067267883
 20
1.492541108378878
 30
0.0
 11
44.99999999995498
 21
3.034520435655023
 31
0.0
  0
LINE
  5
218BD
330
21899
100
AcDbEntity
  8
0
  6
CONTINUOUS
100
AcDbLine
 10
43.77548298525902
 20
1.136484211878871
 30
0.0
 11
44.99999999995498
 21
2.361001226574837
 31
0.0
  0
LINE
  5
218BE
330
21899
100
AcDbEntity
  8
0
  6
CONTINUOUS
100
AcDbLine
 10
44.09294529783919
 20
0.7804273153788639
 30
0.0
 11
44.99999999995498
 21
1.687482017494649
 31
0.0
  0
LINE
  5
218BF
330
21899
100
AcDbEntity
  8
0
  6
CONTINUOUS
100
AcDbLine
 10
44.41040761041938
 20
0.4243704188788566
 30
0.0
 11
44.99999999995498
 21
1.013962808414463
 31
0.0
  0
LINE
  5
218C0
330
21899
100
AcDbEntity
  8
0
  6
CONTINUOUS
100
AcDbLine
 10
44.72786992299955
 20
0.0683135223788494
 30
0.0
 11
44.99999999995498
 21
0.340443599334276
 31
0.0
  0
LINE
  5
218C1
330
21899
100
AcDbEntity
  8
0
  6
CONTINUOUS
100
AcDbLine
 10
39.12223903415696
 20
-0.0000000000000009
 30
0.0
 11
38.60499999996136
 21
0.5172390341955961
 31
0.0
  0
LINE
  5
218C2
330
21899
100
AcDbEntity
  8
0
  6
CONTINUOUS
100
AcDbLine
 10
39.79575824323715
 20
-0.0000000000000009
 30
0.0
 11
38.60499999996136
 21
1.190758243275783
 31
0.0
  0
LINE
  5
218C3
330
21899
100
AcDbEntity
  8
0
  6
CONTINUOUS
100
AcDbLine
 10
40.02599999995994
 20
0.443277452357397
 30
0.0
 11
38.60499999996136
 21
1.864277452355969
 31
0.0
  0
LINE
  5
218C4
330
21899
100
AcDbEntity
  8
0
  6
CONTINUOUS
100
AcDbLine
 10
40.02599999995994
 20
1.116796661437583
 30
0.0
 11
38.60499999996136
 21
2.537796661436155
 31
0.0
  0
LINE
  5
218C5
330
21899
100
AcDbEntity
  8
0
  6
CONTINUOUS
100
AcDbLine
 10
40.02599999995994
 20
1.79031587051777
 30
0.0
 11
38.60499999996136
 21
3.211315870516341
 31
0.0
  0
LINE
  5
218C6
330
21899
100
AcDbEntity
  8
0
  6
CONTINUOUS
100
AcDbLine
 10
40.02599999995994
 20
2.463835079597956
 30
0.0
 11
38.60499999996136
 21
3.884835079596527
 31
0.0
  0
LINE
  5
218C7
330
21899
100
AcDbEntity
  8
0
  6
CONTINUOUS
100
AcDbLine
 10
40.02599999995994
 20
3.137354288678143
 30
0.0
 11
38.60499999996136
 21
4.558354288676714
 31
0.0
  0
LINE
  5
218C8
330
21899
100
AcDbEntity
  8
0
  6
CONTINUOUS
100
AcDbLine
 10
40.02599999995994
 20
3.810873497758329
 30
0.0
 11
38.60499999996136
 21
5.2318734977569
 31
0.0
  0
LINE
  5
218C9
330
21899
100
AcDbEntity
  8
0
  6
CONTINUOUS
100
AcDbLine
 10
40.02599999995994
 20
4.484392706838515
 30
0.0
 11
38.60499999996136
 21
5.905392706837086
 31
0.0
  0
LINE
  5
218CA
330
21899
100
AcDbEntity
  8
0
  6
CONTINUOUS
100
AcDbLine
 10
44.99999999995498
 20
0.183911915923658
 30
0.0
 11
41.53858364506288
 21
3.64532827081576
 31
0.0
  0
LINE
  5
218CB
330
21899
100
AcDbEntity
  8
0
  6
CONTINUOUS
100
AcDbLine
 10
40.02599999995994
 20
5.157911915918703
 30
0.0
 11
38.60499999996136
 21
6.578911915917274
 31
0.0
  0
LINE
  5
218CC
330
21899
100
AcDbEntity
  8
0
  6
CONTINUOUS
100
AcDbLine
 10
44.99999999995498
 20
0.8574311250038447
 30
0.0
 11
38.60499999996136
 21
7.25243112499746
 31
0.0
  0
LINE
  5
218CD
330
21899
100
AcDbEntity
  8
0
  6
CONTINUOUS
100
AcDbLine
 10
44.99999999995498
 20
1.530950334084031
 30
0.0
 11
38.60499999996136
 21
7.925950334077647
 31
0.0
  0
LINE
  5
218CE
330
21899
100
AcDbEntity
  8
0
  6
CONTINUOUS
100
AcDbLine
 10
44.99999999995498
 20
2.204469543164218
 30
0.0
 11
43.57899999995641
 21
3.625469543162789
 31
0.0
  0
LINE
  5
218CF
330
21899
100
AcDbEntity
  8
0
  6
CONTINUOUS
100
AcDbLine
 10
41.89876730984767
 20
5.305702233271528
 30
0.0
 11
38.60499999996136
 21
8.599469543157834
 31
0.0
  0
LINE
  5
218D0
330
21899
100
AcDbEntity
  8
0
  6
CONTINUOUS
100
AcDbLine
 10
44.99999999995498
 20
2.877988752244405
 30
0.0
 11
43.57899999995641
 21
4.298988752242975
 31
0.0
  0
LINE
  5
218D1
330
21899
100
AcDbEntity
  8
0
  6
CONTINUOUS
100
AcDbLine
 10
44.99999999995498
 20
3.551507961324591
 30
0.0
 11
43.57899999995641
 21
4.972507961323163
 31
0.0
  0
LINE
  5
218D2
330
21899
100
AcDbEntity
  8
0
  6
CONTINUOUS
100
AcDbLine
 10
44.99999999995498
 20
4.225027170404777
 30
0.0
 11
43.57899999995641
 21
5.646027170403348
 31
0.0
  0
LINE
  5
218D3
330
21899
100
AcDbEntity
  8
0
  6
CONTINUOUS
100
AcDbLine
 10
44.99999999995498
 20
4.898546379484964
 30
0.0
 11
43.57899999995641
 21
6.319546379483535
 31
0.0
  0
LINE
  5
218D4
330
21899
100
AcDbEntity
  8
0
  6
CONTINUOUS
100
AcDbLine
 10
44.99999999995498
 20
5.572065588565151
 30
0.0
 11
43.57899999995641
 21
6.993065588563722
 31
0.0
  0
LINE
  5
218D5
330
21899
100
AcDbEntity
  8
0
  6
CONTINUOUS
100
AcDbLine
 10
44.99999999995498
 20
6.245584797645336
 30
0.0
 11
43.57899999995641
 21
7.666584797643908
 31
0.0
  0
LINE
  5
218D6
330
21899
100
AcDbEntity
  8
0
  6
CONTINUOUS
100
AcDbLine
 10
44.99999999995498
 20
6.919104006725522
 30
0.0
 11
43.57899999995641
 21
8.340104006724093
 31
0.0
  0
LINE
  5
218D7
330
21899
100
AcDbEntity
  8
0
  6
CONTINUOUS
100
AcDbLine
 10
44.99999999995498
 20
7.592623215805709
 30
0.0
 11
43.82952321576943
 21
8.763099999991255
 31
0.0
  0
LINE
  5
218D8
330
21899
100
AcDbEntity
  8
0
  6
CONTINUOUS
100
AcDbLine
 10
44.99999999995498
 20
8.266142424885896
 30
0.0
 11
44.50304242484962
 21
8.763099999991255
 31
0.0
  0
ENDBLK
  5
21902
330
21899
100
AcDbEntity
  8
0
100
AcDbBlockEnd
  0
BLOCK
  5
21903
330
218D9
100
AcDbEntity
  8
0
100
AcDbBlockBegin
  2
*X34
 70
     1
 10
0.0
 20
0.0
 30
0.0
  3
*X34
  1

  0
LINE
  5
218DA
330
218D9
100
AcDbEntity
  8
0
  6
CONTINUOUS
100
AcDbLine
 10
0.0
 20
8.548461116714023
 30
0.0
 11
0.2146388832772324
 21
8.763099999991255
 31
0.0
  0
LINE
  5
218DB
330
218D9
100
AcDbEntity
  8
0
  6
CONTINUOUS
100
AcDbLine
 10
-0.0000000000000002
 20
7.874941907633837
 30
0.0
 11
0.8881580923574184
 21
8.763099999991255
 31
0.0
  0
LINE
  5
218DC
330
218D9
100
AcDbEntity
  8
0
  6
CONTINUOUS
100
AcDbLine
 10
0.0
 20
7.20142269855365
 30
0.0
 11
1.420999999998572
 21
8.622422698552223
 31
0.0
  0
LINE
  5
218DD
330
218D9
100
AcDbEntity
  8
0
  6
CONTINUOUS
100
AcDbLine
 10
-0.0000000000000001
 20
6.527903489473465
 30
0.0
 11
1.420999999998571
 21
7.948903489472036
 31
0.0
  0
LINE
  5
218DE
330
218D9
100
AcDbEntity
  8
0
  6
CONTINUOUS
100
AcDbLine
 10
-0.0000000000000002
 20
5.854384280393278
 30
0.0
 11
1.420999999998571
 21
7.275384280391849
 31
0.0
  0
LINE
  5
218DF
330
218D9
100
AcDbEntity
  8
0
  6
CONTINUOUS
100
AcDbLine
 10
-0.0000000000000002
 20
5.180865071313091
 30
0.0
 11
1.420999999998571
 21
6.601865071311663
 31
0.0
  0
LINE
  5
218E0
330
218D9
100
AcDbEntity
  8
0
  6
CONTINUOUS
100
AcDbLine
 10
0.0
 20
4.507345862232905
 30
0.0
 11
1.420999999998571
 21
5.928345862231477
 31
0.0
  0
LINE
  5
218E1
330
218D9
100
AcDbEntity
  8
0
  6
CONTINUOUS
100
AcDbLine
 10
-0.0000000000000003
 20
3.833826653152718
 30
0.0
 11
1.420999999998571
 21
5.25482665315129
 31
0.0
  0
LINE
  5
218E2
330
218D9
100
AcDbEntity
  8
0
  6
CONTINUOUS
100
AcDbLine
 10
-0.0000000000000002
 20
3.160307444072532
 30
0.0
 11
1.420999999998571
 21
4.581307444071103
 31
0.0
  0
LINE
  5
218E3
330
218D9
100
AcDbEntity
  8
0
  6
CONTINUOUS
100
AcDbLine
 10
-0.0000000000000001
 20
2.486788234992345
 30
0.0
 11
1.420999999998571
 21
3.907788234990917
 31
0.0
  0
LINE
  5
218E4
330
218D9
100
AcDbEntity
  8
0
  6
CONTINUOUS
100
AcDbLine
 10
-0.0000000000000006
 20
1.813269025912159
 30
0.0
 11
1.420999999998571
 21
3.234269025910731
 31
0.0
  0
LINE
  5
218E5
330
218D9
100
AcDbEntity
  8
0
  6
CONTINUOUS
100
AcDbLine
 10
0.0
 20
1.139749816831973
 30
0.0
 11
1.420999999998571
 21
2.560749816830544
 31
0.0
  0
LINE
  5
218E6
330
218D9
100
AcDbEntity
  8
0
  6
CONTINUOUS
100
AcDbLine
 10
0.0000000000000002
 20
0.466230607751787
 30
0.0
 11
1.420999999998571
 21
1.887230607750358
 31
0.0
  0
LINE
  5
218E7
330
218D9
100
AcDbEntity
  8
0
  6
CONTINUOUS
100
AcDbLine
 10
0.2072886013284003
 20
-0.0000000000000009
 30
0.0
 11
1.420999999998571
 21
1.213711398670171
 31
0.0
  0
LINE
  5
218E8
330
218D9
100
AcDbEntity
  8
0
  6
CONTINUOUS
100
AcDbLine
 10
0.8808078104085864
 20
-0.0000000000000009
 30
0.0
 11
1.420999999998571
 21
0.5401921895899839
 31
0.0
  0
LINE
  5
218E9
330
218D9
100
AcDbEntity
  8
0
  6
CONTINUOUS
100
AcDbLine
 10
0.0581249075061505
 20
-0.0000000000000009
 30
0.0
 11
-0.0000000000000002
 21
0.0581249075061496
 31
0.0
  0
LINE
  5
218EA
330
218D9
100
AcDbEntity
  8
0
  6
CONTINUOUS
100
AcDbLine
 10
0.7316441165863372
 20
-0.0000000000000009
 30
0.0
 11
-0.0000000000000002
 21
0.7316441165863363
 31
0.0
  0
LINE
  5
218EB
330
218D9
100
AcDbEntity
  8
0
  6
CONTINUOUS
100
AcDbLine
 10
1.405163325666523
 20
-0.0000000000000009
 30
0.0
 11
-0.0000000000000002
 21
1.405163325666523
 31
0.0
  0
LINE
  5
218EC
330
218D9
100
AcDbEntity
  8
0
  6
CONTINUOUS
100
AcDbLine
 10
1.420999999998572
 20
0.6576825347481381
 30
0.0
 11
-0.0000000000000001
 21
2.07868253474671
 31
0.0
  0
LINE
  5
218ED
330
218D9
100
AcDbEntity
  8
0
  6
CONTINUOUS
100
AcDbLine
 10
1.420999999998571
 20
1.331201743828324
 30
0.0
 11
-0.0000000000000001
 21
2.752201743826896
 31
0.0
  0
LINE
  5
218EE
330
218D9
100
AcDbEntity
  8
0
  6
CONTINUOUS
100
AcDbLine
 10
1.420999999998571
 20
2.004720952908511
 30
0.0
 11
-0.0000000000000002
 21
3.425720952907082
 31
0.0
  0
LINE
  5
218EF
330
218D9
100
AcDbEntity
  8
0
  6
CONTINUOUS
100
AcDbLine
 10
1.420999999998571
 20
2.678240161988697
 30
0.0
 11
-0.0000000000000001
 21
4.099240161987269
 31
0.0
  0
LINE
  5
218F0
330
218D9
100
AcDbEntity
  8
0
  6
CONTINUOUS
100
AcDbLine
 10
1.420999999998572
 20
3.351759371068884
 30
0.0
 11
0.0
 21
4.772759371067455
 31
0.0
  0
LINE
  5
218F1
330
218D9
100
AcDbEntity
  8
0
  6
CONTINUOUS
100
AcDbLine
 10
1.420999999998571
 20
4.02527858014907
 30
0.0
 11
-0.0000000000000003
 21
5.446278580147642
 31
0.0
  0
LINE
  5
218F2
330
218D9
100
AcDbEntity
  8
0
  6
CONTINUOUS
100
AcDbLine
 10
1.420999999998571
 20
4.698797789229257
 30
0.0
 11
0.0
 21
6.119797789227828
 31
0.0
  0
LINE
  5
218F3
330
218D9
100
AcDbEntity
  8
0
  6
CONTINUOUS
100
AcDbLine
 10
1.420999999998571
 20
5.372316998309444
 30
0.0
 11
-0.0000000000000001
 21
6.793316998308015
 31
0.0
  0
LINE
  5
218F4
330
218D9
100
AcDbEntity
  8
0
  6
CONTINUOUS
100
AcDbLine
 10
1.420999999998572
 20
6.045836207389629
 30
0.0
 11
-0.0000000000000004
 21
7.466836207388202
 31
0.0
  0
LINE
  5
218F5
330
218D9
100
AcDbEntity
  8
0
  6
CONTINUOUS
100
AcDbLine
 10
1.420999999998571
 20
6.719355416469816
 30
0.0
 11
0.0
 21
8.140355416468388
 31
0.0
  0
LINE
  5
218F6
330
218D9
100
AcDbEntity
  8
0
  6
CONTINUOUS
100
AcDbLine
 10
1.420999999998571
 20
7.392874625550003
 30
0.0
 11
0.0507746255573185
 21
8.763099999991255
 31
0.0
  0
LINE
  5
218F7
330
218D9
100
AcDbEntity
  8
0
  6
CONTINUOUS
100
AcDbLine
 10
1.420999999998571
 20
8.06639383463019
 30
0.0
 11
0.7242938346375052
 21
8.763099999991255
 31
0.0
  0
LINE
  5
218F8
330
218D9
100
AcDbEntity
  8
0
  6
CONTINUOUS
100
AcDbLine
 10
1.420999999998571
 20
8.739913043710375
 30
0.0
 11
1.397813043717691
 21
8.763099999991255
 31
0.0
  0
ENDBLK
  5
21904
330
218D9
100
AcDbEntity
  8
0
100
AcDbBlockEnd
  0
ENDSEC
  0
SECTION
  2
ENTITIES
  0
LINE
  5
20CF4
330
18
100
AcDbEntity
  8
01
100
AcDbLine
 10
180.816241615365
 20
-634.7212337595902
 30
0.0
 11
610.8162416153647
 21
-634.72123375959
 31
0.0
  0
LINE
  5
20CF5
330
18
100
AcDbEntity
  8
01
100
AcDbLine
 10
180.816241615365
 20
-622.92123375959
 30
0.0
 11
610.8162416153647
 21
-622.92123375959
 31
0.0
  0
LINE
  5
20CF6
330
18
100
AcDbEntity
  8
01
100
AcDbLine
 10
180.8162416153646
 20
-572.9213303512661
 30
0.0
 11
610.8162416153647
 21
-572.9213303512661
 31
0.0
  0
LINE
  5
20CF7
330
18
100
AcDbEntity
  8
01
100
AcDbLine
 10
180.816241615365
 20
-584.721330351266
 30
0.0
 11
610.8162416153649
 21
-584.721330351266
 31
0.0
  0
LINE
  5
20CF8
330
18
100
AcDbEntity
  8
1CENTER
100
AcDbLine
 10
170.8162416153646
 20
-549.6803753237864
 30
0.0
 11
170.8162416153646
 21
-537.4177730605634
 31
0.0
  0
ARC
  5
20CF9
330
18
100
AcDbEntity
  8
01
100
AcDbCircle
 10
694.016241615365
 20
-637.8212337595901
 30
0.0
 40
1.0
100
AcDbArc
 50
180.0
 51
270.000000000013
  0
LINE
  5
20CFA
330
18
100
AcDbEntity
  8
01
100
AcDbLine
 10
693.016241615365
 20
-637.8212337595901
 30
0.0
 11
693.016241615365
 21
-619.8212337595901
 31
0.0
  0
LINE
  5
20CFB
330
18
100
AcDbEntity
  8
01
100
AcDbLine
 10
736.266241615365
 20
-673.8213303512666
 30
0.0
 11
743.016241615365
 21
-673.8213303512666
 31
0.0
  0
LINE
  5
20CFC
330
18
100
AcDbEntity
  8
01
100
AcDbLine
 10
694.016241615365
 20
-618.8212337595901
 30
0.0
 11
743.016241615365
 21
-618.8212337595901
 31
0.0
  0
LINE
  5
20CFD
330
18
100
AcDbEntity
  8
01
100
AcDbLine
 10
743.016241615365
 20
-618.8312337595903
 30
0.0
 11
743.016241615365
 21
-673.8313303512664
 31
0.0
  0
ARC
  5
20CFE
330
18
100
AcDbEntity
  8
01
100
AcDbCircle
 10
694.016241615365
 20
-619.8212337595901
 30
0.0
 40
1.0
100
AcDbArc
 50
90.0
 51
180.0
  0
LINE
  5
20CFF
330
18
100
AcDbEntity
  8
01
100
AcDbLine
 10
736.2662416153648
 20
-630.8213638694726
 30
0.0
 11
736.266241615365
 21
-673.8313303512664
 31
0.0
  0
ARC
  5
20D00
330
18
100
AcDbEntity
  8
01
100
AcDbCircle
 10
734.516241615364
 20
-673.521330351266
 30
0.0
 40
0.5
100
AcDbArc
 50
180.0
 51
269.999999999987
  0
ARC
  5
20D01
330
18
100
AcDbEntity
  8
01
100
AcDbCircle
 10
736.0662416153647
 20
-673.8213303512671
 30
0.0
 40
0.2
100
AcDbArc
 50
269.999999999987
 51
0.0
  0
LINE
  5
20D02
330
18
100
AcDbEntity
  8
01
100
AcDbLine
 10
736.0662416153647
 20
-674.0213303512669
 30
0.0
 11
734.516241615364
 21
-674.021330351266
 31
0.0
  0
LINE
  5
20D03
330
18
100
AcDbEntity
  8
01
100
AcDbLine
 10
736.0662416153647
 20
-674.0213303512669
 30
0.0
 11
734.516241615364
 21
-674.021330351266
 31
0.0
  0
LINE
  5
20D04
330
18
100
AcDbEntity
  8
01
100
AcDbLine
 10
734.0162416153638
 20
-639.2212337595897
 30
0.0
 11
734.016241615364
 21
-673.521330351266
 31
0.0
  0
LINE
  5
20D05
330
18
100
AcDbEntity
  8
01
100
AcDbLine
 10
734.0162416153631
 20
-638.8212337595901
 30
0.0
 11
734.016241615364
 21
-673.521330351266
 31
0.0
  0
LINE
  5
20D06
330
18
100
AcDbEntity
  8
01
100
AcDbLine
 10
694.0162416153652
 20
-638.8212337595901
 30
0.0
 11
734.0162416153631
 21
-638.8212337595901
 31
0.0
  0
LINE
  5
20D07
330
18
100
AcDbEntity
  8
01
100
AcDbLine
 10
736.266241615364
 20
-643.0212337595908
 30
0.0
 11
736.266241615365
 21
-673.8213303512671
 31
0.0
  0
LINE
  5
20D08
330
18
100
AcDbEntity
  8
01
100
AcDbLine
 10
736.2662416153639
 20
-631.5213638694725
 30
0.0
 11
736.266241615364
 21
-641.5212337595908
 31
0.0
  0
LINE
  5
20D09
330
18
100
AcDbEntity
  8
01
100
AcDbLine
 10
736.2662416153639
 20
-631.5213638694725
 30
0.0
 11
736.266241615364
 21
-641.5212337595908
 31
0.0
  0
LINE
  5
20D0A
330
18
100
AcDbEntity
  8
01
100
AcDbLine
 10
734.0162416153634
 20
-639.2212337595897
 30
0.0
 11
734.016241615364
 21
-673.521330351266
 31
0.0
  0
LINE
  5
20D0B
330
18
100
AcDbEntity
  8
01
100
AcDbLine
 10
734.0162416153638
 20
-629.1213303512667
 30
0.0
 11
734.016241615364
 21
-673.521330351266
 31
0.0
  0
LINE
  5
20D0C
330
18
100
AcDbEntity
  8
01
100
AcDbLine
 10
736.0662416153647
 20
-674.0213303512669
 30
0.0
 11
734.516241615364
 21
-674.021330351266
 31
0.0
  0
LINE
  5
20D0D
330
18
100
AcDbEntity
  8
01
100
AcDbLine
 10
736.0662416153647
 20
-674.0213303512669
 30
0.0
 11
734.516241615364
 21
-674.021330351266
 31
0.0
  0
ARC
  5
20D0E
330
18
100
AcDbEntity
  8
01
100
AcDbCircle
 10
736.0662416153647
 20
-673.8213303512671
 30
0.0
 40
0.2
100
AcDbArc
 50
269.999999999987
 51
0.0
  0
ARC
  5
20D0F
330
18
100
AcDbEntity
  8
01
100
AcDbCircle
 10
734.516241615364
 20
-673.521330351266
 30
0.0
 40
0.5
100
AcDbArc
 50
180.0
 51
269.999999999987
  0
ARC
  5
20D10
330
18
100
AcDbEntity
  8
1PHANTOM
100
AcDbCircle
 10
740.516241615365
 20
-670.8213303512662
 30
0.0
 40
0.5
100
AcDbArc
 50
270.0
 51
0.0
  0
LINE
  5
20D11
330
18
100
AcDbEntity
  8
1PHANTOM
100
AcDbLine
 10
740.516241615365
 20
-671.3213303512662
 30
0.0
 11
736.266241615365
 21
-671.3213303512662
 31
0.0
  0
LINE
  5
20D12
330
18
100
AcDbEntity
  8
1PHANTOM
100
AcDbLine
 10
740.516241615365
 20
-631.3213303512673
 30
0.0
 11
736.2662416153651
 21
-631.3213303512669
 31
0.0
  0
ARC
  5
20D13
330
18
100
AcDbEntity
  8
1PHANTOM
100
AcDbCircle
 10
740.5162416153648
 20
-631.8213303512673
 30
0.0
 40
0.5
100
AcDbArc
 50
0.0
 51
89.99999999999349
  0
LINE
  5
20D14
330
18
100
AcDbEntity
  8
1PHANTOM
100
AcDbLine
 10
741.0162416153648
 20
-631.8213303512673
 30
0.0
 11
741.016241615365
 21
-670.8213303512662
 31
0.0
  0
LINE
  5
20D15
330
18
100
AcDbEntity
  8
01
100
AcDbLine
 10
736.2662416153651
 20
-628.821330351267
 30
0.0
 11
736.266241615365
 21
-673.8313303512664
 31
0.0
  0
LINE
  5
20D17
330
18
100
AcDbEntity
  8
1PHANTOM
100
AcDbLine
 10
740.016241615365
 20
-647.3213302012668
 30
0.0
 11
741.016241615365
 21
-646.3213305012669
 31
0.0
  0
LINE
  5
20D18
330
18
100
AcDbEntity
  8
1PHANTOM
100
AcDbLine
 10
740.0162504571855
 20
-643.0213303512669
 30
0.0
 11
740.0162327735442
 21
-650.6213303512668
 31
0.0
  0
LINE
  5
20D19
330
18
100
AcDbEntity
  8
1PHANTOM
100
AcDbLine
 10
741.016241615365
 20
-643.0213303512669
 30
0.0
 11
741.016241615365
 21
-650.6213303512668
 31
0.0
  0
LINE
  5
20D1A
330
18
100
AcDbEntity
  8
1PHANTOM
100
AcDbLine
 10
740.0162327735442
 20
-650.6213303512668
 30
0.0
 11
741.016241615365
 21
-650.6213303512668
 31
0.0
  0
LINE
  5
20D1B
330
18
100
AcDbEntity
  8
1PHANTOM
100
AcDbLine
 10
740.0162504571855
 20
-643.0213303512669
 30
0.0
 11
741.016241615365
 21
-643.0213303512669
 31
0.0
  0
LINE
  5
20D1D
330
18
100
AcDbEntity
  8
1PHANTOM
100
AcDbLine
 10
740.016241615365
 20
-665.3213302012668
 30
0.0
 11
741.016241615365
 21
-664.3213305012669
 31
0.0
  0
LINE
  5
20D1E
330
18
100
AcDbEntity
  8
1PHANTOM
100
AcDbLine
 10
740.0162504571855
 20
-661.0213303512669
 30
0.0
 11
740.0162327735442
 21
-668.6213303512668
 31
0.0
  0
LINE
  5
20D1F
330
18
100
AcDbEntity
  8
1PHANTOM
100
AcDbLine
 10
741.016241615365
 20
-661.0213303512669
 30
0.0
 11
741.016241615365
 21
-668.6213303512668
 31
0.0
  0
LINE
  5
20D20
330
18
100
AcDbEntity
  8
1PHANTOM
100
AcDbLine
 10
740.0162327735442
 20
-668.6213303512668
 30
0.0
 11
741.016241615365
 21
-668.6213303512668
 31
0.0
  0
LINE
  5
20D21
330
18
100
AcDbEntity
  8
1PHANTOM
100
AcDbLine
 10
740.0162504571855
 20
-661.0213303512669
 30
0.0
 11
741.016241615365
 21
-661.0213303512669
 31
0.0
  0
LINE
  5
20D22
330
18
100
AcDbEntity
  8
1CENTER
100
AcDbLine
 10
703.016241615365
 20
-631.8212337595901
 30
0.0
 11
703.016241615365
 21
-625.8212337595901
 31
0.0
  0
LINE
  5
20D23
330
18
100
AcDbEntity
  8
1CENTER
100
AcDbLine
 10
700.016241615365
 20
-628.8212337595901
 30
0.0
 11
706.016241615365
 21
-628.8212337595901
 31
0.0
  0
LINE
  5
20D24
330
18
100
AcDbEntity
  8
01
100
AcDbLine
 10
752.016241615365
 20
-606.8213303512666
 30
0.0
 11
752.016241615365
 21
-686.8213303512662
 31
0.0
  0
LINE
  5
20D25
330
18
100
AcDbEntity
  8
01
100
AcDbLine
 10
761.016241615365
 20
-606.8213303512666
 30
0.0
 11
761.016241615365
 21
-686.8213303512662
 31
0.0
  0
LINE
  5
20D26
330
18
100
AcDbEntity
  8
01
100
AcDbLine
 10
743.016241615365
 20
-606.8213303512666
 30
0.0
 11
743.016241615365
 21
-686.8213303512662
 31
0.0
  0
ARC
  5
20D31
330
18
100
AcDbEntity
  8
1HIDDEN
100
AcDbCircle
 10
631.3162416153647
 20
-628.3213303512666
 30
0.0
 40
0.5
100
AcDbArc
 50
180.0
 51
270.0
  0
LINE
  5
20D32
330
18
100
AcDbEntity
  8
01
100
AcDbLine
 10
629.8162416153647
 20
-638.8212337595901
 30
0.0
 11
611.8162416153647
 21
-638.8212337595901
 31
0.0
  0
LINE
  5
20D33
330
18
100
AcDbEntity
  8
01
100
AcDbLine
 10
610.8162416153647
 20
-619.8212337595901
 30
0.0
 11
610.8162416153647
 21
-637.8212337595901
 31
0.0
  0
LINE
  5
20D34
330
18
100
AcDbEntity
  8
01
100
AcDbLine
 10
630.8162416153647
 20
-619.8212337595901
 30
0.0
 11
630.8162416153647
 21
-637.8212337595901
 31
0.0
  0
LINE
  5
20D35
330
18
100
AcDbEntity
  8
01
100
AcDbLine
 10
611.8162416153647
 20
-618.8212337595901
 30
0.0
 11
629.8162416153647
 21
-618.8212337595901
 31
0.0
  0
ARC
  5
20D36
330
18
100
AcDbEntity
  8
01
100
AcDbCircle
 10
611.8162416153647
 20
-619.8212337595901
 30
0.0
 40
1.0
100
AcDbArc
 50
90.0
 51
180.0
  0
ARC
  5
20D37
330
18
100
AcDbEntity
  8
01
100
AcDbCircle
 10
629.8162416153647
 20
-619.8212337595901
 30
0.0
 40
1.0
100
AcDbArc
 50
0.0
 51
90.0
  0
ARC
  5
20D38
330
18
100
AcDbEntity
  8
01
100
AcDbCircle
 10
611.8162416153647
 20
-637.8212337595901
 30
0.0
 40
1.0
100
AcDbArc
 50
180.0
 51
270.0
  0
ARC
  5
20D39
330
18
100
AcDbEntity
  8
01
100
AcDbCircle
 10
630.2162416153648
 20
-638.2212337595906
 30
0.0
 40
0.8
100
AcDbArc
 50
270.0
 51
0.0
  0
ARC
  5
20D3A
330
18
100
AcDbEntity
  8
01
100
AcDbCircle
 10
611.4162416153644
 20
-638.2212337595902
 30
0.0
 40
0.8
100
AcDbArc
 50
180.0
 51
270.0
  0
ARC
  5
20D3B
330
18
100
AcDbEntity
  8
01
100
AcDbCircle
 10
631.2162416153645
 20
-628.8213303512671
 30
0.0
 40
0.2
100
AcDbArc
 50
90.0
 51
180.0
  0
LINE
  5
20D3C
330
18
100
AcDbEntity
  8
01
100
AcDbLine
 10
631.2162416153645
 20
-628.6213303512668
 30
0.0
 11
642.016241615365
 21
-628.6213303512668
 31
0.0
  0
LINE
  5
20D3D
330
18
100
AcDbEntity
  8
01
100
AcDbLine
 10
631.0162416153645
 20
-628.8213303512671
 30
0.0
 11
631.0162416153647
 21
-638.2212337595906
 31
0.0
  0
LINE
  5
20D3E
330
18
100
AcDbEntity
  8
01
100
AcDbLine
 10
610.6162416153646
 20
-634.72123375959
 30
0.0
 11
610.6162416153644
 21
-638.2212337595902
 31
0.0
  0
ARC
  5
20D3F
330
18
100
AcDbEntity
  8
01
100
AcDbCircle
 10
599.6162416153651
 20
-673.0213303512669
 30
0.0
 40
1.0
100
AcDbArc
 50
180.0
 51
269.999999999974
  0
ARC
  5
20D40
330
18
100
AcDbEntity
  8
01
100
AcDbCircle
 10
642.0162416153647
 20
-673.0213303512664
 30
0.0
 40
1.0
100
AcDbArc
 50
270.000000000013
 51
359.999999999974
  0
ARC
  5
20D41
330
18
100
AcDbEntity
  8
01
100
AcDbCircle
 10
642.0162416153647
 20
-629.6213303512673
 30
0.0
 40
1.0
100
AcDbArc
 50
0.0
 51
89.99999999998697
  0
LINE
  5
20D42
330
18
100
AcDbEntity
  8
01
100
AcDbLine
 10
643.016241615365
 20
-629.6213303512668
 30
0.0
 11
643.016241615365
 21
-673.0213303512669
 31
0.0
  0
LINE
  5
20D43
330
18
100
AcDbEntity
  8
01
100
AcDbLine
 10
598.616241615365
 20
-634.72123375959
 30
0.0
 11
598.6162416153646
 21
-673.0213303512669
 31
0.0
  0
LINE
  5
20D44
330
18
100
AcDbEntity
  8
01
100
AcDbLine
 10
630.2162416153648
 20
-639.0212337595904
 30
0.0
 11
611.4162416153644
 21
-639.0212337595904
 31
0.0
  0
LINE
  5
20D45
330
18
100
AcDbEntity
  8
01
100
AcDbLine
 10
642.016241615365
 20
-674.0213303512669
 30
0.0
 11
599.6162416153646
 21
-674.0213303512669
 31
0.0
  0
ARC
  5
20D46
330
18
100
AcDbEntity
  8
01
100
AcDbCircle
 10
629.8162416153647
 20
-637.8212337595901
 30
0.0
 40
1.0
100
AcDbArc
 50
270.0
 51
0.0
  0
LINE
  5
20D47
330
18
100
AcDbEntity
  8
1CENTER
100
AcDbLine
 10
608.3162416153647
 20
-652.8213303512666
 30
0.0
 11
608.3162416153647
 21
-640.8213303512666
 31
0.0
  0
LINE
  5
20D48
330
18
100
AcDbEntity
  8
1CENTER
100
AcDbLine
 10
602.3162416153647
 20
-646.8213303512666
 30
0.0
 11
614.3162416153647
 21
-646.8213303512666
 31
0.0
  0
LINE
  5
20D49
330
18
100
AcDbEntity
  8
1CENTER
100
AcDbLine
 10
633.3162416153647
 20
-652.8213303512666
 30
0.0
 11
633.3162416153647
 21
-640.8213303512666
 31
0.0
  0
LINE
  5
20D4A
330
18
100
AcDbEntity
  8
1CENTER
100
AcDbLine
 10
627.3162416153647
 20
-646.8213303512666
 30
0.0
 11
639.3162416153647
 21
-646.8213303512666
 31
0.0
  0
LINE
  5
20D4B
330
18
100
AcDbEntity
  8
1CENTER
100
AcDbLine
 10
620.8162416153647
 20
-670.8213303512666
 30
0.0
 11
620.8162416153647
 21
-658.8213303512666
 31
0.0
  0
LINE
  5
20D4C
330
18
100
AcDbEntity
  8
1CENTER
100
AcDbLine
 10
614.8162416153647
 20
-664.8213303512666
 30
0.0
 11
626.8162416153647
 21
-664.8213303512666
 31
0.0
  0
LINE
  5
20D4E
330
18
100
AcDbEntity
  8
01
100
AcDbLine
 10
179.8162416153646
 20
-638.8212337595901
 30
0.0
 11
161.8162416153646
 21
-638.8212337595901
 31
0.0
  0
LINE
  5
20D4F
330
18
100
AcDbEntity
  8
01
100
AcDbLine
 10
160.8162416153646
 20
-619.8212337595901
 30
0.0
 11
160.8162416153646
 21
-637.8212337595901
 31
0.0
  0
LINE
  5
20D50
330
18
100
AcDbEntity
  8
01
100
AcDbLine
 10
180.8162416153646
 20
-619.8212337595901
 30
0.0
 11
180.8162416153646
 21
-637.8212337595901
 31
0.0
  0
LINE
  5
20D51
330
18
100
AcDbEntity
  8
01
100
AcDbLine
 10
161.8162416153646
 20
-618.8212337595901
 30
0.0
 11
179.8162416153646
 21
-618.8212337595901
 31
0.0
  0
ARC
  5
20D52
330
18
100
AcDbEntity
  8
01
100
AcDbCircle
 10
161.8162416153646
 20
-619.8212337595901
 30
0.0
 40
1.0
100
AcDbArc
 50
90.0
 51
180.0
  0
ARC
  5
20D53
330
18
100
AcDbEntity
  8
01
100
AcDbCircle
 10
179.8162416153646
 20
-619.8212337595901
 30
0.0
 40
1.0
100
AcDbArc
 50
0.0
 51
90.0
  0
ARC
  5
20D54
330
18
100
AcDbEntity
  8
01
100
AcDbCircle
 10
161.8162416153646
 20
-637.8212337595901
 30
0.0
 40
1.0
100
AcDbArc
 50
180.0
 51
270.0
  0
ARC
  5
20D55
330
18
100
AcDbEntity
  8
01
100
AcDbCircle
 10
180.2162416153647
 20
-638.2212337595906
 30
0.0
 40
0.8
100
AcDbArc
 50
270.0
 51
0.0
  0
ARC
  5
20D56
330
18
100
AcDbEntity
  8
01
100
AcDbCircle
 10
161.4162416153645
 20
-638.2212337595902
 30
0.0
 40
0.8
100
AcDbArc
 50
180.0
 51
270.0
  0
LINE
  5
20D57
330
18
100
AcDbEntity
  8
01
100
AcDbLine
 10
181.0162416153644
 20
-634.7212337595902
 30
0.0
 11
181.0162416153648
 21
-638.2212337595906
 31
0.0
  0
LINE
  5
20D58
330
18
100
AcDbEntity
  8
01
100
AcDbLine
 10
160.6162416153647
 20
-628.8213303512671
 30
0.0
 11
160.6162416153643
 21
-638.2212337595902
 31
0.0
  0
ARC
  5
20D59
330
18
100
AcDbEntity
  8
01
100
AcDbCircle
 10
149.6162416153652
 20
-673.0213303512669
 30
0.0
 40
1.0
100
AcDbArc
 50
180.0
 51
269.999999999974
  0
ARC
  5
20D5A
330
18
100
AcDbEntity
  8
01
100
AcDbCircle
 10
192.0162416153648
 20
-673.0213303512664
 30
0.0
 40
1.0
100
AcDbArc
 50
270.000000000013
 51
359.999999999974
  0
LINE
  5
20D5B
330
18
100
AcDbEntity
  8
01
100
AcDbLine
 10
193.0162416153648
 20
-634.7212337595902
 30
0.0
 11
193.0162416153648
 21
-673.0213303512669
 31
0.0
  0
LINE
  5
20D5C
330
18
100
AcDbEntity
  8
01
100
AcDbLine
 10
148.6162416153647
 20
-629.6213303512673
 30
0.0
 11
148.6162416153647
 21
-673.0213303512669
 31
0.0
  0
LINE
  5
20D5D
330
18
100
AcDbEntity
  8
01
100
AcDbLine
 10
180.2162416153647
 20
-639.0212337595904
 30
0.0
 11
161.4162416153645
 21
-639.0212337595904
 31
0.0
  0
LINE
  5
20D5E
330
18
100
AcDbEntity
  8
01
100
AcDbLine
 10
192.0162416153648
 20
-674.0213303512669
 30
0.0
 11
149.6162416153647
 21
-674.0213303512669
 31
0.0
  0
ARC
  5
20D5F
330
18
100
AcDbEntity
  8
01
100
AcDbCircle
 10
179.8162416153646
 20
-637.8212337595901
 30
0.0
 40
1.0
100
AcDbArc
 50
270.0
 51
0.0
  0
LINE
  5
20D60
330
18
100
AcDbEntity
  8
1CENTER
100
AcDbLine
 10
158.3162416153646
 20
-652.8213303512666
 30
0.0
 11
158.3162416153646
 21
-640.8213303512666
 31
0.0
  0
LINE
  5
20D61
330
18
100
AcDbEntity
  8
1CENTER
100
AcDbLine
 10
152.3162416153646
 20
-646.8213303512666
 30
0.0
 11
164.3162416153646
 21
-646.8213303512666
 31
0.0
  0
LINE
  5
20D62
330
18
100
AcDbEntity
  8
1CENTER
100
AcDbLine
 10
183.3162416153646
 20
-652.8213303512666
 30
0.0
 11
183.3162416153646
 21
-640.8213303512666
 31
0.0
  0
LINE
  5
20D63
330
18
100
AcDbEntity
  8
1CENTER
100
AcDbLine
 10
177.3162416153646
 20
-646.8213303512666
 30
0.0
 11
189.3162416153646
 21
-646.8213303512666
 31
0.0
  0
LINE
  5
20D64
330
18
100
AcDbEntity
  8
1CENTER
100
AcDbLine
 10
170.8162416153646
 20
-670.8213303512666
 30
0.0
 11
170.8162416153646
 21
-658.8213303512666
 31
0.0
  0
LINE
  5
20D65
330
18
100
AcDbEntity
  8
1CENTER
100
AcDbLine
 10
164.8162416153646
 20
-664.8213303512666
 30
0.0
 11
176.8162416153646
 21
-664.8213303512666
 31
0.0
  0
ARC
  5
20D66
330
18
100
AcDbEntity
  8
1HIDDEN
100
AcDbCircle
 10
160.3162416153646
 20
-628.3213303512666
 30
0.0
 40
0.5
100
AcDbArc
 50
270.0
 51
0.0
  0
ARC
  5
20D67
330
18
100
AcDbEntity
  8
01
100
AcDbCircle
 10
160.4162416153649
 20
-628.8213303512671
 30
0.0
 40
0.2
100
AcDbArc
 50
0.0
 51
90.0
  0
LINE
  5
20D68
330
18
100
AcDbEntity
  8
01
100
AcDbLine
 10
160.4162416153649
 20
-628.6213303512668
 30
0.0
 11
149.6162416153643
 21
-628.6213303512668
 31
0.0
  0
ARC
  5
20D69
330
18
100
AcDbEntity
  8
01
100
AcDbCircle
 10
149.6162416153647
 20
-629.6213303512673
 30
0.0
 40
1.0
100
AcDbArc
 50
90.00000000001303
 51
180.0
  0
ARC
  5
20D6A
330
18
100
AcDbEntity
  8
01
100
AcDbCircle
 10
629.8162416153647
 20
-587.8212337595901
 30
0.0
 40
1.0
100
AcDbArc
 50
270.0
 51
0.0
  0
ARC
  5
20D6B
330
18
100
AcDbEntity
  8
01
100
AcDbCircle
 10
611.8162416153647
 20
-587.8212337595901
 30
0.0
 40
1.0
100
AcDbArc
 50
180.0
 51
270.0
  0
LINE
  5
20D6C
330
18
100
AcDbEntity
  8
01
100
AcDbLine
 10
642.8162416153649
 20
-545.3212337595901
 30
0.0
 11
630.8162416153647
 21
-545.3212337595901
 31
0.0
  0
LINE
  5
20D6D
330
18
100
AcDbEntity
  8
01
100
AcDbLine
 10
629.8162416153647
 20
-588.8212337595901
 30
0.0
 11
611.8162416153647
 21
-588.8212337595901
 31
0.0
  0
LINE
  5
20D6E
330
18
100
AcDbEntity
  8
01
100
AcDbLine
 10
642.8162416153649
 20
-538.8212337595901
 30
0.0
 11
598.8162416153647
 21
-538.8212337595901
 31
0.0
  0
LINE
  5
20D6F
330
18
100
AcDbEntity
  8
01
100
AcDbLine
 10
598.8162416153647
 20
-538.8212337595901
 30
0.0
 11
598.8162416153647
 21
-545.3212337595901
 31
0.0
  0
LINE
  5
20D70
330
18
100
AcDbEntity
  8
01
100
AcDbLine
 10
642.8162416153649
 20
-538.8212337595901
 30
0.0
 11
642.8162416153649
 21
-545.3212337595901
 31
0.0
  0
LINE
  5
20D71
330
18
100
AcDbEntity
  8
01
100
AcDbLine
 10
610.8162416153647
 20
-538.8212337595901
 30
0.0
 11
610.8162416153647
 21
-587.8212337595901
 31
0.0
  0
LINE
  5
20D72
330
18
100
AcDbEntity
  8
01
100
AcDbLine
 10
630.8162416153647
 20
-538.8212337595901
 30
0.0
 11
630.8162416153647
 21
-587.8212337595901
 31
0.0
  0
LINE
  5
20D73
330
18
100
AcDbEntity
  8
01
100
AcDbLine
 10
610.8162416153644
 20
-545.3212337595901
 30
0.0
 11
598.8162416153647
 21
-545.3212337595901
 31
0.0
  0
LINE
  5
20D74
330
18
100
AcDbEntity
  8
01
100
AcDbLine
 10
598.6162416153644
 20
-547.0712337595901
 30
0.0
 11
598.6162416153644
 21
-545.5212337595899
 31
0.0
  0
ARC
  5
20D75
330
18
100
AcDbEntity
  8
01
100
AcDbCircle
 10
599.1162416153642
 20
-547.0712337595901
 30
0.0
 40
0.5
100
AcDbArc
 50
179.9999999999739
 51
270.000000000026
  0
ARC
  5
20D76
330
18
100
AcDbEntity
  8
01
100
AcDbCircle
 10
598.8162416153644
 20
-545.5212337595899
 30
0.0
 40
0.2
100
AcDbArc
 50
90.0
 51
180.0
  0
ARC
  5
20D77
330
18
100
AcDbEntity
  8
01
100
AcDbCircle
 10
631.2162416153645
 20
-547.3712337595898
 30
0.0
 40
0.2
100
AcDbArc
 50
180.0
 51
270.0
  0
ARC
  5
20D78
330
18
100
AcDbEntity
  8
01
100
AcDbCircle
 10
610.4162416153646
 20
-547.3712337595898
 30
0.0
 40
0.2
100
AcDbArc
 50
270.0
 51
0.0
  0
ARC
  5
20D79
330
18
100
AcDbEntity
  8
01
100
AcDbCircle
 10
631.2162416153645
 20
-545.5212337595899
 30
0.0
 40
0.2
100
AcDbArc
 50
90.0
 51
180.0
  0
ARC
  5
20D7A
330
18
100
AcDbEntity
  8
01
100
AcDbCircle
 10
610.4162416153646
 20
-545.5212337595899
 30
0.0
 40
0.2
100
AcDbArc
 50
0.0
 51
90.0
  0
ARC
  5
20D7B
330
18
100
AcDbEntity
  8
01
100
AcDbCircle
 10
642.8162416153649
 20
-545.5212337595899
 30
0.0
 40
0.2
100
AcDbArc
 50
0.0
 51
90.0
  0
ARC
  5
20D7C
330
18
100
AcDbEntity
  8
01
100
AcDbCircle
 10
642.5162416153652
 20
-547.0712337595901
 30
0.0
 40
0.5
100
AcDbArc
 50
269.999999999974
 51
0.0
  0
LINE
  5
20D7D
330
18
100
AcDbEntity
  8
01
100
AcDbLine
 10
643.016241615365
 20
-547.0712337595901
 30
0.0
 11
643.016241615365
 21
-545.5212337595899
 31
0.0
  0
LINE
  5
20D7E
330
18
100
AcDbEntity
  8
01
100
AcDbLine
 10
631.0162416153645
 20
-547.3712337595898
 30
0.0
 11
631.0162416153645
 21
-545.5212337595899
 31
0.0
  0
LINE
  5
20D7F
330
18
100
AcDbEntity
  8
01
100
AcDbLine
 10
610.6162416153646
 20
-545.5212337595899
 30
0.0
 11
610.6162416153646
 21
-547.3712337595898
 31
0.0
  0
LINE
  5
20D80
330
18
100
AcDbEntity
  8
01
100
AcDbLine
 10
599.1162416153651
 20
-547.5712337595901
 30
0.0
 11
610.8162416153647
 21
-547.5712337595896
 31
0.0
  0
LINE
  5
20D81
330
18
100
AcDbEntity
  8
01
100
AcDbLine
 10
598.8162416153651
 20
-545.3212337595901
 30
0.0
 11
610.8162416153647
 21
-545.3212337595901
 31
0.0
  0
LINE
  5
20D82
330
18
100
AcDbEntity
  8
01
100
AcDbLine
 10
630.8162416153649
 20
-547.5712337595901
 30
0.0
 11
642.5162416153652
 21
-547.5712337595901
 31
0.0
  0
LINE
  5
20D83
330
18
100
AcDbEntity
  8
01
100
AcDbLine
 10
630.8162416153649
 20
-545.3212337595901
 30
0.0
 11
642.8162416153649
 21
-545.3212337595901
 31
0.0
  0
LINE
  5
20D84
330
18
100
AcDbEntity
  8
1PHANTOM
100
AcDbLine
 10
601.8162416153644
 20
-540.8212337595901
 30
0.0
 11
639.8162416153649
 21
-540.8212337595905
 31
0.0
  0
ARC
  5
20D85
330
18
100
AcDbEntity
  8
1PHANTOM
100
AcDbCircle
 10
601.8162416153644
 20
-541.3212337595901
 30
0.0
 40
0.5
100
AcDbArc
 50
90.0
 51
180.0
  0
LINE
  5
20D86
330
18
100
AcDbEntity
  8
1PHANTOM
100
AcDbLine
 10
640.3162416153649
 20
-541.3212337595905
 30
0.0
 11
640.3162416153649
 21
-545.3212337595901
 31
0.0
  0
ARC
  5
20D87
330
18
100
AcDbEntity
  8
1PHANTOM
100
AcDbCircle
 10
639.8162416153649
 20
-541.3212337595905
 30
0.0
 40
0.5
100
AcDbArc
 50
0.0
 51
90.0
  0
LINE
  5
20D88
330
18
100
AcDbEntity
  8
1PHANTOM
100
AcDbLine
 10
601.3162416153644
 20
-541.3212337595901
 30
0.0
 11
601.3162416153644
 21
-545.3212337595901
 31
0.0
  0
LINE
  5
20D8A
330
18
100
AcDbEntity
  8
1PHANTOM
100
AcDbLine
 10
633.816241465365
 20
-541.8212337595901
 30
0.0
 11
632.816241765365
 21
-540.8212337595901
 31
0.0
  0
LINE
  5
20D8B
330
18
100
AcDbEntity
  8
1PHANTOM
100
AcDbLine
 10
629.5162416153651
 20
-541.8212249177695
 30
0.0
 11
637.116241615365
 21
-541.8212426014106
 31
0.0
  0
LINE
  5
20D8C
330
18
100
AcDbEntity
  8
1PHANTOM
100
AcDbLine
 10
629.5162416153651
 20
-540.8212337595901
 30
0.0
 11
637.116241615365
 21
-540.8212337595901
 31
0.0
  0
LINE
  5
20D8D
330
18
100
AcDbEntity
  8
1PHANTOM
100
AcDbLine
 10
637.116241615365
 20
-541.8212426014106
 30
0.0
 11
637.116241615365
 21
-540.8212337595901
 31
0.0
  0
LINE
  5
20D8E
330
18
100
AcDbEntity
  8
1PHANTOM
100
AcDbLine
 10
629.5162416153651
 20
-541.8212249177695
 30
0.0
 11
629.5162416153651
 21
-540.8212337595901
 31
0.0
  0
LINE
  5
20D90
330
18
100
AcDbEntity
  8
1PHANTOM
100
AcDbLine
 10
621.316241465365
 20
-541.8212337595901
 30
0.0
 11
620.316241765365
 21
-540.8212337595901
 31
0.0
  0
LINE
  5
20D91
330
18
100
AcDbEntity
  8
1PHANTOM
100
AcDbLine
 10
617.0162416153651
 20
-541.8212249177695
 30
0.0
 11
624.616241615365
 21
-541.8212426014106
 31
0.0
  0
LINE
  5
20D92
330
18
100
AcDbEntity
  8
1PHANTOM
100
AcDbLine
 10
617.0162416153651
 20
-540.8212337595901
 30
0.0
 11
624.616241615365
 21
-540.8212337595901
 31
0.0
  0
LINE
  5
20D93
330
18
100
AcDbEntity
  8
1PHANTOM
100
AcDbLine
 10
624.616241615365
 20
-541.8212426014106
 30
0.0
 11
624.616241615365
 21
-540.8212337595901
 31
0.0
  0
LINE
  5
20D94
330
18
100
AcDbEntity
  8
1PHANTOM
100
AcDbLine
 10
617.0162416153651
 20
-541.8212249177695
 30
0.0
 11
617.0162416153651
 21
-540.8212337595901
 31
0.0
  0
LINE
  5
20D96
330
18
100
AcDbEntity
  8
1PHANTOM
100
AcDbLine
 10
608.816241465365
 20
-541.8212337595901
 30
0.0
 11
607.816241765365
 21
-540.8212337595901
 31
0.0
  0
LINE
  5
20D97
330
18
100
AcDbEntity
  8
1PHANTOM
100
AcDbLine
 10
604.5162416153651
 20
-541.8212249177695
 30
0.0
 11
612.116241615365
 21
-541.8212426014106
 31
0.0
  0
LINE
  5
20D98
330
18
100
AcDbEntity
  8
1PHANTOM
100
AcDbLine
 10
604.5162416153651
 20
-540.8212337595901
 30
0.0
 11
612.116241615365
 21
-540.8212337595901
 31
0.0
  0
LINE
  5
20D99
330
18
100
AcDbEntity
  8
1PHANTOM
100
AcDbLine
 10
612.116241615365
 20
-541.8212426014106
 30
0.0
 11
612.116241615365
 21
-540.8212337595901
 31
0.0
  0
LINE
  5
20D9A
330
18
100
AcDbEntity
  8
1PHANTOM
100
AcDbLine
 10
604.5162416153651
 20
-541.8212249177695
 30
0.0
 11
604.5162416153651
 21
-540.8212337595901
 31
0.0
  0
ARC
  5
20D9B
330
18
100
AcDbEntity
  8
01
100
AcDbCircle
 10
179.8162416153646
 20
-587.8212337595901
 30
0.0
 40
1.0
100
AcDbArc
 50
270.0
 51
0.0
  0
ARC
  5
20D9C
330
18
100
AcDbEntity
  8
01
100
AcDbCircle
 10
161.8162416153646
 20
-587.8212337595901
 30
0.0
 40
1.0
100
AcDbArc
 50
180.0
 51
270.0
  0
LINE
  5
20D9D
330
18
100
AcDbEntity
  8
01
100
AcDbLine
 10
192.816241615365
 20
-545.3212337595901
 30
0.0
 11
180.8162416153646
 21
-545.3212337595901
 31
0.0
  0
LINE
  5
20D9E
330
18
100
AcDbEntity
  8
01
100
AcDbLine
 10
179.8162416153646
 20
-588.8212337595901
 30
0.0
 11
161.8162416153646
 21
-588.8212337595901
 31
0.0
  0
LINE
  5
20D9F
330
18
100
AcDbEntity
  8
01
100
AcDbLine
 10
192.816241615365
 20
-538.8212337595901
 30
0.0
 11
148.8162416153646
 21
-538.8212337595901
 31
0.0
  0
LINE
  5
20DA0
330
18
100
AcDbEntity
  8
01
100
AcDbLine
 10
148.8162416153646
 20
-538.8212337595901
 30
0.0
 11
148.8162416153646
 21
-545.3212337595901
 31
0.0
  0
LINE
  5
20DA1
330
18
100
AcDbEntity
  8
01
100
AcDbLine
 10
192.816241615365
 20
-538.8212337595901
 30
0.0
 11
192.816241615365
 21
-545.3212337595901
 31
0.0
  0
LINE
  5
20DA2
330
18
100
AcDbEntity
  8
01
100
AcDbLine
 10
160.8162416153646
 20
-538.8212337595901
 30
0.0
 11
160.8162416153646
 21
-587.8212337595901
 31
0.0
  0
LINE
  5
20DA3
330
18
100
AcDbEntity
  8
01
100
AcDbLine
 10
180.8162416153646
 20
-538.8212337595901
 30
0.0
 11
180.8162416153646
 21
-587.8212337595901
 31
0.0
  0
LINE
  5
20DA4
330
18
100
AcDbEntity
  8
01
100
AcDbLine
 10
160.8162416153646
 20
-545.3212337595901
 30
0.0
 11
148.8162416153646
 21
-545.3212337595901
 31
0.0
  0
LINE
  5
20DA5
330
18
100
AcDbEntity
  8
01
100
AcDbLine
 10
148.6162416153643
 20
-547.0712337595901
 30
0.0
 11
148.6162416153643
 21
-545.5212337595899
 31
0.0
  0
ARC
  5
20DA6
330
18
100
AcDbEntity
  8
01
100
AcDbCircle
 10
149.1162416153643
 20
-547.0712337595901
 30
0.0
 40
0.5
100
AcDbArc
 50
179.9999999999739
 51
270.000000000026
  0
ARC
  5
20DA7
330
18
100
AcDbEntity
  8
01
100
AcDbCircle
 10
148.8162416153646
 20
-545.5212337595899
 30
0.0
 40
0.2
100
AcDbArc
 50
90.0
 51
180.0
  0
ARC
  5
20DA8
330
18
100
AcDbEntity
  8
01
100
AcDbCircle
 10
181.2162416153647
 20
-547.3712337595898
 30
0.0
 40
0.2
100
AcDbArc
 50
180.0
 51
270.0
  0
ARC
  5
20DA9
330
18
100
AcDbEntity
  8
01
100
AcDbCircle
 10
160.4162416153645
 20
-547.3712337595898
 30
0.0
 40
0.2
100
AcDbArc
 50
270.0
 51
0.0
  0
ARC
  5
20DAA
330
18
100
AcDbEntity
  8
01
100
AcDbCircle
 10
181.2162416153647
 20
-545.5212337595899
 30
0.0
 40
0.2
100
AcDbArc
 50
90.0
 51
180.0
  0
ARC
  5
20DAB
330
18
100
AcDbEntity
  8
01
100
AcDbCircle
 10
160.4162416153645
 20
-545.5212337595899
 30
0.0
 40
0.2
100
AcDbArc
 50
0.0
 51
90.0
  0
ARC
  5
20DAC
330
18
100
AcDbEntity
  8
01
100
AcDbCircle
 10
192.816241615365
 20
-545.5212337595899
 30
0.0
 40
0.2
100
AcDbArc
 50
0.0
 51
90.0
  0
ARC
  5
20DAD
330
18
100
AcDbEntity
  8
01
100
AcDbCircle
 10
192.5162416153653
 20
-547.0712337595901
 30
0.0
 40
0.5
100
AcDbArc
 50
269.999999999974
 51
0.0
  0
LINE
  5
20DAE
330
18
100
AcDbEntity
  8
01
100
AcDbLine
 10
193.0162416153648
 20
-547.0712337595901
 30
0.0
 11
193.0162416153648
 21
-545.5212337595899
 31
0.0
  0
LINE
  5
20DAF
330
18
100
AcDbEntity
  8
01
100
AcDbLine
 10
181.0162416153644
 20
-547.3712337595898
 30
0.0
 11
181.0162416153644
 21
-545.5212337595899
 31
0.0
  0
LINE
  5
20DB0
330
18
100
AcDbEntity
  8
01
100
AcDbLine
 10
160.6162416153647
 20
-545.5212337595899
 30
0.0
 11
160.6162416153647
 21
-547.3712337595898
 31
0.0
  0
LINE
  5
20DB1
330
18
100
AcDbEntity
  8
01
100
AcDbLine
 10
149.1162416153652
 20
-547.5712337595901
 30
0.0
 11
160.8162416153646
 21
-547.5712337595896
 31
0.0
  0
LINE
  5
20DB2
330
18
100
AcDbEntity
  8
01
100
AcDbLine
 10
148.816241615365
 20
-545.3212337595901
 30
0.0
 11
160.8162416153646
 21
-545.3212337595901
 31
0.0
  0
LINE
  5
20DB3
330
18
100
AcDbEntity
  8
01
100
AcDbLine
 10
180.816241615365
 20
-547.5712337595901
 30
0.0
 11
192.5162416153653
 21
-547.5712337595901
 31
0.0
  0
LINE
  5
20DB4
330
18
100
AcDbEntity
  8
01
100
AcDbLine
 10
180.816241615365
 20
-545.3212337595901
 30
0.0
 11
192.816241615365
 21
-545.3212337595901
 31
0.0
  0
LINE
  5
20DB5
330
18
100
AcDbEntity
  8
1PHANTOM
100
AcDbLine
 10
151.8162416153646
 20
-540.8212337595901
 30
0.0
 11
189.816241615365
 21
-540.8212337595905
 31
0.0
  0
ARC
  5
20DB6
330
18
100
AcDbEntity
  8
1PHANTOM
100
AcDbCircle
 10
151.8162416153646
 20
-541.3212337595901
 30
0.0
 40
0.5
100
AcDbArc
 50
90.0
 51
180.0
  0
LINE
  5
20DB7
330
18
100
AcDbEntity
  8
1PHANTOM
100
AcDbLine
 10
190.316241615365
 20
-541.3212337595905
 30
0.0
 11
190.316241615365
 21
-545.3212337595901
 31
0.0
  0
ARC
  5
20DB8
330
18
100
AcDbEntity
  8
1PHANTOM
100
AcDbCircle
 10
189.816241615365
 20
-541.3212337595905
 30
0.0
 40
0.5
100
AcDbArc
 50
0.0
 51
90.0
  0
LINE
  5
20DB9
330
18
100
AcDbEntity
  8
1PHANTOM
100
AcDbLine
 10
151.3162416153646
 20
-541.3212337595901
 30
0.0
 11
151.3162416153646
 21
-545.3212337595901
 31
0.0
  0
LINE
  5
20DBB
330
18
100
AcDbEntity
  8
1PHANTOM
100
AcDbLine
 10
183.8162414653648
 20
-541.8212337595901
 30
0.0
 11
182.8162417653648
 21
-540.8212337595901
 31
0.0
  0
LINE
  5
20DBC
330
18
100
AcDbEntity
  8
1PHANTOM
100
AcDbLine
 10
179.5162416153648
 20
-541.8212249177695
 30
0.0
 11
187.1162416153647
 21
-541.8212426014106
 31
0.0
  0
LINE
  5
20DBD
330
18
100
AcDbEntity
  8
1PHANTOM
100
AcDbLine
 10
179.5162416153648
 20
-540.8212337595901
 30
0.0
 11
187.1162416153647
 21
-540.8212337595901
 31
0.0
  0
LINE
  5
20DBE
330
18
100
AcDbEntity
  8
1PHANTOM
100
AcDbLine
 10
187.1162416153647
 20
-541.8212426014106
 30
0.0
 11
187.1162416153647
 21
-540.8212337595901
 31
0.0
  0
LINE
  5
20DBF
330
18
100
AcDbEntity
  8
1PHANTOM
100
AcDbLine
 10
179.5162416153648
 20
-541.8212249177695
 30
0.0
 11
179.5162416153648
 21
-540.8212337595901
 31
0.0
  0
LINE
  5
20DC1
330
18
100
AcDbEntity
  8
1PHANTOM
100
AcDbLine
 10
171.3162414653648
 20
-541.8212337595901
 30
0.0
 11
170.3162417653648
 21
-540.8212337595901
 31
0.0
  0
LINE
  5
20DC2
330
18
100
AcDbEntity
  8
1PHANTOM
100
AcDbLine
 10
167.0162416153648
 20
-541.8212249177695
 30
0.0
 11
174.6162416153647
 21
-541.8212426014106
 31
0.0
  0
LINE
  5
20DC3
330
18
100
AcDbEntity
  8
1PHANTOM
100
AcDbLine
 10
167.0162416153648
 20
-540.8212337595901
 30
0.0
 11
174.6162416153647
 21
-540.8212337595901
 31
0.0
  0
LINE
  5
20DC4
330
18
100
AcDbEntity
  8
1PHANTOM
100
AcDbLine
 10
174.6162416153647
 20
-541.8212426014106
 30
0.0
 11
174.6162416153647
 21
-540.8212337595901
 31
0.0
  0
LINE
  5
20DC5
330
18
100
AcDbEntity
  8
1PHANTOM
100
AcDbLine
 10
167.0162416153648
 20
-541.8212249177695
 30
0.0
 11
167.0162416153648
 21
-540.8212337595901
 31
0.0
  0
LINE
  5
20DC7
330
18
100
AcDbEntity
  8
1PHANTOM
100
AcDbLine
 10
158.8162414653648
 20
-541.8212337595901
 30
0.0
 11
157.8162417653648
 21
-540.8212337595901
 31
0.0
  0
LINE
  5
20DC8
330
18
100
AcDbEntity
  8
1PHANTOM
100
AcDbLine
 10
154.5162416153648
 20
-541.8212249177695
 30
0.0
 11
162.1162416153647
 21
-541.8212426014106
 31
0.0
  0
LINE
  5
20DC9
330
18
100
AcDbEntity
  8
1PHANTOM
100
AcDbLine
 10
154.5162416153648
 20
-540.8212337595901
 30
0.0
 11
162.1162416153647
 21
-540.8212337595901
 31
0.0
  0
LINE
  5
20DCA
330
18
100
AcDbEntity
  8
1PHANTOM
100
AcDbLine
 10
162.1162416153647
 20
-541.8212426014106
 30
0.0
 11
162.1162416153647
 21
-540.8212337595901
 31
0.0
  0
LINE
  5
20DCB
330
18
100
AcDbEntity
  8
1PHANTOM
100
AcDbLine
 10
154.5162416153648
 20
-541.8212249177695
 30
0.0
 11
154.5162416153648
 21
-540.8212337595901
 31
0.0
  0
CIRCLE
  5
20DCC
330
18
100
AcDbEntity
  8
1HIDDEN
100
AcDbCircle
 10
703.016241615365
 20
-628.8212337595901
 30
0.0
 40
6.000000000000227
  0
LINE
  5
20DCE
330
18
100
AcDbEntity
  8
01
100
AcDbLine
 10
736.0662416153651
 20
-628.6213303512669
 30
0.0
 11
734.5162416153638
 21
-628.6213303512667
 31
0.0
  0
ARC
  5
20DCF
330
18
100
AcDbEntity
  8
01
100
AcDbCircle
 10
736.0662416153651
 20
-628.821330351267
 30
0.0
 40
0.2
100
AcDbArc
 50
0.0
 51
89.99999999999675
  0
ARC
  5
20DD0
330
18
100
AcDbEntity
  8
01
100
AcDbCircle
 10
734.5162416153638
 20
-629.1213303512667
 30
0.0
 40
0.5
100
AcDbArc
 50
90.0
 51
180.0
  0
LINE
  5
20DD1
330
18
100
AcDbEntity
  8
01
100
AcDbLine
 10
736.2662416153652
 20
-628.8213303512669
 30
0.0
 11
743.016241615365
 21
-628.8213303512669
 31
0.0
  0
TEXT
  5
210E8
330
18
100
AcDbEntity
  8
1TEXT
100
AcDbText
 10
471.1495749486984
 20
-515.5217795748432
 30
0.0
 40
4.0
  1
表面処理
 72
     1
 11
480.416241615365
 21
-515.5217795748432
 31
0.0
100
AcDbText
  0
LINE
  5
210E9
330
18
100
AcDbEntity
  8
1DIM
100
AcDbLine
 10
463.0162416153649
 20
-510.0217795748432
 30
0.0
 11
533.016241615365
 21
-510.0217795748432
 31
0.0
  0
LINE
  5
210EA
330
18
100
AcDbEntity
  8
1DIM
100
AcDbLine
 10
463.0162416153649
 20
-524.0217795748432
 30
0.0
 11
533.016241615365
 21
-524.0217795748432
 31
0.0
  0
LINE
  5
210EB
330
18
100
AcDbEntity
  8
1DIM
100
AcDbLine
 10
463.0162416153649
 20
-517.0217795748432
 30
0.0
 11
533.016241615365
 21
-517.0217795748432
 31
0.0
  0
LINE
  5
210EC
330
18
100
AcDbEntity
  8
1DIM
100
AcDbLine
 10
498.0162416153649
 20
-510.0217795748432
 30
0.0
 11
498.0162416153645
 21
-524.0217795748432
 31
0.0
  0
TEXT
  5
210ED
330
18
100
AcDbEntity
  8
1TEXT
100
AcDbText
 10
508.5495749486984
 20
-515.5217795748432
 30
0.0
 40
4.0
  1
コード
 72
     1
 11
515.416241615365
 21
-515.5217795748432
 31
0.0
100
AcDbText
  0
LINE
  5
210EE
330
18
100
AcDbEntity
  8
1DIM
100
AcDbLine
 10
463.0162416153649
 20
-524.0217795748432
 30
0.0
 11
463.0162416153649
 21
-510.0217795748432
 31
0.0
  0
LINE
  5
210EF
330
18
100
AcDbEntity
  8
1DIM
100
AcDbLine
 10
533.0162416153648
 20
-524.0217795748432
 30
0.0
 11
533.016241615365
 21
-510.0217795748432
 31
0.0
  0
TEXT
  5
210F0
330
18
100
AcDbEntity
  8
1TEXT
100
AcDbText
 10
463.0162416153649
 20
-505.0217795748432
 30
0.0
 40
8.0
  1
SC-041-X
100
AcDbText
  0
TEXT
  5
210F1
330
18
100
AcDbEntity
  8
1TEXT
100
AcDbText
 10
470.9495749486984
 20
-522.3570682343675
 30
0.0
 40
4.0
  1
クローム
 72
     1
 11
480.416241615365
 21
-522.3570682343675
 31
0.0
100
AcDbText
  0
TEXT
  5
210F2
330
18
100
AcDbEntity
  8
1TEXT
100
AcDbText
 10
501.5329082820319
 20
-522.7361365584925
 30
0.0
 40
4.0
  1
SC-041-XC
 41
0.85
 72
     1
 11
515.4162416153653
 21
-522.7361365584925
 31
0.0
100
AcDbText
  0
TEXT
  5
21441
330
18
100
AcDbEntity
  8
01
  6
CONTINUOUS
100
AcDbText
 10
748.6499232472988
 20
-592.177200230258
 30
0.0
 40
3.5
  1
PB
100
AcDbText
  0
TEXT
  5
21442
330
18
100
AcDbEntity
  8
01
  6
CONTINUOUS
100
AcDbText
 10
761.785341392464
 20
-592.177200230258
 30
0.0
 40
3.5
  1
合板9mm以上
100
AcDbText
  0
LINE
  5
21443
330
18
100
AcDbEntity
  8
1DIM1
100
AcDbLine
 10
170.8162416153646
 20
-670.8213303512666
 30
0.0
 11
170.8162416153646
 21
-714.2548668081866
 31
0.0
1001
ACAD
1000
DSTYLE
1002
{
1070
    40
1040
3.0
1070
   271
1070
     0
1002
}
  0
LINE
  5
21444
330
18
100
AcDbEntity
  8
1DIM1
100
AcDbLine
 10
620.8162416153647
 20
-670.8213303512666
 30
0.0
 11
620.8162416153647
 21
-714.2548668081866
 31
0.0
1001
ACAD
1000
DSTYLE
1002
{
1070
    40
1040
3.0
1070
   271
1070
     0
1002
}
  0
LINE
  5
21445
330
18
100
AcDbEntity
  8
1DIM1
100
AcDbLine
 10
176.8162416153646
 20
-711.2548668081866
 30
0.0
 11
614.8162416153647
 21
-711.2548668081866
 31
0.0
1001
ACAD
1000
DSTYLE
1002
{
1070
    40
1040
3.0
1070
   271
1070
     0
1002
}
  0
LINE
  5
21449
330
18
100
AcDbEntity
  8
1DIM1
100
AcDbLine
 10
148.6162416153647
 20
-673.0213303512669
 30
0.0
 11
148.6162416153647
 21
-737.0213303512669
 31
0.0
1001
ACAD
1000
DSTYLE
1002
{
1070
    40
1040
3.0
1070
   271
1070
     0
1002
}
  0
LINE
  5
2144A
330
18
100
AcDbEntity
  8
1DIM1
100
AcDbLine
 10
643.016241615365
 20
-673.0213303512664
 30
0.0
 11
643.016241615365
 21
-737.0213303512669
 31
0.0
1001
ACAD
1000
DSTYLE
1002
{
1070
    40
1040
3.0
1070
   271
1070
     0
1002
}
  0
LINE
  5
2144B
330
18
100
AcDbEntity
  8
1DIM1
100
AcDbLine
 10
154.6162416153647
 20
-734.0213303512669
 30
0.0
 11
637.016241615365
 21
-734.0213303512669
 31
0.0
1001
ACAD
1000
DSTYLE
1002
{
1070
    40
1040
3.0
1070
   271
1070
     0
1002
}
  0
LINE
  5
21450
330
18
100
AcDbEntity
  8
1CENTER
100
AcDbLine
 10
772.9771562065109
 20
-646.8213303512666
 30
0.0
 11
736.345965206056
 21
-646.8213303512666
 31
0.0
  0
LINE
  5
21451
330
18
100
AcDbEntity
  8
0
100
AcDbLine
 10
767.9162441615247
 20
-645.7270065372716
 30
0.0
 11
768.7162395955756
 21
-647.689341626147
 31
0.0
  0
LINE
  5
21452
330
18
100
AcDbEntity
  8
0
100
AcDbLine
 10
768.7162395955756
 20
-647.689341626147
 30
0.0
 11
769.0280094518278
 21
-647.1010650511046
 31
0.0
  0
LINE
  5
21453
330
18
100
AcDbEntity
  8
0
100
AcDbLine
 10
745.5162462687347
 20
-644.8213768871645
 30
0.0
 11
746.3162369615529
 21
-648.8213768871645
 31
0.0
  0
LINE
  5
21454
330
18
100
AcDbEntity
  8
0
100
AcDbLine
 10
756.716246268739
 20
-644.8213768871645
 30
0.0
 11
757.5162369615616
 21
-648.8213768871645
 31
0.0
  0
LINE
  5
21455
330
18
100
AcDbEntity
  8
0
100
AcDbLine
 10
759.9162462687391
 20
-644.8213768871645
 30
0.0
 11
760.7162369615617
 21
-648.8213768871645
 31
0.0
  0
LINE
  5
21456
330
18
100
AcDbEntity
  8
0
100
AcDbLine
 10
760.7162369615617
 20
-648.8213768871645
 30
0.0
 11
760.8162381249589
 21
-648.3213768871645
 31
0.0
  0
LINE
  5
21457
330
18
100
AcDbEntity
  8
0
100
AcDbLine
 10
761.4162451053419
 20
-645.3213768871645
 30
0.0
 11
761.5162462687391
 21
-644.8213768871645
 31
0.0
  0
LINE
  5
21458
330
18
100
AcDbEntity
  8
0
100
AcDbLine
 10
757.5162369615616
 20
-648.8213768871645
 30
0.0
 11
757.6162381249588
 21
-648.3213768871645
 31
0.0
  0
LINE
  5
21459
330
18
100
AcDbEntity
  8
0
100
AcDbLine
 10
759.1162369615618
 20
-648.8213768871645
 30
0.0
 11
759.2162381249589
 21
-648.3213768871645
 31
0.0
  0
LINE
  5
2145A
330
18
100
AcDbEntity
  8
0
100
AcDbLine
 10
759.816245105342
 20
-645.3213768871645
 30
0.0
 11
759.9162462687391
 21
-644.8213768871645
 31
0.0
  0
LINE
  5
2145B
330
18
100
AcDbEntity
  8
0
100
AcDbLine
 10
758.2162451053421
 20
-645.3213768871645
 30
0.0
 11
758.3162462687392
 21
-644.8213768871645
 31
0.0
  0
LINE
  5
2145C
330
18
100
AcDbEntity
  8
0
100
AcDbLine
 10
758.3162462687392
 20
-644.8213768871645
 30
0.0
 11
759.1162369615618
 21
-648.8213768871645
 31
0.0
  0
LINE
  5
2145D
330
18
100
AcDbEntity
  8
0
100
AcDbLine
 10
767.11623854197
 20
-648.1421557305538
 30
0.0
 11
767.299002684598
 21
-647.5904062667505
 31
0.0
  0
LINE
  5
2145E
330
18
100
AcDbEntity
  8
0
100
AcDbLine
 10
763.9162369615617
 20
-648.8213768871645
 30
0.0
 11
764.0162381249588
 21
-648.3213768871645
 31
0.0
  0
LINE
  5
2145F
330
18
100
AcDbEntity
  8
0
100
AcDbLine
 10
762.3162369615617
 20
-648.8213768871645
 30
0.0
 11
762.4162381249587
 21
-648.3213768871645
 31
0.0
  0
LINE
  5
21460
330
18
100
AcDbEntity
  8
0
100
AcDbLine
 10
765.5162374883644
 20
-648.5949698349606
 30
0.0
 11
765.6455081859942
 21
-648.0583760996894
 31
0.0
  0
LINE
  5
21461
330
18
100
AcDbEntity
  8
0
100
AcDbLine
 10
766.2034757027789
 20
-645.7422914843733
 30
0.0
 11
766.3162452151289
 21
-645.2741930292233
 31
0.0
  0
LINE
  5
21462
330
18
100
AcDbEntity
  8
0
100
AcDbLine
 10
763.016245105342
 20
-645.3213768871645
 30
0.0
 11
763.1162462687391
 21
-644.8213768871645
 31
0.0
  0
LINE
  5
21463
330
18
100
AcDbEntity
  8
0
100
AcDbLine
 10
764.6162451053419
 20
-645.3213768871645
 30
0.0
 11
764.716246268739
 21
-644.8213768871645
 31
0.0
  0
LINE
  5
21464
330
18
100
AcDbEntity
  8
0
100
AcDbLine
 10
767.7648083650843
 20
-646.1841783779026
 30
0.0
 11
767.9162441615247
 21
-645.7270065372716
 31
0.0
  0
LINE
  5
21465
330
18
100
AcDbEntity
  8
0
100
AcDbLine
 10
766.3162452151289
 20
-645.2741930292233
 30
0.0
 11
767.11623854197
 21
-648.1421557305538
 31
0.0
  0
LINE
  5
21466
330
18
100
AcDbEntity
  8
0
100
AcDbLine
 10
763.1162462687391
 20
-644.8213768871645
 30
0.0
 11
763.9162369615617
 21
-648.8213768871645
 31
0.0
  0
LINE
  5
21467
330
18
100
AcDbEntity
  8
0
100
AcDbLine
 10
764.716246268739
 20
-644.8213768871645
 30
0.0
 11
765.5162374883644
 21
-648.5949698349606
 31
0.0
  0
LINE
  5
21468
330
18
100
AcDbEntity
  8
0
100
AcDbLine
 10
761.5162462687391
 20
-644.8213768871645
 30
0.0
 11
762.3162369615617
 21
-648.8213768871645
 31
0.0
  0
LINE
  5
21469
330
18
100
AcDbEntity
  8
0
100
AcDbLine
 10
748.7162462687347
 20
-644.8213768871645
 30
0.0
 11
749.516236961553
 21
-648.8213768871645
 31
0.0
  0
LINE
  5
2146A
330
18
100
AcDbEntity
  8
0
100
AcDbLine
 10
749.516236961553
 20
-648.8213768871645
 30
0.0
 11
749.6162381249507
 21
-648.3213768871645
 31
0.0
  0
LINE
  5
2146B
330
18
100
AcDbEntity
  8
0
100
AcDbLine
 10
750.2162451053414
 20
-645.3213768871645
 30
0.0
 11
750.3162462687391
 21
-644.8213768871645
 31
0.0
  0
LINE
  5
2146C
330
18
100
AcDbEntity
  8
0
100
AcDbLine
 10
747.9162369615528
 20
-648.8213768871645
 30
0.0
 11
748.0162381249505
 21
-648.3213768871645
 31
0.0
  0
LINE
  5
2146D
330
18
100
AcDbEntity
  8
0
100
AcDbLine
 10
746.3162369615529
 20
-648.8213768871645
 30
0.0
 11
746.4162381249506
 21
-648.3213768871645
 31
0.0
  0
LINE
  5
2146E
330
18
100
AcDbEntity
  8
0
100
AcDbLine
 10
748.616245105337
 20
-645.3213768871645
 30
0.0
 11
748.7162462687347
 21
-644.8213768871645
 31
0.0
  0
LINE
  5
2146F
330
18
100
AcDbEntity
  8
0
100
AcDbLine
 10
747.0162451053369
 20
-645.3213768871645
 30
0.0
 11
747.1162462687346
 21
-644.8213768871645
 31
0.0
  0
LINE
  5
21470
330
18
100
AcDbEntity
  8
0
100
AcDbLine
 10
747.1162462687346
 20
-644.8213768871645
 30
0.0
 11
747.9162369615528
 21
-648.8213768871645
 31
0.0
  0
LINE
  5
21471
330
18
100
AcDbEntity
  8
0
100
AcDbLine
 10
754.3162369615574
 20
-648.8213768871645
 30
0.0
 11
754.416238124955
 21
-648.3213768871645
 31
0.0
  0
LINE
  5
21472
330
18
100
AcDbEntity
  8
0
100
AcDbLine
 10
755.9162369615617
 20
-648.8213768871645
 30
0.0
 11
756.0162381249588
 21
-648.3213768871645
 31
0.0
  0
LINE
  5
21473
330
18
100
AcDbEntity
  8
0
100
AcDbLine
 10
751.1162369615573
 20
-648.8213768871645
 30
0.0
 11
751.216238124955
 21
-648.3213768871645
 31
0.0
  0
LINE
  5
21474
330
18
100
AcDbEntity
  8
0
100
AcDbLine
 10
752.7162369615572
 20
-648.8213768871645
 30
0.0
 11
752.8162381249549
 21
-648.3213768871645
 31
0.0
  0
LINE
  5
21475
330
18
100
AcDbEntity
  8
0
100
AcDbLine
 10
756.6162451053419
 20
-645.3213768871645
 30
0.0
 11
756.716246268739
 21
-644.8213768871645
 31
0.0
  0
LINE
  5
21476
330
18
100
AcDbEntity
  8
0
100
AcDbLine
 10
755.0162451053413
 20
-645.3213768871645
 30
0.0
 11
755.1162462687391
 21
-644.8213768871645
 31
0.0
  0
LINE
  5
21477
330
18
100
AcDbEntity
  8
0
100
AcDbLine
 10
751.8162451053413
 20
-645.3213768871645
 30
0.0
 11
751.916246268739
 21
-644.8213768871645
 31
0.0
  0
LINE
  5
21478
330
18
100
AcDbEntity
  8
0
100
AcDbLine
 10
753.4162451053414
 20
-645.3213768871645
 30
0.0
 11
753.5162462687391
 21
-644.8213768871645
 31
0.0
  0
LINE
  5
21479
330
18
100
AcDbEntity
  8
0
100
AcDbLine
 10
753.5162462687391
 20
-644.8213768871645
 30
0.0
 11
754.3162369615574
 21
-648.8213768871645
 31
0.0
  0
LINE
  5
2147A
330
18
100
AcDbEntity
  8
0
100
AcDbLine
 10
755.1162462687391
 20
-644.8213768871645
 30
0.0
 11
755.9162369615617
 21
-648.8213768871645
 31
0.0
  0
LINE
  5
2147B
330
18
100
AcDbEntity
  8
0
100
AcDbLine
 10
751.916246268739
 20
-644.8213768871645
 30
0.0
 11
752.7162369615572
 21
-648.8213768871645
 31
0.0
  0
LINE
  5
2147C
330
18
100
AcDbEntity
  8
0
100
AcDbLine
 10
750.3162462687391
 20
-644.8213768871645
 30
0.0
 11
751.1162369615573
 21
-648.8213768871645
 31
0.0
  0
LINE
  5
2147D
330
18
100
AcDbEntity
  8
0
100
AcDbLine
 10
740.0162381250642
 20
-648.3213768871645
 30
0.0
 11
740.0162451054489
 21
-645.3213768871648
 31
0.0
  0
LINE
  5
2147E
330
18
100
AcDbEntity
  8
0
100
AcDbLine
 10
740.6162451053328
 20
-645.3213768871645
 30
0.0
 11
740.7162462687305
 21
-644.8213768871645
 31
0.0
  0
LINE
  5
2147F
330
18
100
AcDbEntity
  8
0
100
AcDbLine
 10
740.7162462687305
 20
-644.8213768871645
 30
0.0
 11
741.5162369615488
 21
-648.8213768871645
 31
0.0
  0
LINE
  5
21480
330
18
100
AcDbEntity
  8
0
100
AcDbLine
 10
741.5162369615488
 20
-648.8213768871645
 30
0.0
 11
741.6162381249464
 21
-648.3213768871645
 31
0.0
  0
LINE
  5
21481
330
18
100
AcDbEntity
  8
0
100
AcDbLine
 10
742.2162451053327
 20
-645.3213768871645
 30
0.0
 11
742.3162462687304
 21
-644.8213768871645
 31
0.0
  0
LINE
  5
21482
330
18
100
AcDbEntity
  8
0
100
AcDbLine
 10
743.8162451053327
 20
-645.3213768871645
 30
0.0
 11
743.9162462687303
 21
-644.8213768871645
 31
0.0
  0
LINE
  5
21483
330
18
100
AcDbEntity
  8
0
100
AcDbLine
 10
743.9162462687303
 20
-644.8213768871645
 30
0.0
 11
744.7162369615486
 21
-648.8213768871645
 31
0.0
  0
LINE
  5
21484
330
18
100
AcDbEntity
  8
0
100
AcDbLine
 10
743.1162369615487
 20
-648.8213768871645
 30
0.0
 11
743.2162381249464
 21
-648.3213768871645
 31
0.0
  0
LINE
  5
21485
330
18
100
AcDbEntity
  8
0
100
AcDbLine
 10
744.7162369615486
 20
-648.8213768871645
 30
0.0
 11
744.8162381249463
 21
-648.3213768871645
 31
0.0
  0
LINE
  5
21486
330
18
100
AcDbEntity
  8
0
100
AcDbLine
 10
742.3162462687304
 20
-644.8213768871645
 30
0.0
 11
743.1162369615487
 21
-648.8213768871645
 31
0.0
  0
LINE
  5
21487
330
18
100
AcDbEntity
  8
0
100
AcDbLine
 10
745.416245105337
 20
-645.3213768871645
 30
0.0
 11
745.5162462687347
 21
-644.8213768871645
 31
0.0
  0
LINE
  5
21489
330
18
100
AcDbEntity
  8
1CENTER
100
AcDbLine
 10
772.9771562065109
 20
-664.8213303512666
 30
0.0
 11
736.345965206056
 21
-664.8213303512666
 31
0.0
  0
LINE
  5
2148A
330
18
100
AcDbEntity
  8
0
100
AcDbLine
 10
767.9162441615247
 20
-663.7270065372716
 30
0.0
 11
768.7162395955756
 21
-665.689341626147
 31
0.0
  0
LINE
  5
2148B
330
18
100
AcDbEntity
  8
0
100
AcDbLine
 10
768.7162395955756
 20
-665.689341626147
 30
0.0
 11
769.0280094518278
 21
-665.1010650511046
 31
0.0
  0
LINE
  5
2148C
330
18
100
AcDbEntity
  8
0
100
AcDbLine
 10
745.5162462687347
 20
-662.8213768871645
 30
0.0
 11
746.3162369615529
 21
-666.8213768871645
 31
0.0
  0
LINE
  5
2148D
330
18
100
AcDbEntity
  8
0
100
AcDbLine
 10
756.716246268739
 20
-662.8213768871645
 30
0.0
 11
757.5162369615616
 21
-666.8213768871645
 31
0.0
  0
LINE
  5
2148E
330
18
100
AcDbEntity
  8
0
100
AcDbLine
 10
759.9162462687391
 20
-662.8213768871645
 30
0.0
 11
760.7162369615617
 21
-666.8213768871645
 31
0.0
  0
LINE
  5
2148F
330
18
100
AcDbEntity
  8
0
100
AcDbLine
 10
760.7162369615617
 20
-666.8213768871645
 30
0.0
 11
760.8162381249589
 21
-666.3213768871645
 31
0.0
  0
LINE
  5
21490
330
18
100
AcDbEntity
  8
0
100
AcDbLine
 10
761.4162451053419
 20
-663.3213768871645
 30
0.0
 11
761.5162462687391
 21
-662.8213768871645
 31
0.0
  0
LINE
  5
21491
330
18
100
AcDbEntity
  8
0
100
AcDbLine
 10
757.5162369615616
 20
-666.8213768871645
 30
0.0
 11
757.6162381249588
 21
-666.3213768871645
 31
0.0
  0
LINE
  5
21492
330
18
100
AcDbEntity
  8
0
100
AcDbLine
 10
759.1162369615618
 20
-666.8213768871645
 30
0.0
 11
759.2162381249589
 21
-666.3213768871645
 31
0.0
  0
LINE
  5
21493
330
18
100
AcDbEntity
  8
0
100
AcDbLine
 10
759.816245105342
 20
-663.3213768871645
 30
0.0
 11
759.9162462687391
 21
-662.8213768871645
 31
0.0
  0
LINE
  5
21494
330
18
100
AcDbEntity
  8
0
100
AcDbLine
 10
758.2162451053421
 20
-663.3213768871645
 30
0.0
 11
758.3162462687392
 21
-662.8213768871645
 31
0.0
  0
LINE
  5
21495
330
18
100
AcDbEntity
  8
0
100
AcDbLine
 10
758.3162462687392
 20
-662.8213768871645
 30
0.0
 11
759.1162369615618
 21
-666.8213768871645
 31
0.0
  0
LINE
  5
21496
330
18
100
AcDbEntity
  8
0
100
AcDbLine
 10
767.11623854197
 20
-666.1421557305538
 30
0.0
 11
767.299002684598
 21
-665.5904062667505
 31
0.0
  0
LINE
  5
21497
330
18
100
AcDbEntity
  8
0
100
AcDbLine
 10
763.9162369615617
 20
-666.8213768871645
 30
0.0
 11
764.0162381249588
 21
-666.3213768871645
 31
0.0
  0
LINE
  5
21498
330
18
100
AcDbEntity
  8
0
100
AcDbLine
 10
762.3162369615617
 20
-666.8213768871645
 30
0.0
 11
762.4162381249587
 21
-666.3213768871645
 31
0.0
  0
LINE
  5
21499
330
18
100
AcDbEntity
  8
0
100
AcDbLine
 10
765.5162374883644
 20
-666.5949698349606
 30
0.0
 11
765.6455081859942
 21
-666.0583760996894
 31
0.0
  0
LINE
  5
2149A
330
18
100
AcDbEntity
  8
0
100
AcDbLine
 10
766.2034757027789
 20
-663.7422914843733
 30
0.0
 11
766.3162452151289
 21
-663.2741930292233
 31
0.0
  0
LINE
  5
2149B
330
18
100
AcDbEntity
  8
0
100
AcDbLine
 10
763.016245105342
 20
-663.3213768871645
 30
0.0
 11
763.1162462687391
 21
-662.8213768871645
 31
0.0
  0
LINE
  5
2149C
330
18
100
AcDbEntity
  8
0
100
AcDbLine
 10
764.6162451053419
 20
-663.3213768871645
 30
0.0
 11
764.716246268739
 21
-662.8213768871645
 31
0.0
  0
LINE
  5
2149D
330
18
100
AcDbEntity
  8
0
100
AcDbLine
 10
767.7648083650843
 20
-664.1841783779026
 30
0.0
 11
767.9162441615247
 21
-663.7270065372716
 31
0.0
  0
LINE
  5
2149E
330
18
100
AcDbEntity
  8
0
100
AcDbLine
 10
766.3162452151289
 20
-663.2741930292233
 30
0.0
 11
767.11623854197
 21
-666.1421557305538
 31
0.0
  0
LINE
  5
2149F
330
18
100
AcDbEntity
  8
0
100
AcDbLine
 10
763.1162462687391
 20
-662.8213768871645
 30
0.0
 11
763.9162369615617
 21
-666.8213768871645
 31
0.0
  0
LINE
  5
214A0
330
18
100
AcDbEntity
  8
0
100
AcDbLine
 10
764.716246268739
 20
-662.8213768871645
 30
0.0
 11
765.5162374883644
 21
-666.5949698349606
 31
0.0
  0
LINE
  5
214A1
330
18
100
AcDbEntity
  8
0
100
AcDbLine
 10
761.5162462687391
 20
-662.8213768871645
 30
0.0
 11
762.3162369615617
 21
-666.8213768871645
 31
0.0
  0
LINE
  5
214A2
330
18
100
AcDbEntity
  8
0
100
AcDbLine
 10
748.7162462687347
 20
-662.8213768871645
 30
0.0
 11
749.516236961553
 21
-666.8213768871645
 31
0.0
  0
LINE
  5
214A3
330
18
100
AcDbEntity
  8
0
100
AcDbLine
 10
749.516236961553
 20
-666.8213768871645
 30
0.0
 11
749.6162381249507
 21
-666.3213768871645
 31
0.0
  0
LINE
  5
214A4
330
18
100
AcDbEntity
  8
0
100
AcDbLine
 10
750.2162451053414
 20
-663.3213768871645
 30
0.0
 11
750.3162462687391
 21
-662.8213768871645
 31
0.0
  0
LINE
  5
214A5
330
18
100
AcDbEntity
  8
0
100
AcDbLine
 10
747.9162369615528
 20
-666.8213768871645
 30
0.0
 11
748.0162381249505
 21
-666.3213768871645
 31
0.0
  0
LINE
  5
214A6
330
18
100
AcDbEntity
  8
0
100
AcDbLine
 10
746.3162369615529
 20
-666.8213768871645
 30
0.0
 11
746.4162381249506
 21
-666.3213768871645
 31
0.0
  0
LINE
  5
214A7
330
18
100
AcDbEntity
  8
0
100
AcDbLine
 10
748.616245105337
 20
-663.3213768871645
 30
0.0
 11
748.7162462687347
 21
-662.8213768871645
 31
0.0
  0
LINE
  5
214A8
330
18
100
AcDbEntity
  8
0
100
AcDbLine
 10
747.0162451053369
 20
-663.3213768871645
 30
0.0
 11
747.1162462687346
 21
-662.8213768871645
 31
0.0
  0
LINE
  5
214A9
330
18
100
AcDbEntity
  8
0
100
AcDbLine
 10
747.1162462687346
 20
-662.8213768871645
 30
0.0
 11
747.9162369615528
 21
-666.8213768871645
 31
0.0
  0
LINE
  5
214AA
330
18
100
AcDbEntity
  8
0
100
AcDbLine
 10
754.3162369615574
 20
-666.8213768871645
 30
0.0
 11
754.416238124955
 21
-666.3213768871645
 31
0.0
  0
LINE
  5
214AB
330
18
100
AcDbEntity
  8
0
100
AcDbLine
 10
755.9162369615617
 20
-666.8213768871645
 30
0.0
 11
756.0162381249588
 21
-666.3213768871645
 31
0.0
  0
LINE
  5
214AC
330
18
100
AcDbEntity
  8
0
100
AcDbLine
 10
751.1162369615573
 20
-666.8213768871645
 30
0.0
 11
751.216238124955
 21
-666.3213768871645
 31
0.0
  0
LINE
  5
214AD
330
18
100
AcDbEntity
  8
0
100
AcDbLine
 10
752.7162369615572
 20
-666.8213768871645
 30
0.0
 11
752.8162381249549
 21
-666.3213768871645
 31
0.0
  0
LINE
  5
214AE
330
18
100
AcDbEntity
  8
0
100
AcDbLine
 10
756.6162451053419
 20
-663.3213768871645
 30
0.0
 11
756.716246268739
 21
-662.8213768871645
 31
0.0
  0
LINE
  5
214AF
330
18
100
AcDbEntity
  8
0
100
AcDbLine
 10
755.0162451053413
 20
-663.3213768871645
 30
0.0
 11
755.1162462687391
 21
-662.8213768871645
 31
0.0
  0
LINE
  5
214B0
330
18
100
AcDbEntity
  8
0
100
AcDbLine
 10
751.8162451053413
 20
-663.3213768871645
 30
0.0
 11
751.916246268739
 21
-662.8213768871645
 31
0.0
  0
LINE
  5
214B1
330
18
100
AcDbEntity
  8
0
100
AcDbLine
 10
753.4162451053414
 20
-663.3213768871645
 30
0.0
 11
753.5162462687391
 21
-662.8213768871645
 31
0.0
  0
LINE
  5
214B2
330
18
100
AcDbEntity
  8
0
100
AcDbLine
 10
753.5162462687391
 20
-662.8213768871645
 30
0.0
 11
754.3162369615574
 21
-666.8213768871645
 31
0.0
  0
LINE
  5
214B3
330
18
100
AcDbEntity
  8
0
100
AcDbLine
 10
755.1162462687391
 20
-662.8213768871645
 30
0.0
 11
755.9162369615617
 21
-666.8213768871645
 31
0.0
  0
LINE
  5
214B4
330
18
100
AcDbEntity
  8
0
100
AcDbLine
 10
751.916246268739
 20
-662.8213768871645
 30
0.0
 11
752.7162369615572
 21
-666.8213768871645
 31
0.0
  0
LINE
  5
214B5
330
18
100
AcDbEntity
  8
0
100
AcDbLine
 10
750.3162462687391
 20
-662.8213768871645
 30
0.0
 11
751.1162369615573
 21
-666.8213768871645
 31
0.0
  0
LINE
  5
214B6
330
18
100
AcDbEntity
  8
0
100
AcDbLine
 10
740.0162381250642
 20
-666.3213768871645
 30
0.0
 11
740.0162451054489
 21
-663.3213768871648
 31
0.0
  0
LINE
  5
214B7
330
18
100
AcDbEntity
  8
0
100
AcDbLine
 10
740.6162451053328
 20
-663.3213768871645
 30
0.0
 11
740.7162462687305
 21
-662.8213768871645
 31
0.0
  0
LINE
  5
214B8
330
18
100
AcDbEntity
  8
0
100
AcDbLine
 10
740.7162462687305
 20
-662.8213768871645
 30
0.0
 11
741.5162369615488
 21
-666.8213768871645
 31
0.0
  0
LINE
  5
214B9
330
18
100
AcDbEntity
  8
0
100
AcDbLine
 10
741.5162369615488
 20
-666.8213768871645
 30
0.0
 11
741.6162381249464
 21
-666.3213768871645
 31
0.0
  0
LINE
  5
214BA
330
18
100
AcDbEntity
  8
0
100
AcDbLine
 10
742.2162451053327
 20
-663.3213768871645
 30
0.0
 11
742.3162462687304
 21
-662.8213768871645
 31
0.0
  0
LINE
  5
214BB
330
18
100
AcDbEntity
  8
0
100
AcDbLine
 10
743.8162451053327
 20
-663.3213768871645
 30
0.0
 11
743.9162462687303
 21
-662.8213768871645
 31
0.0
  0
LINE
  5
214BC
330
18
100
AcDbEntity
  8
0
100
AcDbLine
 10
743.9162462687303
 20
-662.8213768871645
 30
0.0
 11
744.7162369615486
 21
-666.8213768871645
 31
0.0
  0
LINE
  5
214BD
330
18
100
AcDbEntity
  8
0
100
AcDbLine
 10
743.1162369615487
 20
-666.8213768871645
 30
0.0
 11
743.2162381249464
 21
-666.3213768871645
 31
0.0
  0
LINE
  5
214BE
330
18
100
AcDbEntity
  8
0
100
AcDbLine
 10
744.7162369615486
 20
-666.8213768871645
 30
0.0
 11
744.8162381249463
 21
-666.3213768871645
 31
0.0
  0
LINE
  5
214BF
330
18
100
AcDbEntity
  8
0
100
AcDbLine
 10
742.3162462687304
 20
-662.8213768871645
 30
0.0
 11
743.1162369615487
 21
-666.8213768871645
 31
0.0
  0
LINE
  5
214C0
330
18
100
AcDbEntity
  8
0
100
AcDbLine
 10
745.416245105337
 20
-663.3213768871645
 30
0.0
 11
745.5162462687347
 21
-662.8213768871645
 31
0.0
  0
LINE
  5
214C1
330
18
100
AcDbEntity
  8
1DIM
100
AcDbLine
 10
703.016241615365
 20
-625.8212337595901
 30
0.0
 11
703.016241615365
 21
-607.8212337595901
 31
0.0
1001
ACAD
1000
DSTYLE
1002
{
1070
   271
1070
     0
1002
}
  0
LINE
  5
214C2
330
18
100
AcDbEntity
  8
1DIM
100
AcDbLine
 10
743.016241615365
 20
-618.8212337595901
 30
0.0
 11
743.016241615365
 21
-607.8212337595901
 31
0.0
1001
ACAD
1000
DSTYLE
1002
{
1070
   271
1070
     0
1002
}
  0
LINE
  5
214C3
330
18
100
AcDbEntity
  8
1DIM
100
AcDbLine
 10
705.016241615365
 20
-608.8212337595901
 30
0.0
 11
741.016241615365
 21
-608.8212337595901
 31
0.0
1001
ACAD
1000
DSTYLE
1002
{
1070
   271
1070
     0
1002
}
  0
LINE
  5
214C7
330
18
100
AcDbEntity
  8
1DIM
100
AcDbLine
 10
693.016241615365
 20
-619.8212337595901
 30
0.0
 11
693.016241615365
 21
-597.8212337595896
 31
0.0
1001
ACAD
1000
DSTYLE
1002
{
1070
   271
1070
     0
1002
}
  0
LINE
  5
214C8
330
18
100
AcDbEntity
  8
1DIM
100
AcDbLine
 10
743.016241615365
 20
-618.8312337595903
 30
0.0
 11
743.016241615365
 21
-597.8212337595896
 31
0.0
1001
ACAD
1000
DSTYLE
1002
{
1070
   271
1070
     0
1002
}
  0
LINE
  5
214C9
330
18
100
AcDbEntity
  8
1DIM
100
AcDbLine
 10
695.016241615365
 20
-598.8212337595896
 30
0.0
 11
741.016241615365
 21
-598.8212337595896
 31
0.0
1001
ACAD
1000
DSTYLE
1002
{
1070
   271
1070
     0
1002
}
  0
LINE
  5
214CD
330
18
100
AcDbEntity
  8
1DIM
100
AcDbLine
 10
694.016241615365
 20
-618.8212337595901
 30
0.0
 11
682.016241615365
 21
-618.8212337595901
 31
0.0
1001
ACAD
1000
DSTYLE
1002
{
1070
   271
1070
     0
1002
}
  0
LINE
  5
214CE
330
18
100
AcDbEntity
  8
1DIM
100
AcDbLine
 10
700.016241615365
 20
-628.8212337595901
 30
0.0
 11
682.016241615365
 21
-628.8212337595901
 31
0.0
1001
ACAD
1000
DSTYLE
1002
{
1070
   271
1070
     0
1002
}
  0
LINE
  5
214CF
330
18
100
AcDbEntity
  8
1DIM
100
AcDbLine
 10
683.016241615365
 20
-620.8212337595901
 30
0.0
 11
683.016241615365
 21
-626.8212337595901
 31
0.0
1001
ACAD
1000
DSTYLE
1002
{
1070
   271
1070
     0
1002
}
  0
LINE
  5
214D3
330
18
100
AcDbEntity
  8
1DIM
100
AcDbLine
 10
694.016241615365
 20
-618.8212337595901
 30
0.0
 11
672.016241615365
 21
-618.8212337595901
 31
0.0
1001
ACAD
1000
DSTYLE
1002
{
1070
   271
1070
     0
1002
}
  0
LINE
  5
214D4
330
18
100
AcDbEntity
  8
1DIM
100
AcDbLine
 10
694.0162416153652
 20
-638.8212337595901
 30
0.0
 11
672.016241615365
 21
-638.8212337595901
 31
0.0
1001
ACAD
1000
DSTYLE
1002
{
1070
   271
1070
     0
1002
}
  0
LINE
  5
214D5
330
18
100
AcDbEntity
  8
1DIM
100
AcDbLine
 10
673.016241615365
 20
-620.8212337595901
 30
0.0
 11
673.016241615365
 21
-636.8212337595901
 31
0.0
1001
ACAD
1000
DSTYLE
1002
{
1070
   271
1070
     0
1002
}
  0
LINE
  5
214D9
330
18
100
AcDbEntity
  8
1DIM
100
AcDbLine
 10
772.9771562065109
 20
-664.8213303512666
 30
0.0
 11
784.0162416153648
 21
-664.8213303512666
 31
0.0
1001
ACAD
1000
DSTYLE
1002
{
1070
   271
1070
     0
1002
}
  0
LINE
  5
214DA
330
18
100
AcDbEntity
  8
1DIM
100
AcDbLine
 10
772.9771562065109
 20
-646.8213303512666
 30
0.0
 11
784.0162416153648
 21
-646.8213303512666
 31
0.0
1001
ACAD
1000
DSTYLE
1002
{
1070
   271
1070
     0
1002
}
  0
LINE
  5
214DB
330
18
100
AcDbEntity
  8
1DIM
100
AcDbLine
 10
783.0162416153648
 20
-662.8213303512666
 30
0.0
 11
783.0162416153648
 21
-648.8213303512666
 31
0.0
1001
ACAD
1000
DSTYLE
1002
{
1070
   271
1070
     0
1002
}
  0
LINE
  5
214DF
330
18
100
AcDbEntity
  8
1DIM
100
AcDbLine
 10
772.9771562065109
 20
-646.8213303512666
 30
0.0
 11
784.0162416153648
 21
-646.8213303512666
 31
0.0
1001
ACAD
1000
DSTYLE
1002
{
1070
   271
1070
     0
1002
}
  0
LINE
  5
214E0
330
18
100
AcDbEntity
  8
1DIM
100
AcDbLine
 10
743.016241615365
 20
-618.8212337595901
 30
0.0
 11
784.0162416153648
 21
-618.8212337595902
 31
0.0
1001
ACAD
1000
DSTYLE
1002
{
1070
   271
1070
     0
1002
}
  0
LINE
  5
214E1
330
18
100
AcDbEntity
  8
1DIM
100
AcDbLine
 10
783.0162416153648
 20
-644.8213303512666
 30
0.0
 11
783.0162416153648
 21
-620.8212337595902
 31
0.0
1001
ACAD
1000
DSTYLE
1002
{
1070
   271
1070
     0
1002
}
  0
LINE
  5
214E5
330
18
100
AcDbEntity
  8
1DIM
100
AcDbLine
 10
642.016241615365
 20
-674.0213303512669
 30
0.0
 11
664.016241615365
 21
-674.0213303512669
 31
0.0
1001
ACAD
1000
DSTYLE
1002
{
1070
   271
1070
     0
1002
}
  0
LINE
  5
214E6
330
18
100
AcDbEntity
  8
1DIM
100
AcDbLine
 10
642.0162416153647
 20
-628.6213303512673
 30
0.0
 11
664.016241615365
 21
-628.6213303512673
 31
0.0
1001
ACAD
1000
DSTYLE
1002
{
1070
   271
1070
     0
1002
}
  0
LINE
  5
214E7
330
18
100
AcDbEntity
  8
1DIM
100
AcDbLine
 10
663.016241615365
 20
-672.0213303512669
 30
0.0
 11
663.016241615365
 21
-630.6213303512673
 31
0.0
1001
ACAD
1000
DSTYLE
1002
{
1070
   271
1070
     0
1002
}
  0
LINE
  5
214EC
330
18
100
AcDbEntity
  8
1CENTER
100
AcDbLine
 10
633.3162416153647
 20
-508.8603191684445
 30
0.0
 11
633.3162416153647
 21
-545.4915101688994
 31
0.0
  0
LINE
  5
214ED
330
18
100
AcDbEntity
  8
0
100
AcDbLine
 10
632.2219178013696
 20
-513.9212312134307
 30
0.0
 11
634.184252890245
 21
-513.1212357793797
 31
0.0
  0
LINE
  5
214EE
330
18
100
AcDbEntity
  8
0
100
AcDbLine
 10
634.184252890245
 20
-513.1212357793797
 30
0.0
 11
633.5959763152026
 21
-512.8094659231276
 31
0.0
  0
LINE
  5
214EF
330
18
100
AcDbEntity
  8
0
100
AcDbLine
 10
631.3162881512626
 20
-536.3212291062207
 30
0.0
 11
635.3162881512626
 21
-535.5212384134024
 31
0.0
  0
LINE
  5
214F0
330
18
100
AcDbEntity
  8
0
100
AcDbLine
 10
631.3162881512626
 20
-525.1212291062163
 30
0.0
 11
635.3162881512626
 21
-524.3212384133938
 31
0.0
  0
LINE
  5
214F1
330
18
100
AcDbEntity
  8
0
100
AcDbLine
 10
631.3162881512626
 20
-521.9212291062163
 30
0.0
 11
635.3162881512626
 21
-521.1212384133937
 31
0.0
  0
LINE
  5
214F2
330
18
100
AcDbEntity
  8
0
100
AcDbLine
 10
635.3162881512626
 20
-521.1212384133937
 30
0.0
 11
634.8162881512626
 21
-521.0212372499965
 31
0.0
  0
LINE
  5
214F3
330
18
100
AcDbEntity
  8
0
100
AcDbLine
 10
631.8162881512626
 20
-520.4212302696135
 30
0.0
 11
631.3162881512626
 21
-520.3212291062163
 31
0.0
  0
LINE
  5
214F4
330
18
100
AcDbEntity
  8
0
100
AcDbLine
 10
635.3162881512626
 20
-524.3212384133938
 30
0.0
 11
634.8162881512626
 21
-524.2212372499965
 31
0.0
  0
LINE
  5
214F5
330
18
100
AcDbEntity
  8
0
100
AcDbLine
 10
635.3162881512626
 20
-522.7212384133936
 30
0.0
 11
634.8162881512626
 21
-522.6212372499965
 31
0.0
  0
LINE
  5
214F6
330
18
100
AcDbEntity
  8
0
100
AcDbLine
 10
631.8162881512626
 20
-522.0212302696134
 30
0.0
 11
631.3162881512626
 21
-521.9212291062163
 31
0.0
  0
LINE
  5
214F7
330
18
100
AcDbEntity
  8
0
100
AcDbLine
 10
631.8162881512626
 20
-523.6212302696133
 30
0.0
 11
631.3162881512626
 21
-523.5212291062162
 31
0.0
  0
LINE
  5
214F8
330
18
100
AcDbEntity
  8
0
100
AcDbLine
 10
631.3162881512626
 20
-523.5212291062162
 30
0.0
 11
635.3162881512626
 21
-522.7212384133936
 31
0.0
  0
LINE
  5
214F9
330
18
100
AcDbEntity
  8
0
100
AcDbLine
 10
634.6370669946518
 20
-514.7212368329854
 30
0.0
 11
634.0853175308486
 21
-514.5384726903574
 31
0.0
  0
LINE
  5
214FA
330
18
100
AcDbEntity
  8
0
100
AcDbLine
 10
635.3162881512626
 20
-517.9212384133937
 30
0.0
 11
634.8162881512626
 21
-517.8212372499966
 31
0.0
  0
LINE
  5
214FB
330
18
100
AcDbEntity
  8
0
100
AcDbLine
 10
635.3162881512626
 20
-519.5212384133937
 30
0.0
 11
634.8162881512626
 21
-519.4212372499967
 31
0.0
  0
LINE
  5
214FC
330
18
100
AcDbEntity
  8
0
100
AcDbLine
 10
635.0898810990586
 20
-516.321237886591
 30
0.0
 11
634.5532873637875
 21
-516.1919671889611
 31
0.0
  0
LINE
  5
214FD
330
18
100
AcDbEntity
  8
0
100
AcDbLine
 10
632.2372027484713
 20
-515.6339996721765
 30
0.0
 11
631.7691042933213
 21
-515.5212301598265
 31
0.0
  0
LINE
  5
214FE
330
18
100
AcDbEntity
  8
0
100
AcDbLine
 10
631.8162881512626
 20
-518.8212302696134
 30
0.0
 11
631.3162881512626
 21
-518.7212291062162
 31
0.0
  0
LINE
  5
214FF
330
18
100
AcDbEntity
  8
0
100
AcDbLine
 10
631.8162881512626
 20
-517.2212302696134
 30
0.0
 11
631.3162881512626
 21
-517.1212291062163
 31
0.0
  0
LINE
  5
21500
330
18
100
AcDbEntity
  8
0
100
AcDbLine
 10
632.6790896420007
 20
-514.0726670098711
 30
0.0
 11
632.2219178013696
 21
-513.9212312134307
 31
0.0
  0
LINE
  5
21501
330
18
100
AcDbEntity
  8
0
100
AcDbLine
 10
631.7691042933213
 20
-515.5212301598265
 30
0.0
 11
634.6370669946518
 21
-514.7212368329854
 31
0.0
  0
LINE
  5
21502
330
18
100
AcDbEntity
  8
0
100
AcDbLine
 10
631.3162881512626
 20
-518.7212291062162
 30
0.0
 11
635.3162881512626
 21
-517.9212384133937
 31
0.0
  0
LINE
  5
21503
330
18
100
AcDbEntity
  8
0
100
AcDbLine
 10
631.3162881512626
 20
-517.1212291062163
 30
0.0
 11
635.0898810990586
 21
-516.321237886591
 31
0.0
  0
LINE
  5
21504
330
18
100
AcDbEntity
  8
0
100
AcDbLine
 10
631.3162881512626
 20
-520.3212291062163
 30
0.0
 11
635.3162881512626
 21
-519.5212384133937
 31
0.0
  0
LINE
  5
21505
330
18
100
AcDbEntity
  8
0
100
AcDbLine
 10
631.3162881512626
 20
-533.1212291062207
 30
0.0
 11
635.3162881512626
 21
-532.3212384134024
 31
0.0
  0
LINE
  5
21506
330
18
100
AcDbEntity
  8
0
100
AcDbLine
 10
635.3162881512626
 20
-532.3212384134024
 30
0.0
 11
634.8162881512626
 21
-532.2212372500047
 31
0.0
  0
LINE
  5
21507
330
18
100
AcDbEntity
  8
0
100
AcDbLine
 10
631.8162881512626
 20
-531.621230269614
 30
0.0
 11
631.3162881512626
 21
-531.5212291062163
 31
0.0
  0
LINE
  5
21508
330
18
100
AcDbEntity
  8
0
100
AcDbLine
 10
635.3162881512626
 20
-533.9212384134025
 30
0.0
 11
634.8162881512626
 21
-533.8212372500049
 31
0.0
  0
LINE
  5
21509
330
18
100
AcDbEntity
  8
0
100
AcDbLine
 10
635.3162881512626
 20
-535.5212384134024
 30
0.0
 11
634.8162881512626
 21
-535.4212372500048
 31
0.0
  0
LINE
  5
2150A
330
18
100
AcDbEntity
  8
0
100
AcDbLine
 10
631.8162881512626
 20
-533.2212302696183
 30
0.0
 11
631.3162881512626
 21
-533.1212291062207
 31
0.0
  0
LINE
  5
2150B
330
18
100
AcDbEntity
  8
0
100
AcDbLine
 10
631.8162881512626
 20
-534.8212302696185
 30
0.0
 11
631.3162881512626
 21
-534.7212291062208
 31
0.0
  0
LINE
  5
2150C
330
18
100
AcDbEntity
  8
0
100
AcDbLine
 10
631.3162881512626
 20
-534.7212291062208
 30
0.0
 11
635.3162881512626
 21
-533.9212384134025
 31
0.0
  0
LINE
  5
2150D
330
18
100
AcDbEntity
  8
0
100
AcDbLine
 10
635.3162881512626
 20
-527.521238413398
 30
0.0
 11
634.8162881512626
 21
-527.4212372500003
 31
0.0
  0
LINE
  5
2150E
330
18
100
AcDbEntity
  8
0
100
AcDbLine
 10
635.3162881512626
 20
-525.9212384133937
 30
0.0
 11
634.8162881512626
 21
-525.8212372499966
 31
0.0
  0
LINE
  5
2150F
330
18
100
AcDbEntity
  8
0
100
AcDbLine
 10
635.3162881512626
 20
-530.721238413398
 30
0.0
 11
634.8162881512626
 21
-530.6212372500004
 31
0.0
  0
LINE
  5
21510
330
18
100
AcDbEntity
  8
0
100
AcDbLine
 10
635.3162881512626
 20
-529.1212384133981
 30
0.0
 11
634.8162881512626
 21
-529.0212372500005
 31
0.0
  0
LINE
  5
21511
330
18
100
AcDbEntity
  8
0
100
AcDbLine
 10
631.8162881512626
 20
-525.2212302696134
 30
0.0
 11
631.3162881512626
 21
-525.1212291062163
 31
0.0
  0
LINE
  5
21512
330
18
100
AcDbEntity
  8
0
100
AcDbLine
 10
631.8162881512626
 20
-526.821230269614
 30
0.0
 11
631.3162881512626
 21
-526.7212291062162
 31
0.0
  0
LINE
  5
21513
330
18
100
AcDbEntity
  8
0
100
AcDbLine
 10
631.8162881512626
 20
-530.0212302696141
 30
0.0
 11
631.3162881512626
 21
-529.9212291062164
 31
0.0
  0
LINE
  5
21514
330
18
100
AcDbEntity
  8
0
100
AcDbLine
 10
631.8162881512626
 20
-528.421230269614
 30
0.0
 11
631.3162881512626
 21
-528.3212291062163
 31
0.0
  0
LINE
  5
21515
330
18
100
AcDbEntity
  8
0
100
AcDbLine
 10
631.3162881512626
 20
-528.3212291062163
 30
0.0
 11
635.3162881512626
 21
-527.521238413398
 31
0.0
  0
LINE
  5
21516
330
18
100
AcDbEntity
  8
0
100
AcDbLine
 10
631.3162881512626
 20
-526.7212291062162
 30
0.0
 11
635.3162881512626
 21
-525.9212384133937
 31
0.0
  0
LINE
  5
21517
330
18
100
AcDbEntity
  8
0
100
AcDbLine
 10
631.3162881512626
 20
-529.9212291062164
 30
0.0
 11
635.3162881512626
 21
-529.1212384133981
 31
0.0
  0
LINE
  5
21518
330
18
100
AcDbEntity
  8
0
100
AcDbLine
 10
631.3162881512626
 20
-531.5212291062163
 30
0.0
 11
635.3162881512626
 21
-530.721238413398
 31
0.0
  0
LINE
  5
21519
330
18
100
AcDbEntity
  8
0
100
AcDbLine
 10
634.8162881512626
 20
-541.8212372498912
 30
0.0
 11
631.8162881512628
 21
-541.8212302695065
 31
0.0
  0
LINE
  5
2151A
330
18
100
AcDbEntity
  8
0
100
AcDbLine
 10
631.8162881512626
 20
-541.2212302696225
 30
0.0
 11
631.3162881512626
 21
-541.1212291062249
 31
0.0
  0
LINE
  5
2151B
330
18
100
AcDbEntity
  8
0
100
AcDbLine
 10
631.3162881512626
 20
-541.1212291062249
 30
0.0
 11
635.3162881512626
 21
-540.3212384134066
 31
0.0
  0
LINE
  5
2151C
330
18
100
AcDbEntity
  8
0
100
AcDbLine
 10
635.3162881512626
 20
-540.3212384134066
 30
0.0
 11
634.8162881512626
 21
-540.2212372500089
 31
0.0
  0
LINE
  5
2151D
330
18
100
AcDbEntity
  8
0
100
AcDbLine
 10
631.8162881512626
 20
-539.6212302696226
 30
0.0
 11
631.3162881512626
 21
-539.521229106225
 31
0.0
  0
LINE
  5
2151E
330
18
100
AcDbEntity
  8
0
100
AcDbLine
 10
631.8162881512626
 20
-538.0212302696227
 30
0.0
 11
631.3162881512626
 21
-537.921229106225
 31
0.0
  0
LINE
  5
2151F
330
18
100
AcDbEntity
  8
0
100
AcDbLine
 10
631.3162881512626
 20
-537.921229106225
 30
0.0
 11
635.3162881512626
 21
-537.1212384134068
 31
0.0
  0
LINE
  5
21520
330
18
100
AcDbEntity
  8
0
100
AcDbLine
 10
635.3162881512626
 20
-538.7212384134067
 30
0.0
 11
634.8162881512626
 21
-538.621237250009
 31
0.0
  0
LINE
  5
21521
330
18
100
AcDbEntity
  8
0
100
AcDbLine
 10
635.3162881512626
 20
-537.1212384134068
 30
0.0
 11
634.8162881512626
 21
-537.0212372500091
 31
0.0
  0
LINE
  5
21522
330
18
100
AcDbEntity
  8
0
100
AcDbLine
 10
631.3162881512626
 20
-539.521229106225
 30
0.0
 11
635.3162881512626
 21
-538.7212384134067
 31
0.0
  0
LINE
  5
21523
330
18
100
AcDbEntity
  8
0
100
AcDbLine
 10
631.8162881512626
 20
-536.4212302696184
 30
0.0
 11
631.3162881512626
 21
-536.3212291062207
 31
0.0
  0
LINE
  5
21525
330
18
100
AcDbEntity
  8
1CENTER
100
AcDbLine
 10
620.8162416153647
 20
-508.8603191684445
 30
0.0
 11
620.8162416153647
 21
-545.4915101688994
 31
0.0
  0
LINE
  5
21526
330
18
100
AcDbEntity
  8
0
100
AcDbLine
 10
619.7219178013696
 20
-513.9212312134307
 30
0.0
 11
621.684252890245
 21
-513.1212357793797
 31
0.0
  0
LINE
  5
21527
330
18
100
AcDbEntity
  8
0
100
AcDbLine
 10
621.684252890245
 20
-513.1212357793797
 30
0.0
 11
621.0959763152026
 21
-512.8094659231276
 31
0.0
  0
LINE
  5
21528
330
18
100
AcDbEntity
  8
0
100
AcDbLine
 10
618.8162881512626
 20
-536.3212291062207
 30
0.0
 11
622.8162881512626
 21
-535.5212384134024
 31
0.0
  0
LINE
  5
21529
330
18
100
AcDbEntity
  8
0
100
AcDbLine
 10
618.8162881512626
 20
-525.1212291062163
 30
0.0
 11
622.8162881512626
 21
-524.3212384133938
 31
0.0
  0
LINE
  5
2152A
330
18
100
AcDbEntity
  8
0
100
AcDbLine
 10
618.8162881512626
 20
-521.9212291062163
 30
0.0
 11
622.8162881512626
 21
-521.1212384133937
 31
0.0
  0
LINE
  5
2152B
330
18
100
AcDbEntity
  8
0
100
AcDbLine
 10
622.8162881512626
 20
-521.1212384133937
 30
0.0
 11
622.3162881512626
 21
-521.0212372499965
 31
0.0
  0
LINE
  5
2152C
330
18
100
AcDbEntity
  8
0
100
AcDbLine
 10
619.3162881512626
 20
-520.4212302696135
 30
0.0
 11
618.8162881512626
 21
-520.3212291062163
 31
0.0
  0
LINE
  5
2152D
330
18
100
AcDbEntity
  8
0
100
AcDbLine
 10
622.8162881512626
 20
-524.3212384133938
 30
0.0
 11
622.3162881512626
 21
-524.2212372499965
 31
0.0
  0
LINE
  5
2152E
330
18
100
AcDbEntity
  8
0
100
AcDbLine
 10
622.8162881512626
 20
-522.7212384133936
 30
0.0
 11
622.3162881512626
 21
-522.6212372499965
 31
0.0
  0
LINE
  5
2152F
330
18
100
AcDbEntity
  8
0
100
AcDbLine
 10
619.3162881512626
 20
-522.0212302696134
 30
0.0
 11
618.8162881512626
 21
-521.9212291062163
 31
0.0
  0
LINE
  5
21530
330
18
100
AcDbEntity
  8
0
100
AcDbLine
 10
619.3162881512626
 20
-523.6212302696133
 30
0.0
 11
618.8162881512626
 21
-523.5212291062162
 31
0.0
  0
LINE
  5
21531
330
18
100
AcDbEntity
  8
0
100
AcDbLine
 10
618.8162881512626
 20
-523.5212291062162
 30
0.0
 11
622.8162881512626
 21
-522.7212384133936
 31
0.0
  0
LINE
  5
21532
330
18
100
AcDbEntity
  8
0
100
AcDbLine
 10
622.1370669946518
 20
-514.7212368329854
 30
0.0
 11
621.5853175308486
 21
-514.5384726903574
 31
0.0
  0
LINE
  5
21533
330
18
100
AcDbEntity
  8
0
100
AcDbLine
 10
622.8162881512626
 20
-517.9212384133937
 30
0.0
 11
622.3162881512626
 21
-517.8212372499966
 31
0.0
  0
LINE
  5
21534
330
18
100
AcDbEntity
  8
0
100
AcDbLine
 10
622.8162881512626
 20
-519.5212384133937
 30
0.0
 11
622.3162881512626
 21
-519.4212372499967
 31
0.0
  0
LINE
  5
21535
330
18
100
AcDbEntity
  8
0
100
AcDbLine
 10
622.5898810990586
 20
-516.321237886591
 30
0.0
 11
622.0532873637875
 21
-516.1919671889611
 31
0.0
  0
LINE
  5
21536
330
18
100
AcDbEntity
  8
0
100
AcDbLine
 10
619.7372027484713
 20
-515.6339996721765
 30
0.0
 11
619.2691042933213
 21
-515.5212301598265
 31
0.0
  0
LINE
  5
21537
330
18
100
AcDbEntity
  8
0
100
AcDbLine
 10
619.3162881512626
 20
-518.8212302696134
 30
0.0
 11
618.8162881512626
 21
-518.7212291062162
 31
0.0
  0
LINE
  5
21538
330
18
100
AcDbEntity
  8
0
100
AcDbLine
 10
619.3162881512626
 20
-517.2212302696134
 30
0.0
 11
618.8162881512626
 21
-517.1212291062163
 31
0.0
  0
LINE
  5
21539
330
18
100
AcDbEntity
  8
0
100
AcDbLine
 10
620.1790896420007
 20
-514.0726670098711
 30
0.0
 11
619.7219178013696
 21
-513.9212312134307
 31
0.0
  0
LINE
  5
2153A
330
18
100
AcDbEntity
  8
0
100
AcDbLine
 10
619.2691042933213
 20
-515.5212301598265
 30
0.0
 11
622.1370669946518
 21
-514.7212368329854
 31
0.0
  0
LINE
  5
2153B
330
18
100
AcDbEntity
  8
0
100
AcDbLine
 10
618.8162881512626
 20
-518.7212291062162
 30
0.0
 11
622.8162881512626
 21
-517.9212384133937
 31
0.0
  0
LINE
  5
2153C
330
18
100
AcDbEntity
  8
0
100
AcDbLine
 10
618.8162881512626
 20
-517.1212291062163
 30
0.0
 11
622.5898810990586
 21
-516.321237886591
 31
0.0
  0
LINE
  5
2153D
330
18
100
AcDbEntity
  8
0
100
AcDbLine
 10
618.8162881512626
 20
-520.3212291062163
 30
0.0
 11
622.8162881512626
 21
-519.5212384133937
 31
0.0
  0
LINE
  5
2153E
330
18
100
AcDbEntity
  8
0
100
AcDbLine
 10
618.8162881512626
 20
-533.1212291062207
 30
0.0
 11
622.8162881512626
 21
-532.3212384134024
 31
0.0
  0
LINE
  5
2153F
330
18
100
AcDbEntity
  8
0
100
AcDbLine
 10
622.8162881512626
 20
-532.3212384134024
 30
0.0
 11
622.3162881512626
 21
-532.2212372500047
 31
0.0
  0
LINE
  5
21540
330
18
100
AcDbEntity
  8
0
100
AcDbLine
 10
619.3162881512626
 20
-531.621230269614
 30
0.0
 11
618.8162881512626
 21
-531.5212291062163
 31
0.0
  0
LINE
  5
21541
330
18
100
AcDbEntity
  8
0
100
AcDbLine
 10
622.8162881512626
 20
-533.9212384134025
 30
0.0
 11
622.3162881512626
 21
-533.8212372500049
 31
0.0
  0
LINE
  5
21542
330
18
100
AcDbEntity
  8
0
100
AcDbLine
 10
622.8162881512626
 20
-535.5212384134024
 30
0.0
 11
622.3162881512626
 21
-535.4212372500048
 31
0.0
  0
LINE
  5
21543
330
18
100
AcDbEntity
  8
0
100
AcDbLine
 10
619.3162881512626
 20
-533.2212302696183
 30
0.0
 11
618.8162881512626
 21
-533.1212291062207
 31
0.0
  0
LINE
  5
21544
330
18
100
AcDbEntity
  8
0
100
AcDbLine
 10
619.3162881512626
 20
-534.8212302696185
 30
0.0
 11
618.8162881512626
 21
-534.7212291062208
 31
0.0
  0
LINE
  5
21545
330
18
100
AcDbEntity
  8
0
100
AcDbLine
 10
618.8162881512626
 20
-534.7212291062208
 30
0.0
 11
622.8162881512626
 21
-533.9212384134025
 31
0.0
  0
LINE
  5
21546
330
18
100
AcDbEntity
  8
0
100
AcDbLine
 10
622.8162881512626
 20
-527.521238413398
 30
0.0
 11
622.3162881512626
 21
-527.4212372500003
 31
0.0
  0
LINE
  5
21547
330
18
100
AcDbEntity
  8
0
100
AcDbLine
 10
622.8162881512626
 20
-525.9212384133937
 30
0.0
 11
622.3162881512626
 21
-525.8212372499966
 31
0.0
  0
LINE
  5
21548
330
18
100
AcDbEntity
  8
0
100
AcDbLine
 10
622.8162881512626
 20
-530.721238413398
 30
0.0
 11
622.3162881512626
 21
-530.6212372500004
 31
0.0
  0
LINE
  5
21549
330
18
100
AcDbEntity
  8
0
100
AcDbLine
 10
622.8162881512626
 20
-529.1212384133981
 30
0.0
 11
622.3162881512626
 21
-529.0212372500005
 31
0.0
  0
LINE
  5
2154A
330
18
100
AcDbEntity
  8
0
100
AcDbLine
 10
619.3162881512626
 20
-525.2212302696134
 30
0.0
 11
618.8162881512626
 21
-525.1212291062163
 31
0.0
  0
LINE
  5
2154B
330
18
100
AcDbEntity
  8
0
100
AcDbLine
 10
619.3162881512626
 20
-526.821230269614
 30
0.0
 11
618.8162881512626
 21
-526.7212291062162
 31
0.0
  0
LINE
  5
2154C
330
18
100
AcDbEntity
  8
0
100
AcDbLine
 10
619.3162881512626
 20
-530.0212302696141
 30
0.0
 11
618.8162881512626
 21
-529.9212291062164
 31
0.0
  0
LINE
  5
2154D
330
18
100
AcDbEntity
  8
0
100
AcDbLine
 10
619.3162881512626
 20
-528.421230269614
 30
0.0
 11
618.8162881512626
 21
-528.3212291062163
 31
0.0
  0
LINE
  5
2154E
330
18
100
AcDbEntity
  8
0
100
AcDbLine
 10
618.8162881512626
 20
-528.3212291062163
 30
0.0
 11
622.8162881512626
 21
-527.521238413398
 31
0.0
  0
LINE
  5
2154F
330
18
100
AcDbEntity
  8
0
100
AcDbLine
 10
618.8162881512626
 20
-526.7212291062162
 30
0.0
 11
622.8162881512626
 21
-525.9212384133937
 31
0.0
  0
LINE
  5
21550
330
18
100
AcDbEntity
  8
0
100
AcDbLine
 10
618.8162881512626
 20
-529.9212291062164
 30
0.0
 11
622.8162881512626
 21
-529.1212384133981
 31
0.0
  0
LINE
  5
21551
330
18
100
AcDbEntity
  8
0
100
AcDbLine
 10
618.8162881512626
 20
-531.5212291062163
 30
0.0
 11
622.8162881512626
 21
-530.721238413398
 31
0.0
  0
LINE
  5
21552
330
18
100
AcDbEntity
  8
0
100
AcDbLine
 10
622.3162881512626
 20
-541.8212372498912
 30
0.0
 11
619.3162881512628
 21
-541.8212302695065
 31
0.0
  0
LINE
  5
21553
330
18
100
AcDbEntity
  8
0
100
AcDbLine
 10
619.3162881512626
 20
-541.2212302696225
 30
0.0
 11
618.8162881512626
 21
-541.1212291062249
 31
0.0
  0
LINE
  5
21554
330
18
100
AcDbEntity
  8
0
100
AcDbLine
 10
618.8162881512626
 20
-541.1212291062249
 30
0.0
 11
622.8162881512626
 21
-540.3212384134066
 31
0.0
  0
LINE
  5
21555
330
18
100
AcDbEntity
  8
0
100
AcDbLine
 10
622.8162881512626
 20
-540.3212384134066
 30
0.0
 11
622.3162881512626
 21
-540.2212372500089
 31
0.0
  0
LINE
  5
21556
330
18
100
AcDbEntity
  8
0
100
AcDbLine
 10
619.3162881512626
 20
-539.6212302696226
 30
0.0
 11
618.8162881512626
 21
-539.521229106225
 31
0.0
  0
LINE
  5
21557
330
18
100
AcDbEntity
  8
0
100
AcDbLine
 10
619.3162881512626
 20
-538.0212302696227
 30
0.0
 11
618.8162881512626
 21
-537.921229106225
 31
0.0
  0
LINE
  5
21558
330
18
100
AcDbEntity
  8
0
100
AcDbLine
 10
618.8162881512626
 20
-537.921229106225
 30
0.0
 11
622.8162881512626
 21
-537.1212384134068
 31
0.0
  0
LINE
  5
21559
330
18
100
AcDbEntity
  8
0
100
AcDbLine
 10
622.8162881512626
 20
-538.7212384134067
 30
0.0
 11
622.3162881512626
 21
-538.621237250009
 31
0.0
  0
LINE
  5
2155A
330
18
100
AcDbEntity
  8
0
100
AcDbLine
 10
622.8162881512626
 20
-537.1212384134068
 30
0.0
 11
622.3162881512626
 21
-537.0212372500091
 31
0.0
  0
LINE
  5
2155B
330
18
100
AcDbEntity
  8
0
100
AcDbLine
 10
618.8162881512626
 20
-539.521229106225
 30
0.0
 11
622.8162881512626
 21
-538.7212384134067
 31
0.0
  0
LINE
  5
2155C
330
18
100
AcDbEntity
  8
0
100
AcDbLine
 10
619.3162881512626
 20
-536.4212302696184
 30
0.0
 11
618.8162881512626
 21
-536.3212291062207
 31
0.0
  0
LINE
  5
2155E
330
18
100
AcDbEntity
  8
1CENTER
100
AcDbLine
 10
608.3162416153647
 20
-508.8603191684445
 30
0.0
 11
608.3162416153647
 21
-545.4915101688994
 31
0.0
  0
LINE
  5
2155F
330
18
100
AcDbEntity
  8
0
100
AcDbLine
 10
607.2219178013696
 20
-513.9212312134307
 30
0.0
 11
609.184252890245
 21
-513.1212357793797
 31
0.0
  0
LINE
  5
21560
330
18
100
AcDbEntity
  8
0
100
AcDbLine
 10
609.184252890245
 20
-513.1212357793797
 30
0.0
 11
608.5959763152026
 21
-512.8094659231276
 31
0.0
  0
LINE
  5
21561
330
18
100
AcDbEntity
  8
0
100
AcDbLine
 10
606.3162881512626
 20
-536.3212291062207
 30
0.0
 11
610.3162881512626
 21
-535.5212384134024
 31
0.0
  0
LINE
  5
21562
330
18
100
AcDbEntity
  8
0
100
AcDbLine
 10
606.3162881512626
 20
-525.1212291062163
 30
0.0
 11
610.3162881512626
 21
-524.3212384133938
 31
0.0
  0
LINE
  5
21563
330
18
100
AcDbEntity
  8
0
100
AcDbLine
 10
606.3162881512626
 20
-521.9212291062163
 30
0.0
 11
610.3162881512626
 21
-521.1212384133937
 31
0.0
  0
LINE
  5
21564
330
18
100
AcDbEntity
  8
0
100
AcDbLine
 10
610.3162881512626
 20
-521.1212384133937
 30
0.0
 11
609.8162881512626
 21
-521.0212372499965
 31
0.0
  0
LINE
  5
21565
330
18
100
AcDbEntity
  8
0
100
AcDbLine
 10
606.8162881512626
 20
-520.4212302696135
 30
0.0
 11
606.3162881512626
 21
-520.3212291062163
 31
0.0
  0
LINE
  5
21566
330
18
100
AcDbEntity
  8
0
100
AcDbLine
 10
610.3162881512626
 20
-524.3212384133938
 30
0.0
 11
609.8162881512626
 21
-524.2212372499965
 31
0.0
  0
LINE
  5
21567
330
18
100
AcDbEntity
  8
0
100
AcDbLine
 10
610.3162881512626
 20
-522.7212384133936
 30
0.0
 11
609.8162881512626
 21
-522.6212372499965
 31
0.0
  0
LINE
  5
21568
330
18
100
AcDbEntity
  8
0
100
AcDbLine
 10
606.8162881512626
 20
-522.0212302696134
 30
0.0
 11
606.3162881512626
 21
-521.9212291062163
 31
0.0
  0
LINE
  5
21569
330
18
100
AcDbEntity
  8
0
100
AcDbLine
 10
606.8162881512626
 20
-523.6212302696133
 30
0.0
 11
606.3162881512626
 21
-523.5212291062162
 31
0.0
  0
LINE
  5
2156A
330
18
100
AcDbEntity
  8
0
100
AcDbLine
 10
606.3162881512626
 20
-523.5212291062162
 30
0.0
 11
610.3162881512626
 21
-522.7212384133936
 31
0.0
  0
LINE
  5
2156B
330
18
100
AcDbEntity
  8
0
100
AcDbLine
 10
609.6370669946518
 20
-514.7212368329854
 30
0.0
 11
609.0853175308486
 21
-514.5384726903574
 31
0.0
  0
LINE
  5
2156C
330
18
100
AcDbEntity
  8
0
100
AcDbLine
 10
610.3162881512626
 20
-517.9212384133937
 30
0.0
 11
609.8162881512626
 21
-517.8212372499966
 31
0.0
  0
LINE
  5
2156D
330
18
100
AcDbEntity
  8
0
100
AcDbLine
 10
610.3162881512626
 20
-519.5212384133937
 30
0.0
 11
609.8162881512626
 21
-519.4212372499967
 31
0.0
  0
LINE
  5
2156E
330
18
100
AcDbEntity
  8
0
100
AcDbLine
 10
610.0898810990586
 20
-516.321237886591
 30
0.0
 11
609.5532873637875
 21
-516.1919671889611
 31
0.0
  0
LINE
  5
2156F
330
18
100
AcDbEntity
  8
0
100
AcDbLine
 10
607.2372027484713
 20
-515.6339996721765
 30
0.0
 11
606.7691042933213
 21
-515.5212301598265
 31
0.0
  0
LINE
  5
21570
330
18
100
AcDbEntity
  8
0
100
AcDbLine
 10
606.8162881512626
 20
-518.8212302696134
 30
0.0
 11
606.3162881512626
 21
-518.7212291062162
 31
0.0
  0
LINE
  5
21571
330
18
100
AcDbEntity
  8
0
100
AcDbLine
 10
606.8162881512626
 20
-517.2212302696134
 30
0.0
 11
606.3162881512626
 21
-517.1212291062163
 31
0.0
  0
LINE
  5
21572
330
18
100
AcDbEntity
  8
0
100
AcDbLine
 10
607.6790896420007
 20
-514.0726670098711
 30
0.0
 11
607.2219178013696
 21
-513.9212312134307
 31
0.0
  0
LINE
  5
21573
330
18
100
AcDbEntity
  8
0
100
AcDbLine
 10
606.7691042933213
 20
-515.5212301598265
 30
0.0
 11
609.6370669946518
 21
-514.7212368329854
 31
0.0
  0
LINE
  5
21574
330
18
100
AcDbEntity
  8
0
100
AcDbLine
 10
606.3162881512626
 20
-518.7212291062162
 30
0.0
 11
610.3162881512626
 21
-517.9212384133937
 31
0.0
  0
LINE
  5
21575
330
18
100
AcDbEntity
  8
0
100
AcDbLine
 10
606.3162881512626
 20
-517.1212291062163
 30
0.0
 11
610.0898810990586
 21
-516.321237886591
 31
0.0
  0
LINE
  5
21576
330
18
100
AcDbEntity
  8
0
100
AcDbLine
 10
606.3162881512626
 20
-520.3212291062163
 30
0.0
 11
610.3162881512626
 21
-519.5212384133937
 31
0.0
  0
LINE
  5
21577
330
18
100
AcDbEntity
  8
0
100
AcDbLine
 10
606.3162881512626
 20
-533.1212291062207
 30
0.0
 11
610.3162881512626
 21
-532.3212384134024
 31
0.0
  0
LINE
  5
21578
330
18
100
AcDbEntity
  8
0
100
AcDbLine
 10
610.3162881512626
 20
-532.3212384134024
 30
0.0
 11
609.8162881512626
 21
-532.2212372500047
 31
0.0
  0
LINE
  5
21579
330
18
100
AcDbEntity
  8
0
100
AcDbLine
 10
606.8162881512626
 20
-531.621230269614
 30
0.0
 11
606.3162881512626
 21
-531.5212291062163
 31
0.0
  0
LINE
  5
2157A
330
18
100
AcDbEntity
  8
0
100
AcDbLine
 10
610.3162881512626
 20
-533.9212384134025
 30
0.0
 11
609.8162881512626
 21
-533.8212372500049
 31
0.0
  0
LINE
  5
2157B
330
18
100
AcDbEntity
  8
0
100
AcDbLine
 10
610.3162881512626
 20
-535.5212384134024
 30
0.0
 11
609.8162881512626
 21
-535.4212372500048
 31
0.0
  0
LINE
  5
2157C
330
18
100
AcDbEntity
  8
0
100
AcDbLine
 10
606.8162881512626
 20
-533.2212302696183
 30
0.0
 11
606.3162881512626
 21
-533.1212291062207
 31
0.0
  0
LINE
  5
2157D
330
18
100
AcDbEntity
  8
0
100
AcDbLine
 10
606.8162881512626
 20
-534.8212302696185
 30
0.0
 11
606.3162881512626
 21
-534.7212291062208
 31
0.0
  0
LINE
  5
2157E
330
18
100
AcDbEntity
  8
0
100
AcDbLine
 10
606.3162881512626
 20
-534.7212291062208
 30
0.0
 11
610.3162881512626
 21
-533.9212384134025
 31
0.0
  0
LINE
  5
2157F
330
18
100
AcDbEntity
  8
0
100
AcDbLine
 10
610.3162881512626
 20
-527.521238413398
 30
0.0
 11
609.8162881512626
 21
-527.4212372500003
 31
0.0
  0
LINE
  5
21580
330
18
100
AcDbEntity
  8
0
100
AcDbLine
 10
610.3162881512626
 20
-525.9212384133937
 30
0.0
 11
609.8162881512626
 21
-525.8212372499966
 31
0.0
  0
LINE
  5
21581
330
18
100
AcDbEntity
  8
0
100
AcDbLine
 10
610.3162881512626
 20
-530.721238413398
 30
0.0
 11
609.8162881512626
 21
-530.6212372500004
 31
0.0
  0
LINE
  5
21582
330
18
100
AcDbEntity
  8
0
100
AcDbLine
 10
610.3162881512626
 20
-529.1212384133981
 30
0.0
 11
609.8162881512626
 21
-529.0212372500005
 31
0.0
  0
LINE
  5
21583
330
18
100
AcDbEntity
  8
0
100
AcDbLine
 10
606.8162881512626
 20
-525.2212302696134
 30
0.0
 11
606.3162881512626
 21
-525.1212291062163
 31
0.0
  0
LINE
  5
21584
330
18
100
AcDbEntity
  8
0
100
AcDbLine
 10
606.8162881512626
 20
-526.821230269614
 30
0.0
 11
606.3162881512626
 21
-526.7212291062162
 31
0.0
  0
LINE
  5
21585
330
18
100
AcDbEntity
  8
0
100
AcDbLine
 10
606.8162881512626
 20
-530.0212302696141
 30
0.0
 11
606.3162881512626
 21
-529.9212291062164
 31
0.0
  0
LINE
  5
21586
330
18
100
AcDbEntity
  8
0
100
AcDbLine
 10
606.8162881512626
 20
-528.421230269614
 30
0.0
 11
606.3162881512626
 21
-528.3212291062163
 31
0.0
  0
LINE
  5
21587
330
18
100
AcDbEntity
  8
0
100
AcDbLine
 10
606.3162881512626
 20
-528.3212291062163
 30
0.0
 11
610.3162881512626
 21
-527.521238413398
 31
0.0
  0
LINE
  5
21588
330
18
100
AcDbEntity
  8
0
100
AcDbLine
 10
606.3162881512626
 20
-526.7212291062162
 30
0.0
 11
610.3162881512626
 21
-525.9212384133937
 31
0.0
  0
LINE
  5
21589
330
18
100
AcDbEntity
  8
0
100
AcDbLine
 10
606.3162881512626
 20
-529.9212291062164
 30
0.0
 11
610.3162881512626
 21
-529.1212384133981
 31
0.0
  0
LINE
  5
2158A
330
18
100
AcDbEntity
  8
0
100
AcDbLine
 10
606.3162881512626
 20
-531.5212291062163
 30
0.0
 11
610.3162881512626
 21
-530.721238413398
 31
0.0
  0
LINE
  5
2158B
330
18
100
AcDbEntity
  8
0
100
AcDbLine
 10
609.8162881512626
 20
-541.8212372498912
 30
0.0
 11
606.8162881512628
 21
-541.8212302695065
 31
0.0
  0
LINE
  5
2158C
330
18
100
AcDbEntity
  8
0
100
AcDbLine
 10
606.8162881512626
 20
-541.2212302696225
 30
0.0
 11
606.3162881512626
 21
-541.1212291062249
 31
0.0
  0
LINE
  5
2158D
330
18
100
AcDbEntity
  8
0
100
AcDbLine
 10
606.3162881512626
 20
-541.1212291062249
 30
0.0
 11
610.3162881512626
 21
-540.3212384134066
 31
0.0
  0
LINE
  5
2158E
330
18
100
AcDbEntity
  8
0
100
AcDbLine
 10
610.3162881512626
 20
-540.3212384134066
 30
0.0
 11
609.8162881512626
 21
-540.2212372500089
 31
0.0
  0
LINE
  5
2158F
330
18
100
AcDbEntity
  8
0
100
AcDbLine
 10
606.8162881512626
 20
-539.6212302696226
 30
0.0
 11
606.3162881512626
 21
-539.521229106225
 31
0.0
  0
LINE
  5
21590
330
18
100
AcDbEntity
  8
0
100
AcDbLine
 10
606.8162881512626
 20
-538.0212302696227
 30
0.0
 11
606.3162881512626
 21
-537.921229106225
 31
0.0
  0
LINE
  5
21591
330
18
100
AcDbEntity
  8
0
100
AcDbLine
 10
606.3162881512626
 20
-537.921229106225
 30
0.0
 11
610.3162881512626
 21
-537.1212384134068
 31
0.0
  0
LINE
  5
21592
330
18
100
AcDbEntity
  8
0
100
AcDbLine
 10
610.3162881512626
 20
-538.7212384134067
 30
0.0
 11
609.8162881512626
 21
-538.621237250009
 31
0.0
  0
LINE
  5
21593
330
18
100
AcDbEntity
  8
0
100
AcDbLine
 10
610.3162881512626
 20
-537.1212384134068
 30
0.0
 11
609.8162881512626
 21
-537.0212372500091
 31
0.0
  0
LINE
  5
21594
330
18
100
AcDbEntity
  8
0
100
AcDbLine
 10
606.3162881512626
 20
-539.521229106225
 30
0.0
 11
610.3162881512626
 21
-538.7212384134067
 31
0.0
  0
LINE
  5
21595
330
18
100
AcDbEntity
  8
0
100
AcDbLine
 10
606.8162881512626
 20
-536.4212302696184
 30
0.0
 11
606.3162881512626
 21
-536.3212291062207
 31
0.0
  0
LINE
  5
21597
330
18
100
AcDbEntity
  8
1CENTER
100
AcDbLine
 10
183.3162416153646
 20
-508.8603191684445
 30
0.0
 11
183.3162416153646
 21
-545.4915101688994
 31
0.0
  0
LINE
  5
21598
330
18
100
AcDbEntity
  8
0
100
AcDbLine
 10
182.2219178013695
 20
-513.9212312134307
 30
0.0
 11
184.1842528902449
 21
-513.1212357793797
 31
0.0
  0
LINE
  5
21599
330
18
100
AcDbEntity
  8
0
100
AcDbLine
 10
184.1842528902449
 20
-513.1212357793797
 30
0.0
 11
183.5959763152025
 21
-512.8094659231276
 31
0.0
  0
LINE
  5
2159A
330
18
100
AcDbEntity
  8
0
100
AcDbLine
 10
181.3162881512625
 20
-536.3212291062207
 30
0.0
 11
185.3162881512625
 21
-535.5212384134024
 31
0.0
  0
LINE
  5
2159B
330
18
100
AcDbEntity
  8
0
100
AcDbLine
 10
181.3162881512625
 20
-525.1212291062163
 30
0.0
 11
185.3162881512625
 21
-524.3212384133938
 31
0.0
  0
LINE
  5
2159C
330
18
100
AcDbEntity
  8
0
100
AcDbLine
 10
181.3162881512625
 20
-521.9212291062163
 30
0.0
 11
185.3162881512625
 21
-521.1212384133937
 31
0.0
  0
LINE
  5
2159D
330
18
100
AcDbEntity
  8
0
100
AcDbLine
 10
185.3162881512625
 20
-521.1212384133937
 30
0.0
 11
184.8162881512625
 21
-521.0212372499965
 31
0.0
  0
LINE
  5
2159E
330
18
100
AcDbEntity
  8
0
100
AcDbLine
 10
181.8162881512625
 20
-520.4212302696135
 30
0.0
 11
181.3162881512625
 21
-520.3212291062163
 31
0.0
  0
LINE
  5
2159F
330
18
100
AcDbEntity
  8
0
100
AcDbLine
 10
185.3162881512625
 20
-524.3212384133938
 30
0.0
 11
184.8162881512625
 21
-524.2212372499965
 31
0.0
  0
LINE
  5
215A0
330
18
100
AcDbEntity
  8
0
100
AcDbLine
 10
185.3162881512625
 20
-522.7212384133936
 30
0.0
 11
184.8162881512625
 21
-522.6212372499965
 31
0.0
  0
LINE
  5
215A1
330
18
100
AcDbEntity
  8
0
100
AcDbLine
 10
181.8162881512625
 20
-522.0212302696134
 30
0.0
 11
181.3162881512625
 21
-521.9212291062163
 31
0.0
  0
LINE
  5
215A2
330
18
100
AcDbEntity
  8
0
100
AcDbLine
 10
181.8162881512625
 20
-523.6212302696133
 30
0.0
 11
181.3162881512625
 21
-523.5212291062162
 31
0.0
  0
LINE
  5
215A3
330
18
100
AcDbEntity
  8
0
100
AcDbLine
 10
181.3162881512625
 20
-523.5212291062162
 30
0.0
 11
185.3162881512625
 21
-522.7212384133936
 31
0.0
  0
LINE
  5
215A4
330
18
100
AcDbEntity
  8
0
100
AcDbLine
 10
184.6370669946517
 20
-514.7212368329854
 30
0.0
 11
184.0853175308484
 21
-514.5384726903574
 31
0.0
  0
LINE
  5
215A5
330
18
100
AcDbEntity
  8
0
100
AcDbLine
 10
185.3162881512625
 20
-517.9212384133937
 30
0.0
 11
184.8162881512625
 21
-517.8212372499966
 31
0.0
  0
LINE
  5
215A6
330
18
100
AcDbEntity
  8
0
100
AcDbLine
 10
185.3162881512625
 20
-519.5212384133937
 30
0.0
 11
184.8162881512625
 21
-519.4212372499967
 31
0.0
  0
LINE
  5
215A7
330
18
100
AcDbEntity
  8
0
100
AcDbLine
 10
185.0898810990585
 20
-516.321237886591
 30
0.0
 11
184.5532873637874
 21
-516.1919671889611
 31
0.0
  0
LINE
  5
215A8
330
18
100
AcDbEntity
  8
0
100
AcDbLine
 10
182.2372027484712
 20
-515.6339996721765
 30
0.0
 11
181.7691042933212
 21
-515.5212301598265
 31
0.0
  0
LINE
  5
215A9
330
18
100
AcDbEntity
  8
0
100
AcDbLine
 10
181.8162881512625
 20
-518.8212302696134
 30
0.0
 11
181.3162881512625
 21
-518.7212291062162
 31
0.0
  0
LINE
  5
215AA
330
18
100
AcDbEntity
  8
0
100
AcDbLine
 10
181.8162881512625
 20
-517.2212302696134
 30
0.0
 11
181.3162881512625
 21
-517.1212291062163
 31
0.0
  0
LINE
  5
215AB
330
18
100
AcDbEntity
  8
0
100
AcDbLine
 10
182.6790896420006
 20
-514.0726670098711
 30
0.0
 11
182.2219178013695
 21
-513.9212312134307
 31
0.0
  0
LINE
  5
215AC
330
18
100
AcDbEntity
  8
0
100
AcDbLine
 10
181.7691042933212
 20
-515.5212301598265
 30
0.0
 11
184.6370669946517
 21
-514.7212368329854
 31
0.0
  0
LINE
  5
215AD
330
18
100
AcDbEntity
  8
0
100
AcDbLine
 10
181.3162881512625
 20
-518.7212291062162
 30
0.0
 11
185.3162881512625
 21
-517.9212384133937
 31
0.0
  0
LINE
  5
215AE
330
18
100
AcDbEntity
  8
0
100
AcDbLine
 10
181.3162881512625
 20
-517.1212291062163
 30
0.0
 11
185.0898810990585
 21
-516.321237886591
 31
0.0
  0
LINE
  5
215AF
330
18
100
AcDbEntity
  8
0
100
AcDbLine
 10
181.3162881512625
 20
-520.3212291062163
 30
0.0
 11
185.3162881512625
 21
-519.5212384133937
 31
0.0
  0
LINE
  5
215B0
330
18
100
AcDbEntity
  8
0
100
AcDbLine
 10
181.3162881512625
 20
-533.1212291062207
 30
0.0
 11
185.3162881512625
 21
-532.3212384134024
 31
0.0
  0
LINE
  5
215B1
330
18
100
AcDbEntity
  8
0
100
AcDbLine
 10
185.3162881512625
 20
-532.3212384134024
 30
0.0
 11
184.8162881512625
 21
-532.2212372500047
 31
0.0
  0
LINE
  5
215B2
330
18
100
AcDbEntity
  8
0
100
AcDbLine
 10
181.8162881512625
 20
-531.621230269614
 30
0.0
 11
181.3162881512625
 21
-531.5212291062163
 31
0.0
  0
LINE
  5
215B3
330
18
100
AcDbEntity
  8
0
100
AcDbLine
 10
185.3162881512625
 20
-533.9212384134025
 30
0.0
 11
184.8162881512625
 21
-533.8212372500049
 31
0.0
  0
LINE
  5
215B4
330
18
100
AcDbEntity
  8
0
100
AcDbLine
 10
185.3162881512625
 20
-535.5212384134024
 30
0.0
 11
184.8162881512625
 21
-535.4212372500048
 31
0.0
  0
LINE
  5
215B5
330
18
100
AcDbEntity
  8
0
100
AcDbLine
 10
181.8162881512625
 20
-533.2212302696183
 30
0.0
 11
181.3162881512625
 21
-533.1212291062207
 31
0.0
  0
LINE
  5
215B6
330
18
100
AcDbEntity
  8
0
100
AcDbLine
 10
181.8162881512625
 20
-534.8212302696185
 30
0.0
 11
181.3162881512625
 21
-534.7212291062208
 31
0.0
  0
LINE
  5
215B7
330
18
100
AcDbEntity
  8
0
100
AcDbLine
 10
181.3162881512625
 20
-534.7212291062208
 30
0.0
 11
185.3162881512625
 21
-533.9212384134025
 31
0.0
  0
LINE
  5
215B8
330
18
100
AcDbEntity
  8
0
100
AcDbLine
 10
185.3162881512625
 20
-527.521238413398
 30
0.0
 11
184.8162881512625
 21
-527.4212372500003
 31
0.0
  0
LINE
  5
215B9
330
18
100
AcDbEntity
  8
0
100
AcDbLine
 10
185.3162881512625
 20
-525.9212384133937
 30
0.0
 11
184.8162881512625
 21
-525.8212372499966
 31
0.0
  0
LINE
  5
215BA
330
18
100
AcDbEntity
  8
0
100
AcDbLine
 10
185.3162881512625
 20
-530.721238413398
 30
0.0
 11
184.8162881512625
 21
-530.6212372500004
 31
0.0
  0
LINE
  5
215BB
330
18
100
AcDbEntity
  8
0
100
AcDbLine
 10
185.3162881512625
 20
-529.1212384133981
 30
0.0
 11
184.8162881512625
 21
-529.0212372500005
 31
0.0
  0
LINE
  5
215BC
330
18
100
AcDbEntity
  8
0
100
AcDbLine
 10
181.8162881512625
 20
-525.2212302696134
 30
0.0
 11
181.3162881512625
 21
-525.1212291062163
 31
0.0
  0
LINE
  5
215BD
330
18
100
AcDbEntity
  8
0
100
AcDbLine
 10
181.8162881512625
 20
-526.821230269614
 30
0.0
 11
181.3162881512625
 21
-526.7212291062162
 31
0.0
  0
LINE
  5
215BE
330
18
100
AcDbEntity
  8
0
100
AcDbLine
 10
181.8162881512625
 20
-530.0212302696141
 30
0.0
 11
181.3162881512625
 21
-529.9212291062164
 31
0.0
  0
LINE
  5
215BF
330
18
100
AcDbEntity
  8
0
100
AcDbLine
 10
181.8162881512625
 20
-528.421230269614
 30
0.0
 11
181.3162881512625
 21
-528.3212291062163
 31
0.0
  0
LINE
  5
215C0
330
18
100
AcDbEntity
  8
0
100
AcDbLine
 10
181.3162881512625
 20
-528.3212291062163
 30
0.0
 11
185.3162881512625
 21
-527.521238413398
 31
0.0
  0
LINE
  5
215C1
330
18
100
AcDbEntity
  8
0
100
AcDbLine
 10
181.3162881512625
 20
-526.7212291062162
 30
0.0
 11
185.3162881512625
 21
-525.9212384133937
 31
0.0
  0
LINE
  5
215C2
330
18
100
AcDbEntity
  8
0
100
AcDbLine
 10
181.3162881512625
 20
-529.9212291062164
 30
0.0
 11
185.3162881512625
 21
-529.1212384133981
 31
0.0
  0
LINE
  5
215C3
330
18
100
AcDbEntity
  8
0
100
AcDbLine
 10
181.3162881512625
 20
-531.5212291062163
 30
0.0
 11
185.3162881512625
 21
-530.721238413398
 31
0.0
  0
LINE
  5
215C4
330
18
100
AcDbEntity
  8
0
100
AcDbLine
 10
184.8162881512625
 20
-541.8212372498912
 30
0.0
 11
181.8162881512627
 21
-541.8212302695065
 31
0.0
  0
LINE
  5
215C5
330
18
100
AcDbEntity
  8
0
100
AcDbLine
 10
181.8162881512625
 20
-541.2212302696225
 30
0.0
 11
181.3162881512625
 21
-541.1212291062249
 31
0.0
  0
LINE
  5
215C6
330
18
100
AcDbEntity
  8
0
100
AcDbLine
 10
181.3162881512625
 20
-541.1212291062249
 30
0.0
 11
185.3162881512625
 21
-540.3212384134066
 31
0.0
  0
LINE
  5
215C7
330
18
100
AcDbEntity
  8
0
100
AcDbLine
 10
185.3162881512625
 20
-540.3212384134066
 30
0.0
 11
184.8162881512625
 21
-540.2212372500089
 31
0.0
  0
LINE
  5
215C8
330
18
100
AcDbEntity
  8
0
100
AcDbLine
 10
181.8162881512625
 20
-539.6212302696226
 30
0.0
 11
181.3162881512625
 21
-539.521229106225
 31
0.0
  0
LINE
  5
215C9
330
18
100
AcDbEntity
  8
0
100
AcDbLine
 10
181.8162881512625
 20
-538.0212302696227
 30
0.0
 11
181.3162881512625
 21
-537.921229106225
 31
0.0
  0
LINE
  5
215CA
330
18
100
AcDbEntity
  8
0
100
AcDbLine
 10
181.3162881512625
 20
-537.921229106225
 30
0.0
 11
185.3162881512625
 21
-537.1212384134068
 31
0.0
  0
LINE
  5
215CB
330
18
100
AcDbEntity
  8
0
100
AcDbLine
 10
185.3162881512625
 20
-538.7212384134067
 30
0.0
 11
184.8162881512625
 21
-538.621237250009
 31
0.0
  0
LINE
  5
215CC
330
18
100
AcDbEntity
  8
0
100
AcDbLine
 10
185.3162881512625
 20
-537.1212384134068
 30
0.0
 11
184.8162881512625
 21
-537.0212372500091
 31
0.0
  0
LINE
  5
215CD
330
18
100
AcDbEntity
  8
0
100
AcDbLine
 10
181.3162881512625
 20
-539.521229106225
 30
0.0
 11
185.3162881512625
 21
-538.7212384134067
 31
0.0
  0
LINE
  5
215CE
330
18
100
AcDbEntity
  8
0
100
AcDbLine
 10
181.8162881512625
 20
-536.4212302696184
 30
0.0
 11
181.3162881512625
 21
-536.3212291062207
 31
0.0
  0
LINE
  5
215D0
330
18
100
AcDbEntity
  8
1CENTER
100
AcDbLine
 10
170.8162416153646
 20
-508.8603191684445
 30
0.0
 11
170.8162416153646
 21
-545.4915101688994
 31
0.0
  0
LINE
  5
215D1
330
18
100
AcDbEntity
  8
0
100
AcDbLine
 10
169.7219178013695
 20
-513.9212312134307
 30
0.0
 11
171.6842528902449
 21
-513.1212357793797
 31
0.0
  0
LINE
  5
215D2
330
18
100
AcDbEntity
  8
0
100
AcDbLine
 10
171.6842528902449
 20
-513.1212357793797
 30
0.0
 11
171.0959763152025
 21
-512.8094659231276
 31
0.0
  0
LINE
  5
215D3
330
18
100
AcDbEntity
  8
0
100
AcDbLine
 10
168.8162881512625
 20
-536.3212291062207
 30
0.0
 11
172.8162881512625
 21
-535.5212384134024
 31
0.0
  0
LINE
  5
215D4
330
18
100
AcDbEntity
  8
0
100
AcDbLine
 10
168.8162881512625
 20
-525.1212291062163
 30
0.0
 11
172.8162881512625
 21
-524.3212384133938
 31
0.0
  0
LINE
  5
215D5
330
18
100
AcDbEntity
  8
0
100
AcDbLine
 10
168.8162881512625
 20
-521.9212291062163
 30
0.0
 11
172.8162881512625
 21
-521.1212384133937
 31
0.0
  0
LINE
  5
215D6
330
18
100
AcDbEntity
  8
0
100
AcDbLine
 10
172.8162881512625
 20
-521.1212384133937
 30
0.0
 11
172.3162881512625
 21
-521.0212372499965
 31
0.0
  0
LINE
  5
215D7
330
18
100
AcDbEntity
  8
0
100
AcDbLine
 10
169.3162881512625
 20
-520.4212302696135
 30
0.0
 11
168.8162881512625
 21
-520.3212291062163
 31
0.0
  0
LINE
  5
215D8
330
18
100
AcDbEntity
  8
0
100
AcDbLine
 10
172.8162881512625
 20
-524.3212384133938
 30
0.0
 11
172.3162881512625
 21
-524.2212372499965
 31
0.0
  0
LINE
  5
215D9
330
18
100
AcDbEntity
  8
0
100
AcDbLine
 10
172.8162881512625
 20
-522.7212384133936
 30
0.0
 11
172.3162881512625
 21
-522.6212372499965
 31
0.0
  0
LINE
  5
215DA
330
18
100
AcDbEntity
  8
0
100
AcDbLine
 10
169.3162881512625
 20
-522.0212302696134
 30
0.0
 11
168.8162881512625
 21
-521.9212291062163
 31
0.0
  0
LINE
  5
215DB
330
18
100
AcDbEntity
  8
0
100
AcDbLine
 10
169.3162881512625
 20
-523.6212302696133
 30
0.0
 11
168.8162881512625
 21
-523.5212291062162
 31
0.0
  0
LINE
  5
215DC
330
18
100
AcDbEntity
  8
0
100
AcDbLine
 10
168.8162881512625
 20
-523.5212291062162
 30
0.0
 11
172.8162881512625
 21
-522.7212384133936
 31
0.0
  0
LINE
  5
215DD
330
18
100
AcDbEntity
  8
0
100
AcDbLine
 10
172.1370669946517
 20
-514.7212368329854
 30
0.0
 11
171.5853175308484
 21
-514.5384726903574
 31
0.0
  0
LINE
  5
215DE
330
18
100
AcDbEntity
  8
0
100
AcDbLine
 10
172.8162881512625
 20
-517.9212384133937
 30
0.0
 11
172.3162881512625
 21
-517.8212372499966
 31
0.0
  0
LINE
  5
215DF
330
18
100
AcDbEntity
  8
0
100
AcDbLine
 10
172.8162881512625
 20
-519.5212384133937
 30
0.0
 11
172.3162881512625
 21
-519.4212372499967
 31
0.0
  0
LINE
  5
215E0
330
18
100
AcDbEntity
  8
0
100
AcDbLine
 10
172.5898810990585
 20
-516.321237886591
 30
0.0
 11
172.0532873637874
 21
-516.1919671889611
 31
0.0
  0
LINE
  5
215E1
330
18
100
AcDbEntity
  8
0
100
AcDbLine
 10
169.7372027484712
 20
-515.6339996721765
 30
0.0
 11
169.2691042933212
 21
-515.5212301598265
 31
0.0
  0
LINE
  5
215E2
330
18
100
AcDbEntity
  8
0
100
AcDbLine
 10
169.3162881512625
 20
-518.8212302696134
 30
0.0
 11
168.8162881512625
 21
-518.7212291062162
 31
0.0
  0
LINE
  5
215E3
330
18
100
AcDbEntity
  8
0
100
AcDbLine
 10
169.3162881512625
 20
-517.2212302696134
 30
0.0
 11
168.8162881512625
 21
-517.1212291062163
 31
0.0
  0
LINE
  5
215E4
330
18
100
AcDbEntity
  8
0
100
AcDbLine
 10
170.1790896420006
 20
-514.0726670098711
 30
0.0
 11
169.7219178013695
 21
-513.9212312134307
 31
0.0
  0
LINE
  5
215E5
330
18
100
AcDbEntity
  8
0
100
AcDbLine
 10
169.2691042933212
 20
-515.5212301598265
 30
0.0
 11
172.1370669946517
 21
-514.7212368329854
 31
0.0
  0
LINE
  5
215E6
330
18
100
AcDbEntity
  8
0
100
AcDbLine
 10
168.8162881512625
 20
-518.7212291062162
 30
0.0
 11
172.8162881512625
 21
-517.9212384133937
 31
0.0
  0
LINE
  5
215E7
330
18
100
AcDbEntity
  8
0
100
AcDbLine
 10
168.8162881512625
 20
-517.1212291062163
 30
0.0
 11
172.5898810990585
 21
-516.321237886591
 31
0.0
  0
LINE
  5
215E8
330
18
100
AcDbEntity
  8
0
100
AcDbLine
 10
168.8162881512625
 20
-520.3212291062163
 30
0.0
 11
172.8162881512625
 21
-519.5212384133937
 31
0.0
  0
LINE
  5
215E9
330
18
100
AcDbEntity
  8
0
100
AcDbLine
 10
168.8162881512625
 20
-533.1212291062207
 30
0.0
 11
172.8162881512625
 21
-532.3212384134024
 31
0.0
  0
LINE
  5
215EA
330
18
100
AcDbEntity
  8
0
100
AcDbLine
 10
172.8162881512625
 20
-532.3212384134024
 30
0.0
 11
172.3162881512625
 21
-532.2212372500047
 31
0.0
  0
LINE
  5
215EB
330
18
100
AcDbEntity
  8
0
100
AcDbLine
 10
169.3162881512625
 20
-531.621230269614
 30
0.0
 11
168.8162881512625
 21
-531.5212291062163
 31
0.0
  0
LINE
  5
215EC
330
18
100
AcDbEntity
  8
0
100
AcDbLine
 10
172.8162881512625
 20
-533.9212384134025
 30
0.0
 11
172.3162881512625
 21
-533.8212372500049
 31
0.0
  0
LINE
  5
215ED
330
18
100
AcDbEntity
  8
0
100
AcDbLine
 10
172.8162881512625
 20
-535.5212384134024
 30
0.0
 11
172.3162881512625
 21
-535.4212372500048
 31
0.0
  0
LINE
  5
215EE
330
18
100
AcDbEntity
  8
0
100
AcDbLine
 10
169.3162881512625
 20
-533.2212302696183
 30
0.0
 11
168.8162881512625
 21
-533.1212291062207
 31
0.0
  0
LINE
  5
215EF
330
18
100
AcDbEntity
  8
0
100
AcDbLine
 10
169.3162881512625
 20
-534.8212302696185
 30
0.0
 11
168.8162881512625
 21
-534.7212291062208
 31
0.0
  0
LINE
  5
215F0
330
18
100
AcDbEntity
  8
0
100
AcDbLine
 10
168.8162881512625
 20
-534.7212291062208
 30
0.0
 11
172.8162881512625
 21
-533.9212384134025
 31
0.0
  0
LINE
  5
215F1
330
18
100
AcDbEntity
  8
0
100
AcDbLine
 10
172.8162881512625
 20
-527.521238413398
 30
0.0
 11
172.3162881512625
 21
-527.4212372500003
 31
0.0
  0
LINE
  5
215F2
330
18
100
AcDbEntity
  8
0
100
AcDbLine
 10
172.8162881512625
 20
-525.9212384133937
 30
0.0
 11
172.3162881512625
 21
-525.8212372499966
 31
0.0
  0
LINE
  5
215F3
330
18
100
AcDbEntity
  8
0
100
AcDbLine
 10
172.8162881512625
 20
-530.721238413398
 30
0.0
 11
172.3162881512625
 21
-530.6212372500004
 31
0.0
  0
LINE
  5
215F4
330
18
100
AcDbEntity
  8
0
100
AcDbLine
 10
172.8162881512625
 20
-529.1212384133981
 30
0.0
 11
172.3162881512625
 21
-529.0212372500005
 31
0.0
  0
LINE
  5
215F5
330
18
100
AcDbEntity
  8
0
100
AcDbLine
 10
169.3162881512625
 20
-525.2212302696134
 30
0.0
 11
168.8162881512625
 21
-525.1212291062163
 31
0.0
  0
LINE
  5
215F6
330
18
100
AcDbEntity
  8
0
100
AcDbLine
 10
169.3162881512625
 20
-526.821230269614
 30
0.0
 11
168.8162881512625
 21
-526.7212291062162
 31
0.0
  0
LINE
  5
215F7
330
18
100
AcDbEntity
  8
0
100
AcDbLine
 10
169.3162881512625
 20
-530.0212302696141
 30
0.0
 11
168.8162881512625
 21
-529.9212291062164
 31
0.0
  0
LINE
  5
215F8
330
18
100
AcDbEntity
  8
0
100
AcDbLine
 10
169.3162881512625
 20
-528.421230269614
 30
0.0
 11
168.8162881512625
 21
-528.3212291062163
 31
0.0
  0
LINE
  5
215F9
330
18
100
AcDbEntity
  8
0
100
AcDbLine
 10
168.8162881512625
 20
-528.3212291062163
 30
0.0
 11
172.8162881512625
 21
-527.521238413398
 31
0.0
  0
LINE
  5
215FA
330
18
100
AcDbEntity
  8
0
100
AcDbLine
 10
168.8162881512625
 20
-526.7212291062162
 30
0.0
 11
172.8162881512625
 21
-525.9212384133937
 31
0.0
  0
LINE
  5
215FB
330
18
100
AcDbEntity
  8
0
100
AcDbLine
 10
168.8162881512625
 20
-529.9212291062164
 30
0.0
 11
172.8162881512625
 21
-529.1212384133981
 31
0.0
  0
LINE
  5
215FC
330
18
100
AcDbEntity
  8
0
100
AcDbLine
 10
168.8162881512625
 20
-531.5212291062163
 30
0.0
 11
172.8162881512625
 21
-530.721238413398
 31
0.0
  0
LINE
  5
215FD
330
18
100
AcDbEntity
  8
0
100
AcDbLine
 10
172.3162881512625
 20
-541.8212372498912
 30
0.0
 11
169.3162881512627
 21
-541.8212302695065
 31
0.0
  0
LINE
  5
215FE
330
18
100
AcDbEntity
  8
0
100
AcDbLine
 10
169.3162881512625
 20
-541.2212302696225
 30
0.0
 11
168.8162881512625
 21
-541.1212291062249
 31
0.0
  0
LINE
  5
215FF
330
18
100
AcDbEntity
  8
0
100
AcDbLine
 10
168.8162881512625
 20
-541.1212291062249
 30
0.0
 11
172.8162881512625
 21
-540.3212384134066
 31
0.0
  0
LINE
  5
21600
330
18
100
AcDbEntity
  8
0
100
AcDbLine
 10
172.8162881512625
 20
-540.3212384134066
 30
0.0
 11
172.3162881512625
 21
-540.2212372500089
 31
0.0
  0
LINE
  5
21601
330
18
100
AcDbEntity
  8
0
100
AcDbLine
 10
169.3162881512625
 20
-539.6212302696226
 30
0.0
 11
168.8162881512625
 21
-539.521229106225
 31
0.0
  0
LINE
  5
21602
330
18
100
AcDbEntity
  8
0
100
AcDbLine
 10
169.3162881512625
 20
-538.0212302696227
 30
0.0
 11
168.8162881512625
 21
-537.921229106225
 31
0.0
  0
LINE
  5
21603
330
18
100
AcDbEntity
  8
0
100
AcDbLine
 10
168.8162881512625
 20
-537.921229106225
 30
0.0
 11
172.8162881512625
 21
-537.1212384134068
 31
0.0
  0
LINE
  5
21604
330
18
100
AcDbEntity
  8
0
100
AcDbLine
 10
172.8162881512625
 20
-538.7212384134067
 30
0.0
 11
172.3162881512625
 21
-538.621237250009
 31
0.0
  0
LINE
  5
21605
330
18
100
AcDbEntity
  8
0
100
AcDbLine
 10
172.8162881512625
 20
-537.1212384134068
 30
0.0
 11
172.3162881512625
 21
-537.0212372500091
 31
0.0
  0
LINE
  5
21606
330
18
100
AcDbEntity
  8
0
100
AcDbLine
 10
168.8162881512625
 20
-539.521229106225
 30
0.0
 11
172.8162881512625
 21
-538.7212384134067
 31
0.0
  0
LINE
  5
21607
330
18
100
AcDbEntity
  8
0
100
AcDbLine
 10
169.3162881512625
 20
-536.4212302696184
 30
0.0
 11
168.8162881512625
 21
-536.3212291062207
 31
0.0
  0
LINE
  5
21609
330
18
100
AcDbEntity
  8
1CENTER
100
AcDbLine
 10
158.3162416153646
 20
-508.8603191684445
 30
0.0
 11
158.3162416153646
 21
-545.4915101688994
 31
0.0
  0
LINE
  5
2160A
330
18
100
AcDbEntity
  8
0
100
AcDbLine
 10
157.2219178013695
 20
-513.9212312134307
 30
0.0
 11
159.1842528902449
 21
-513.1212357793797
 31
0.0
  0
LINE
  5
2160B
330
18
100
AcDbEntity
  8
0
100
AcDbLine
 10
159.1842528902449
 20
-513.1212357793797
 30
0.0
 11
158.5959763152025
 21
-512.8094659231276
 31
0.0
  0
LINE
  5
2160C
330
18
100
AcDbEntity
  8
0
100
AcDbLine
 10
156.3162881512625
 20
-536.3212291062207
 30
0.0
 11
160.3162881512625
 21
-535.5212384134024
 31
0.0
  0
LINE
  5
2160D
330
18
100
AcDbEntity
  8
0
100
AcDbLine
 10
156.3162881512625
 20
-525.1212291062163
 30
0.0
 11
160.3162881512625
 21
-524.3212384133938
 31
0.0
  0
LINE
  5
2160E
330
18
100
AcDbEntity
  8
0
100
AcDbLine
 10
156.3162881512625
 20
-521.9212291062163
 30
0.0
 11
160.3162881512625
 21
-521.1212384133937
 31
0.0
  0
LINE
  5
2160F
330
18
100
AcDbEntity
  8
0
100
AcDbLine
 10
160.3162881512625
 20
-521.1212384133937
 30
0.0
 11
159.8162881512625
 21
-521.0212372499965
 31
0.0
  0
LINE
  5
21610
330
18
100
AcDbEntity
  8
0
100
AcDbLine
 10
156.8162881512625
 20
-520.4212302696135
 30
0.0
 11
156.3162881512625
 21
-520.3212291062163
 31
0.0
  0
LINE
  5
21611
330
18
100
AcDbEntity
  8
0
100
AcDbLine
 10
160.3162881512625
 20
-524.3212384133938
 30
0.0
 11
159.8162881512625
 21
-524.2212372499965
 31
0.0
  0
LINE
  5
21612
330
18
100
AcDbEntity
  8
0
100
AcDbLine
 10
160.3162881512625
 20
-522.7212384133936
 30
0.0
 11
159.8162881512625
 21
-522.6212372499965
 31
0.0
  0
LINE
  5
21613
330
18
100
AcDbEntity
  8
0
100
AcDbLine
 10
156.8162881512625
 20
-522.0212302696134
 30
0.0
 11
156.3162881512625
 21
-521.9212291062163
 31
0.0
  0
LINE
  5
21614
330
18
100
AcDbEntity
  8
0
100
AcDbLine
 10
156.8162881512625
 20
-523.6212302696133
 30
0.0
 11
156.3162881512625
 21
-523.5212291062162
 31
0.0
  0
LINE
  5
21615
330
18
100
AcDbEntity
  8
0
100
AcDbLine
 10
156.3162881512625
 20
-523.5212291062162
 30
0.0
 11
160.3162881512625
 21
-522.7212384133936
 31
0.0
  0
LINE
  5
21616
330
18
100
AcDbEntity
  8
0
100
AcDbLine
 10
159.6370669946517
 20
-514.7212368329854
 30
0.0
 11
159.0853175308484
 21
-514.5384726903574
 31
0.0
  0
LINE
  5
21617
330
18
100
AcDbEntity
  8
0
100
AcDbLine
 10
160.3162881512625
 20
-517.9212384133937
 30
0.0
 11
159.8162881512625
 21
-517.8212372499966
 31
0.0
  0
LINE
  5
21618
330
18
100
AcDbEntity
  8
0
100
AcDbLine
 10
160.3162881512625
 20
-519.5212384133937
 30
0.0
 11
159.8162881512625
 21
-519.4212372499967
 31
0.0
  0
LINE
  5
21619
330
18
100
AcDbEntity
  8
0
100
AcDbLine
 10
160.0898810990585
 20
-516.321237886591
 30
0.0
 11
159.5532873637874
 21
-516.1919671889611
 31
0.0
  0
LINE
  5
2161A
330
18
100
AcDbEntity
  8
0
100
AcDbLine
 10
157.2372027484712
 20
-515.6339996721765
 30
0.0
 11
156.7691042933212
 21
-515.5212301598265
 31
0.0
  0
LINE
  5
2161B
330
18
100
AcDbEntity
  8
0
100
AcDbLine
 10
156.8162881512625
 20
-518.8212302696134
 30
0.0
 11
156.3162881512625
 21
-518.7212291062162
 31
0.0
  0
LINE
  5
2161C
330
18
100
AcDbEntity
  8
0
100
AcDbLine
 10
156.8162881512625
 20
-517.2212302696134
 30
0.0
 11
156.3162881512625
 21
-517.1212291062163
 31
0.0
  0
LINE
  5
2161D
330
18
100
AcDbEntity
  8
0
100
AcDbLine
 10
157.6790896420006
 20
-514.0726670098711
 30
0.0
 11
157.2219178013695
 21
-513.9212312134307
 31
0.0
  0
LINE
  5
2161E
330
18
100
AcDbEntity
  8
0
100
AcDbLine
 10
156.7691042933212
 20
-515.5212301598265
 30
0.0
 11
159.6370669946517
 21
-514.7212368329854
 31
0.0
  0
LINE
  5
2161F
330
18
100
AcDbEntity
  8
0
100
AcDbLine
 10
156.3162881512625
 20
-518.7212291062162
 30
0.0
 11
160.3162881512625
 21
-517.9212384133937
 31
0.0
  0
LINE
  5
21620
330
18
100
AcDbEntity
  8
0
100
AcDbLine
 10
156.3162881512625
 20
-517.1212291062163
 30
0.0
 11
160.0898810990585
 21
-516.321237886591
 31
0.0
  0
LINE
  5
21621
330
18
100
AcDbEntity
  8
0
100
AcDbLine
 10
156.3162881512625
 20
-520.3212291062163
 30
0.0
 11
160.3162881512625
 21
-519.5212384133937
 31
0.0
  0
LINE
  5
21622
330
18
100
AcDbEntity
  8
0
100
AcDbLine
 10
156.3162881512625
 20
-533.1212291062207
 30
0.0
 11
160.3162881512625
 21
-532.3212384134024
 31
0.0
  0
LINE
  5
21623
330
18
100
AcDbEntity
  8
0
100
AcDbLine
 10
160.3162881512625
 20
-532.3212384134024
 30
0.0
 11
159.8162881512625
 21
-532.2212372500047
 31
0.0
  0
LINE
  5
21624
330
18
100
AcDbEntity
  8
0
100
AcDbLine
 10
156.8162881512625
 20
-531.621230269614
 30
0.0
 11
156.3162881512625
 21
-531.5212291062163
 31
0.0
  0
LINE
  5
21625
330
18
100
AcDbEntity
  8
0
100
AcDbLine
 10
160.3162881512625
 20
-533.9212384134025
 30
0.0
 11
159.8162881512625
 21
-533.8212372500049
 31
0.0
  0
LINE
  5
21626
330
18
100
AcDbEntity
  8
0
100
AcDbLine
 10
160.3162881512625
 20
-535.5212384134024
 30
0.0
 11
159.8162881512625
 21
-535.4212372500048
 31
0.0
  0
LINE
  5
21627
330
18
100
AcDbEntity
  8
0
100
AcDbLine
 10
156.8162881512625
 20
-533.2212302696183
 30
0.0
 11
156.3162881512625
 21
-533.1212291062207
 31
0.0
  0
LINE
  5
21628
330
18
100
AcDbEntity
  8
0
100
AcDbLine
 10
156.8162881512625
 20
-534.8212302696185
 30
0.0
 11
156.3162881512625
 21
-534.7212291062208
 31
0.0
  0
LINE
  5
21629
330
18
100
AcDbEntity
  8
0
100
AcDbLine
 10
156.3162881512625
 20
-534.7212291062208
 30
0.0
 11
160.3162881512625
 21
-533.9212384134025
 31
0.0
  0
LINE
  5
2162A
330
18
100
AcDbEntity
  8
0
100
AcDbLine
 10
160.3162881512625
 20
-527.521238413398
 30
0.0
 11
159.8162881512625
 21
-527.4212372500003
 31
0.0
  0
LINE
  5
2162B
330
18
100
AcDbEntity
  8
0
100
AcDbLine
 10
160.3162881512625
 20
-525.9212384133937
 30
0.0
 11
159.8162881512625
 21
-525.8212372499966
 31
0.0
  0
LINE
  5
2162C
330
18
100
AcDbEntity
  8
0
100
AcDbLine
 10
160.3162881512625
 20
-530.721238413398
 30
0.0
 11
159.8162881512625
 21
-530.6212372500004
 31
0.0
  0
LINE
  5
2162D
330
18
100
AcDbEntity
  8
0
100
AcDbLine
 10
160.3162881512625
 20
-529.1212384133981
 30
0.0
 11
159.8162881512625
 21
-529.0212372500005
 31
0.0
  0
LINE
  5
2162E
330
18
100
AcDbEntity
  8
0
100
AcDbLine
 10
156.8162881512625
 20
-525.2212302696134
 30
0.0
 11
156.3162881512625
 21
-525.1212291062163
 31
0.0
  0
LINE
  5
2162F
330
18
100
AcDbEntity
  8
0
100
AcDbLine
 10
156.8162881512625
 20
-526.821230269614
 30
0.0
 11
156.3162881512625
 21
-526.7212291062162
 31
0.0
  0
LINE
  5
21630
330
18
100
AcDbEntity
  8
0
100
AcDbLine
 10
156.8162881512625
 20
-530.0212302696141
 30
0.0
 11
156.3162881512625
 21
-529.9212291062164
 31
0.0
  0
LINE
  5
21631
330
18
100
AcDbEntity
  8
0
100
AcDbLine
 10
156.8162881512625
 20
-528.421230269614
 30
0.0
 11
156.3162881512625
 21
-528.3212291062163
 31
0.0
  0
LINE
  5
21632
330
18
100
AcDbEntity
  8
0
100
AcDbLine
 10
156.3162881512625
 20
-528.3212291062163
 30
0.0
 11
160.3162881512625
 21
-527.521238413398
 31
0.0
  0
LINE
  5
21633
330
18
100
AcDbEntity
  8
0
100
AcDbLine
 10
156.3162881512625
 20
-526.7212291062162
 30
0.0
 11
160.3162881512625
 21
-525.9212384133937
 31
0.0
  0
LINE
  5
21634
330
18
100
AcDbEntity
  8
0
100
AcDbLine
 10
156.3162881512625
 20
-529.9212291062164
 30
0.0
 11
160.3162881512625
 21
-529.1212384133981
 31
0.0
  0
LINE
  5
21635
330
18
100
AcDbEntity
  8
0
100
AcDbLine
 10
156.3162881512625
 20
-531.5212291062163
 30
0.0
 11
160.3162881512625
 21
-530.721238413398
 31
0.0
  0
LINE
  5
21636
330
18
100
AcDbEntity
  8
0
100
AcDbLine
 10
159.8162881512625
 20
-541.8212372498912
 30
0.0
 11
156.8162881512627
 21
-541.8212302695065
 31
0.0
  0
LINE
  5
21637
330
18
100
AcDbEntity
  8
0
100
AcDbLine
 10
156.8162881512625
 20
-541.2212302696225
 30
0.0
 11
156.3162881512625
 21
-541.1212291062249
 31
0.0
  0
LINE
  5
21638
330
18
100
AcDbEntity
  8
0
100
AcDbLine
 10
156.3162881512625
 20
-541.1212291062249
 30
0.0
 11
160.3162881512625
 21
-540.3212384134066
 31
0.0
  0
LINE
  5
21639
330
18
100
AcDbEntity
  8
0
100
AcDbLine
 10
160.3162881512625
 20
-540.3212384134066
 30
0.0
 11
159.8162881512625
 21
-540.2212372500089
 31
0.0
  0
LINE
  5
2163A
330
18
100
AcDbEntity
  8
0
100
AcDbLine
 10
156.8162881512625
 20
-539.6212302696226
 30
0.0
 11
156.3162881512625
 21
-539.521229106225
 31
0.0
  0
LINE
  5
2163B
330
18
100
AcDbEntity
  8
0
100
AcDbLine
 10
156.8162881512625
 20
-538.0212302696227
 30
0.0
 11
156.3162881512625
 21
-537.921229106225
 31
0.0
  0
LINE
  5
2163C
330
18
100
AcDbEntity
  8
0
100
AcDbLine
 10
156.3162881512625
 20
-537.921229106225
 30
0.0
 11
160.3162881512625
 21
-537.1212384134068
 31
0.0
  0
LINE
  5
2163D
330
18
100
AcDbEntity
  8
0
100
AcDbLine
 10
160.3162881512625
 20
-538.7212384134067
 30
0.0
 11
159.8162881512625
 21
-538.621237250009
 31
0.0
  0
LINE
  5
2163E
330
18
100
AcDbEntity
  8
0
100
AcDbLine
 10
160.3162881512625
 20
-537.1212384134068
 30
0.0
 11
159.8162881512625
 21
-537.0212372500091
 31
0.0
  0
LINE
  5
2163F
330
18
100
AcDbEntity
  8
0
100
AcDbLine
 10
156.3162881512625
 20
-539.521229106225
 30
0.0
 11
160.3162881512625
 21
-538.7212384134067
 31
0.0
  0
LINE
  5
21640
330
18
100
AcDbEntity
  8
0
100
AcDbLine
 10
156.8162881512625
 20
-536.4212302696184
 30
0.0
 11
156.3162881512625
 21
-536.3212291062207
 31
0.0
  0
LINE
  5
21641
330
18
100
AcDbEntity
  8
1DIM
100
AcDbLine
 10
463.0162416153648
 20
-584.721330351266
 30
0.0
 11
484.0162416153651
 21
-584.721330351266
 31
0.0
1001
ACAD
1000
DSTYLE
1002
{
1070
     3
1000
φ<>
1070
   271
1070
     0
1002
}
  0
LINE
  5
21642
330
18
100
AcDbEntity
  8
1DIM
100
AcDbLine
 10
463.0162416153648
 20
-572.9213303512661
 30
0.0
 11
484.0162416153651
 21
-572.9213303512661
 31
0.0
1001
ACAD
1000
DSTYLE
1002
{
1070
     3
1000
φ<>
1070
   271
1070
     0
1002
}
  0
LINE
  5
21643
330
18
100
AcDbEntity
  8
1DIM
100
AcDbLine
 10
483.0162416153651
 20
-582.721330351266
 30
0.0
 11
483.0162416153651
 21
-574.9213303512661
 31
0.0
1001
ACAD
1000
DSTYLE
1002
{
1070
     3
1000
φ<>
1070
   271
1070
     0
1002
}
  0
LINE
  5
21644
330
18
100
AcDbEntity
  8
1DIM
100
AcDbLine
 10
483.0162416153651
 20
-572.9213303512661
 30
0.0
 11
483.0162416153651
 21
-559.8546636845994
 31
0.0
1001
ACAD
1000
DSTYLE
1002
{
1070
     3
1000
φ<>
1070
   271
1070
     0
1002
}
  0
LINE
  5
21648
330
18
100
AcDbEntity
  8
1DIM1
100
AcDbLine
 10
183.3162416153646
 20
-652.8213303512666
 30
0.0
 11
183.3162416153646
 21
-689.0213303512669
 31
0.0
1001
ACAD
1000
DSTYLE
1002
{
1070
    40
1040
3.0
1070
   271
1070
     0
1002
}
  0
LINE
  5
21649
330
18
100
AcDbEntity
  8
1DIM1
100
AcDbLine
 10
608.3162416153647
 20
-652.8213303512666
 30
0.0
 11
608.3162416153647
 21
-689.0213303512669
 31
0.0
1001
ACAD
1000
DSTYLE
1002
{
1070
    40
1040
3.0
1070
   271
1070
     0
1002
}
  0
LINE
  5
2164A
330
18
100
AcDbEntity
  8
1DIM1
100
AcDbLine
 10
189.3162416153646
 20
-686.0213303512669
 30
0.0
 11
602.3162416153647
 21
-686.0213303512669
 31
0.0
1001
ACAD
1000
DSTYLE
1002
{
1070
    40
1040
3.0
1070
   271
1070
     0
1002
}
  0
LINE
  5
2164E
330
18
100
AcDbEntity
  8
1DIM
100
AcDbLine
 10
608.3162416153647
 20
-652.8213303512666
 30
0.0
 11
608.3162416153647
 21
-686.9932777003038
 31
0.0
1001
ACAD
1000
DSTYLE
1002
{
1070
   271
1070
     1
1002
}
  0
LINE
  5
2164F
330
18
100
AcDbEntity
  8
1DIM
100
AcDbLine
 10
620.8162416153647
 20
-670.8213303512666
 30
0.0
 11
620.8162416153647
 21
-686.9932777003038
 31
0.0
1001
ACAD
1000
DSTYLE
1002
{
1070
   271
1070
     1
1002
}
  0
LINE
  5
21650
330
18
100
AcDbEntity
  8
1DIM
100
AcDbLine
 10
618.8162416153647
 20
-685.9932777003038
 30
0.0
 11
610.3162416153647
 21
-685.9932777003038
 31
0.0
1001
ACAD
1000
DSTYLE
1002
{
1070
   271
1070
     1
1002
}
  0
LINE
  5
21651
330
18
100
AcDbEntity
  8
1DIM
100
AcDbLine
 10
608.3162416153647
 20
-685.9932777003038
 30
0.0
 11
590.9162416153647
 21
-685.9932777003038
 31
0.0
1001
ACAD
1000
DSTYLE
1002
{
1070
   271
1070
     1
1002
}
  0
LINE
  5
21655
330
18
100
AcDbEntity
  8
1DIM
100
AcDbLine
 10
620.8162416153647
 20
-670.8213303512666
 30
0.0
 11
620.8162416153647
 21
-687.0213303512669
 31
0.0
1001
ACAD
1000
DSTYLE
1002
{
1070
   271
1070
     1
1002
}
  0
LINE
  5
21656
330
18
100
AcDbEntity
  8
1DIM
100
AcDbLine
 10
633.3162416153647
 20
-652.8213303512666
 30
0.0
 11
633.3162416153647
 21
-687.0213303512669
 31
0.0
1001
ACAD
1000
DSTYLE
1002
{
1070
   271
1070
     1
1002
}
  0
LINE
  5
21657
330
18
100
AcDbEntity
  8
1DIM
100
AcDbLine
 10
622.8162416153647
 20
-686.0213303512669
 30
0.0
 11
631.3162416153647
 21
-686.0213303512669
 31
0.0
1001
ACAD
1000
DSTYLE
1002
{
1070
   271
1070
     1
1002
}
  0
LINE
  5
21658
330
18
100
AcDbEntity
  8
1DIM
100
AcDbLine
 10
633.3162416153647
 20
-686.0213303512669
 30
0.0
 11
650.7162416153647
 21
-686.0213303512669
 31
0.0
1001
ACAD
1000
DSTYLE
1002
{
1070
   271
1070
     1
1002
}
  0
LINE
  5
2165C
330
18
100
AcDbEntity
  8
1DIM
100
AcDbLine
 10
158.3162416153646
 20
-652.8213303512666
 30
0.0
 11
158.3162416153646
 21
-687.0213303512669
 31
0.0
1001
ACAD
1000
DSTYLE
1002
{
1070
   271
1070
     1
1002
}
  0
LINE
  5
2165D
330
18
100
AcDbEntity
  8
1DIM
100
AcDbLine
 10
170.8162416153646
 20
-670.8213303512666
 30
0.0
 11
170.8162416153646
 21
-687.0213303512669
 31
0.0
1001
ACAD
1000
DSTYLE
1002
{
1070
   271
1070
     1
1002
}
  0
LINE
  5
2165E
330
18
100
AcDbEntity
  8
1DIM
100
AcDbLine
 10
168.8162416153646
 20
-686.0213303512669
 30
0.0
 11
160.3162416153646
 21
-686.0213303512669
 31
0.0
1001
ACAD
1000
DSTYLE
1002
{
1070
   271
1070
     1
1002
}
  0
LINE
  5
2165F
330
18
100
AcDbEntity
  8
1DIM
100
AcDbLine
 10
158.3162416153646
 20
-686.0213303512669
 30
0.0
 11
140.9162416153646
 21
-686.0213303512669
 31
0.0
1001
ACAD
1000
DSTYLE
1002
{
1070
   271
1070
     1
1002
}
  0
LINE
  5
21663
330
18
100
AcDbEntity
  8
1DIM
100
AcDbLine
 10
170.8162416153646
 20
-670.8213303512666
 30
0.0
 11
170.8162416153646
 21
-687.0213303512669
 31
0.0
1001
ACAD
1000
DSTYLE
1002
{
1070
   271
1070
     1
1002
}
  0
LINE
  5
21664
330
18
100
AcDbEntity
  8
1DIM
100
AcDbLine
 10
183.3162416153646
 20
-652.8213303512666
 30
0.0
 11
183.3162416153646
 21
-687.0213303512669
 31
0.0
1001
ACAD
1000
DSTYLE
1002
{
1070
   271
1070
     1
1002
}
  0
LINE
  5
21665
330
18
100
AcDbEntity
  8
1DIM
100
AcDbLine
 10
172.8162416153646
 20
-686.0213303512669
 30
0.0
 11
181.3162416153646
 21
-686.0213303512669
 31
0.0
1001
ACAD
1000
DSTYLE
1002
{
1070
   271
1070
     1
1002
}
  0
LINE
  5
21666
330
18
100
AcDbEntity
  8
1DIM
100
AcDbLine
 10
183.3162416153646
 20
-686.0213303512669
 30
0.0
 11
200.7162416153646
 21
-686.0213303512669
 31
0.0
1001
ACAD
1000
DSTYLE
1002
{
1070
   271
1070
     1
1002
}
  0
LINE
  5
2166B
330
18
100
AcDbEntity
  8
1DIM
100
AcDbLine
 10
745.240930439469
 20
-605.6532262857279
 30
0.0
 11
747.9499232472988
 21
-592.877200230258
 31
0.0
1001
ACAD
1000
DSTYLE
1002
{
1070
    45
1040
0.5
1002
}
  0
LINE
  5
2166D
330
18
100
AcDbEntity
  8
1DIM
100
AcDbLine
 10
758.3763485846342
 20
-605.6532262857279
 30
0.0
 11
761.085341392464
 21
-592.877200230258
 31
0.0
1001
ACAD
1000
DSTYLE
1002
{
1070
    45
1040
0.5
1002
}
  0
LINE
  5
2166F
330
18
100
AcDbEntity
  8
1DIM
100
AcDbLine
 10
545.0034650410012
 20
-571.3281168900892
 30
0.0
 11
548.1389927524626
 21
-559.1998683350764
 31
0.0
1001
ACAD
1000
DSTYLE
1002
{
1070
    45
1040
0.5
1002
}
  0
LINE
  5
21670
330
18
100
AcDbEntity
  8
1DIM
100
AcDbLine
 10
548.1389927524626
 20
-559.1998683350764
 30
0.0
 11
583.622326085796
 21
-559.1998683350764
 31
0.0
1001
ACAD
1000
DSTYLE
1002
{
1070
    45
1040
0.5
1002
}
  0
TEXT
  5
21671
330
18
100
AcDbEntity
  8
1DIM
  6
CONTINUOUS
100
AcDbText
 10
550.6056594191293
 20
-552.666535001743
 30
0.0
 40
3.5
  1
材質：ステンレス
100
AcDbText
  0
TEXT
  5
21672
330
18
100
AcDbEntity
  8
1DIM
  6
CONTINUOUS
100
AcDbText
 10
550.722326085796
 20
-558.4998683350764
 30
0.0
 40
3.5
  1
仕上げ：鏡面研磨
100
AcDbText
  0
LINE
  5
21674
330
18
100
AcDbEntity
  8
1DIM
100
AcDbLine
 10
631.7554491527693
 20
-570.5960748077731
 30
0.0
 11
643.3718939735134
 21
-592.4355402221388
 31
0.0
1001
ACAD
1000
DSTYLE
1002
{
1070
    45
1040
0.5
1002
}
  0
LINE
  5
21675
330
18
100
AcDbEntity
  8
1DIM
100
AcDbLine
 10
643.3718939735134
 20
-592.4355402221388
 30
0.0
 11
690.63856064018
 21
-592.4355402221388
 31
0.0
1001
ACAD
1000
DSTYLE
1002
{
1070
    45
1040
0.5
1002
}
  0
TEXT
  5
21676
330
18
100
AcDbEntity
  8
1DIM
  6
CONTINUOUS
100
AcDbText
 10
645.83856064018
 20
-585.9022068888054
 30
0.0
 40
3.5
  1
材質：亜鉛ダイキャスト
100
AcDbText
  0
TEXT
  5
21677
330
18
100
AcDbEntity
  8
1DIM
  6
CONTINUOUS
100
AcDbText
 10
645.9552273068467
 20
-591.7355402221388
 30
0.0
 40
3.5
  1
仕上げ：クローム
100
AcDbText
  0
LINE
  5
21679
330
18
100
AcDbEntity
  8
1DIM
100
AcDbLine
 10
638.164355295375
 20
-549.4241309659695
 30
0.0
 11
649.780800116119
 21
-571.2635963803352
 31
0.0
1001
ACAD
1000
DSTYLE
1002
{
1070
    45
1040
0.5
1002
}
  0
LINE
  5
2167A
330
18
100
AcDbEntity
  8
1DIM
100
AcDbLine
 10
649.780800116119
 20
-571.2635963803352
 30
0.0
 11
685.2641334494524
 21
-571.2635963803352
 31
0.0
1001
ACAD
1000
DSTYLE
1002
{
1070
    45
1040
0.5
1002
}
  0
TEXT
  5
2167B
330
18
100
AcDbEntity
  8
1DIM
  6
CONTINUOUS
100
AcDbText
 10
652.2474667827858
 20
-564.7302630470018
 30
0.0
 40
3.5
  1
材質：ABS樹脂
100
AcDbText
  0
TEXT
  5
2167C
330
18
100
AcDbEntity
  8
1DIM
  6
CONTINUOUS
100
AcDbText
 10
652.3641334494524
 20
-570.5635963803352
 30
0.0
 40
3.5
  1
仕上げ：クローム
100
AcDbText
  0
LINE
  5
2167D
330
18
100
AcDbEntity
  8
1DIM
100
AcDbLine
 10
598.8162416153647
 20
-538.8212337595901
 30
0.0
 11
598.8162416153647
 21
-503.6111890401922
 31
0.0
  0
LINE
  5
2167E
330
18
100
AcDbEntity
  8
1DIM
100
AcDbLine
 10
642.8162416153649
 20
-538.8212337595901
 30
0.0
 11
642.8162416153649
 21
-503.6111890401922
 31
0.0
  0
LINE
  5
2167F
330
18
100
AcDbEntity
  8
1DIM
100
AcDbLine
 10
600.8162416153647
 20
-504.6111890401922
 30
0.0
 11
640.8162416153649
 21
-504.6111890401922
 31
0.0
  0
LINE
  5
21683
330
18
100
AcDbEntity
  8
1DIM
100
AcDbLine
 10
743.016241615365
 20
-673.8213303512666
 30
0.0
 11
793.6645184759044
 21
-673.8213303512666
 31
0.0
1001
ACAD
1000
DSTYLE
1002
{
1070
   271
1070
     0
1002
}
  0
LINE
  5
21684
330
18
100
AcDbEntity
  8
1DIM
100
AcDbLine
 10
743.016241615365
 20
-618.8112337595903
 30
0.0
 11
793.6645184759044
 21
-618.8112337595903
 31
0.0
1001
ACAD
1000
DSTYLE
1002
{
1070
   271
1070
     0
1002
}
  0
LINE
  5
21685
330
18
100
AcDbEntity
  8
1DIM
100
AcDbLine
 10
792.6645184759044
 20
-671.8213303512666
 30
0.0
 11
792.6645184759044
 21
-620.8112337595903
 31
0.0
1001
ACAD
1000
DSTYLE
1002
{
1070
   271
1070
     0
1002
}
  0
LINE
  5
21689
330
18
100
AcDbEntity
  8
0
  6
BYBLOCK
100
AcDbLine
 10
176.8162416153646
 20
-712.8625619481867
 30
0.0
 11
170.8162416153646
 21
-711.2548668081866
 31
0.0
  0
LINE
  5
2168A
330
18
100
AcDbEntity
  8
0
  6
BYBLOCK
100
AcDbLine
 10
170.8162416153646
 20
-711.2548668081866
 30
0.0
 11
176.8162416153646
 21
-709.6471716681866
 31
0.0
  0
LINE
  5
2168B
330
18
100
AcDbEntity
  8
0
  6
BYBLOCK
100
AcDbLine
 10
170.8162416153646
 20
-711.2548668081866
 30
0.0
 11
176.8162416153646
 21
-711.2548668081866
 31
0.0
  0
LINE
  5
2168C
330
18
100
AcDbEntity
  8
0
  6
BYBLOCK
100
AcDbLine
 10
614.8162416153647
 20
-709.6471716681866
 30
0.0
 11
620.8162416153647
 21
-711.2548668081866
 31
0.0
  0
LINE
  5
2168D
330
18
100
AcDbEntity
  8
0
  6
BYBLOCK
100
AcDbLine
 10
620.8162416153647
 20
-711.2548668081866
 30
0.0
 11
614.8162416153647
 21
-712.8625619481867
 31
0.0
  0
LINE
  5
2168E
330
18
100
AcDbEntity
  8
0
  6
BYBLOCK
100
AcDbLine
 10
620.8162416153647
 20
-711.2548668081866
 30
0.0
 11
614.8162416153647
 21
-711.2548668081866
 31
0.0
  0
TEXT
  5
2168F
330
18
100
AcDbEntity
  8
1DIM1
  6
CONTINUOUS
100
AcDbText
 10
377.1860332820313
 20
-709.1548668081866
 30
0.0
 40
10.5
  1
P450
100
AcDbText
1001
ACAD
1000
DSTYLE
1002
{
1070
    40
1040
3.0
1070
   271
1070
     0
1002
}
  0
LINE
  5
21690
330
18
100
AcDbEntity
  8
0
  6
BYBLOCK
100
AcDbLine
 10
154.6162416153647
 20
-735.6290254912669
 30
0.0
 11
148.6162416153647
 21
-734.0213303512669
 31
0.0
  0
LINE
  5
21691
330
18
100
AcDbEntity
  8
0
  6
BYBLOCK
100
AcDbLine
 10
148.6162416153647
 20
-734.0213303512669
 30
0.0
 11
154.6162416153647
 21
-732.4136352112669
 31
0.0
  0
LINE
  5
21692
330
18
100
AcDbEntity
  8
0
  6
BYBLOCK
100
AcDbLine
 10
148.6162416153647
 20
-734.0213303512669
 30
0.0
 11
154.6162416153647
 21
-734.0213303512669
 31
0.0
  0
LINE
  5
21693
330
18
100
AcDbEntity
  8
0
  6
BYBLOCK
100
AcDbLine
 10
637.016241615365
 20
-732.4136352112669
 30
0.0
 11
643.016241615365
 21
-734.0213303512669
 31
0.0
  0
LINE
  5
21694
330
18
100
AcDbEntity
  8
0
  6
BYBLOCK
100
AcDbLine
 10
643.016241615365
 20
-734.0213303512669
 30
0.0
 11
637.016241615365
 21
-735.6290254912669
 31
0.0
  0
LINE
  5
21695
330
18
100
AcDbEntity
  8
0
  6
BYBLOCK
100
AcDbLine
 10
643.016241615365
 20
-734.0213303512669
 30
0.0
 11
637.016241615365
 21
-734.0213303512669
 31
0.0
  0
TEXT
  5
21696
330
18
100
AcDbEntity
  8
1DIM1
  6
CONTINUOUS
100
AcDbText
 10
381.8138110598093
 20
-731.9213303512669
 30
0.0
 40
10.5
  1
494
100
AcDbText
1001
ACAD
1000
DSTYLE
1002
{
1070
    40
1040
3.0
1070
   271
1070
     0
1002
}
  0
LINE
  5
21697
330
18
100
AcDbEntity
  8
0
100
AcDbLine
 10
770.0162416152025
 20
-646.8213768871645
 30
0.0
 11
764.7162451053408
 21
-645.3213768871645
 31
0.0
  0
LINE
  5
21698
330
18
100
AcDbEntity
  8
0
100
AcDbLine
 10
764.7162451053408
 20
-645.3213768871645
 30
0.0
 11
740.0162451054489
 21
-645.3213768871648
 31
0.0
  0
LINE
  5
21699
330
18
100
AcDbEntity
  8
0
100
AcDbLine
 10
740.0162451054489
 20
-645.3213768871648
 30
0.0
 11
740.016249759147
 21
-643.3213303512667
 31
0.0
  0
LINE
  5
2169A
330
18
100
AcDbEntity
  8
0
100
AcDbLine
 10
740.016249759147
 20
-643.3213303512667
 30
0.0
 11
738.9162462689517
 21
-643.3213303512666
 31
0.0
  0
ARC
  5
2169B
330
18
100
AcDbEntity
  8
0
100
AcDbCircle
 10
738.9162462689517
 20
-644.8213303512666
 30
0.0
 40
1.5
100
AcDbArc
 50
90.0
 51
179.9998666844706
  0
LINE
  5
2169C
330
18
100
AcDbEntity
  8
0
100
AcDbLine
 10
737.4162462689558
 20
-644.8213268610742
 30
0.0
 11
737.4162369617761
 21
-648.8213268610742
 31
0.0
  0
ARC
  5
2169D
330
18
100
AcDbEntity
  8
0
100
AcDbCircle
 10
738.916236961772
 20
-648.8213303512666
 30
0.0
 40
1.5
100
AcDbArc
 50
179.9998666844706
 51
270.0
  0
LINE
  5
2169E
330
18
100
AcDbEntity
  8
0
100
AcDbLine
 10
738.916236961772
 20
-650.3213303512666
 30
0.0
 11
740.0162334715827
 21
-650.3213303512666
 31
0.0
  0
LINE
  5
2169F
330
18
100
AcDbEntity
  8
0
100
AcDbLine
 10
740.0162334715827
 20
-650.3213303512666
 30
0.0
 11
740.0162381250642
 21
-648.3213768871645
 31
0.0
  0
LINE
  5
216A0
330
18
100
AcDbEntity
  8
0
100
AcDbLine
 10
740.0162381250642
 20
-648.3213768871645
 30
0.0
 11
764.7162381249572
 21
-648.3213768871647
 31
0.0
  0
LINE
  5
216A1
330
18
100
AcDbEntity
  8
0
100
AcDbLine
 10
764.7162381249572
 20
-648.3213768871647
 30
0.0
 11
770.0162416152025
 21
-646.8213768871645
 31
0.0
  0
LINE
  5
216A2
330
18
100
AcDbEntity
  8
0
100
AcDbLine
 10
770.0162416152025
 20
-664.8213768871645
 30
0.0
 11
764.7162451053408
 21
-663.3213768871645
 31
0.0
  0
LINE
  5
216A3
330
18
100
AcDbEntity
  8
0
100
AcDbLine
 10
764.7162451053408
 20
-663.3213768871645
 30
0.0
 11
740.0162451054489
 21
-663.3213768871648
 31
0.0
  0
LINE
  5
216A4
330
18
100
AcDbEntity
  8
0
100
AcDbLine
 10
740.0162451054489
 20
-663.3213768871648
 30
0.0
 11
740.016249759147
 21
-661.3213303512667
 31
0.0
  0
LINE
  5
216A5
330
18
100
AcDbEntity
  8
0
100
AcDbLine
 10
740.016249759147
 20
-661.3213303512667
 30
0.0
 11
738.9162462689517
 21
-661.3213303512666
 31
0.0
  0
ARC
  5
216A6
330
18
100
AcDbEntity
  8
0
100
AcDbCircle
 10
738.9162462689517
 20
-662.8213303512666
 30
0.0
 40
1.5
100
AcDbArc
 50
90.0
 51
179.9998666844706
  0
LINE
  5
216A7
330
18
100
AcDbEntity
  8
0
100
AcDbLine
 10
737.4162462689558
 20
-662.8213268610742
 30
0.0
 11
737.4162369617761
 21
-666.8213268610742
 31
0.0
  0
ARC
  5
216A8
330
18
100
AcDbEntity
  8
0
100
AcDbCircle
 10
738.916236961772
 20
-666.8213303512666
 30
0.0
 40
1.5
100
AcDbArc
 50
179.9998666844706
 51
270.0
  0
LINE
  5
216A9
330
18
100
AcDbEntity
  8
0
100
AcDbLine
 10
738.916236961772
 20
-668.3213303512666
 30
0.0
 11
740.0162334715827
 21
-668.3213303512666
 31
0.0
  0
LINE
  5
216AA
330
18
100
AcDbEntity
  8
0
100
AcDbLine
 10
740.0162334715827
 20
-668.3213303512666
 30
0.0
 11
740.0162381250642
 21
-666.3213768871645
 31
0.0
  0
LINE
  5
216AB
330
18
100
AcDbEntity
  8
0
100
AcDbLine
 10
740.0162381250642
 20
-666.3213768871645
 30
0.0
 11
764.7162381249572
 21
-666.3213768871647
 31
0.0
  0
LINE
  5
216AC
330
18
100
AcDbEntity
  8
0
100
AcDbLine
 10
764.7162381249572
 20
-666.3213768871647
 30
0.0
 11
770.0162416152025
 21
-664.8213768871645
 31
0.0
  0
LINE
  5
216AD
330
18
100
AcDbEntity
  8
0
  6
BYBLOCK
100
AcDbLine
 10
705.016241615365
 20
-609.3571321395901
 30
0.0
 11
703.016241615365
 21
-608.8212337595901
 31
0.0
  0
LINE
  5
216AE
330
18
100
AcDbEntity
  8
0
  6
BYBLOCK
100
AcDbLine
 10
703.016241615365
 20
-608.8212337595901
 30
0.0
 11
705.016241615365
 21
-608.28533537959
 31
0.0
  0
LINE
  5
216AF
330
18
100
AcDbEntity
  8
0
  6
BYBLOCK
100
AcDbLine
 10
703.016241615365
 20
-608.8212337595901
 30
0.0
 11
705.016241615365
 21
-608.8212337595901
 31
0.0
  0
LINE
  5
216B0
330
18
100
AcDbEntity
  8
0
  6
BYBLOCK
100
AcDbLine
 10
741.016241615365
 20
-608.28533537959
 30
0.0
 11
743.016241615365
 21
-608.8212337595901
 31
0.0
  0
LINE
  5
216B1
330
18
100
AcDbEntity
  8
0
  6
BYBLOCK
100
AcDbLine
 10
743.016241615365
 20
-608.8212337595901
 30
0.0
 11
741.016241615365
 21
-609.3571321395901
 31
0.0
  0
LINE
  5
216B2
330
18
100
AcDbEntity
  8
0
  6
BYBLOCK
100
AcDbLine
 10
743.016241615365
 20
-608.8212337595901
 30
0.0
 11
741.016241615365
 21
-608.8212337595901
 31
0.0
  0
TEXT
  5
216B3
330
18
100
AcDbEntity
  8
1DIM
  6
CONTINUOUS
100
AcDbText
 10
720.3183249486983
 20
-608.12123375959
 30
0.0
 40
3.5
  1
40
100
AcDbText
1001
ACAD
1000
DSTYLE
1002
{
1070
   271
1070
     0
1002
}
  0
LINE
  5
216B4
330
18
100
AcDbEntity
  8
0
  6
BYBLOCK
100
AcDbLine
 10
695.016241615365
 20
-599.3571321395897
 30
0.0
 11
693.016241615365
 21
-598.8212337595896
 31
0.0
  0
LINE
  5
216B5
330
18
100
AcDbEntity
  8
0
  6
BYBLOCK
100
AcDbLine
 10
693.016241615365
 20
-598.8212337595896
 30
0.0
 11
695.016241615365
 21
-598.2853353795896
 31
0.0
  0
LINE
  5
216B6
330
18
100
AcDbEntity
  8
0
  6
BYBLOCK
100
AcDbLine
 10
693.016241615365
 20
-598.8212337595896
 30
0.0
 11
695.016241615365
 21
-598.8212337595896
 31
0.0
  0
LINE
  5
216B7
330
18
100
AcDbEntity
  8
0
  6
BYBLOCK
100
AcDbLine
 10
741.016241615365
 20
-598.2853353795896
 30
0.0
 11
743.016241615365
 21
-598.8212337595896
 31
0.0
  0
LINE
  5
216B8
330
18
100
AcDbEntity
  8
0
  6
BYBLOCK
100
AcDbLine
 10
743.016241615365
 20
-598.8212337595896
 30
0.0
 11
741.016241615365
 21
-599.3571321395897
 31
0.0
  0
LINE
  5
216B9
330
18
100
AcDbEntity
  8
0
  6
BYBLOCK
100
AcDbLine
 10
743.016241615365
 20
-598.8212337595896
 30
0.0
 11
741.016241615365
 21
-598.8212337595896
 31
0.0
  0
TEXT
  5
216BA
330
18
100
AcDbEntity
  8
1DIM
  6
CONTINUOUS
100
AcDbText
 10
715.3061721709205
 20
-598.1212337595897
 30
0.0
 40
3.5
  1
50
100
AcDbText
1001
ACAD
1000
DSTYLE
1002
{
1070
   271
1070
     0
1002
}
  0
LINE
  5
216BB
330
18
100
AcDbEntity
  8
0
  6
BYBLOCK
100
AcDbLine
 10
682.4803432353649
 20
-620.8212337595901
 30
0.0
 11
683.016241615365
 21
-618.8212337595901
 31
0.0
  0
LINE
  5
216BC
330
18
100
AcDbEntity
  8
0
  6
BYBLOCK
100
AcDbLine
 10
683.016241615365
 20
-618.8212337595901
 30
0.0
 11
683.552139995365
 21
-620.8212337595901
 31
0.0
  0
LINE
  5
216BD
330
18
100
AcDbEntity
  8
0
  6
BYBLOCK
100
AcDbLine
 10
683.016241615365
 20
-618.8212337595901
 30
0.0
 11
683.016241615365
 21
-620.8212337595901
 31
0.0
  0
LINE
  5
216BE
330
18
100
AcDbEntity
  8
0
  6
BYBLOCK
100
AcDbLine
 10
683.552139995365
 20
-626.8212337595901
 30
0.0
 11
683.016241615365
 21
-628.8212337595901
 31
0.0
  0
LINE
  5
216BF
330
18
100
AcDbEntity
  8
0
  6
BYBLOCK
100
AcDbLine
 10
683.016241615365
 20
-628.8212337595901
 30
0.0
 11
682.4803432353649
 21
-626.8212337595901
 31
0.0
  0
LINE
  5
216C0
330
18
100
AcDbEntity
  8
0
  6
BYBLOCK
100
AcDbLine
 10
683.016241615365
 20
-628.8212337595901
 30
0.0
 11
683.016241615365
 21
-626.8212337595901
 31
0.0
  0
TEXT
  5
216C1
330
18
100
AcDbEntity
  8
1DIM
  6
CONTINUOUS
100
AcDbText
 10
682.316241615365
 20
-625.9358170929235
 30
0.0
 40
3.5
  1
10
 50
90.0
100
AcDbText
1001
ACAD
1000
DSTYLE
1002
{
1070
   271
1070
     0
1002
}
  0
LINE
  5
216C2
330
18
100
AcDbEntity
  8
0
  6
BYBLOCK
100
AcDbLine
 10
672.4803432353649
 20
-620.8212337595901
 30
0.0
 11
673.016241615365
 21
-618.8212337595901
 31
0.0
  0
LINE
  5
216C3
330
18
100
AcDbEntity
  8
0
  6
BYBLOCK
100
AcDbLine
 10
673.016241615365
 20
-618.8212337595901
 30
0.0
 11
673.552139995365
 21
-620.8212337595901
 31
0.0
  0
LINE
  5
216C4
330
18
100
AcDbEntity
  8
0
  6
BYBLOCK
100
AcDbLine
 10
673.016241615365
 20
-618.8212337595901
 30
0.0
 11
673.016241615365
 21
-620.8212337595901
 31
0.0
  0
LINE
  5
216C5
330
18
100
AcDbEntity
  8
0
  6
BYBLOCK
100
AcDbLine
 10
673.552139995365
 20
-636.8212337595901
 30
0.0
 11
673.016241615365
 21
-638.8212337595901
 31
0.0
  0
LINE
  5
216C6
330
18
100
AcDbEntity
  8
0
  6
BYBLOCK
100
AcDbLine
 10
673.016241615365
 20
-638.8212337595901
 30
0.0
 11
672.4803432353649
 21
-636.8212337595901
 31
0.0
  0
LINE
  5
216C7
330
18
100
AcDbEntity
  8
0
  6
BYBLOCK
100
AcDbLine
 10
673.016241615365
 20
-638.8212337595901
 30
0.0
 11
673.016241615365
 21
-636.8212337595901
 31
0.0
  0
TEXT
  5
216C8
330
18
100
AcDbEntity
  8
1DIM
  6
CONTINUOUS
100
AcDbText
 10
672.316241615365
 20
-631.5191504262567
 30
0.0
 40
3.5
  1
20
 50
90.0
100
AcDbText
1001
ACAD
1000
DSTYLE
1002
{
1070
   271
1070
     0
1002
}
  0
LINE
  5
216C9
330
18
100
AcDbEntity
  8
0
  6
BYBLOCK
100
AcDbLine
 10
783.5521399953649
 20
-662.8213303512666
 30
0.0
 11
783.0162416153648
 21
-664.8213303512666
 31
0.0
  0
LINE
  5
216CA
330
18
100
AcDbEntity
  8
0
  6
BYBLOCK
100
AcDbLine
 10
783.0162416153648
 20
-664.8213303512666
 30
0.0
 11
782.4803432353648
 21
-662.8213303512666
 31
0.0
  0
LINE
  5
216CB
330
18
100
AcDbEntity
  8
0
  6
BYBLOCK
100
AcDbLine
 10
783.0162416153648
 20
-664.8213303512666
 30
0.0
 11
783.0162416153648
 21
-662.8213303512666
 31
0.0
  0
LINE
  5
216CC
330
18
100
AcDbEntity
  8
0
  6
BYBLOCK
100
AcDbLine
 10
782.4803432353648
 20
-648.8213303512666
 30
0.0
 11
783.0162416153648
 21
-646.8213303512666
 31
0.0
  0
LINE
  5
216CD
330
18
100
AcDbEntity
  8
0
  6
BYBLOCK
100
AcDbLine
 10
783.0162416153648
 20
-646.8213303512666
 30
0.0
 11
783.5521399953649
 21
-648.8213303512666
 31
0.0
  0
LINE
  5
216CE
330
18
100
AcDbEntity
  8
0
  6
BYBLOCK
100
AcDbLine
 10
783.0162416153648
 20
-646.8213303512666
 30
0.0
 11
783.0162416153648
 21
-648.8213303512666
 31
0.0
  0
TEXT
  5
216CF
330
18
100
AcDbEntity
  8
1DIM
  6
CONTINUOUS
100
AcDbText
 10
782.3162416153649
 20
-659.9046636845997
 30
0.0
 40
3.5
  1
P18
 50
90.0
100
AcDbText
1001
ACAD
1000
DSTYLE
1002
{
1070
   271
1070
     0
1002
}
  0
LINE
  5
216D0
330
18
100
AcDbEntity
  8
0
  6
BYBLOCK
100
AcDbLine
 10
783.5521399953649
 20
-644.8213303512666
 30
0.0
 11
783.0162416153648
 21
-646.8213303512666
 31
0.0
  0
LINE
  5
216D1
330
18
100
AcDbEntity
  8
0
  6
BYBLOCK
100
AcDbLine
 10
783.0162416153648
 20
-646.8213303512666
 30
0.0
 11
782.4803432353648
 21
-644.8213303512666
 31
0.0
  0
LINE
  5
216D2
330
18
100
AcDbEntity
  8
0
  6
BYBLOCK
100
AcDbLine
 10
783.0162416153648
 20
-646.8213303512666
 30
0.0
 11
783.0162416153648
 21
-644.8213303512666
 31
0.0
  0
LINE
  5
216D3
330
18
100
AcDbEntity
  8
0
  6
BYBLOCK
100
AcDbLine
 10
782.4803432353648
 20
-620.8212337595902
 30
0.0
 11
783.0162416153648
 21
-618.8212337595902
 31
0.0
  0
LINE
  5
216D4
330
18
100
AcDbEntity
  8
0
  6
BYBLOCK
100
AcDbLine
 10
783.0162416153648
 20
-618.8212337595902
 30
0.0
 11
783.5521399953649
 21
-620.8212337595902
 31
0.0
  0
LINE
  5
216D5
330
18
100
AcDbEntity
  8
0
  6
BYBLOCK
100
AcDbLine
 10
783.0162416153648
 20
-618.8212337595902
 30
0.0
 11
783.0162416153648
 21
-620.8212337595902
 31
0.0
  0
TEXT
  5
216D6
330
18
100
AcDbEntity
  8
1DIM
  6
CONTINUOUS
100
AcDbText
 10
782.3162416153649
 20
-635.7379487220949
 30
0.0
 40
3.5
  1
28
 50
90.0
100
AcDbText
1001
ACAD
1000
DSTYLE
1002
{
1070
   271
1070
     0
1002
}
  0
LINE
  5
216D7
330
18
100
AcDbEntity
  8
0
  6
BYBLOCK
100
AcDbLine
 10
663.552139995365
 20
-672.0213303512669
 30
0.0
 11
663.016241615365
 21
-674.0213303512669
 31
0.0
  0
LINE
  5
216D8
330
18
100
AcDbEntity
  8
0
  6
BYBLOCK
100
AcDbLine
 10
663.016241615365
 20
-674.0213303512669
 30
0.0
 11
662.4803432353649
 21
-672.0213303512669
 31
0.0
  0
LINE
  5
216D9
330
18
100
AcDbEntity
  8
0
  6
BYBLOCK
100
AcDbLine
 10
663.016241615365
 20
-674.0213303512669
 30
0.0
 11
663.016241615365
 21
-672.0213303512669
 31
0.0
  0
LINE
  5
216DA
330
18
100
AcDbEntity
  8
0
  6
BYBLOCK
100
AcDbLine
 10
662.4803432353649
 20
-630.6213303512673
 30
0.0
 11
663.016241615365
 21
-628.6213303512673
 31
0.0
  0
LINE
  5
216DB
330
18
100
AcDbEntity
  8
0
  6
BYBLOCK
100
AcDbLine
 10
663.016241615365
 20
-628.6213303512673
 30
0.0
 11
663.552139995365
 21
-630.6213303512673
 31
0.0
  0
LINE
  5
216DC
330
18
100
AcDbEntity
  8
0
  6
BYBLOCK
100
AcDbLine
 10
663.016241615365
 20
-628.6213303512673
 30
0.0
 11
663.016241615365
 21
-630.6213303512673
 31
0.0
  0
TEXT
  5
216DD
330
18
100
AcDbEntity
  8
1DIM
  6
CONTINUOUS
100
AcDbText
 10
662.3162416153651
 20
-654.2379970179337
 30
0.0
 40
3.5
  1
45
 50
90.0
100
AcDbText
1001
ACAD
1000
DSTYLE
1002
{
1070
   271
1070
     0
1002
}
  0
LINE
  5
216DE
330
18
100
AcDbEntity
  8
0
100
AcDbLine
 10
633.3162881512626
 20
-511.8212337597529
 30
0.0
 11
631.8162881512626
 21
-517.1212302696146
 31
0.0
  0
LINE
  5
216DF
330
18
100
AcDbEntity
  8
0
100
AcDbLine
 10
631.8162881512626
 20
-517.1212302696146
 30
0.0
 11
631.8162881512628
 21
-541.8212302695065
 31
0.0
  0
LINE
  5
216E0
330
18
100
AcDbEntity
  8
0
100
AcDbLine
 10
631.8162881512628
 20
-541.8212302695065
 30
0.0
 11
629.8162416153648
 21
-541.8212256158084
 31
0.0
  0
LINE
  5
216E1
330
18
100
AcDbEntity
  8
0
100
AcDbLine
 10
629.8162416153648
 20
-541.8212256158084
 30
0.0
 11
629.8162416153647
 21
-542.9212291060037
 31
0.0
  0
ARC
  5
216E2
330
18
100
AcDbEntity
  8
0
100
AcDbCircle
 10
631.3162416153647
 20
-542.9212291060037
 30
0.0
 40
1.5
100
AcDbArc
 50
180.0
 51
269.9998666844705
  0
LINE
  5
216E3
330
18
100
AcDbEntity
  8
0
100
AcDbLine
 10
631.3162381251723
 20
-544.4212291059996
 30
0.0
 11
635.3162381251723
 21
-544.4212384131793
 31
0.0
  0
ARC
  5
216E4
330
18
100
AcDbEntity
  8
0
100
AcDbCircle
 10
635.3162416153647
 20
-542.9212384131833
 30
0.0
 40
1.5
100
AcDbArc
 50
269.9998666844705
 51
359.9999999999999
  0
LINE
  5
216E5
330
18
100
AcDbEntity
  8
0
100
AcDbLine
 10
636.8162416153647
 20
-542.9212384131833
 30
0.0
 11
636.8162416153647
 21
-541.8212419033727
 31
0.0
  0
LINE
  5
216E6
330
18
100
AcDbEntity
  8
0
100
AcDbLine
 10
636.8162416153647
 20
-541.8212419033727
 30
0.0
 11
634.8162881512626
 21
-541.8212372498912
 31
0.0
  0
LINE
  5
216E7
330
18
100
AcDbEntity
  8
0
100
AcDbLine
 10
634.8162881512626
 20
-541.8212372498912
 30
0.0
 11
634.8162881512627
 21
-517.1212372499982
 31
0.0
  0
LINE
  5
216E8
330
18
100
AcDbEntity
  8
0
100
AcDbLine
 10
634.8162881512627
 20
-517.1212372499982
 30
0.0
 11
633.3162881512626
 21
-511.8212337597529
 31
0.0
  0
LINE
  5
216E9
330
18
100
AcDbEntity
  8
0
100
AcDbLine
 10
620.8162881512626
 20
-511.8212337597529
 30
0.0
 11
619.3162881512626
 21
-517.1212302696146
 31
0.0
  0
LINE
  5
216EA
330
18
100
AcDbEntity
  8
0
100
AcDbLine
 10
619.3162881512626
 20
-517.1212302696146
 30
0.0
 11
619.3162881512628
 21
-541.8212302695065
 31
0.0
  0
LINE
  5
216EB
330
18
100
AcDbEntity
  8
0
100
AcDbLine
 10
619.3162881512628
 20
-541.8212302695065
 30
0.0
 11
617.3162416153648
 21
-541.8212256158084
 31
0.0
  0
LINE
  5
216EC
330
18
100
AcDbEntity
  8
0
100
AcDbLine
 10
617.3162416153648
 20
-541.8212256158084
 30
0.0
 11
617.3162416153647
 21
-542.9212291060037
 31
0.0
  0
ARC
  5
216ED
330
18
100
AcDbEntity
  8
0
100
AcDbCircle
 10
618.8162416153647
 20
-542.9212291060037
 30
0.0
 40
1.5
100
AcDbArc
 50
180.0
 51
269.9998666844705
  0
LINE
  5
216EE
330
18
100
AcDbEntity
  8
0
100
AcDbLine
 10
618.8162381251723
 20
-544.4212291059996
 30
0.0
 11
622.8162381251723
 21
-544.4212384131793
 31
0.0
  0
ARC
  5
216EF
330
18
100
AcDbEntity
  8
0
100
AcDbCircle
 10
622.8162416153647
 20
-542.9212384131833
 30
0.0
 40
1.5
100
AcDbArc
 50
269.9998666844705
 51
359.9999999999999
  0
LINE
  5
216F0
330
18
100
AcDbEntity
  8
0
100
AcDbLine
 10
624.3162416153647
 20
-542.9212384131833
 30
0.0
 11
624.3162416153647
 21
-541.8212419033727
 31
0.0
  0
LINE
  5
216F1
330
18
100
AcDbEntity
  8
0
100
AcDbLine
 10
624.3162416153647
 20
-541.8212419033727
 30
0.0
 11
622.3162881512626
 21
-541.8212372498912
 31
0.0
  0
LINE
  5
216F2
330
18
100
AcDbEntity
  8
0
100
AcDbLine
 10
622.3162881512626
 20
-541.8212372498912
 30
0.0
 11
622.3162881512627
 21
-517.1212372499982
 31
0.0
  0
LINE
  5
216F3
330
18
100
AcDbEntity
  8
0
100
AcDbLine
 10
622.3162881512627
 20
-517.1212372499982
 30
0.0
 11
620.8162881512626
 21
-511.8212337597529
 31
0.0
  0
LINE
  5
216F4
330
18
100
AcDbEntity
  8
0
100
AcDbLine
 10
608.3162881512626
 20
-511.8212337597529
 30
0.0
 11
606.8162881512626
 21
-517.1212302696146
 31
0.0
  0
LINE
  5
216F5
330
18
100
AcDbEntity
  8
0
100
AcDbLine
 10
606.8162881512626
 20
-517.1212302696146
 30
0.0
 11
606.8162881512628
 21
-541.8212302695065
 31
0.0
  0
LINE
  5
216F6
330
18
100
AcDbEntity
  8
0
100
AcDbLine
 10
606.8162881512628
 20
-541.8212302695065
 30
0.0
 11
604.8162416153648
 21
-541.8212256158084
 31
0.0
  0
LINE
  5
216F7
330
18
100
AcDbEntity
  8
0
100
AcDbLine
 10
604.8162416153648
 20
-541.8212256158084
 30
0.0
 11
604.8162416153647
 21
-542.9212291060037
 31
0.0
  0
ARC
  5
216F8
330
18
100
AcDbEntity
  8
0
100
AcDbCircle
 10
606.3162416153647
 20
-542.9212291060037
 30
0.0
 40
1.5
100
AcDbArc
 50
180.0
 51
269.9998666844705
  0
LINE
  5
216F9
330
18
100
AcDbEntity
  8
0
100
AcDbLine
 10
606.3162381251723
 20
-544.4212291059996
 30
0.0
 11
610.3162381251723
 21
-544.4212384131793
 31
0.0
  0
ARC
  5
216FA
330
18
100
AcDbEntity
  8
0
100
AcDbCircle
 10
610.3162416153647
 20
-542.9212384131833
 30
0.0
 40
1.5
100
AcDbArc
 50
269.9998666844705
 51
359.9999999999999
  0
LINE
  5
216FB
330
18
100
AcDbEntity
  8
0
100
AcDbLine
 10
611.8162416153647
 20
-542.9212384131833
 30
0.0
 11
611.8162416153647
 21
-541.8212419033727
 31
0.0
  0
LINE
  5
216FC
330
18
100
AcDbEntity
  8
0
100
AcDbLine
 10
611.8162416153647
 20
-541.8212419033727
 30
0.0
 11
609.8162881512626
 21
-541.8212372498912
 31
0.0
  0
LINE
  5
216FD
330
18
100
AcDbEntity
  8
0
100
AcDbLine
 10
609.8162881512626
 20
-541.8212372498912
 30
0.0
 11
609.8162881512627
 21
-517.1212372499982
 31
0.0
  0
LINE
  5
216FE
330
18
100
AcDbEntity
  8
0
100
AcDbLine
 10
609.8162881512627
 20
-517.1212372499982
 30
0.0
 11
608.3162881512626
 21
-511.8212337597529
 31
0.0
  0
LINE
  5
216FF
330
18
100
AcDbEntity
  8
0
100
AcDbLine
 10
183.3162881512625
 20
-511.8212337597529
 30
0.0
 11
181.8162881512625
 21
-517.1212302696146
 31
0.0
  0
LINE
  5
21700
330
18
100
AcDbEntity
  8
0
100
AcDbLine
 10
181.8162881512625
 20
-517.1212302696146
 30
0.0
 11
181.8162881512627
 21
-541.8212302695065
 31
0.0
  0
LINE
  5
21701
330
18
100
AcDbEntity
  8
0
100
AcDbLine
 10
181.8162881512627
 20
-541.8212302695065
 30
0.0
 11
179.8162416153647
 21
-541.8212256158084
 31
0.0
  0
LINE
  5
21702
330
18
100
AcDbEntity
  8
0
100
AcDbLine
 10
179.8162416153647
 20
-541.8212256158084
 30
0.0
 11
179.8162416153646
 21
-542.9212291060037
 31
0.0
  0
ARC
  5
21703
330
18
100
AcDbEntity
  8
0
100
AcDbCircle
 10
181.3162416153646
 20
-542.9212291060037
 30
0.0
 40
1.5
100
AcDbArc
 50
180.0
 51
269.9998666844705
  0
LINE
  5
21704
330
18
100
AcDbEntity
  8
0
100
AcDbLine
 10
181.3162381251722
 20
-544.4212291059996
 30
0.0
 11
185.3162381251722
 21
-544.4212384131793
 31
0.0
  0
ARC
  5
21705
330
18
100
AcDbEntity
  8
0
100
AcDbCircle
 10
185.3162416153646
 20
-542.9212384131833
 30
0.0
 40
1.5
100
AcDbArc
 50
269.9998666844705
 51
359.9999999999999
  0
LINE
  5
21706
330
18
100
AcDbEntity
  8
0
100
AcDbLine
 10
186.8162416153646
 20
-542.9212384131833
 30
0.0
 11
186.8162416153646
 21
-541.8212419033727
 31
0.0
  0
LINE
  5
21707
330
18
100
AcDbEntity
  8
0
100
AcDbLine
 10
186.8162416153646
 20
-541.8212419033727
 30
0.0
 11
184.8162881512625
 21
-541.8212372498912
 31
0.0
  0
LINE
  5
21708
330
18
100
AcDbEntity
  8
0
100
AcDbLine
 10
184.8162881512625
 20
-541.8212372498912
 30
0.0
 11
184.8162881512626
 21
-517.1212372499982
 31
0.0
  0
LINE
  5
21709
330
18
100
AcDbEntity
  8
0
100
AcDbLine
 10
184.8162881512626
 20
-517.1212372499982
 30
0.0
 11
183.3162881512625
 21
-511.8212337597529
 31
0.0
  0
LINE
  5
2170A
330
18
100
AcDbEntity
  8
0
100
AcDbLine
 10
170.8162881512625
 20
-511.8212337597529
 30
0.0
 11
169.3162881512625
 21
-517.1212302696146
 31
0.0
  0
LINE
  5
2170B
330
18
100
AcDbEntity
  8
0
100
AcDbLine
 10
169.3162881512625
 20
-517.1212302696146
 30
0.0
 11
169.3162881512627
 21
-541.8212302695065
 31
0.0
  0
LINE
  5
2170C
330
18
100
AcDbEntity
  8
0
100
AcDbLine
 10
169.3162881512627
 20
-541.8212302695065
 30
0.0
 11
167.3162416153647
 21
-541.8212256158084
 31
0.0
  0
LINE
  5
2170D
330
18
100
AcDbEntity
  8
0
100
AcDbLine
 10
167.3162416153647
 20
-541.8212256158084
 30
0.0
 11
167.3162416153646
 21
-542.9212291060037
 31
0.0
  0
ARC
  5
2170E
330
18
100
AcDbEntity
  8
0
100
AcDbCircle
 10
168.8162416153646
 20
-542.9212291060037
 30
0.0
 40
1.5
100
AcDbArc
 50
180.0
 51
269.9998666844705
  0
LINE
  5
2170F
330
18
100
AcDbEntity
  8
0
100
AcDbLine
 10
168.8162381251722
 20
-544.4212291059996
 30
0.0
 11
172.8162381251722
 21
-544.4212384131793
 31
0.0
  0
ARC
  5
21710
330
18
100
AcDbEntity
  8
0
100
AcDbCircle
 10
172.8162416153646
 20
-542.9212384131833
 30
0.0
 40
1.5
100
AcDbArc
 50
269.9998666844705
 51
359.9999999999999
  0
LINE
  5
21711
330
18
100
AcDbEntity
  8
0
100
AcDbLine
 10
174.3162416153646
 20
-542.9212384131833
 30
0.0
 11
174.3162416153646
 21
-541.8212419033727
 31
0.0
  0
LINE
  5
21712
330
18
100
AcDbEntity
  8
0
100
AcDbLine
 10
174.3162416153646
 20
-541.8212419033727
 30
0.0
 11
172.3162881512625
 21
-541.8212372498912
 31
0.0
  0
LINE
  5
21713
330
18
100
AcDbEntity
  8
0
100
AcDbLine
 10
172.3162881512625
 20
-541.8212372498912
 30
0.0
 11
172.3162881512626
 21
-517.1212372499982
 31
0.0
  0
LINE
  5
21714
330
18
100
AcDbEntity
  8
0
100
AcDbLine
 10
172.3162881512626
 20
-517.1212372499982
 30
0.0
 11
170.8162881512625
 21
-511.8212337597529
 31
0.0
  0
LINE
  5
21715
330
18
100
AcDbEntity
  8
0
100
AcDbLine
 10
158.3162881512625
 20
-511.8212337597529
 30
0.0
 11
156.8162881512625
 21
-517.1212302696146
 31
0.0
  0
LINE
  5
21716
330
18
100
AcDbEntity
  8
0
100
AcDbLine
 10
156.8162881512625
 20
-517.1212302696146
 30
0.0
 11
156.8162881512627
 21
-541.8212302695065
 31
0.0
  0
LINE
  5
21717
330
18
100
AcDbEntity
  8
0
100
AcDbLine
 10
156.8162881512627
 20
-541.8212302695065
 30
0.0
 11
154.8162416153647
 21
-541.8212256158084
 31
0.0
  0
LINE
  5
21718
330
18
100
AcDbEntity
  8
0
100
AcDbLine
 10
154.8162416153647
 20
-541.8212256158084
 30
0.0
 11
154.8162416153646
 21
-542.9212291060037
 31
0.0
  0
ARC
  5
21719
330
18
100
AcDbEntity
  8
0
100
AcDbCircle
 10
156.3162416153646
 20
-542.9212291060037
 30
0.0
 40
1.5
100
AcDbArc
 50
180.0
 51
269.9998666844705
  0
LINE
  5
2171A
330
18
100
AcDbEntity
  8
0
100
AcDbLine
 10
156.3162381251722
 20
-544.4212291059996
 30
0.0
 11
160.3162381251722
 21
-544.4212384131793
 31
0.0
  0
ARC
  5
2171B
330
18
100
AcDbEntity
  8
0
100
AcDbCircle
 10
160.3162416153646
 20
-542.9212384131833
 30
0.0
 40
1.5
100
AcDbArc
 50
269.9998666844705
 51
359.9999999999999
  0
LINE
  5
2171C
330
18
100
AcDbEntity
  8
0
100
AcDbLine
 10
161.8162416153646
 20
-542.9212384131833
 30
0.0
 11
161.8162416153646
 21
-541.8212419033727
 31
0.0
  0
LINE
  5
2171D
330
18
100
AcDbEntity
  8
0
100
AcDbLine
 10
161.8162416153646
 20
-541.8212419033727
 30
0.0
 11
159.8162881512625
 21
-541.8212372498912
 31
0.0
  0
LINE
  5
2171E
330
18
100
AcDbEntity
  8
0
100
AcDbLine
 10
159.8162881512625
 20
-541.8212372498912
 30
0.0
 11
159.8162881512626
 21
-517.1212372499982
 31
0.0
  0
LINE
  5
2171F
330
18
100
AcDbEntity
  8
0
100
AcDbLine
 10
159.8162881512626
 20
-517.1212372499982
 30
0.0
 11
158.3162881512625
 21
-511.8212337597529
 31
0.0
  0
LINE
  5
21720
330
18
100
AcDbEntity
  8
0
  6
BYBLOCK
100
AcDbLine
 10
483.5521399953651
 20
-582.721330351266
 30
0.0
 11
483.0162416153651
 21
-584.721330351266
 31
0.0
  0
LINE
  5
21721
330
18
100
AcDbEntity
  8
0
  6
BYBLOCK
100
AcDbLine
 10
483.0162416153651
 20
-584.721330351266
 30
0.0
 11
482.4803432353651
 21
-582.721330351266
 31
0.0
  0
LINE
  5
21722
330
18
100
AcDbEntity
  8
0
  6
BYBLOCK
100
AcDbLine
 10
483.0162416153651
 20
-584.721330351266
 30
0.0
 11
483.0162416153651
 21
-582.721330351266
 31
0.0
  0
LINE
  5
21723
330
18
100
AcDbEntity
  8
0
  6
BYBLOCK
100
AcDbLine
 10
482.4803432353651
 20
-574.9213303512661
 30
0.0
 11
483.0162416153651
 21
-572.9213303512661
 31
0.0
  0
LINE
  5
21724
330
18
100
AcDbEntity
  8
0
  6
BYBLOCK
100
AcDbLine
 10
483.0162416153651
 20
-572.9213303512661
 30
0.0
 11
483.5521399953651
 21
-574.9213303512661
 31
0.0
  0
LINE
  5
21725
330
18
100
AcDbEntity
  8
0
  6
BYBLOCK
100
AcDbLine
 10
483.0162416153651
 20
-572.9213303512661
 30
0.0
 11
483.0162416153651
 21
-574.9213303512661
 31
0.0
  0
TEXT
  5
21726
330
18
100
AcDbEntity
  8
1DIM
  6
CONTINUOUS
100
AcDbText
 10
482.3162416153652
 20
-570.2879970179326
 30
0.0
 40
3.5
  1
φ12
 50
90.0
100
AcDbText
1001
ACAD
1000
DSTYLE
1002
{
1070
     3
1000
φ<>
1070
   271
1070
     0
1002
}
  0
LINE
  5
21727
330
18
100
AcDbEntity
  8
0
  6
BYBLOCK
100
AcDbLine
 10
189.3162416153646
 20
-687.6290254912669
 30
0.0
 11
183.3162416153646
 21
-686.0213303512669
 31
0.0
  0
LINE
  5
21728
330
18
100
AcDbEntity
  8
0
  6
BYBLOCK
100
AcDbLine
 10
183.3162416153646
 20
-686.0213303512669
 30
0.0
 11
189.3162416153646
 21
-684.4136352112669
 31
0.0
  0
LINE
  5
21729
330
18
100
AcDbEntity
  8
0
  6
BYBLOCK
100
AcDbLine
 10
183.3162416153646
 20
-686.0213303512669
 30
0.0
 11
189.3162416153646
 21
-686.0213303512669
 31
0.0
  0
LINE
  5
2172A
330
18
100
AcDbEntity
  8
0
  6
BYBLOCK
100
AcDbLine
 10
602.3162416153647
 20
-684.4136352112669
 30
0.0
 11
608.3162416153647
 21
-686.0213303512669
 31
0.0
  0
LINE
  5
2172B
330
18
100
AcDbEntity
  8
0
  6
BYBLOCK
100
AcDbLine
 10
608.3162416153647
 20
-686.0213303512669
 30
0.0
 11
602.3162416153647
 21
-687.6290254912669
 31
0.0
  0
LINE
  5
2172C
330
18
100
AcDbEntity
  8
0
  6
BYBLOCK
100
AcDbLine
 10
608.3162416153647
 20
-686.0213303512669
 30
0.0
 11
602.3162416153647
 21
-686.0213303512669
 31
0.0
  0
TEXT
  5
2172D
330
18
100
AcDbEntity
  8
1DIM1
  6
CONTINUOUS
100
AcDbText
 10
381.8162416153646
 20
-683.9213303512669
 30
0.0
 40
10.5
  1
425
100
AcDbText
1001
ACAD
1000
DSTYLE
1002
{
1070
    40
1040
3.0
1070
   271
1070
     0
1002
}
  0
LINE
  5
2172E
330
18
100
AcDbEntity
  8
0
  6
BYBLOCK
100
AcDbLine
 10
618.8162416153647
 20
-685.4573793203037
 30
0.0
 11
620.8162416153647
 21
-685.9932777003038
 31
0.0
  0
LINE
  5
2172F
330
18
100
AcDbEntity
  8
0
  6
BYBLOCK
100
AcDbLine
 10
620.8162416153647
 20
-685.9932777003038
 30
0.0
 11
618.8162416153647
 21
-686.5291760803038
 31
0.0
  0
LINE
  5
21730
330
18
100
AcDbEntity
  8
0
  6
BYBLOCK
100
AcDbLine
 10
620.8162416153647
 20
-685.9932777003038
 30
0.0
 11
618.8162416153647
 21
-685.9932777003038
 31
0.0
  0
LINE
  5
21731
330
18
100
AcDbEntity
  8
0
  6
BYBLOCK
100
AcDbLine
 10
610.3162416153647
 20
-686.5291760803038
 30
0.0
 11
608.3162416153647
 21
-685.9932777003038
 31
0.0
  0
LINE
  5
21732
330
18
100
AcDbEntity
  8
0
  6
BYBLOCK
100
AcDbLine
 10
608.3162416153647
 20
-685.9932777003038
 30
0.0
 11
610.3162416153647
 21
-685.4573793203037
 31
0.0
  0
LINE
  5
21733
330
18
100
AcDbEntity
  8
0
  6
BYBLOCK
100
AcDbLine
 10
608.3162416153647
 20
-685.9932777003038
 30
0.0
 11
610.3162416153647
 21
-685.9932777003038
 31
0.0
  0
TEXT
  5
21734
330
18
100
AcDbEntity
  8
1DIM
  6
CONTINUOUS
100
AcDbText
 10
592.199574948698
 20
-685.2932777003039
 30
0.0
 40
3.5
  1
P12.5
100
AcDbText
1001
ACAD
1000
DSTYLE
1002
{
1070
   271
1070
     1
1002
}
  0
LINE
  5
21735
330
18
100
AcDbEntity
  8
0
  6
BYBLOCK
100
AcDbLine
 10
622.8162416153647
 20
-686.557228731267
 30
0.0
 11
620.8162416153647
 21
-686.0213303512669
 31
0.0
  0
LINE
  5
21736
330
18
100
AcDbEntity
  8
0
  6
BYBLOCK
100
AcDbLine
 10
620.8162416153647
 20
-686.0213303512669
 30
0.0
 11
622.8162416153647
 21
-685.4854319712668
 31
0.0
  0
LINE
  5
21737
330
18
100
AcDbEntity
  8
0
  6
BYBLOCK
100
AcDbLine
 10
620.8162416153647
 20
-686.0213303512669
 30
0.0
 11
622.8162416153647
 21
-686.0213303512669
 31
0.0
  0
LINE
  5
21738
330
18
100
AcDbEntity
  8
0
  6
BYBLOCK
100
AcDbLine
 10
631.3162416153647
 20
-685.4854319712668
 30
0.0
 11
633.3162416153647
 21
-686.0213303512669
 31
0.0
  0
LINE
  5
21739
330
18
100
AcDbEntity
  8
0
  6
BYBLOCK
100
AcDbLine
 10
633.3162416153647
 20
-686.0213303512669
 30
0.0
 11
631.3162416153647
 21
-686.557228731267
 31
0.0
  0
LINE
  5
2173A
330
18
100
AcDbEntity
  8
0
  6
BYBLOCK
100
AcDbLine
 10
633.3162416153647
 20
-686.0213303512669
 30
0.0
 11
631.3162416153647
 21
-686.0213303512669
 31
0.0
  0
TEXT
  5
2173B
330
18
100
AcDbEntity
  8
1DIM
  6
CONTINUOUS
100
AcDbText
 10
636.5995749486981
 20
-685.321330351267
 30
0.0
 40
3.5
  1
P12.5
100
AcDbText
1001
ACAD
1000
DSTYLE
1002
{
1070
   271
1070
     1
1002
}
  0
LINE
  5
2173C
330
18
100
AcDbEntity
  8
0
  6
BYBLOCK
100
AcDbLine
 10
168.8162416153646
 20
-685.4854319712668
 30
0.0
 11
170.8162416153646
 21
-686.0213303512669
 31
0.0
  0
LINE
  5
2173D
330
18
100
AcDbEntity
  8
0
  6
BYBLOCK
100
AcDbLine
 10
170.8162416153646
 20
-686.0213303512669
 30
0.0
 11
168.8162416153646
 21
-686.557228731267
 31
0.0
  0
LINE
  5
2173E
330
18
100
AcDbEntity
  8
0
  6
BYBLOCK
100
AcDbLine
 10
170.8162416153646
 20
-686.0213303512669
 30
0.0
 11
168.8162416153646
 21
-686.0213303512669
 31
0.0
  0
LINE
  5
2173F
330
18
100
AcDbEntity
  8
0
  6
BYBLOCK
100
AcDbLine
 10
160.3162416153646
 20
-686.557228731267
 30
0.0
 11
158.3162416153646
 21
-686.0213303512669
 31
0.0
  0
LINE
  5
21740
330
18
100
AcDbEntity
  8
0
  6
BYBLOCK
100
AcDbLine
 10
158.3162416153646
 20
-686.0213303512669
 30
0.0
 11
160.3162416153646
 21
-685.4854319712668
 31
0.0
  0
LINE
  5
21741
330
18
100
AcDbEntity
  8
0
  6
BYBLOCK
100
AcDbLine
 10
158.3162416153646
 20
-686.0213303512669
 30
0.0
 11
160.3162416153646
 21
-686.0213303512669
 31
0.0
  0
TEXT
  5
21742
330
18
100
AcDbEntity
  8
1DIM
  6
CONTINUOUS
100
AcDbText
 10
142.1995749486979
 20
-685.321330351267
 30
0.0
 40
3.5
  1
P12.5
100
AcDbText
1001
ACAD
1000
DSTYLE
1002
{
1070
   271
1070
     1
1002
}
  0
LINE
  5
21743
330
18
100
AcDbEntity
  8
0
  6
BYBLOCK
100
AcDbLine
 10
172.8162416153646
 20
-686.557228731267
 30
0.0
 11
170.8162416153646
 21
-686.0213303512669
 31
0.0
  0
LINE
  5
21744
330
18
100
AcDbEntity
  8
0
  6
BYBLOCK
100
AcDbLine
 10
170.8162416153646
 20
-686.0213303512669
 30
0.0
 11
172.8162416153646
 21
-685.4854319712668
 31
0.0
  0
LINE
  5
21745
330
18
100
AcDbEntity
  8
0
  6
BYBLOCK
100
AcDbLine
 10
170.8162416153646
 20
-686.0213303512669
 30
0.0
 11
172.8162416153646
 21
-686.0213303512669
 31
0.0
  0
LINE
  5
21746
330
18
100
AcDbEntity
  8
0
  6
BYBLOCK
100
AcDbLine
 10
181.3162416153646
 20
-685.4854319712668
 30
0.0
 11
183.3162416153646
 21
-686.0213303512669
 31
0.0
  0
LINE
  5
21747
330
18
100
AcDbEntity
  8
0
  6
BYBLOCK
100
AcDbLine
 10
183.3162416153646
 20
-686.0213303512669
 30
0.0
 11
181.3162416153646
 21
-686.557228731267
 31
0.0
  0
LINE
  5
21748
330
18
100
AcDbEntity
  8
0
  6
BYBLOCK
100
AcDbLine
 10
183.3162416153646
 20
-686.0213303512669
 30
0.0
 11
181.3162416153646
 21
-686.0213303512669
 31
0.0
  0
TEXT
  5
21749
330
18
100
AcDbEntity
  8
1DIM
  6
CONTINUOUS
100
AcDbText
 10
186.5995749486979
 20
-685.321330351267
 30
0.0
 40
3.5
  1
P12.5
100
AcDbText
1001
ACAD
1000
DSTYLE
1002
{
1070
   271
1070
     1
1002
}
  0
LINE
  5
2174A
330
18
100
AcDbEntity
  8
0
  6
BYBLOCK
100
AcDbLine
 10
745.7651734606857
 20
-605.7643853087187
 30
0.0
 11
744.8260793141837
 21
-607.6097278941734
 31
0.0
  0
LINE
  5
2174B
330
18
100
AcDbEntity
  8
0
  6
BYBLOCK
100
AcDbLine
 10
744.8260793141837
 20
-607.6097278941734
 30
0.0
 11
744.7166874182524
 21
-605.5420672627372
 31
0.0
  0
LINE
  5
2174C
330
18
100
AcDbEntity
  8
0
  6
BYBLOCK
100
AcDbLine
 10
744.8260793141837
 20
-607.6097278941734
 30
0.0
 11
745.240930439469
 21
-605.6532262857279
 31
0.0
  0
LINE
  5
2174D
330
18
100
AcDbEntity
  8
0
  6
BYBLOCK
100
AcDbLine
 10
758.9005916058509
 20
-605.7643853087187
 30
0.0
 11
757.961497459349
 21
-607.6097278941734
 31
0.0
  0
LINE
  5
2174E
330
18
100
AcDbEntity
  8
0
  6
BYBLOCK
100
AcDbLine
 10
757.961497459349
 20
-607.6097278941734
 30
0.0
 11
757.8521055634176
 21
-605.5420672627372
 31
0.0
  0
LINE
  5
2174F
330
18
100
AcDbEntity
  8
0
  6
BYBLOCK
100
AcDbLine
 10
757.961497459349
 20
-607.6097278941734
 30
0.0
 11
758.3763485846342
 21
-605.6532262857279
 31
0.0
  0
LINE
  5
21750
330
18
100
AcDbEntity
  8
0
  6
BYBLOCK
100
AcDbLine
 10
545.5223046863656
 20
-571.4622530003828
 30
0.0
 11
544.5028622577133
 21
-573.2644528251387
 31
0.0
  0
LINE
  5
21751
330
18
100
AcDbEntity
  8
0
  6
BYBLOCK
100
AcDbLine
 10
544.5028622577133
 20
-573.2644528251387
 30
0.0
 11
544.4846253956367
 21
-571.1939807797954
 31
0.0
  0
LINE
  5
21752
330
18
100
AcDbEntity
  8
0
  6
BYBLOCK
100
AcDbLine
 10
544.5028622577133
 20
-573.2644528251387
 30
0.0
 11
545.0034650410012
 21
-571.3281168900892
 31
0.0
  0
LINE
  5
21753
330
18
100
AcDbEntity
  8
0
  6
BYBLOCK
100
AcDbLine
 10
631.2823166459833
 20
-570.8477347066625
 30
0.0
 11
630.8162416153647
 21
-568.8303202377147
 31
0.0
  0
LINE
  5
21754
330
18
100
AcDbEntity
  8
0
  6
BYBLOCK
100
AcDbLine
 10
630.8162416153647
 20
-568.8303202377147
 30
0.0
 11
632.2285816595553
 21
-570.3444149088837
 31
0.0
  0
LINE
  5
21755
330
18
100
AcDbEntity
  8
0
  6
BYBLOCK
100
AcDbLine
 10
630.8162416153647
 20
-568.8303202377147
 30
0.0
 11
631.7554491527693
 21
-570.5960748077731
 31
0.0
  0
LINE
  5
21756
330
18
100
AcDbEntity
  8
0
  6
BYBLOCK
100
AcDbLine
 10
637.691222788589
 20
-549.675790864859
 30
0.0
 11
637.2251477579704
 21
-547.6583763959111
 31
0.0
  0
LINE
  5
21757
330
18
100
AcDbEntity
  8
0
  6
BYBLOCK
100
AcDbLine
 10
637.2251477579704
 20
-547.6583763959111
 30
0.0
 11
638.637487802161
 21
-549.1724710670801
 31
0.0
  0
LINE
  5
21758
330
18
100
AcDbEntity
  8
0
  6
BYBLOCK
100
AcDbLine
 10
637.2251477579704
 20
-547.6583763959111
 30
0.0
 11
638.164355295375
 21
-549.4241309659695
 31
0.0
  0
LINE
  5
21759
330
18
100
AcDbEntity
  8
0
  6
BYBLOCK
100
AcDbLine
 10
600.8162416153647
 20
-505.1470874201922
 30
0.0
 11
598.8162416153647
 21
-504.6111890401922
 31
0.0
  0
LINE
  5
2175A
330
18
100
AcDbEntity
  8
0
  6
BYBLOCK
100
AcDbLine
 10
598.8162416153647
 20
-504.6111890401922
 30
0.0
 11
600.8162416153647
 21
-504.0752906601922
 31
0.0
  0
LINE
  5
2175B
330
18
100
AcDbEntity
  8
0
  6
BYBLOCK
100
AcDbLine
 10
598.8162416153647
 20
-504.6111890401922
 30
0.0
 11
600.8162416153647
 21
-504.6111890401922
 31
0.0
  0
LINE
  5
2175C
330
18
100
AcDbEntity
  8
0
  6
BYBLOCK
100
AcDbLine
 10
640.8162416153649
 20
-504.0752906601922
 30
0.0
 11
642.8162416153649
 21
-504.6111890401922
 31
0.0
  0
LINE
  5
2175D
330
18
100
AcDbEntity
  8
0
  6
BYBLOCK
100
AcDbLine
 10
642.8162416153649
 20
-504.6111890401922
 30
0.0
 11
640.8162416153649
 21
-505.1470874201922
 31
0.0
  0
LINE
  5
2175E
330
18
100
AcDbEntity
  8
0
  6
BYBLOCK
100
AcDbLine
 10
642.8162416153649
 20
-504.6111890401922
 30
0.0
 11
640.8162416153649
 21
-504.6111890401922
 31
0.0
  0
TEXT
  5
2175F
330
18
100
AcDbEntity
  8
1DIM
  6
CONTINUOUS
100
AcDbText
 10
617.8995749486982
 20
-503.9111890401922
 30
0.0
 40
3.5
  1
44
100
AcDbText
  0
LINE
  5
21760
330
18
100
AcDbEntity
  8
0
  6
BYBLOCK
100
AcDbLine
 10
793.2004168559045
 20
-671.8213303512666
 30
0.0
 11
792.6645184759044
 21
-673.8213303512666
 31
0.0
  0
LINE
  5
21761
330
18
100
AcDbEntity
  8
0
  6
BYBLOCK
100
AcDbLine
 10
792.6645184759044
 20
-673.8213303512666
 30
0.0
 11
792.1286200959044
 21
-671.8213303512666
 31
0.0
  0
LINE
  5
21762
330
18
100
AcDbEntity
  8
0
  6
BYBLOCK
100
AcDbLine
 10
792.6645184759044
 20
-673.8213303512666
 30
0.0
 11
792.6645184759044
 21
-671.8213303512666
 31
0.0
  0
LINE
  5
21763
330
18
100
AcDbEntity
  8
0
  6
BYBLOCK
100
AcDbLine
 10
792.1286200959044
 20
-620.8112337595903
 30
0.0
 11
792.6645184759044
 21
-618.8112337595903
 31
0.0
  0
LINE
  5
21764
330
18
100
AcDbEntity
  8
0
  6
BYBLOCK
100
AcDbLine
 10
792.6645184759044
 20
-618.8112337595903
 30
0.0
 11
793.2004168559045
 21
-620.8112337595903
 31
0.0
  0
LINE
  5
21765
330
18
100
AcDbEntity
  8
0
  6
BYBLOCK
100
AcDbLine
 10
792.6645184759044
 20
-618.8112337595903
 30
0.0
 11
792.6645184759044
 21
-620.8112337595903
 31
0.0
  0
TEXT
  5
21766
330
18
100
AcDbEntity
  8
1DIM
  6
CONTINUOUS
100
AcDbText
 10
791.9645184759042
 20
-649.2451014998728
 30
0.0
 40
3.5
  1
55
 50
90.0
100
AcDbText
1001
ACAD
1000
DSTYLE
1002
{
1070
   271
1070
     0
1002
}
  0
VIEWPORT
  5
57
330
15
100
AcDbEntity
 67
     1
  8
0
100
AcDbViewport
 68
     1
 10
0.0
 20
0.0
 30
0.0
 40
630.5106382978724
 41
297.0
 68
     1
 69
     1
1001
ACAD
1000
MVIEW
1002
{
1070
    16
1010
0.0
1020
0.0
1030
0.0
1010
0.0
1020
0.0
1030
1.0
1040
0.0
1040
297.0
1040
-4.171999999925333
1040
12.83903210976956
1040
50.0
1040
0.0
1040
0.0
1070
    16
1070
   100
1070
     0
1070
     1
1070
     0
1070
     0
1070
     0
1070
     0
1040
0.0
1040
0.0
1040
0.0
1040
10.0
1040
10.0
1040
10.0
1040
10.0
1070
     0
1002
{
1002
}
1002
}
  0
ENDSEC
  0
SECTION
  2
OBJECTS
  0
DICTIONARY
  5
C
330
0
100
AcDbDictionary
  3
ACAD_CIP_PREVIOUS_PRODUCT_INFO
350
20B28
  3
ACAD_COLOR
350
2D0
  3
ACAD_GROUP
350
D
  3
ACAD_LAYOUT
350
2D1
  3
ACAD_MATERIAL
350
2CF
  3
ACAD_MLEADERSTYLE
350
19E18
  3
ACAD_MLINESTYLE
350
1B
  3
ACAD_PLOTSETTINGS
350
2D2
  3
ACAD_SCALELIST
350
19DF6
  3
ACAD_VISUALSTYLE
350
19DE5
  3
ACDBHEADERROUNDTRIPXREC
350
21767
  3
ACDBVARIABLEDICTIONARY
350
37
  3
AEC_PROPERTY_SET_DEFS
350
20CE4
  3
CONTENTDICTIONARY
350
D8
  3
DRAWINGVARIABLESDICT
350
20
  3
DWGPROPS
350
2176A
1001
ACAD
1000
TREAT_AS_HARD
1070
     0
  0
DICTIONARY
  5
18FE8
330
2
100
AcDbDictionary
  3
ACAD_LAYERSTATES
360
18FE9
1001
ACAD
1000
TREAT_AS_HARD
1070
     1
  0
DICTIONARY
  5
1A20A
330
E
100
AcDbDictionary
  3
ADSK_XREC_LAYER_RECONCILED
360
1A20B
1001
ACAD
1000
TREAT_AS_HARD
1070
     1
  0
DICTIONARY
  5
1A20C
330
29
100
AcDbDictionary
  3
ADSK_XREC_LAYER_RECONCILED
360
1A20D
1001
ACAD
1000
TREAT_AS_HARD
1070
     1
  0
DICTIONARY
  5
1A20E
330
31
100
AcDbDictionary
  3
ADSK_XREC_LAYER_RECONCILED
360
1A20F
1001
ACAD
1000
TREAT_AS_HARD
1070
     1
  0
DICTIONARY
  5
1A218
330
101
100
AcDbDictionary
  3
ADSK_XREC_LAYER_RECONCILED
360
1A219
1001
ACAD
1000
TREAT_AS_HARD
1070
     1
  0
DICTIONARY
  5
1A21A
330
102
100
AcDbDictionary
  3
ADSK_XREC_LAYER_RECONCILED
360
1A21B
1001
ACAD
1000
TREAT_AS_HARD
1070
     1
  0
DICTIONARY
  5
1A21C
330
103
100
AcDbDictionary
  3
ADSK_XREC_LAYER_RECONCILED
360
1A21D
1001
ACAD
1000
TREAT_AS_HARD
1070
     1
  0
DICTIONARY
  5
1A220
330
25F
100
AcDbDictionary
  3
ADSK_XREC_LAYER_RECONCILED
360
1A221
1001
ACAD
1000
TREAT_AS_HARD
1070
     1
  0
DICTIONARY
  5
1A236
330
26A
100
AcDbDictionary
  3
ADSK_XREC_LAYER_RECONCILED
360
1A237
1001
ACAD
1000
TREAT_AS_HARD
1070
     1
  0
DICTIONARY
  5
6E9
330
18
100
AcDbDictionary
  3
ACAD_SORTENTS
360
6EA
1001
ACAD
1000
TREAT_AS_HARD
1070
     1
  0
DICTIONARY
  5
59B
330
15
100
AcDbDictionary
  3
ACAD_SORTENTS
360
59C
1001
ACAD
1000
TREAT_AS_HARD
1070
     1
  0
XRECORD
  5
20B28
102
{ACAD_REACTORS
330
C
102
}
330
C
100
AcDbXrecord
300
ACDLT
300
2012
300
ACDLT_F_S
  0
DICTIONARY
  5
2D0
102
{ACAD_REACTORS
330
C
102
}
330
C
100
AcDbDictionary
1001
ACAD
1000
TREAT_AS_HARD
1070
     0
  0
DICTIONARY
  5
D
102
{ACAD_REACTORS
330
C
102
}
330
C
100
AcDbDictionary
1001
ACAD
1000
TREAT_AS_HARD
1070
     0
  0
DICTIONARY
  5
2D1
102
{ACAD_REACTORS
330
C
102
}
330
C
100
AcDbDictionary
1001
ACAD
1000
TREAT_AS_HARD
1070
     0
  0
DICTIONARY
  5
2CF
102
{ACAD_REACTORS
330
C
102
}
330
C
100
AcDbDictionary
  3
BYBLOCK
350
19DD5
  3
BYLAYER
350
19DCD
  3
GLOBAL
350
19DDD
1001
ACAD
1000
TREAT_AS_HARD
1070
     0
  0
DICTIONARY
  5
19E18
102
{ACAD_REACTORS
330
C
102
}
330
C
100
AcDbDictionary
  3
STANDARD
350
19E19
1001
ACAD
1000
TREAT_AS_HARD
1070
     0
  0
DICTIONARY
  5
1B
102
{ACAD_REACTORS
330
C
102
}
330
C
100
AcDbDictionary
  3
STANDARD
350
1C
1001
ACAD
1000
TREAT_AS_HARD
1070
     0
  0
DICTIONARY
  5
2D2
102
{ACAD_REACTORS
330
C
102
}
330
C
100
AcDbDictionary
1001
ACAD
1000
TREAT_AS_HARD
1070
     0
  0
DICTIONARY
  5
19DF6
102
{ACAD_REACTORS
330
C
102
}
330
C
100
AcDbDictionary
  3
A0
350
19DF7
  3
A1
350
19DF8
  3
A2
350
19DF9
  3
A3
350
19DFA
  3
A4
350
19DFB
  3
A5
350
19DFC
  3
A6
350
19DFD
  3
A7
350
19DFE
  3
A8
350
19DFF
  3
A9
350
19E00
  3
B0
350
19E01
  3
B1
350
19E02
  3
B2
350
19E03
  3
B3
350
19E04
  3
B4
350
19E05
  3
B5
350
19E06
  3
B6
350
19E07
  3
B7
350
19E08
  3
B8
350
19E09
  3
B9
350
19E0A
  3
C0
350
19E0B
  3
C1
350
19E0C
  3
C2
350
19E0D
  3
C3
350
19E0E
  3
C4
350
19E0F
  3
C5
350
19E10
  3
C6
350
19E11
  3
C7
350
19E12
  3
C8
350
19E13
  3
C9
350
19E14
  3
D0
350
19E15
  3
D1
350
19E16
  3
D2
350
19E17
1001
ACAD
1000
TREAT_AS_HARD
1070
     0
  0
DICTIONARY
  5
19DE5
102
{ACAD_REACTORS
330
C
102
}
330
C
100
AcDbDictionary
  3
2DWIREFRAME
350
19DEB
  3
3D_HIDDEN
350
19DED
  3
3DWIREFRAME
350
19DEC
  3
BASIC
350
19DEA
  3
BRIGHTEN
350
19DF1
  3
COLORCHANGE
350
19DF5
  3
CONCEPTUAL
350
19DEE
  3
DIM
350
19DF0
  3
EDGECOLOROFF
350
1E02A
  3
FACEPATTERN
350
19DF4
  3
FLAT
350
19DE6
  3
FLATWITHEDGES
350
19DE7
  3
GOURAUD
350
19DE8
  3
GOURAUDWITHEDGES
350
19DE9
  3
HIDDEN
350
1F381
  3
JITTEROFF
350
1E028
  3
LINEPATTERN
350
19DF3
  3
MODELING
350
21362
  3
OVERHANGOFF
350
1E029
  3
REALISTIC
350
19DEF
  3
SHADED
350
1F386
  3
SHADED_WITH_EDGES
350
1F385
  3
SHADES_OF_GRAY
350
1F382
  3
SKETCHY
350
1F383
  3
THICKEN
350
19DF2
  3
WIREFRAME
350
1F380
  3
X-RAY
350
1F384
1001
ACAD
1000
TREAT_AS_HARD
1070
     0
  0
DICTIONARY
  5
21767
102
{ACAD_REACTORS
330
C
102
}
330
C
100
AcDbDictionary
  3
COLORDICT
350
21768
  3
MATERIALDICT
350
21769
1001
ACAD
1000
TREAT_AS_HARD
1070
     0
  0
DICTIONARY
  5
37
102
{ACAD_REACTORS
330
C
102
}
330
C
100
AcDbDictionary
  3
CANNOSCALE
350
213D6
  3
CMLEADERSTYLE
350
1AC19
  3
CTABLESTYLE
350
4F1
  3
DIMADEC
350
38
  3
DIMASSOC
350
408
  3
HIDETEXT
350
1891
  3
INDEXCTL
350
1AC1C
  3
INTERSECTIONCOLOR
350
1895
  3
INTERSECTIONDISPLAY
350
1894
  3
LAYEREVAL
350
211C3
  3
LAYERNOTIFY
350
211C4
  3
MSLTSCALE
350
20A9B
  3
OBSCOLOR
350
1892
  3
OBSLTYPE
350
1893
  3
PROJECTNAME
350
409
  3
SORTENTS
350
1AC1B
  3
XCLIPFRAME
350
21361
1001
ACAD
1000
TREAT_AS_HARD
1070
     0
  0
DICTIONARY
  5
20CE4
102
{ACAD_REACTORS
330
C
102
}
330
C
100
AcDbDictionary
1001
ACAD
1000
TREAT_AS_HARD
1070
     0
  0
DICTIONARY
  5
D8
102
{ACAD_REACTORS
330
C
102
}
330
C
100
AcDbDictionary
1001
CONTENTTABDATA
1070
    11
1000
Child
1000
D:\ACLT\TABset\CHILDREN.dwg
1070
     0
1070
     0
1070
     1
1000
PK
1000
D:\ACLT\TABset\PK.dwg
1070
     0
1070
     0
1070
     1
1000
Lev1
1000
D:\ACLT\TABset\Lever01.dwg
1070
     0
1070
     0
1070
     1
1000
Lev2
1000
D:\ACLT\TABset\Lever02.dwg
1070
     0
1070
     0
1070
     1
1000
L3
1000
D:\Aclt\TABset\Lever03.dwg
1070
     0
1070
     0
1070
     1
1000
Form
1000
D:\ACLT\FORMAT
1070
     1
1070
     0
1070
     1
1000
Jnt
1000
D:\ACLT\TABset\JOINTPARTS.dwg
1070
     0
1070
     0
1070
     1
1000
ISO
1000
D:\ACLT\TABset\Isome01.dwg
1070
     0
1070
     0
1070
     1
1000
R
1000
D:\ACLT\TABset\REGION.dwg
1070
     0
1070
     0
1070
     1
1000
std
1000
D:\ACLT\TABset\std_sym_all.dwg
1070
     0
1070
     0
1070
     1
1000
丸
1000
D:\Aclt\TABset\MARU.dwg
1070
     0
1070
     0
1070
     1
1001
CONTENTCURRENTTAB
1070
     0
1001
ACAD
1000
TREAT_AS_HARD
1070
     0
  0
DICTIONARY
  5
20
102
{ACAD_REACTORS
330
C
102
}
330
C
100
AcDbDictionary
1001
DRAWINGVARIABLESXDATA
1000
POLARANG
1000
0.261799387799149410000000
1000
POLARMODE
1000
1
1000
POLARSTYLE
1000
1
1001
ACAD
1000
TREAT_AS_HARD
1070
     0
  0
XRECORD
  5
2176A
102
{ACAD_REACTORS
330
C
102
}
330
C
100
AcDbXrecord
  1
DWGPROPS COOKIE
  2

  3

  4

  6

  7

  8
3684
  9

300
=
301
=
302
=
303
=
304
=
305
=
306
=
307
=
308
=
309
=
 40
0.0
 41
2453033.357663484
 42
2458093.005124364
  1

 90
        0
  0
DICTIONARY
  5
18FE9
102
{ACAD_REACTORS
330
18FE8
102
}
330
18FE8
100
AcDbDictionary
1001
ACAD
1000
TREAT_AS_HARD
1070
     0
  0
ACAD_PROXY_OBJECT
  5
1A20B
102
{ACAD_REACTORS
330
1A20A
102
}
330
1A20A
100
AcDbZombieObject
 90
      499
 91
      517
 93
       34
310
40C8804040
  0
ACAD_PROXY_OBJECT
  5
1A20D
102
{ACAD_REACTORS
330
1A20C
102
}
330
1A20C
100
AcDbZombieObject
 90
      499
 91
      517
 93
       34
310
40C8804040
  0
ACAD_PROXY_OBJECT
  5
1A20F
102
{ACAD_REACTORS
330
1A20E
102
}
330
1A20E
100
AcDbZombieObject
 90
      499
 91
      517
 93
       34
310
40C8804040
  0
ACAD_PROXY_OBJECT
  5
1A219
102
{ACAD_REACTORS
330
1A218
102
}
330
1A218
100
AcDbZombieObject
 90
      499
 91
      517
 93
       34
310
40C8804040
  0
ACAD_PROXY_OBJECT
  5
1A21B
102
{ACAD_REACTORS
330
1A21A
102
}
330
1A21A
100
AcDbZombieObject
 90
      499
 91
      517
 93
       34
310
40C8804040
  0
ACAD_PROXY_OBJECT
  5
1A21D
102
{ACAD_REACTORS
330
1A21C
102
}
330
1A21C
100
AcDbZombieObject
 90
      499
 91
      517
 93
       34
310
40C8804040
  0
ACAD_PROXY_OBJECT
  5
1A221
102
{ACAD_REACTORS
330
1A220
102
}
330
1A220
100
AcDbZombieObject
 90
      499
 91
      517
 93
       34
310
40C8804040
  0
ACAD_PROXY_OBJECT
  5
1A237
102
{ACAD_REACTORS
330
1A236
102
}
330
1A236
100
AcDbZombieObject
 90
      499
 91
      517
 93
       34
310
40C8804040
  0
SORTENTSTABLE
  5
6EA
102
{ACAD_REACTORS
330
6E9
102
}
330
6E9
100
AcDbSortentsTable
330
18
331
20CF4
  5
20D0E
331
20CF5
  5
20D0F
331
20CF6
  5
20D10
331
20CF7
  5
20D11
331
20CF8
  5
20D12
331
20CF9
  5
20D13
331
20CFA
  5
20D14
331
20CFB
  5
20D15
331
20CFC
  5
20D17
331
20CFD
  5
20D18
331
20CFE
  5
20D19
331
20CFF
  5
20D1A
331
20D00
  5
20D1B
331
20D01
  5
20D1D
331
20D02
  5
20D1E
331
20D03
  5
20D1F
331
20D04
  5
20D20
331
20D05
  5
20D21
331
20D06
  5
20D22
331
20D07
  5
20D23
331
20D08
  5
20D25
331
20D09
  5
20D26
331
20D0A
  5
20D31
331
20D0B
  5
20D32
331
20D0C
  5
20D33
331
20D0D
  5
20D34
331
20D0E
  5
20D35
331
20D0F
  5
20D36
331
20D10
  5
20D37
331
20D11
  5
20D38
331
20D12
  5
20D39
331
20D13
  5
20D3A
331
20D14
  5
20D3B
331
20D15
  5
20D3C
331
20D17
  5
20D82
331
20D18
  5
20D83
331
20D19
  5
20D84
331
20D1A
  5
20D85
331
20D1B
  5
20D86
331
20D1D
  5
21447
331
20D1E
  5
21448
331
20D1F
  5
21449
331
20D20
  5
2144A
331
20D21
  5
2144B
331
20D22
  5
2144C
331
20D23
  5
2144D
331
20D24
  5
2144E
331
20D25
  5
2144F
331
20D26
  5
21450
331
20D31
  5
21490
331
20D32
  5
21491
331
20D33
  5
21492
331
20D34
  5
21493
331
20D35
  5
21494
331
20D36
  5
21495
331
20D37
  5
21496
331
20D38
  5
21497
331
20D39
  5
21498
331
20D3A
  5
21499
331
20D3B
  5
2149A
331
20D3C
  5
2149B
331
20D3D
  5
2149D
331
20D3E
  5
2149E
331
20D3F
  5
2149F
331
20D40
  5
214A0
331
20D41
  5
214A1
331
20D42
  5
214A2
331
20D43
  5
214A3
331
20D44
  5
214A4
331
20D45
  5
214A5
331
20D46
  5
214A6
331
20D47
  5
214A7
331
20D48
  5
214A8
331
20D49
  5
214A9
331
20D4A
  5
214AA
331
20D4B
  5
214AB
331
20D4C
  5
214AC
331
20D4E
  5
214B7
331
20D4F
  5
214B8
331
20D50
  5
214B9
331
20D51
  5
214BA
331
20D52
  5
214BB
331
20D53
  5
214BC
331
20D54
  5
214BD
331
20D55
  5
214BE
331
20D56
  5
214BF
331
20D57
  5
214C0
331
20D58
  5
214C1
331
20D59
  5
214C2
331
20D5A
  5
214C3
331
20D5B
  5
214C4
331
20D5C
  5
214C5
331
20D5D
  5
214C6
331
20D5E
  5
214C7
331
20D5F
  5
214C8
331
20D60
  5
214C9
331
20D61
  5
214CA
331
20D62
  5
214CB
331
20D63
  5
214CC
331
20D64
  5
214CD
331
20D65
  5
214CE
331
20D66
  5
214CF
331
20D67
  5
214D0
331
20D68
  5
214D1
331
20D69
  5
214D2
331
20D6A
  5
214D3
331
20D6B
  5
214D4
331
20D6C
  5
214D5
331
20D6D
  5
214D6
331
20D6E
  5
214D7
331
20D6F
  5
214D8
331
20D70
  5
214D9
331
20D71
  5
214DB
331
20D72
  5
214DC
331
20D73
  5
214DD
331
20D74
  5
214DE
331
20D75
  5
214DF
331
20D76
  5
214E0
331
20D77
  5
214E1
331
20D78
  5
214E2
331
20D79
  5
214E3
331
20D7A
  5
214E4
331
20D7B
  5
214E5
331
20D7C
  5
214E6
331
20D7D
  5
214E7
331
20D7E
  5
214E8
331
20D7F
  5
214E9
331
20D80
  5
214EA
331
20D81
  5
214EB
331
20D82
  5
214EC
331
20D83
  5
214ED
331
20D84
  5
214EE
331
20D85
  5
214EF
331
20D86
  5
214F0
331
20D87
  5
214F1
331
20D88
  5
214F2
331
20D8A
  5
21537
331
20D8B
  5
21538
331
20D8C
  5
21539
331
20D8D
  5
2153A
331
20D8E
  5
2153B
331
20D90
  5
21580
331
20D91
  5
21581
331
20D92
  5
21582
331
20D93
  5
21583
331
20D94
  5
21584
331
20D96
  5
215C9
331
20D97
  5
215CA
331
20D98
  5
215CB
331
20D99
  5
215CC
331
20D9A
  5
215CD
331
20D9B
  5
215CE
331
20D9C
  5
215CF
331
20D9D
  5
215D0
331
20D9E
  5
215D1
331
20D9F
  5
215D2
331
20DA0
  5
215D3
331
20DA1
  5
215D4
331
20DA2
  5
215D5
331
20DA3
  5
215D6
331
20DA4
  5
215D7
331
20DA5
  5
215D8
331
20DA6
  5
215D9
331
20DA7
  5
215DA
331
20DA8
  5
215DB
331
20DA9
  5
215DC
331
20DAA
  5
215DD
331
20DAB
  5
215DE
331
20DAC
  5
215DF
331
20DAD
  5
215E0
331
20DAE
  5
215E1
331
20DAF
  5
215E2
331
20DB0
  5
215E3
331
20DB1
  5
215E4
331
20DB2
  5
215E5
331
20DB3
  5
215E6
331
20DB4
  5
215E7
331
20DB5
  5
215E8
331
20DB6
  5
215E9
331
20DB7
  5
215EA
331
20DB8
  5
215EB
331
20DB9
  5
215EC
331
20DBB
  5
21631
331
20DBC
  5
21632
331
20DBD
  5
21633
331
20DBE
  5
21637
331
20DBF
  5
21638
331
20DC1
  5
21696
331
20DC2
  5
21697
331
20DC3
  5
21698
331
20DC4
  5
21699
331
20DC5
  5
2169A
331
20DC7
  5
216DE
331
20DC8
  5
216DF
331
20DC9
  5
216E0
331
20DCA
  5
216E1
331
20DCB
  5
216E2
331
20DCC
  5
216E3
331
20DCE
  5
216EF
331
20DCF
  5
216F0
331
20DD0
  5
216F1
331
20DD1
  5
216F2
331
0
  5
210BA
331
0
  5
210BC
331
0
  5
210BD
331
0
  5
210C0
331
0
  5
210C1
331
0
  5
210E8
331
0
  5
210E9
331
210E8
  5
21748
331
210E9
  5
21749
331
210EA
  5
2174A
331
210EB
  5
2174B
331
210EC
  5
2174C
331
210ED
  5
2174D
331
210EE
  5
2174E
331
210EF
  5
2174F
331
210F0
  5
21750
331
210F1
  5
21751
331
210F2
  5
21752
331
0
  5
21441
331
0
  5
21442
331
21441
  5
2172D
331
21442
  5
21732
331
21443
  5
20CF4
331
21444
  5
20CF5
331
21445
  5
20CF6
331
0
  5
20CF7
331
0
  5
20CF8
331
0
  5
20CF9
331
21449
  5
20D04
331
2144A
  5
20D05
331
2144B
  5
20D06
331
0
  5
20CFD
331
0
  5
20CFE
331
0
  5
20CFF
331
0
  5
20D24
331
21450
  5
20D48
331
21451
  5
20D49
331
21452
  5
20D4A
331
21453
  5
20D4B
331
21454
  5
20D4C
331
21455
  5
20D4E
331
21456
  5
20D4F
331
21457
  5
20D50
331
21458
  5
20D51
331
21459
  5
20D52
331
2145A
  5
20D53
331
2145B
  5
20D54
331
2145C
  5
20D55
331
2145D
  5
20D56
331
2145E
  5
20D57
331
2145F
  5
20D58
331
21460
  5
20D59
331
21461
  5
20D5A
331
21462
  5
20D5B
331
21463
  5
20D5C
331
21464
  5
20D5D
331
21465
  5
20D5E
331
21466
  5
20D5F
331
21467
  5
20D60
331
21468
  5
20D61
331
21469
  5
20D62
331
2146A
  5
20D63
331
2146B
  5
20D64
331
2146C
  5
20D65
331
2146D
  5
20D66
331
2146E
  5
20D67
331
2146F
  5
20D68
331
21470
  5
20D69
331
21471
  5
20D6A
331
21472
  5
20D6B
331
21473
  5
20D6C
331
21474
  5
20D6E
331
21475
  5
20D6F
331
21476
  5
20D70
331
21477
  5
20D71
331
21478
  5
20D72
331
21479
  5
20D73
331
2147A
  5
20D74
331
2147B
  5
20D75
331
2147C
  5
20D76
331
2147D
  5
20D77
331
2147E
  5
20D78
331
2147F
  5
20D79
331
21480
  5
20D7A
331
21481
  5
20D7B
331
21482
  5
20D7C
331
21483
  5
20D7D
331
21484
  5
20D7E
331
21485
  5
20D7F
331
21486
  5
20D80
331
21487
  5
20D81
331
0
  5
20D6D
331
21489
  5
20D94
331
2148A
  5
20D96
331
2148B
  5
20D97
331
2148C
  5
20D98
331
2148D
  5
20D99
331
2148E
  5
20D9A
331
2148F
  5
20D9B
331
21490
  5
20D9C
331
21491
  5
20D9D
331
21492
  5
20D9E
331
21493
  5
20D9F
331
21494
  5
20DA0
331
21495
  5
20DA1
331
21496
  5
20DA2
331
21497
  5
20DA3
331
21498
  5
20DA4
331
21499
  5
20DA5
331
2149A
  5
20DA6
331
2149B
  5
20DA7
331
2149C
  5
20DA8
331
2149D
  5
20DA9
331
2149E
  5
20DAA
331
2149F
  5
20DAB
331
214A0
  5
20DAC
331
214A1
  5
20DAD
331
214A2
  5
20DAE
331
214A3
  5
20DAF
331
214A4
  5
20DB0
331
214A5
  5
20DB1
331
214A6
  5
20DB2
331
214A7
  5
20DB3
331
214A8
  5
20DB4
331
214A9
  5
20DB5
331
214AA
  5
20DB9
331
214AB
  5
20DBB
331
214AC
  5
20DBC
331
214AD
  5
20DC1
331
214AE
  5
20DC2
331
214AF
  5
20DC3
331
214B0
  5
20DC8
331
214B1
  5
20DC9
331
214B2
  5
20DCA
331
214B3
  5
20DCF
331
214B4
  5
20DD0
331
214B5
  5
20DD1
331
214B6
  5
210EB
331
214B7
  5
210EC
331
214B8
  5
210ED
331
214B9
  5
210F1
331
214BA
  5
210F2
331
214BB
  5
21363
331
214BC
  5
213B3
331
214BD
  5
21443
331
214BE
  5
21444
331
214BF
  5
21445
331
214C0
  5
21446
331
214C1
  5
21451
331
214C2
  5
21452
331
214C3
  5
21453
331
0
  5
20DB6
331
0
  5
20DB7
331
0
  5
20DB8
331
214C7
  5
2145B
331
214C8
  5
2145C
331
214C9
  5
2145D
331
0
  5
20DBD
331
0
  5
20DBE
331
0
  5
20DBF
331
214CD
  5
21468
331
214CE
  5
21469
331
214CF
  5
2146A
331
0
  5
20DC4
331
0
  5
20DC5
331
0
  5
20DC7
331
214D3
  5
21472
331
214D4
  5
21473
331
214D5
  5
21474
331
0
  5
20DCB
331
0
  5
20DCC
331
0
  5
20DCE
331
214D9
  5
2147C
331
214DA
  5
2147D
331
214DB
  5
2147E
331
0
  5
210B8
331
0
  5
210BB
331
0
  5
210EA
331
214DF
  5
21486
331
214E0
  5
21487
331
214E1
  5
21488
331
0
  5
210EE
331
0
  5
210EF
331
0
  5
210F0
331
214E5
  5
214AD
331
214E6
  5
214AE
331
214E7
  5
214AF
331
0
  5
2145E
331
0
  5
2145F
331
0
  5
21460
331
0
  5
2149C
331
214EC
  5
214FE
331
214ED
  5
214FF
331
214EE
  5
21500
331
214EF
  5
21501
331
214F0
  5
21502
331
214F1
  5
21503
331
214F2
  5
21504
331
214F3
  5
21505
331
214F4
  5
21506
331
214F5
  5
21507
331
214F6
  5
21508
331
214F7
  5
21509
331
214F8
  5
2150A
331
214F9
  5
2150B
331
214FA
  5
2150C
331
214FB
  5
2150D
331
214FC
  5
2150E
331
214FD
  5
2150F
331
214FE
  5
21510
331
214FF
  5
21511
331
21500
  5
21512
331
21501
  5
21513
331
21502
  5
21514
331
21503
  5
21515
331
21504
  5
21516
331
21505
  5
21517
331
21506
  5
21519
331
21507
  5
2151A
331
21508
  5
2151B
331
21509
  5
2151C
331
2150A
  5
2151D
331
2150B
  5
2151E
331
2150C
  5
2151F
331
2150D
  5
21520
331
2150E
  5
21521
331
2150F
  5
21522
331
21510
  5
21523
331
21511
  5
21524
331
21512
  5
21525
331
21513
  5
21526
331
21514
  5
21527
331
21515
  5
21528
331
21516
  5
21529
331
21517
  5
2152A
331
21518
  5
2152B
331
21519
  5
2152C
331
2151A
  5
2152D
331
2151B
  5
2152E
331
2151C
  5
2152F
331
2151D
  5
21530
331
2151E
  5
21531
331
2151F
  5
21532
331
21520
  5
21533
331
21521
  5
21534
331
21522
  5
21535
331
21523
  5
21536
331
0
  5
214DA
331
21525
  5
21547
331
21526
  5
21548
331
21527
  5
21549
331
21528
  5
2154A
331
21529
  5
2154B
331
2152A
  5
2154C
331
2152B
  5
2154D
331
2152C
  5
2154E
331
2152D
  5
2154F
331
2152E
  5
21550
331
2152F
  5
21551
331
21530
  5
21552
331
21531
  5
21553
331
21532
  5
21554
331
21533
  5
21555
331
21534
  5
21556
331
21535
  5
21557
331
21536
  5
21558
331
21537
  5
21559
331
21538
  5
2155A
331
21539
  5
2155B
331
2153A
  5
2155C
331
2153B
  5
2155D
331
2153C
  5
2155E
331
2153D
  5
2155F
331
2153E
  5
21560
331
2153F
  5
21561
331
21540
  5
21562
331
21541
  5
21563
331
21542
  5
21564
331
21543
  5
21565
331
21544
  5
21566
331
21545
  5
21567
331
21546
  5
21568
331
21547
  5
21569
331
21548
  5
2156A
331
21549
  5
2156B
331
2154A
  5
2156C
331
2154B
  5
2156D
331
2154C
  5
2156E
331
2154D
  5
2156F
331
2154E
  5
21570
331
2154F
  5
21571
331
21550
  5
21572
331
21551
  5
21573
331
21552
  5
21574
331
21553
  5
21576
331
21554
  5
21577
331
21555
  5
21578
331
21556
  5
21579
331
21557
  5
2157A
331
21558
  5
2157B
331
21559
  5
2157C
331
2155A
  5
2157D
331
2155B
  5
2157E
331
2155C
  5
2157F
331
0
  5
21518
331
2155E
  5
21590
331
2155F
  5
21591
331
21560
  5
21592
331
21561
  5
21593
331
21562
  5
21594
331
21563
  5
21595
331
21564
  5
21596
331
21565
  5
21597
331
21566
  5
21598
331
21567
  5
21599
331
21568
  5
2159A
331
21569
  5
2159B
331
2156A
  5
2159C
331
2156B
  5
2159D
331
2156C
  5
2159E
331
2156D
  5
2159F
331
2156E
  5
215A0
331
2156F
  5
215A1
331
21570
  5
215A2
331
21571
  5
215A3
331
21572
  5
215A4
331
21573
  5
215A5
331
21574
  5
215A6
331
21575
  5
215A7
331
21576
  5
215A8
331
21577
  5
215A9
331
21578
  5
215AA
331
21579
  5
215AB
331
2157A
  5
215AC
331
2157B
  5
215AD
331
2157C
  5
215AE
331
2157D
  5
215AF
331
2157E
  5
215B0
331
2157F
  5
215B1
331
21580
  5
215B2
331
21581
  5
215B4
331
21582
  5
215B5
331
21583
  5
215B6
331
21584
  5
215B7
331
21585
  5
215B8
331
21586
  5
215B9
331
21587
  5
215BA
331
21588
  5
215BB
331
21589
  5
215BC
331
2158A
  5
215BD
331
2158B
  5
215BE
331
2158C
  5
215BF
331
2158D
  5
215C0
331
2158E
  5
215C1
331
2158F
  5
215C2
331
21590
  5
215C3
331
21591
  5
215C4
331
21592
  5
215C5
331
21593
  5
215C6
331
21594
  5
215C7
331
21595
  5
215C8
331
0
  5
21575
331
21597
  5
215F9
331
21598
  5
215FA
331
21599
  5
215FB
331
2159A
  5
215FC
331
2159B
  5
215FD
331
2159C
  5
215FE
331
2159D
  5
215FF
331
2159E
  5
21600
331
2159F
  5
21601
331
215A0
  5
21602
331
215A1
  5
21603
331
215A2
  5
21604
331
215A3
  5
21605
331
215A4
  5
21606
331
215A5
  5
21607
331
215A6
  5
21608
331
215A7
  5
21609
331
215A8
  5
2160A
331
215A9
  5
2160B
331
215AA
  5
2160C
331
215AB
  5
2160D
331
215AC
  5
2160E
331
215AD
  5
2160F
331
215AE
  5
21610
331
215AF
  5
21611
331
215B0
  5
21612
331
215B1
  5
21613
331
215B2
  5
21614
331
215B3
  5
21615
331
215B4
  5
21616
331
215B5
  5
21617
331
215B6
  5
21618
331
215B7
  5
21619
331
215B8
  5
2161A
331
215B9
  5
2161B
331
215BA
  5
2161C
331
215BB
  5
2161D
331
215BC
  5
2161E
331
215BD
  5
2161F
331
215BE
  5
21620
331
215BF
  5
21621
331
215C0
  5
21622
331
215C1
  5
21623
331
215C2
  5
21624
331
215C3
  5
21625
331
215C4
  5
21626
331
215C5
  5
21627
331
215C6
  5
21628
331
215C7
  5
21629
331
215C8
  5
2162A
331
215C9
  5
2162B
331
215CA
  5
2162C
331
215CB
  5
2162D
331
215CC
  5
2162E
331
215CD
  5
2162F
331
215CE
  5
21630
331
0
  5
215B3
331
215D0
  5
2164A
331
215D1
  5
2164B
331
215D2
  5
2164F
331
215D3
  5
21650
331
215D4
  5
21651
331
215D5
  5
21652
331
215D6
  5
21656
331
215D7
  5
21657
331
215D8
  5
21658
331
215D9
  5
21659
331
215DA
  5
2165E
331
215DB
  5
2165F
331
215DC
  5
21661
331
215DD
  5
21662
331
215DE
  5
21664
331
215DF
  5
21665
331
215E0
  5
21666
331
215E1
  5
21667
331
215E2
  5
21669
331
215E3
  5
2166A
331
215E4
  5
2166B
331
215E5
  5
2166C
331
215E6
  5
2166E
331
215E7
  5
2166F
331
215E8
  5
21670
331
215E9
  5
21671
331
215EA
  5
21672
331
215EB
  5
21673
331
215EC
  5
21674
331
215ED
  5
21675
331
215EE
  5
21676
331
215EF
  5
21677
331
215F0
  5
21678
331
215F1
  5
21679
331
215F2
  5
2167A
331
215F3
  5
2167B
331
215F4
  5
2167C
331
215F5
  5
2167D
331
215F6
  5
2167E
331
215F7
  5
2167F
331
215F8
  5
21683
331
215F9
  5
21684
331
215FA
  5
21685
331
215FB
  5
21689
331
215FC
  5
2168A
331
215FD
  5
2168B
331
215FE
  5
2168C
331
215FF
  5
2168D
331
21600
  5
2168E
331
21601
  5
2168F
331
21602
  5
21690
331
21603
  5
21691
331
21604
  5
21692
331
21605
  5
21693
331
21606
  5
21694
331
21607
  5
21695
331
0
  5
215F1
331
21609
  5
216A6
331
2160A
  5
216A7
331
2160B
  5
216A8
331
2160C
  5
216A9
331
2160D
  5
216AA
331
2160E
  5
216AB
331
2160F
  5
216AC
331
21610
  5
216AD
331
21611
  5
216AE
331
21612
  5
216AF
331
21613
  5
216B0
331
21614
  5
216B1
331
21615
  5
216B2
331
21616
  5
216B3
331
21617
  5
216B4
331
21618
  5
216B5
331
21619
  5
216B6
331
2161A
  5
216B7
331
2161B
  5
216B8
331
2161C
  5
216B9
331
2161D
  5
216BA
331
2161E
  5
216BB
331
2161F
  5
216BC
331
21620
  5
216BD
331
21621
  5
216BE
331
21622
  5
216BF
331
21623
  5
216C0
331
21624
  5
216C1
331
21625
  5
216C2
331
21626
  5
216C3
331
21627
  5
216C4
331
21628
  5
216C5
331
21629
  5
216C6
331
2162A
  5
216C7
331
2162B
  5
216C8
331
2162C
  5
216C9
331
2162D
  5
216CA
331
2162E
  5
216CB
331
2162F
  5
216CC
331
21630
  5
216CD
331
21631
  5
216CE
331
21632
  5
216CF
331
21633
  5
216D0
331
21634
  5
216D1
331
21635
  5
216D2
331
21636
  5
216D3
331
21637
  5
216D4
331
21638
  5
216D5
331
21639
  5
216D6
331
2163A
  5
216D7
331
2163B
  5
216D8
331
2163C
  5
216D9
331
2163D
  5
216DA
331
2163E
  5
216DB
331
2163F
  5
216DC
331
21640
  5
216DD
331
21641
  5
216E4
331
21642
  5
216E5
331
21643
  5
216E6
331
21644
  5
216E7
331
0
  5
21634
331
0
  5
21635
331
0
  5
21636
331
21648
  5
216F3
331
21649
  5
216F4
331
2164A
  5
216F5
331
0
  5
2163E
331
0
  5
2163F
331
0
  5
21640
331
2164E
  5
216FD
331
2164F
  5
216FE
331
21650
  5
216FF
331
21651
  5
21700
331
0
  5
21645
331
0
  5
21646
331
0
  5
21647
331
21655
  5
21708
331
21656
  5
21709
331
21657
  5
2170A
331
21658
  5
2170B
331
0
  5
2164C
331
0
  5
2164D
331
0
  5
2164E
331
2165C
  5
21713
331
2165D
  5
21714
331
2165E
  5
21715
331
2165F
  5
21716
331
0
  5
21653
331
0
  5
21654
331
0
  5
21655
331
21663
  5
2171E
331
21664
  5
2171F
331
21665
  5
21720
331
21666
  5
21721
331
0
  5
2165A
331
0
  5
2165B
331
0
  5
2165C
331
0
  5
2165D
331
2166B
  5
2172C
331
0
  5
21660
331
2166D
  5
21731
331
0
  5
21663
331
2166F
  5
21736
331
21670
  5
21737
331
21671
  5
21738
331
21672
  5
21739
331
0
  5
21668
331
21674
  5
2173D
331
21675
  5
2173E
331
21676
  5
2173F
331
21677
  5
21740
331
0
  5
2166D
331
21679
  5
21744
331
2167A
  5
21745
331
2167B
  5
21746
331
2167C
  5
21747
331
2167D
  5
21753
331
2167E
  5
21754
331
2167F
  5
21755
331
21683
  5
2175D
331
21684
  5
2175E
331
21685
  5
2175F
331
21689
  5
20CFA
331
2168A
  5
20CFB
331
2168B
  5
20CFC
331
2168C
  5
20D00
331
2168D
  5
20D01
331
2168E
  5
20D02
331
2168F
  5
20D03
331
21690
  5
20D07
331
21691
  5
20D08
331
21692
  5
20D09
331
21693
  5
20D0A
331
21694
  5
20D0B
331
21695
  5
20D0C
331
21696
  5
20D0D
331
21697
  5
20D3D
331
21698
  5
20D3E
331
21699
  5
20D3F
331
2169A
  5
20D40
331
2169B
  5
20D41
331
2169C
  5
20D42
331
2169D
  5
20D43
331
2169E
  5
20D44
331
2169F
  5
20D45
331
216A0
  5
20D46
331
216A1
  5
20D47
331
216A2
  5
20D87
331
216A3
  5
20D88
331
216A4
  5
20D8A
331
216A5
  5
20D8B
331
216A6
  5
20D8C
331
216A7
  5
20D8D
331
216A8
  5
20D8E
331
216A9
  5
20D90
331
216AA
  5
20D91
331
216AB
  5
20D92
331
216AC
  5
20D93
331
216AD
  5
21454
331
216AE
  5
21455
331
216AF
  5
21456
331
216B0
  5
21457
331
216B1
  5
21458
331
216B2
  5
21459
331
216B3
  5
2145A
331
216B4
  5
21461
331
216B5
  5
21462
331
216B6
  5
21463
331
216B7
  5
21464
331
216B8
  5
21465
331
216B9
  5
21466
331
216BA
  5
21467
331
216BB
  5
2146B
331
216BC
  5
2146C
331
216BD
  5
2146D
331
216BE
  5
2146E
331
216BF
  5
2146F
331
216C0
  5
21470
331
216C1
  5
21471
331
216C2
  5
21475
331
216C3
  5
21476
331
216C4
  5
21477
331
216C5
  5
21478
331
216C6
  5
21479
331
216C7
  5
2147A
331
216C8
  5
2147B
331
216C9
  5
2147F
331
216CA
  5
21480
331
216CB
  5
21481
331
216CC
  5
21482
331
216CD
  5
21483
331
216CE
  5
21484
331
216CF
  5
21485
331
216D0
  5
21489
331
216D1
  5
2148A
331
216D2
  5
2148B
331
216D3
  5
2148C
331
216D4
  5
2148D
331
216D5
  5
2148E
331
216D6
  5
2148F
331
216D7
  5
214B0
331
216D8
  5
214B1
331
216D9
  5
214B2
331
216DA
  5
214B3
331
216DB
  5
214B4
331
216DC
  5
214B5
331
216DD
  5
214B6
331
216DE
  5
214F3
331
216DF
  5
214F4
331
216E0
  5
214F5
331
216E1
  5
214F6
331
216E2
  5
214F7
331
216E3
  5
214F8
331
216E4
  5
214F9
331
216E5
  5
214FA
331
216E6
  5
214FB
331
216E7
  5
214FC
331
216E8
  5
214FD
331
216E9
  5
2153C
331
216EA
  5
2153D
331
216EB
  5
2153E
331
216EC
  5
2153F
331
216ED
  5
21540
331
216EE
  5
21541
331
216EF
  5
21542
331
216F0
  5
21543
331
216F1
  5
21544
331
216F2
  5
21545
331
216F3
  5
21546
331
216F4
  5
21585
331
216F5
  5
21586
331
216F6
  5
21587
331
216F7
  5
21588
331
216F8
  5
21589
331
216F9
  5
2158A
331
216FA
  5
2158B
331
216FB
  5
2158C
331
216FC
  5
2158D
331
216FD
  5
2158E
331
216FE
  5
2158F
331
216FF
  5
215ED
331
21700
  5
215EE
331
21701
  5
215EF
331
21702
  5
215F0
331
21703
  5
215F2
331
21704
  5
215F3
331
21705
  5
215F4
331
21706
  5
215F5
331
21707
  5
215F6
331
21708
  5
215F7
331
21709
  5
215F8
331
2170A
  5
21639
331
2170B
  5
2163A
331
2170C
  5
2163B
331
2170D
  5
2163C
331
2170E
  5
2163D
331
2170F
  5
21641
331
21710
  5
21642
331
21711
  5
21643
331
21712
  5
21644
331
21713
  5
21648
331
21714
  5
21649
331
21715
  5
2169B
331
21716
  5
2169C
331
21717
  5
2169D
331
21718
  5
2169E
331
21719
  5
2169F
331
2171A
  5
216A0
331
2171B
  5
216A1
331
2171C
  5
216A2
331
2171D
  5
216A3
331
2171E
  5
216A4
331
2171F
  5
216A5
331
21720
  5
216E8
331
21721
  5
216E9
331
21722
  5
216EA
331
21723
  5
216EB
331
21724
  5
216EC
331
21725
  5
216ED
331
21726
  5
216EE
331
21727
  5
216F6
331
21728
  5
216F7
331
21729
  5
216F8
331
2172A
  5
216F9
331
2172B
  5
216FA
331
2172C
  5
216FB
331
2172D
  5
216FC
331
2172E
  5
21701
331
2172F
  5
21702
331
21730
  5
21703
331
21731
  5
21704
331
21732
  5
21705
331
21733
  5
21706
331
21734
  5
21707
331
21735
  5
2170C
331
21736
  5
2170D
331
21737
  5
2170E
331
21738
  5
2170F
331
21739
  5
21710
331
2173A
  5
21711
331
2173B
  5
21712
331
2173C
  5
21717
331
2173D
  5
21718
331
2173E
  5
21719
331
2173F
  5
2171A
331
21740
  5
2171B
331
21741
  5
2171C
331
21742
  5
2171D
331
21743
  5
21722
331
21744
  5
21723
331
21745
  5
21724
331
21746
  5
21725
331
21747
  5
21726
331
21748
  5
21727
331
21749
  5
21728
331
2174A
  5
21729
331
2174B
  5
2172A
331
2174C
  5
2172B
331
2174D
  5
2172E
331
2174E
  5
2172F
331
2174F
  5
21730
331
21750
  5
21733
331
21751
  5
21734
331
21752
  5
21735
331
21753
  5
2173A
331
21754
  5
2173B
331
21755
  5
2173C
331
21756
  5
21741
331
21757
  5
21742
331
21758
  5
21743
331
21759
  5
21756
331
2175A
  5
21757
331
2175B
  5
21758
331
2175C
  5
21759
331
2175D
  5
2175A
331
2175E
  5
2175B
331
2175F
  5
2175C
  0
SORTENTSTABLE
  5
59C
102
{ACAD_REACTORS
330
59B
102
}
330
59B
100
AcDbSortentsTable
330
15
331
57
  5
57
331
0
  5
70
  0
MATERIAL
  5
19DD5
102
{ACAD_REACTORS
330
2CF
102
}
102
{ACAD_XDICTIONARY
360
21905
102
}
330
2CF
100
AcDbMaterial
  1
BYBLOCK
 72
     0
 73
     2
 43
0.0208333333333333
 43
0.0
 43
0.0
 43
0.0
 43
0.0
 43
0.0208333333333333
 43
0.0
 43
0.0
 43
0.0
 43
0.0
 43
1.0
 43
0.0
 43
0.0
 43
0.0
 43
0.0
 43
1.0
 77
     0
 78
     2
 47
0.0208333333333333
 47
0.0
 47
0.0
 47
0.0
 47
0.0
 47
0.0208333333333333
 47
0.0
 47
0.0
 47
0.0
 47
0.0
 47
1.0
 47
0.0
 47
0.0
 47
0.0
 47
0.0
 47
1.0
171
     0
172
     2
 49
0.0208333333333333
 49
0.0
 49
0.0
 49
0.0
 49
0.0
 49
0.0208333333333333
 49
0.0
 49
0.0
 49
0.0
 49
0.0
 49
1.0
 49
0.0
 49
0.0
 49
0.0
 49
0.0
 49
1.0
175
     0
176
     2
142
0.0208333333333333
142
0.0
142
0.0
142
0.0
142
0.0
142
0.0208333333333333
142
0.0
142
0.0
142
0.0
142
0.0
142
1.0
142
0.0
142
0.0
142
0.0
142
0.0
142
1.0
179
     0
270
     2
144
0.0208333333333333
144
0.0
144
0.0
144
0.0
144
0.0
144
0.0208333333333333
144
0.0
144
0.0
144
0.0
144
0.0
144
1.0
144
0.0
144
0.0
144
0.0
144
0.0
144
1.0
274
     2
147
0.0208333333333333
147
0.0
147
0.0
147
0.0
147
0.0
147
0.0208333333333333
147
0.0
147
0.0
147
0.0
147
0.0
147
1.0
147
0.0
147
0.0
147
0.0
147
0.0
147
1.0
  0
MATERIAL
  5
19DCD
102
{ACAD_REACTORS
330
2CF
102
}
102
{ACAD_XDICTIONARY
360
21907
102
}
330
2CF
100
AcDbMaterial
  1
BYLAYER
 72
     0
 73
     2
 43
0.0208333333333333
 43
0.0
 43
0.0
 43
0.0
 43
0.0
 43
0.0208333333333333
 43
0.0
 43
0.0
 43
0.0
 43
0.0
 43
1.0
 43
0.0
 43
0.0
 43
0.0
 43
0.0
 43
1.0
 77
     0
 78
     2
 47
0.0208333333333333
 47
0.0
 47
0.0
 47
0.0
 47
0.0
 47
0.0208333333333333
 47
0.0
 47
0.0
 47
0.0
 47
0.0
 47
1.0
 47
0.0
 47
0.0
 47
0.0
 47
0.0
 47
1.0
171
     0
172
     2
 49
0.0208333333333333
 49
0.0
 49
0.0
 49
0.0
 49
0.0
 49
0.0208333333333333
 49
0.0
 49
0.0
 49
0.0
 49
0.0
 49
1.0
 49
0.0
 49
0.0
 49
0.0
 49
0.0
 49
1.0
175
     0
176
     2
142
0.0208333333333333
142
0.0
142
0.0
142
0.0
142
0.0
142
0.0208333333333333
142
0.0
142
0.0
142
0.0
142
0.0
142
1.0
142
0.0
142
0.0
142
0.0
142
0.0
142
1.0
179
     0
270
     2
144
0.0208333333333333
144
0.0
144
0.0
144
0.0
144
0.0
144
0.0208333333333333
144
0.0
144
0.0
144
0.0
144
0.0
144
1.0
144
0.0
144
0.0
144
0.0
144
0.0
144
1.0
274
     2
147
0.0208333333333333
147
0.0
147
0.0
147
0.0
147
0.0
147
0.0208333333333333
147
0.0
147
0.0
147
0.0
147
0.0
147
1.0
147
0.0
147
0.0
147
0.0
147
0.0
147
1.0
  0
MATERIAL
  5
19DDD
102
{ACAD_REACTORS
330
2CF
102
}
102
{ACAD_XDICTIONARY
360
21909
102
}
330
2CF
100
AcDbMaterial
  1
GLOBAL
 72
     0
 73
     2
 43
0.0208333333333333
 43
0.0
 43
0.0
 43
0.0
 43
0.0
 43
0.0208333333333333
 43
0.0
 43
0.0
 43
0.0
 43
0.0
 43
1.0
 43
0.0
 43
0.0
 43
0.0
 43
0.0
 43
1.0
 77
     0
 78
     2
 47
0.0208333333333333
 47
0.0
 47
0.0
 47
0.0
 47
0.0
 47
0.0208333333333333
 47
0.0
 47
0.0
 47
0.0
 47
0.0
 47
1.0
 47
0.0
 47
0.0
 47
0.0
 47
0.0
 47
1.0
171
     0
172
     2
 49
0.0208333333333333
 49
0.0
 49
0.0
 49
0.0
 49
0.0
 49
0.0208333333333333
 49
0.0
 49
0.0
 49
0.0
 49
0.0
 49
1.0
 49
0.0
 49
0.0
 49
0.0
 49
0.0
 49
1.0
175
     0
176
     2
142
0.0208333333333333
142
0.0
142
0.0
142
0.0
142
0.0
142
0.0208333333333333
142
0.0
142
0.0
142
0.0
142
0.0
142
1.0
142
0.0
142
0.0
142
0.0
142
0.0
142
1.0
179
     0
270
     2
144
0.0208333333333333
144
0.0
144
0.0
144
0.0
144
0.0
144
0.0208333333333333
144
0.0
144
0.0
144
0.0
144
0.0
144
1.0
144
0.0
144
0.0
144
0.0
144
0.0
144
1.0
274
     2
147
0.0208333333333333
147
0.0
147
0.0
147
0.0
147
0.0
147
0.0208333333333333
147
0.0
147
0.0
147
0.0
147
0.0
147
1.0
147
0.0
147
0.0
147
0.0
147
0.0
147
1.0
  0
ACAD_PROXY_OBJECT
  5
19E19
102
{ACAD_REACTORS
330
19E18
102
}
330
19E18
100
AcDbZombieObject
 90
      499
 91
      512
 93
      610
310
40901902A4063FBFFFFFE000000000000002040AD7A3703D0AD73F4214DD185B99185C990000000000000104090141901A00000000000004100000000000000041025764000000000000300FC0
340
12
340
0
340
F
340
0
 94
        0
1001
ACAD_MLEADERVER
1070
     2
  0
MLINESTYLE
  5
1C
102
{ACAD_REACTORS
330
1B
102
}
330
1B
100
AcDbMlineStyle
  2
STANDARD
 70
     0
  3

 62
   256
 51
90.0
 52
90.0
 71
     2
 49
0.5
 62
   256
  6
BYLAYER
 49
-0.5
 62
   256
  6
BYLAYER
  0
ACAD_PROXY_OBJECT
  5
19DF7
102
{ACAD_REACTORS
330
19DF6
102
}
330
19DF6
100
AcDbZombieObject
 90
      499
 91
      511
 93
       41
310
903313A31580
  0
ACAD_PROXY_OBJECT
  5
19DF8
102
{ACAD_REACTORS
330
19DF6
102
}
330
19DF6
100
AcDbZombieObject
 90
      499
 91
      511
 93
      105
310
903313A324000000000000004000
  0
ACAD_PROXY_OBJECT
  5
19DF9
102
{ACAD_REACTORS
330
19DF6
102
}
330
19DF6
100
AcDbZombieObject
 90
      499
 91
      511
 93
      105
310
903313A344000000000000104000
  0
ACAD_PROXY_OBJECT
  5
19DFA
102
{ACAD_REACTORS
330
19DF6
102
}
330
19DF6
100
AcDbZombieObject
 90
      499
 91
      511
 93
      105
310
903313A354000000000000144000
  0
ACAD_PROXY_OBJECT
  5
19DFB
102
{ACAD_REACTORS
330
19DF6
102
}
330
19DF6
100
AcDbZombieObject
 90
      499
 91
      511
 93
      105
310
903313A384000000000000204000
  0
ACAD_PROXY_OBJECT
  5
19DFC
102
{ACAD_REACTORS
330
19DF6
102
}
330
19DF6
100
AcDbZombieObject
 90
      499
 91
      511
 93
      113
310
904313A31304000000000000244000
  0
ACAD_PROXY_OBJECT
  5
19DFD
102
{ACAD_REACTORS
330
19DF6
102
}
330
19DF6
100
AcDbZombieObject
 90
      499
 91
      511
 93
      113
310
904313A31364000000000000304000
  0
ACAD_PROXY_OBJECT
  5
19DFE
102
{ACAD_REACTORS
330
19DF6
102
}
330
19DF6
100
AcDbZombieObject
 90
      499
 91
      511
 93
      113
310
904313A32304000000000000344000
  0
ACAD_PROXY_OBJECT
  5
19DFF
102
{ACAD_REACTORS
330
19DF6
102
}
330
19DF6
100
AcDbZombieObject
 90
      499
 91
      511
 93
      113
310
904313A333040000000000003E4000
  0
ACAD_PROXY_OBJECT
  5
19E00
102
{ACAD_REACTORS
330
19DF6
102
}
330
19DF6
100
AcDbZombieObject
 90
      499
 91
      511
 93
      113
310
904313A34304000000000000444000
  0
ACAD_PROXY_OBJECT
  5
19E01
102
{ACAD_REACTORS
330
19DF6
102
}
330
19DF6
100
AcDbZombieObject
 90
      499
 91
      511
 93
      113
310
904313A35304000000000000494000
  0
ACAD_PROXY_OBJECT
  5
19E02
102
{ACAD_REACTORS
330
19DF6
102
}
330
19DF6
100
AcDbZombieObject
 90
      499
 91
      511
 93
      121
310
905313A3130304000000000000594000
  0
ACAD_PROXY_OBJECT
  5
19E03
102
{ACAD_REACTORS
330
19DF6
102
}
330
19DF6
100
AcDbZombieObject
 90
      499
 91
      511
 93
      105
310
903323A310000000000000010100
  0
ACAD_PROXY_OBJECT
  5
19E04
102
{ACAD_REACTORS
330
19DF6
102
}
330
19DF6
100
AcDbZombieObject
 90
      499
 91
      511
 93
      105
310
903343A310000000000000410100
  0
ACAD_PROXY_OBJECT
  5
19E05
102
{ACAD_REACTORS
330
19DF6
102
}
330
19DF6
100
AcDbZombieObject
 90
      499
 91
      511
 93
      105
310
903383A310000000000000810100
  0
ACAD_PROXY_OBJECT
  5
19E06
102
{ACAD_REACTORS
330
19DF6
102
}
330
19DF6
100
AcDbZombieObject
 90
      499
 91
      511
 93
      113
310
90431303A310000000000000910100
  0
ACAD_PROXY_OBJECT
  5
19E07
102
{ACAD_REACTORS
330
19DF6
102
}
330
19DF6
100
AcDbZombieObject
 90
      499
 91
      511
 93
      121
310
9053130303A310000000000001650100
  0
ACAD_PROXY_OBJECT
  5
19E08
102
{ACAD_REACTORS
330
19DF6
102
}
330
19DF6
100
AcDbZombieObject
 90
      499
 91
      511
 93
      257
310
90E312F31323822203D2031272D3022000000000000200FC000000000000284000
  0
ACAD_PROXY_OBJECT
  5
19E09
102
{ACAD_REACTORS
330
19DF6
102
}
330
19DF6
100
AcDbZombieObject
 90
      499
 91
      511
 93
      249
310
90D312F363422203D2031272D3022000000000000240FC000000000000284000
  0
ACAD_PROXY_OBJECT
  5
19E0A
102
{ACAD_REACTORS
330
19DF6
102
}
330
19DF6
100
AcDbZombieObject
 90
      499
 91
      511
 93
      249
310
90D312F333222203D2031272D3022000000000000280FC000000000000284000
  0
ACAD_PROXY_OBJECT
  5
19E0B
102
{ACAD_REACTORS
330
19DF6
102
}
330
19DF6
100
AcDbZombieObject
 90
      499
 91
      511
 93
      249
310
90D312F313622203D2031272D30220000000000002C0FC000000000000284000
  0
ACAD_PROXY_OBJECT
  5
19E0C
102
{ACAD_REACTORS
330
19DF6
102
}
330
19DF6
100
AcDbZombieObject
 90
      499
 91
      511
 93
      249
310
90D332F333222203D2031272D30220000000000002E0FC000000000000284000
  0
ACAD_PROXY_OBJECT
  5
19E0D
102
{ACAD_REACTORS
330
19DF6
102
}
330
19DF6
100
AcDbZombieObject
 90
      499
 91
      511
 93
      241
310
90C312F3822203D2031272D3022000000000000300FC000000000000284000
  0
ACAD_PROXY_OBJECT
  5
19E0E
102
{ACAD_REACTORS
330
19DF6
102
}
330
19DF6
100
AcDbZombieObject
 90
      499
 91
      511
 93
      249
310
90D332F313622203D2031272D3022000000000000320FC000000000000284000
  0
ACAD_PROXY_OBJECT
  5
19E0F
102
{ACAD_REACTORS
330
19DF6
102
}
330
19DF6
100
AcDbZombieObject
 90
      499
 91
      511
 93
      241
310
90C312F3422203D2031272D3022000000000000340FC000000000000284000
  0
ACAD_PROXY_OBJECT
  5
19E10
102
{ACAD_REACTORS
330
19DF6
102
}
330
19DF6
100
AcDbZombieObject
 90
      499
 91
      511
 93
      241
310
90C332F3822203D2031272D3022000000000000360FC000000000000284000
  0
ACAD_PROXY_OBJECT
  5
19E11
102
{ACAD_REACTORS
330
19DF6
102
}
330
19DF6
100
AcDbZombieObject
 90
      499
 91
      511
 93
      241
310
90C312F3222203D2031272D3022000000000000380FC000000000000284000
  0
ACAD_PROXY_OBJECT
  5
19E12
102
{ACAD_REACTORS
330
19DF6
102
}
330
19DF6
100
AcDbZombieObject
 90
      499
 91
      511
 93
      241
310
90C332F3422203D2031272D30220000000000003A0FC000000000000284000
  0
ACAD_PROXY_OBJECT
  5
19E13
102
{ACAD_REACTORS
330
19DF6
102
}
330
19DF6
100
AcDbZombieObject
 90
      499
 91
      511
 93
      161
310
90A3122203D2031272D30224000000000000284000
  0
ACAD_PROXY_OBJECT
  5
19E14
102
{ACAD_REACTORS
330
19DF6
102
}
330
19DF6
100
AcDbZombieObject
 90
      499
 91
      511
 93
      257
310
90E312D312F3222203D2031272D30220000000000003E0FC000000000000284000
  0
ACAD_PROXY_OBJECT
  5
19E15
102
{ACAD_REACTORS
330
19DF6
102
}
330
19DF6
100
AcDbZombieObject
 90
      499
 91
      511
 93
      225
310
90A3322203D2031272D302200000000000002100000000000000284000
  0
ACAD_PROXY_OBJECT
  5
19E16
102
{ACAD_REACTORS
330
19DF6
102
}
330
19DF6
100
AcDbZombieObject
 90
      499
 91
      511
 93
      225
310
90A3622203D2031272D302200000000000006100000000000000284000
  0
ACAD_PROXY_OBJECT
  5
19E17
102
{ACAD_REACTORS
330
19DF6
102
}
330
19DF6
100
AcDbZombieObject
 90
      499
 91
      511
 93
      249
310
90D31272D3022203D2031272D30220000000000000A100000000000000284000
  0
ACAD_PROXY_OBJECT
  5
19DEB
102
{ACAD_REACTORS
330
19DE5
102
}
330
19DE5
100
AcDbZombieObject
 90
      499
 91
      510
 93
      436
310
42CC9915DA5C99599C985B595049028333333333333E3BF0000000000000FB0107901411070040501600405405064090741402480A0340
1001
ACAD
1000
AcDbSavedByObjectVersion
1070
     0
  0
ACAD_PROXY_OBJECT
  5
19DED
102
{ACAD_REACTORS
330
19DE5
102
}
330
19DE5
100
AcDbZombieObject
 90
      499
 91
      510
 93
      500
310
424CD108121A5919195B90640502408333333333333E3BF0000000000000FB01079024090700405020000000000001110200405405064090740C02480A0340
1001
ACAD
1000
AcDbSavedByObjectVersion
1070
     0
  0
ACAD_PROXY_OBJECT
  5
19DEC
102
{ACAD_REACTORS
330
19DE5
102
}
330
19DE5
100
AcDbZombieObject
 90
      499
 91
      510
 93
      436
310
42CCD915DA5C99599C985B595059028333333333333E3BF0000000000000FB0107901411070040501600405405064090741402480A0340
1001
ACAD
1000
AcDbSavedByObjectVersion
1070
     0
  0
ACAD_PROXY_OBJECT
  5
19DEA
102
{ACAD_REACTORS
330
19DE5
102
}
330
19DE5
100
AcDbZombieObject
 90
      499
 91
      510
 93
      388
310
4150985CDA58D07406404333333333333E3BF0000000000000FB0107A41107004050150841D405064090741402480A0350
1001
ACAD
1000
AcDbSavedByObjectVersion
1070
     0
  0
ACAD_PROXY_OBJECT
  5
19DF1
102
{ACAD_REACTORS
330
19DE5
102
}
330
19DE5
100
AcDbZombieObject
 90
      499
 91
      510
 93
      428
310
42109C9A59DA1D195B90C409028333333333333E3BF0000000000000FB010790141107004050150841D405064090741402480A029950
1001
ACAD
1000
AcDbSavedByObjectVersion
1070
     0
  0
ACAD_PROXY_OBJECT
  5
19DF5
102
{ACAD_REACTORS
330
19DE5
102
}
330
19DE5
100
AcDbZombieObject
 90
      499
 91
      510
 93
      452
310
42D0DBDB1BDC90DA185B99D95104090240C333333333333E3BF0000000000000FB0108901411070040501508421405064090741402480A0350
1001
ACAD
1000
AcDbSavedByObjectVersion
1070
     0
  0
ACAD_PROXY_OBJECT
  5
19DEE
102
{ACAD_REACTORS
330
19DE5
102
}
330
19DE5
100
AcDbZombieObject
 90
      499
 91
      510
 93
      500
310
4290DBDB98D95C1D1D585B10940D028333333333333E3BF0000000000000FB0107902409070040501000000000000111010841D405064090740C02480A0340
1001
ACAD
1000
AcDbSavedByObjectVersion
1070
     0
  0
ACAD_PROXY_OBJECT
  5
19DF0
102
{ACAD_REACTORS
330
19DE5
102
}
330
19DE5
100
AcDbZombieObject
 90
      499
 91
      510
 93
      412
310
40D11A5B50B409028333333333333E3BF0000000000000FB010790141107004050150841D405064090741402480A02677FFFFFD0
1001
ACAD
1000
AcDbSavedByObjectVersion
1070
     0
  0
ACAD_PROXY_OBJECT
  5
1E02A
102
{ACAD_REACTORS
330
19DE5
102
}
330
19DE5
100
AcDbZombieObject
 90
      499
 91
      510
 93
      452
310
43115919D950DBDB1BDC93D999916409028333333333333E3BF0000000000000FB010790141107004050150841D405064090741402480A0350
1001
ACAD
1000
AcDbSavedByObjectVersion
1070
     0
  0
ACAD_PROXY_OBJECT
  5
19DF4
102
{ACAD_REACTORS
330
19DE5
102
}
330
19DE5
100
AcDbZombieObject
 90
      499
 91
      510
 93
      444
310
42D19858D95C185D1D195C9B90F409028333333333333E3BF0000000000000FB010790141107004050150841D405064090741402480A0350
1001
ACAD
1000
AcDbSavedByObjectVersion
1070
     0
  0
ACAD_PROXY_OBJECT
  5
19DE6
102
{ACAD_REACTORS
330
19DE5
102
}
330
19DE5
100
AcDbZombieObject
 90
      499
 91
      510
 93
      388
310
41119B185D240901404333333333333E3BF0000000000000F9010740A41107004050150841D405064090741402480A1B50
1001
ACAD
1000
AcDbSavedByObjectVersion
1070
     0
  0
ACAD_PROXY_OBJECT
  5
19DE7
102
{ACAD_REACTORS
330
19DE5
102
}
330
19DE5
100
AcDbZombieObject
 90
      499
 91
      510
 93
      476
310
43519B185D15DA5D1A115919D95CD0140901404333333333333E3BF0000000000000F9010740901411070040501600405405064090741402480A1B50
1001
ACAD
1000
AcDbSavedByObjectVersion
1070
     0
  0
ACAD_PROXY_OBJECT
  5
19DE8
102
{ACAD_REACTORS
330
19DE5
102
}
330
19DE5
100
AcDbZombieObject
 90
      499
 91
      510
 93
      412
310
41D1DBDD5C985D5910240902404333333333333E3BF0000000000000F9010740A411070040501641D405064090741402480A1B50
1001
ACAD
1000
AcDbSavedByObjectVersion
1070
     0
  0
ACAD_PROXY_OBJECT
  5
19DE9
102
{ACAD_REACTORS
330
19DE5
102
}
330
19DE5
100
AcDbZombieObject
 90
      499
 91
      510
 93
      500
310
4411DBDD5C985D5915DA5D1A115919D95CD0340902404333333333333E3BF0000000000000F9010740901411070040501600405405064090741402480A1B50
1001
ACAD
1000
AcDbSavedByObjectVersion
1070
     0
  0
ACAD_PROXY_OBJECT
  5
1F381
102
{ACAD_REACTORS
330
19DE5
102
}
330
19DE5
100
AcDbZombieObject
 90
      499
 91
      510
 93
      476
310
41921A5919195B90640502408333333333333E3BF0000000000000FB01079024090700405020000000000001110200405405064090740C02480A0340
1001
ACAD
1000
AcDbSavedByObjectVersion
1070
     0
  0
ACAD_PROXY_OBJECT
  5
1E028
102
{ACAD_REACTORS
330
19DE5
102
}
330
19DE5
100
AcDbZombieObject
 90
      499
 91
      510
 93
      428
310
42529A5D1D195C93D999914409028333333333333E3BF0000000000000FB010790141107004050150A41D405064090741402480A0350
1001
ACAD
1000
AcDbSavedByObjectVersion
1070
     0
  0
ACAD_PROXY_OBJECT
  5
19DF3
102
{ACAD_REACTORS
330
19DE5
102
}
330
19DE5
100
AcDbZombieObject
 90
      499
 91
      510
 93
      444
310
42D31A5B995C185D1D195C9B90E409028333333333333E3BF0000000000000FB010790141107004050750841D405064090741402483A0350
1001
ACAD
1000
AcDbSavedByObjectVersion
1070
     0
  0
ACAD_PROXY_OBJECT
  5
21362
102
{ACAD_REACTORS
330
19DE5
102
}
330
19DE5
100
AcDbZombieObject
 90
      499
 91
      510
 93
      484
310
42135BD9195B1A5B99D0A409038333333333333E33F0000000000000F901074090290700405010000000000201990108421405064090741402480A1B40
1001
ACAD
1000
AcDbSavedByObjectVersion
1070
     0
  0
ACAD_PROXY_OBJECT
  5
1E029
102
{ACAD_REACTORS
330
19DE5
102
}
330
19DE5
100
AcDbZombieObject
 90
      499
 91
      510
 93
      444
310
42D3DD995C9A185B99D3D999915409028333333333333E3BF0000000000000FB010790141107004050150941D405064090741402480A0350
1001
ACAD
1000
AcDbSavedByObjectVersion
1070
     0
  0
ACAD_PROXY_OBJECT
  5
19DEF
102
{ACAD_REACTORS
330
19DE5
102
}
330
19DE5
100
AcDbZombieObject
 90
      499
 91
      510
 93
      420
310
425499585B1A5CDD1A58D08409028333333333333E3BF0000000000000FB01079019070040501508421405064090741402480A1B40
1001
ACAD
1000
AcDbSavedByObjectVersion
1070
     0
  0
ACAD_PROXY_OBJECT
  5
1F386
102
{ACAD_REACTORS
330
19DE5
102
}
330
19DE5
100
AcDbZombieObject
 90
      499
 91
      510
 93
      420
310
4194DA1859195911B40902404333333333333E3BF0000000000000F9010740A41107004050150800405405064090840C02480A0B40
1001
ACAD
1000
AcDbSavedByObjectVersion
1070
     0
  0
ACAD_PROXY_OBJECT
  5
1F385
102
{ACAD_REACTORS
330
19DE5
102
}
330
19DE5
100
AcDbZombieObject
 90
      499
 91
      510
 93
      516
310
4454DA18591959081DDA5D1A08195919D95CD1A40902404333333333333E3BF0000000000000F901074090142907004050250800405405064090740C02480A0B40
1001
ACAD
1000
AcDbSavedByObjectVersion
1070
     0
  0
ACAD_PROXY_OBJECT
  5
1F382
102
{ACAD_REACTORS
330
19DE5
102
}
330
19DE5
100
AcDbZombieObject
 90
      499
 91
      510
 93
      532
310
4394DA1859195CC81BD98811DC985E5174090240C333333333333E3BF0000000000000FB01079024090741D01000000000000111010841D405064090740C02480A0340
1001
ACAD
1000
AcDbSavedByObjectVersion
1070
     0
  0
ACAD_PROXY_OBJECT
  5
1F383
102
{ACAD_REACTORS
330
19DE5
102
}
330
19DE5
100
AcDbZombieObject
 90
      499
 91
      510
 93
      476
310
41D4DAD95D18DA1E51840502408333333333333E3BF0000000000000FB01079024090741D01000000000000111010B41D405064090741802480A0340
1001
ACAD
1000
AcDbSavedByObjectVersion
1070
     0
  0
ACAD_PROXY_OBJECT
  5
19DF2
102
{ACAD_REACTORS
330
19DE5
102
}
330
19DE5
100
AcDbZombieObject
 90
      499
 91
      510
 93
      412
310
41D51A1A58DAD95B90D409028333333333333E3BF0000000000000FB010790141107004050150C41D405064090741402480A0350
1001
ACAD
1000
AcDbSavedByObjectVersion
1070
     0
  0
ACAD_PROXY_OBJECT
  5
1F380
102
{ACAD_REACTORS
330
19DE5
102
}
330
19DE5
100
AcDbZombieObject
 90
      499
 91
      510
 93
      420
310
4255DA5C99599C985B595059028333333333333E3BF0000000000000FB0107901411070040501600405405064090740C02480A0340
1001
ACAD
1000
AcDbSavedByObjectVersion
1070
     0
  0
ACAD_PROXY_OBJECT
  5
1F384
102
{ACAD_REACTORS
330
19DE5
102
}
330
19DE5
100
AcDbZombieObject
 90
      499
 91
      510
 93
      404
310
41560B54985E51940902404000000000000E03F0000000000000FB010740501907004050150841D405064090740C02480A1B40
1001
ACAD
1000
AcDbSavedByObjectVersion
1070
     0
  0
XRECORD
  5
21768
102
{ACAD_REACTORS
330
21767
102
}
330
21767
100
AcDbXrecord
340
2D0
  0
XRECORD
  5
21769
102
{ACAD_REACTORS
330
21767
102
}
330
21767
100
AcDbXrecord
340
2CF
  0
DICTIONARYVAR
  5
213D6
102
{ACAD_REACTORS
330
37
102
}
330
37
100
DictionaryVariables
280
     0
  1
1:1
  0
DICTIONARYVAR
  5
1AC19
102
{ACAD_REACTORS
330
37
102
}
330
37
100
DictionaryVariables
280
     0
  1
Standard
  0
DICTIONARYVAR
  5
4F1
102
{ACAD_REACTORS
330
37
102
}
330
37
100
DictionaryVariables
280
     0
  1
Standard
  0
DICTIONARYVAR
  5
38
102
{ACAD_REACTORS
330
37
102
}
330
37
100
DictionaryVariables
280
     0
  1
-1
  0
DICTIONARYVAR
  5
408
102
{ACAD_REACTORS
330
37
102
}
330
37
100
DictionaryVariables
280
     0
  1
2
  0
DICTIONARYVAR
  5
1891
102
{ACAD_REACTORS
330
37
102
}
330
37
100
DictionaryVariables
280
     0
  1
1
  0
DICTIONARYVAR
  5
1AC1C
102
{ACAD_REACTORS
330
37
102
}
330
37
100
DictionaryVariables
280
     0
  1
0
  0
DICTIONARYVAR
  5
1895
102
{ACAD_REACTORS
330
37
102
}
330
37
100
DictionaryVariables
280
     0
  1
8
  0
DICTIONARYVAR
  5
1894
102
{ACAD_REACTORS
330
37
102
}
330
37
100
DictionaryVariables
280
     0
  1
1
  0
DICTIONARYVAR
  5
211C3
102
{ACAD_REACTORS
330
37
102
}
330
37
100
DictionaryVariables
280
     0
  1
0
  0
DICTIONARYVAR
  5
211C4
102
{ACAD_REACTORS
330
37
102
}
330
37
100
DictionaryVariables
280
     0
  1
0
  0
DICTIONARYVAR
  5
20A9B
102
{ACAD_REACTORS
330
37
102
}
330
37
100
DictionaryVariables
280
     0
  1
0
  0
DICTIONARYVAR
  5
1892
102
{ACAD_REACTORS
330
37
102
}
330
37
100
DictionaryVariables
280
     0
  1
120
  0
DICTIONARYVAR
  5
1893
102
{ACAD_REACTORS
330
37
102
}
330
37
100
DictionaryVariables
280
     0
  1
0
  0
DICTIONARYVAR
  5
409
102
{ACAD_REACTORS
330
37
102
}
330
37
100
DictionaryVariables
280
     0
  1

  0
DICTIONARYVAR
  5
1AC1B
102
{ACAD_REACTORS
330
37
102
}
330
37
100
DictionaryVariables
280
     0
  1
127
  0
DICTIONARYVAR
  5
21361
102
{ACAD_REACTORS
330
37
102
}
330
37
100
DictionaryVariables
280
     0
  1
2
  0
DICTIONARY
  5
21905
330
19DD5
100
AcDbDictionary
  3
ACAD_XREC_ROUNDTRIP
360
21906
1001
ACAD
1000
TREAT_AS_HARD
1070
     1
  0
DICTIONARY
  5
21907
330
19DCD
100
AcDbDictionary
  3
ACAD_XREC_ROUNDTRIP
360
21908
1001
ACAD
1000
TREAT_AS_HARD
1070
     1
  0
DICTIONARY
  5
21909
330
19DDD
100
AcDbDictionary
  3
ACAD_XREC_ROUNDTRIP
360
2190A
1001
ACAD
1000
TREAT_AS_HARD
1070
     1
  0
XRECORD
  5
21906
102
{ACAD_REACTORS
330
21905
102
}
330
21905
100
AcDbXrecord
102
MATERIAL
148
0.0
149
0.0
149
0.0
 93
        0
 94
      127
282
     0
 72
     0
 77
     0
171
     0
175
     0
179
     0
273
     0
  0
XRECORD
  5
21908
102
{ACAD_REACTORS
330
21907
102
}
330
21907
100
AcDbXrecord
102
MATERIAL
148
0.0
149
0.0
149
0.0
 93
        0
 94
      127
282
     0
 72
     0
 77
     0
171
     0
175
     0
179
     0
273
     0
  0
XRECORD
  5
2190A
102
{ACAD_REACTORS
330
21909
102
}
330
21909
100
AcDbXrecord
102
MATERIAL
148
0.0
149
0.0
149
0.0
 93
        0
 94
      127
282
     0
 72
     0
 77
     0
171
     0
175
     0
179
     0
273
     0
  0
ENDSEC
  0
EOF
