  0
SECTION
  2
HEADER
  9
$ACADVER
  1
AC1009
  9
$INSBASE
 10
0.0
 20
0.0
 30
0.0
  9
$EXTMIN
 10
-1023.098237066236
 20
-1604.262922750657
 30
0.0
  9
$EXTMAX
 10
-673.35092977307806
 20
-1321.3006596712139
 30
0.0
  9
$LIMMIN
 10
0.0
 20
0.0
  9
$LIMMAX
 10
420.0
 20
297.0
  9
$ORTHOMODE
 70
     0
  9
$REGENMODE
 70
     1
  9
$FILLMODE
 70
     1
  9
$QTEXTMODE
 70
     0
  9
$MIRRTEXT
 70
     0
  9
$DRAGMODE
 70
     2
  9
$LTSCALE
 40
0.5
  9
$OSMODE
 70
  2173
  9
$ATTMODE
 70
     1
  9
$TEXTSIZE
 40
4.0
  9
$TRACEWID
 40
1.0
  9
$TEXTSTYLE
  7
STANDARD
  9
$CLAYER
  8
1TEXT
  9
$CELTYPE
  6
BYLAYER
  9
$CECOLOR
 62
   256
  9
$DIMSCALE
 40
1.0
  9
$DIMASZ
 40
2.0
  9
$DIMEXO
 40
0.0
  9
$DIMDLI
 40
7.0
  9
$DIMRND
 40
0.0
  9
$DIMDLE
 40
0.0
  9
$DIMEXE
 40
1.0
  9
$DIMTP
 40
0.0
  9
$DIMTM
 40
0.0
  9
$DIMTXT
 40
3.5
  9
$DIMCEN
 40
0.0
  9
$DIMTSZ
 40
0.0
  9
$DIMTOL
 70
     0
  9
$DIMLIM
 70
     0
  9
$DIMTIH
 70
     0
  9
$DIMTOH
 70
     0
  9
$DIMSE1
 70
     0
  9
$DIMSE2
 70
     0
  9
$DIMTAD
 70
     1
  9
$DIMZIN
 70
     8
  9
$DIMBLK
  1

  9
$DIMASO
 70
     1
  9
$DIMSHO
 70
     1
  9
$DIMPOST
  1
 
  9
$DIMAPOST
  1

  9
$DIMALT
 70
     0
  9
$DIMALTD
 70
     2
  9
$DIMALTF
 40
25.399999999999999
  9
$DIMLFAC
 40
1.0
  9
$DIMTOFL
 70
     1
  9
$DIMTVP
 40
0.0
  9
$DIMTIX
 70
     0
  9
$DIMSOXD
 70
     0
  9
$DIMSAH
 70
     1
  9
$DIMBLK1
  1
OPEN30
  9
$DIMBLK2
  1
OPEN30
  9
$DIMSTYLE
  2
NEWX10
  9
$DIMCLRD
 70
   256
  9
$DIMCLRE
 70
   256
  9
$DIMCLRT
 70
   201
  9
$DIMTFAC
 40
0.7
  9
$DIMGAP
 40
0.7
  9
$LUNITS
 70
     2
  9
$LUPREC
 70
     4
  9
$SKETCHINC
 40
1.0
  9
$FILLETRAD
 40
2.0
  9
$AUNITS
 70
     0
  9
$AUPREC
 70
     2
  9
$MENU
  1
acad
  9
$ELEVATION
 40
0.0
  9
$PELEVATION
 40
0.0
  9
$THICKNESS
 40
0.0
  9
$LIMCHECK
 70
     0
  9
$BLIPMODE
 70
     0
  9
$CHAMFERA
 40
10.0
  9
$CHAMFERB
 40
10.0
  9
$SKPOLY
 70
     0
  9
$TDCREATE
 40
2453033.7326634838
  9
$TDUPDATE
 40
2453510.6154759838
  9
$TDINDWG
 40
1.5627352662
  9
$TDUSRTIMER
 40
1.5627352662
  9
$USRTIMER
 70
     1
  9
$ANGBASE
 50
0.0
  9
$ANGDIR
 70
     0
  9
$PDMODE
 70
     0
  9
$PDSIZE
 40
0.0
  9
$PLINEWID
 40
0.0
  9
$COORDS
 70
     2
  9
$SPLFRAME
 70
     0
  9
$SPLINETYPE
 70
     6
  9
$SPLINESEGS
 70
     8
  9
$ATTDIA
 70
     0
  9
$ATTREQ
 70
     1
  9
$HANDLING
 70
     1
  9
$HANDSEED
  5
16E43
  9
$SURFTAB1
 70
     6
  9
$SURFTAB2
 70
     6
  9
$SURFTYPE
 70
     6
  9
$SURFU
 70
     6
  9
$SURFV
 70
     6
  9
$UCSNAME
  2

  9
$UCSORG
 10
0.0
 20
0.0
 30
0.0
  9
$UCSXDIR
 10
1.0
 20
0.0
 30
0.0
  9
$UCSYDIR
 10
0.0
 20
1.0
 30
0.0
  9
$PUCSNAME
  2

  9
$PUCSORG
 10
0.0
 20
0.0
 30
0.0
  9
$PUCSXDIR
 10
1.0
 20
0.0
 30
0.0
  9
$PUCSYDIR
 10
0.0
 20
1.0
 30
0.0
  9
$USERI1
 70
     0
  9
$USERI2
 70
     0
  9
$USERI3
 70
     0
  9
$USERI4
 70
     0
  9
$USERI5
 70
     0
  9
$USERR1
 40
0.0
  9
$USERR2
 40
0.0
  9
$USERR3
 40
0.0
  9
$USERR4
 40
0.0
  9
$USERR5
 40
0.0
  9
$WORLDVIEW
 70
     1
  9
$SHADEDGE
 70
     3
  9
$SHADEDIF
 70
    70
  9
$TILEMODE
 70
     1
  9
$MAXACTVP
 70
    48
  9
$PLIMCHECK
 70
     0
  9
$PEXTMIN
 10
1.0000000000000000E+020
 20
1.0000000000000000E+020
 30
1.0000000000000000E+020
  9
$PEXTMAX
 10
-1.0000000000000000E+020
 20
-1.0000000000000000E+020
 30
-1.0000000000000000E+020
  9
$PLIMMIN
 10
0.0
 20
0.0
  9
$PLIMMAX
 10
420.0
 20
297.0
  9
$UNITMODE
 70
     0
  9
$VISRETAIN
 70
     1
  9
$PLINEGEN
 70
     0
  9
$PSLTSCALE
 70
     1
  0
ENDSEC
  0
SECTION
  2
TABLES
  0
TABLE
  2
VPORT
 70
     4
  0
VPORT
  2
*ACTIVE
 70
     0
 10
0.0
 20
0.0
 11
1.0
 21
1.0
 12
-848.19391767672937
 22
-1462.747408139501
 13
0.0
 23
0.0
 14
10.0
 24
10.0
 15
10.0
 25
10.0
 16
0.0
 26
0.0
 36
1.0
 17
0.0
 27
0.0
 37
0.0
 40
300.45640167482532
 41
1.508086253369272
 42
50.0
 43
0.0
 44
0.0
 50
0.0
 51
0.0
 71
     0
 72
   100
 73
     1
 74
     1
 75
     0
 76
     0
 77
     0
 78
     0
  0
ENDTAB
  0
TABLE
  2
LTYPE
 70
    16
  0
LTYPE
  2
CONTINUOUS
 70
     0
  3
Solid line
 72
    65
 73
     0
 40
0.0
  0
LTYPE
  2
CENTER2
 70
     0
  3
Center (.5x) ___ _ ___ _ ___ _ ___ _ ___ _ ___
 72
    65
 73
     4
 40
28.574999999999999
 49
19.050000000000001
 49
-3.1749999999999989
 49
3.1749999999999989
 49
-3.1749999999999989
  0
LTYPE
  2
XREF1|CENTER2
 70
    48
  3
Center (.5x) ___ _ ___ _ ___ _ ___ _ ___ _ ___
 72
    65
 73
     4
 40
28.574999999999999
 49
19.050000000000001
 49
-3.1749999999999989
 49
3.1749999999999989
 49
-3.1749999999999989
  0
LTYPE
  2
PHANTOM2
 70
     0
  3
Phantom (.5x) ___ _ _ ___ _ _ ___ _ _ ___ _ _
 72
    65
 73
     6
 40
31.75
 49
15.875
 49
-3.1749999999999989
 49
3.1749999999999989
 49
-3.1749999999999989
 49
3.1749999999999989
 49
-3.1749999999999989
  0
LTYPE
  2
A3WAKUDAKE|CENTER2
 70
    48
  3
Center (.5x) ___ _ ___ _ ___ _ ___ _ ___ _ ___
 72
    65
 73
     4
 40
28.574999999999999
 49
19.050000000000001
 49
-3.1749999999999989
 49
3.1749999999999989
 49
-3.1749999999999989
  0
ENDTAB
  0
TABLE
  2
LAYER
 70
    44
  0
LAYER
  2
0
 70
     0
 62
     7
  6
CONTINUOUS
  0
LAYER
  2
1CENTER
 70
     0
 62
     7
  6
CENTER2
  0
LAYER
  2
1TEXT
 70
     0
 62
     7
  6
CONTINUOUS
  0
LAYER
  2
1DIM
 70
     0
 62
     7
  6
CONTINUOUS
  0
LAYER
  2
1PHANTOM
 70
     0
 62
     7
  6
PHANTOM2
  0
LAYER
  2
01
 70
     0
 62
     1
  6
CONTINUOUS
  0
LAYER
  2
1HATCH
 70
     0
 62
     7
  6
CONTINUOUS
  0
LAYER
  2
XREF1|1CENTER
 70
    48
 62
     7
  6
XREF1|CENTER2
  0
LAYER
  2
A3WAKUDAKE|THICK
 70
    48
 62
     7
  6
CONTINUOUS
  0
LAYER
  2
A3WAKUDAKE|POINT
 70
    48
 62
     7
  6
CONTINUOUS
  0
LAYER
  2
A3WAKUDAKE|1CENTER
 70
    48
 62
     7
  6
A3WAKUDAKE|CENTER2
  0
LAYER
  2
A3WAKUDAKE|0-6
 70
    48
 62
     7
  6
CONTINUOUS
  0
LAYER
  2
A3WAKUDAKE|1DIM
 70
    48
 62
     7
  6
CONTINUOUS
  0
ENDTAB
  0
TABLE
  2
STYLE
 70
    22
  0
STYLE
  2
STANDARD
 70
     0
 40
0.0
 41
1.0
 50
0.0
 71
     0
 42
4.0
  3
txt.shx
  4
extfont.shx
  0
ENDTAB
  0
TABLE
  2
VIEW
 70
     0
  0
ENDTAB
  0
TABLE
  2
UCS
 70
     0
  0
ENDTAB
  0
TABLE
  2
APPID
 70
     9
  0
APPID
  2
ACAD
 70
     0
  0
APPID
  2
DRAWINGVARIABLESXDATA
 70
     0
  0
APPID
  2
CONTENTTABDATA
 70
     0
  0
APPID
  2
CONTENTCURRENTTAB
 70
     0
  0
APPID
  2
CONTENTBLOCKDESCRIPTION
 70
     0
  0
APPID
  2
CONTENTBLOCKICON
 70
     0
  0
APPID
  2
CONTENTLONGBLOCKNAME
 70
     0
  0
APPID
  2
ACAD_PSEXT
 70
     0
  0
APPID
  2
ACAD_DSTYLE_DIMTEXT_FILL
 70
     0
  0
ENDTAB
  0
TABLE
  2
DIMSTYLE
 70
     9
  0
DIMSTYLE
  2
NEWX10
 70
     0
  3
 
  4

  5

  6
OPEN30
  7
OPEN30
 40
1.0
 41
2.0
 42
0.0
 43
7.0
 44
1.0
 45
0.0
 46
0.0
 47
0.0
 48
0.0
140
3.5
141
0.0
142
0.0
143
25.399999999999999
144
1.0
145
0.0
146
0.7
147
0.7
 71
     0
 72
     0
 73
     0
 74
     0
 75
     0
 76
     0
 77
     1
 78
     8
170
     0
171
     2
172
     1
173
     1
174
     0
175
     0
176
   256
177
   256
178
   201
  0
ENDTAB
  0
ENDSEC
  0
SECTION
  2
BLOCKS
  0
BLOCK
  8
0
  2
$MODEL_SPACE
 70
     0
 10
0.0
 20
0.0
 30
0.0
  3
$MODEL_SPACE
  1

  0
ENDBLK
  5
1A
  8
0
  0
BLOCK
 67
     1
  8
0
  2
$PAPER_SPACE
 70
     0
 10
0.0
 20
0.0
 30
0.0
  3
$PAPER_SPACE
  1

  0
ENDBLK
  5
17
 67
     1
  8
0
  0
BLOCK
  8
0
  2
_OPEN30
 70
     0
 10
0.0
 20
0.0
 30
0.0
  3
_OPEN30
  1

  0
LINE
  5
44
  8
0
  6
BYBLOCK
 62
     0
 10
-1.0
 20
0.26794919
 30
0.0
 11
0.0
 21
0.0
 31
0.0
  0
LINE
  5
45
  8
0
  6
BYBLOCK
 62
     0
 10
0.0
 20
0.0
 30
0.0
 11
-1.0
 21
-0.26794919
 31
0.0
  0
LINE
  5
46
  8
0
  6
BYBLOCK
 62
     0
 10
0.0
 20
0.0
 30
0.0
 11
-1.0
 21
0.0
 31
0.0
  0
ENDBLK
  5
47
  8
0
  0
BLOCK
  8
0
  2
XREF1
 70
    36
 10
0.0
 20
0.0
 30
0.0
  3
XREF1
  1
D:\ACLT\FORMAT\KAWAJUN(9)図面用.dwg
  0
ENDBLK
  5
5D
  8
0
  0
BLOCK
  8
0
  2
A3WAKUDAKE
 70
    36
 10
0.0
 20
0.0
 30
0.0
  3
A3WAKUDAKE
  1
D:\ACLT\FORMAT\A3WAKUdake.dwg
  0
ENDBLK
  5
6DC
  8
0
  0
BLOCK
  8
0
  2
*U57
 70
     1
 10
0.0
 20
0.0
 30
0.0
  3
*U57
  1

  0
TEXT
  5
16A4D
  8
0
 62
   201
 10
-63.717024855154058
 20
-3.810911908990481
 30
0.0
 40
3.5
  1
φ5
 50
48.83031736650419
  0
ENDBLK
  5
16A4F
  8
0
  0
BLOCK
  8
0
  2
*U58
 70
     1
 10
0.0
 20
0.0
 30
0.0
  3
*U58
  1

  0
TEXT
  5
16A51
  8
1TEXT
 62
   201
 10
21.614708555164611
 20
22.401236958861659
 30
0.0
 40
2.0
  1
二文字
  0
TEXT
  5
16A52
  8
1TEXT
 62
   201
 10
21.614708555164611
 20
19.067903625528331
 30
0.0
 40
2.0
  1
(別途指定)
  0
TEXT
  5
16A53
  8
1TEXT
 62
   201
 10
21.614708555164611
 20
15.73457029219499
 30
0.0
 40
2.0
  1
天地 約1.8
  0
TEXT
  5
16A54
  8
1TEXT
 62
   201
 10
21.614708555164611
 20
12.401236958861659
 30
0.0
 40
2.0
  1
凸0.2
  0
ENDBLK
  5
16A56
  8
0
  0
BLOCK
  8
0
  2
*U59
 70
     1
 10
0.0
 20
0.0
 30
0.0
  3
*U59
  1

  0
INSERT
  5
16A58
  8
1DIM
  2
_OPEN30
 10
17.678379796037799
 20
23.814783819854821
 30
0.0
 50
104.6424831439607
  0
POLYLINE
  5
16A59
  8
1DIM
 66
     1
 10
0.0
 20
0.0
 30
0.0
  0
VERTEX
  5
16A5A
  8
1DIM
 10
17.931166612957469
 20
22.847261817422002
 30
0.0
  0
VERTEX
  5
16A5B
  8
1DIM
 10
20.91703607932029
 20
11.41907722970881
 30
0.0
  0
VERTEX
  5
16A5C
  8
1DIM
 10
35.143226555510758
 20
11.41907722970881
 30
0.0
  0
SEQEND
  5
16A5D
  8
1DIM
  0
ENDBLK
  5
16A5F
  8
0
  0
BLOCK
  8
0
  2
*U60
 70
     1
 10
0.0
 20
0.0
 30
0.0
  3
*U60
  1

  0
TEXT
  5
16A61
  8
1DIM
 62
   201
 10
8.9421530727463576
 20
19.285028579396069
 30
0.0
 40
2.0
  1
枠
  0
TEXT
  5
16A62
  8
1DIM
 62
   201
 10
7.0754864060796914
 20
15.951695246062741
 30
0.0
 40
2.0
  1
φ5
  0
TEXT
  5
16A63
  8
1DIM
 62
   201
 10
4.7421530727463583
 20
12.61836191272941
 30
0.0
 40
2.0
  1
凹0.3
  0
ENDBLK
  5
16A65
  8
0
  0
BLOCK
  8
0
  2
*U61
 70
     1
 10
0.0
 20
0.0
 30
0.0
  3
*U61
  1

  0
INSERT
  5
16A67
  8
1DIM
  2
_OPEN30
 10
15.75963814806016
 20
22.667323431007279
 30
0.0
 41
2.0
 42
2.0
 43
2.0
 50
70.421758065850824
  0
POLYLINE
  5
16A68
  8
1DIM
 66
     1
 10
0.0
 20
0.0
 30
0.0
  0
VERTEX
  5
16A69
  8
1DIM
 10
15.089450549342221
 20
20.782953885900831
 30
0.0
  0
VERTEX
  5
16A6A
  8
1DIM
 10
11.821762131327951
 20
11.59517937383526
 30
0.0
  0
VERTEX
  5
16A6B
  8
1DIM
 10
2.3789049884708091
 20
11.59517937383526
 30
0.0
  0
SEQEND
  5
16A6C
  8
1DIM
  0
ENDBLK
  5
16A6E
  8
0
  0
BLOCK
  8
0
  2
*U62
 70
     1
 10
0.0
 20
0.0
 30
0.0
  3
*U62
  1

  0
TEXT
  5
16A71
  8
1TEXT
 10
14.9745471932972
 20
24.09947430071913
 30
0.0
 40
1.8
  1
XY
  0
ENDBLK
  5
16A73
  8
0
  0
BLOCK
  8
0
  2
*U63
 70
     1
 10
0.0
 20
0.0
 30
0.0
  3
*U63
  1

  0
LINE
  5
16A75
  8
0
 10
-4.1999999999999877
 20
-1.9999999999999849
 30
0.0
 11
-0.3500000000000227
 21
-2.0
 31
0.0
  0
LINE
  5
16A76
  8
0
 10
0.0
 20
-1.6499999999998629
 30
0.0
 11
-0.3500000000000227
 21
-2.0
 31
0.0
  0
LINE
  5
16A77
  8
0
 10
-6.0
 20
-0.200000000000017
 30
0.0
 11
-4.1999999999999877
 21
-1.9999999999999849
 31
0.0
  0
LINE
  5
16A78
  8
0
 10
0.0
 20
1.649999999999977
 30
0.0
 11
0.0
 21
-1.6499999999998629
 31
0.0
  0
LINE
  5
16A79
  8
0
 10
-6.0
 20
0.2000000000000028
 30
0.0
 11
-6.0
 21
-0.200000000000017
 31
0.0
  0
LINE
  5
16A7A
  8
0
 10
-0.3500000000000227
 20
2.0
 30
0.0
 11
0.0
 21
1.649999999999977
 31
0.0
  0
LINE
  5
16A7B
  8
0
 10
-6.0
 20
0.2000000000000028
 30
0.0
 11
-4.2000000000000446
 21
2.0
 31
0.0
  0
LINE
  5
16A7C
  8
0
 10
-4.2000000000000446
 20
2.0
 30
0.0
 11
-0.3500000000000227
 21
2.0
 31
0.0
  0
ENDBLK
  5
16A7E
  8
0
  0
BLOCK
  8
0
  2
*U64
 70
     1
 10
0.0
 20
0.0
 30
0.0
  3
*U64
  1

  0
LINE
  5
16A80
  8
0
 10
-5.6499999999999773
 20
2.0000000000000142
 30
0.0
 11
-0.3500000000000227
 21
2.0
 31
0.0
  0
LINE
  5
16A81
  8
0
 10
-5.6499999999999773
 20
2.0000000000000142
 30
0.0
 11
-6.0
 21
1.6499999999999631
 31
0.0
  0
LINE
  5
16A82
  8
0
 10
-0.3500000000000227
 20
2.0
 30
0.0
 11
0.0
 21
1.649999999999977
 31
0.0
  0
LINE
  5
16A83
  8
0
 10
-6.0
 20
1.6499999999999631
 30
0.0
 11
-6.0
 21
-1.6499999999998629
 31
0.0
  0
LINE
  5
16A84
  8
0
 10
0.0
 20
1.649999999999977
 30
0.0
 11
0.0
 21
-1.6499999999998629
 31
0.0
  0
LINE
  5
16A85
  8
0
 10
-6.0
 20
-1.6499999999998629
 30
0.0
 11
-5.6499999999999773
 21
-1.9999999999999849
 31
0.0
  0
LINE
  5
16A86
  8
0
 10
0.0
 20
-1.6499999999998629
 30
0.0
 11
-0.3500000000000227
 21
-2.0
 31
0.0
  0
LINE
  5
16A87
  8
0
 10
-5.6499999999999773
 20
-1.9999999999999849
 30
0.0
 11
-0.3500000000000227
 21
-2.0
 31
0.0
  0
ENDBLK
  5
16A89
  8
0
  0
BLOCK
  8
0
  2
*X65
 70
     1
 10
0.0
 20
0.0
 30
0.0
  3
*X65
  1

  0
LINE
  5
16A8B
  8
0
 62
     0
 10
10.35561001165331
 20
1.7353216665921991
 30
0.0
 11
1.735321666592085
 21
10.35561001165342
 31
0.0
  0
LINE
  5
16A8C
  8
0
 62
     0
 10
0.0000000000001137
 20
8.4988292298177157
 30
0.0
 11
-1.838891835213303
 21
10.337721065031021
 31
0.0
  0
LINE
  5
16A8D
  8
0
 62
     0
 10
8.4988292298179431
 20
-0.0000000000001137
 30
0.0
 11
0.0000000000001137
 21
8.4988292298177157
 31
0.0
  0
LINE
  5
16A8E
  8
0
 62
     0
 10
10.337721065031131
 20
-1.838891835213303
 30
0.0
 11
8.4988292298179431
 21
-0.0000000000001137
 31
0.0
  0
LINE
  5
16A8F
  8
0
 62
     0
 10
-0.2377810848388435
 20
5.1445078662289907
 30
0.0
 11
-4.5542045235814612
 21
9.4609313049716093
 31
0.0
  0
LINE
  5
16A90
  8
0
 62
     0
 10
9.4609313049714956
 20
-4.5542045235813466
 30
0.0
 11
5.1445078662289907
 21
-0.2377810848388435
 31
0.0
  0
LINE
  5
16A91
  8
0
 62
     0
 10
-2.9244738727450108
 20
4.2390982057073643
 30
0.0
 11
-6.7381554127728123
 21
8.0527797457351653
 31
0.0
  0
LINE
  5
16A92
  8
0
 62
     0
 10
8.0527797457350516
 20
-6.7381554127726977
 30
0.0
 11
4.2390982057073643
 21
-2.9244738727450108
 31
0.0
  0
LINE
  5
16A93
  8
0
 62
     0
 10
-4.5977163449367699
 20
2.3202382294715558
 30
0.0
 11
-8.4755144637537114
 21
6.1980363482883831
 31
0.0
  0
LINE
  5
16A94
  8
0
 62
     0
 10
6.1980363482882694
 20
-8.4755144637535977
 30
0.0
 11
2.3202382294715558
 21
-4.5977163449367699
 31
0.0
  0
LINE
  5
16A95
  8
0
 62
     0
 10
-5.0907718486563454
 20
-0.7788087152364369
 30
0.0
 11
-5.8695805638927823
 21
0.0
 31
0.0
  0
LINE
  5
16A96
  8
0
 62
     0
 10
-5.8695805638928951
 20
0.0
 30
0.0
 11
-9.9540062277598054
 21
4.0844256638669094
 31
0.0
  0
LINE
  5
16A97
  8
0
 62
     0
 10
3.8851808324346839
 20
-9.7547613963275808
 30
0.0
 11
2.0
 21
-7.8695805638928951
 31
0.0
  0
LINE
  5
16A98
  8
0
 62
     0
 10
-9.4616830123206892
 20
0.0
 30
0.0
 11
-18.103896804350711
 21
8.6422137920301338
 31
0.0
  0
LINE
  5
16A99
  8
0
 62
     0
 10
-2.0000000000001128
 20
-7.4616830123204627
 30
0.0
 11
-9.4616830123204636
 21
-0.0000000000001137
 31
0.0
  0
LINE
  5
16A9A
  8
0
 62
     0
 10
-13.05378546074826
 20
0.0000000000001137
 30
0.0
 11
-15.175214195387071
 21
2.1214287346389251
 31
0.0
  0
LINE
  5
16A9B
  8
0
 62
     0
 10
-16.603785460748661
 20
3.5500000000005221
 30
0.0
 11
-23.851266556543241
 21
10.79748109579509
 31
0.0
  0
LINE
  5
16A9C
  8
0
 62
     0
 10
-2.9878714975766338
 20
-10.065913963171511
 30
0.0
 11
-13.053785460748029
 21
-0.0000000000001137
 31
0.0
  0
LINE
  5
16A9D
  8
0
 62
     0
 10
-20.195887909176118
 20
3.5500000000002951
 30
0.0
 11
-28.659515684223379
 21
12.013627775047439
 31
0.0
  0
LINE
  5
16A9E
  8
0
 62
     0
 10
-29.100013291500659
 20
12.454125382324831
 30
0.0
 11
-29.745874817675372
 21
13.09998690849943
 31
0.0
  0
LINE
  5
16A9F
  8
0
 62
     0
 10
-12.628969351714661
 20
-4.0169185574611674
 30
0.0
 11
-14.93702132611565
 21
-1.7088665830602841
 31
0.0
  0
LINE
  5
16AA0
  8
0
 62
     0
 10
-23.78799035760369
 20
3.550000000000181
 30
0.0
 11
-27.799999599999751
 21
7.5620092423962433
 31
0.0
  0
LINE
  5
16AA1
  8
0
 62
     0
 10
-31.237990357603621
 20
11.00000000000011
 30
0.0
 11
-33.000000200000052
 21
12.762009842396539
 31
0.0
  0
LINE
  5
16AA2
  8
0
 62
     0
 10
-13.78316865624026
 20
-6.454821701363243
 30
0.0
 11
-16.687990357603208
 21
-3.5500000000002951
 31
0.0
  0
LINE
  5
16AA3
  8
0
 62
     0
 10
-16.124704244214509
 20
-7.7053885618167888
 30
0.0
 11
-20.280092806031231
 21
-3.5500000000000682
 31
0.0
  0
LINE
  5
16AA4
  8
0
 62
     0
 10
-18.57318348346837
 20
-8.849011770990387
 30
0.0
 11
-20.133604742031139
 21
-7.2885905124276169
 31
0.0
  0
LINE
  5
16AA5
  8
0
 62
     0
 10
-24.295840827822978
 20
-6.7184568750635663
 30
0.0
 11
-27.132148651443231
 21
-3.8821490514432071
 31
0.0
  0
LINE
  5
16AA6
  8
0
 62
     0
 10
-23.818861225215301
 20
-10.787538926098931
 30
0.0
 11
-27.799999599999872
 21
-6.8064005513143684
 31
0.0
  0
LINE
  5
16AA7
  8
0
 62
     0
 10
-26.63513577162314
 20
-11.56336682811866
 30
0.0
 11
-28.117386294735979
 21
-10.081116305005819
 31
0.0
  0
LINE
  5
16AA8
  8
0
 62
     0
 10
-29.133782390785999
 20
-12.656822657383479
 30
0.0
 11
-30.790605048169478
 21
-11.00000000000011
 31
0.0
  0
LINE
  5
16AA9
  8
0
 62
     0
 10
-31.632707496597501
 20
-13.749999999999661
 30
0.0
 11
-33.000000200000159
 21
-12.38270729659712
 31
0.0
  0
ENDBLK
  5
16AAB
  8
0
  0
BLOCK
  8
0
  2
*X66
 70
     1
 10
0.0
 20
0.0
 30
0.0
  3
*X66
  1

  0
LINE
  5
16AAD
  8
0
 62
     0
 10
-0.0000000000000284
 20
-9.5063084520140251
 30
0.0
 11
1.2436915465089271
 21
-10.749999998522981
 31
0.0
  0
LINE
  5
16AAE
  8
0
 62
     0
 10
1.3407299661463119
 20
-9.5
 30
0.0
 11
1.8000087437750381
 21
-9.9592787776287253
 31
0.0
  0
LINE
  5
16AAF
  8
0
 62
     0
 10
-0.0000000000000568
 20
-4.118154779372559
 30
0.0
 11
0.8818452206275254
 21
-5.0000000000001128
 31
0.0
  0
LINE
  5
16AB0
  8
0
 62
     0
 10
0.0
 20
-2.7711163612121932
 30
0.0
 11
1.8000087437751511
 21
-4.5711251049873454
 31
0.0
  0
LINE
  5
16AB1
  8
0
 62
     0
 10
0.0
 20
-1.4240779430518271
 30
0.0
 11
2.125922055471249
 21
-3.5499999985230768
 31
0.0
  0
LINE
  5
16AB2
  8
0
 62
     0
 10
-0.0000000000000284
 20
-0.0770395248914611
 30
0.0
 11
3.222960475108493
 21
-3.2999999999999821
 31
0.0
  0
LINE
  5
16AB3
  8
0
 62
     0
 10
1.269998893268933
 20
0.0
 30
0.0
 11
4.5699988932688882
 21
-3.2999999999999541
 31
0.0
  0
LINE
  5
16AB4
  8
0
 62
     0
 10
-0.0000000000000284
 20
1.2699988932689621
 30
0.0
 11
1.269998893268905
 21
0.0000000000000284
 31
0.0
  0
LINE
  5
16AB5
  8
0
 62
     0
 10
2.6170373114292711
 20
0.0
 30
0.0
 11
5.9170373114292261
 21
-3.2999999999999541
 31
0.0
  0
LINE
  5
16AB6
  8
0
 62
     0
 10
-0.0000000000000568
 20
2.6170373114293279
 30
0.0
 11
2.6170373114292711
 21
0.0
 31
0.0
  0
LINE
  5
16AB7
  8
0
 62
     0
 10
3.9640757295896658
 20
0.0
 30
0.0
 11
7.2640757295896199
 21
-3.2999999999999541
 31
0.0
  0
LINE
  5
16AB8
  8
0
 62
     0
 10
-0.0000000000000284
 20
3.9640757295896938
 30
0.0
 11
3.9640757295896369
 21
0.0
 31
0.0
  0
LINE
  5
16AB9
  8
0
 62
     0
 10
5.3111141477500894
 20
-0.0000000000000568
 30
0.0
 11
8.6111141477499871
 21
-3.2999999999999821
 31
0.0
  0
LINE
  5
16ABA
  8
0
 62
     0
 10
0.3111141477501178
 20
4.9999999999998863
 30
0.0
 11
5.3111141477500317
 21
0.0
 31
0.0
  0
LINE
  5
16ABB
  8
0
 62
     0
 10
3.3581525659104439
 20
3.2999999999999541
 30
0.0
 11
6.6581525659103704
 21
0.0
 31
0.0
  0
LINE
  5
16ABC
  8
0
 62
     0
 10
6.6581525659104548
 20
-0.0000000000000568
 30
0.0
 11
9.5072519243349518
 21
-2.8490993584245521
 31
0.0
  0
LINE
  5
16ABD
  8
0
 62
     0
 10
1.65815256591037
 20
5.0
 30
0.0
 11
1.8000087437750381
 21
4.8581438221353599
 31
0.0
  0
LINE
  5
16ABE
  8
0
 62
     0
 10
8.0051909840708202
 20
-0.0000000000000853
 30
0.0
 11
11.167075174998409
 21
-3.1618841909276512
 31
0.0
  0
LINE
  5
16ABF
  8
0
 62
     0
 10
4.7051909840708097
 20
3.2999999999999541
 30
0.0
 11
8.0051909840707651
 21
0.0
 31
0.0
  0
LINE
  5
16AC0
  8
0
 62
     0
 10
9.3522294022312167
 20
-0.0000000000000853
 30
0.0
 11
12.652229402231111
 21
-3.2999999999999541
 31
0.0
  0
LINE
  5
16AC1
  8
0
 62
     0
 10
6.0522294022312053
 20
3.2999999999999261
 30
0.0
 11
9.3522294022311598
 21
0.0
 31
0.0
  0
LINE
  5
16AC2
  8
0
 62
     0
 10
7.3992678203915707
 20
3.2999999999999261
 30
0.0
 11
10.699267820391499
 21
0.0
 31
0.0
  0
LINE
  5
16AC3
  8
0
 62
     0
 10
10.699267820391579
 20
-0.0000000000000853
 30
0.0
 11
12.90000019999991
 21
-2.2007323796084099
 31
0.0
  0
LINE
  5
16AC4
  8
0
 62
     0
 10
-0.0000000000000284
 20
10.699267820391521
 30
0.0
 11
1.1992678203915259
 21
9.5
 31
0.0
  0
LINE
  5
16AC5
  8
0
 62
     0
 10
9.2443367211198222
 20
2.8019695174320409
 30
0.0
 11
12.046306238551891
 21
0.0
 31
0.0
  0
LINE
  5
16AC6
  8
0
 62
     0
 10
12.046306238551979
 20
-0.0000000000000853
 30
0.0
 11
14.046306238551949
 21
-2.000000000000056
 31
0.0
  0
LINE
  5
16AC7
  8
0
 62
     0
 10
1.2963062400290251
 20
10.74999999852287
 30
0.0
 11
1.8000087437750381
 21
10.246297494776851
 31
0.0
  0
LINE
  5
16AC8
  8
0
 62
     0
 10
13.393344656712371
 20
-0.0000000000001137
 30
0.0
 11
15.393344656712291
 21
-2.000000000000056
 31
0.0
  0
LINE
  5
16AC9
  8
0
 62
     0
 10
15.90000020000002
 20
-2.5066555432877911
 30
0.0
 11
16.143344656712259
 21
-2.750000000000028
 31
0.0
  0
LINE
  5
16ACA
  8
0
 62
     0
 10
10.379815373485821
 20
3.0135292832264038
 30
0.0
 11
13.39334465671226
 21
0.0
 31
0.0
  0
LINE
  5
16ACB
  8
0
 62
     0
 10
14.74038307487274
 20
-0.0000000000000853
 30
0.0
 11
16.995191537436309
 21
-2.2548084625636871
 31
0.0
  0
LINE
  5
16ACC
  8
0
 62
     0
 10
11.513261852327391
 20
3.227121222545235
 30
0.0
 11
14.74038307487262
 21
0.0
 31
0.0
  0
LINE
  5
16ACD
  8
0
 62
     0
 10
14.0874214930331
 20
1.9999999999998861
 30
0.0
 11
16.087421493032991
 21
0.0
 31
0.0
  0
LINE
  5
16ACE
  8
0
 62
     0
 10
16.087421493033101
 20
-0.0000000000001137
 30
0.0
 11
17.00000000000005
 21
-0.9125785069670656
 31
0.0
  0
LINE
  5
16ACF
  8
0
 62
     0
 10
12.78742149303284
 20
3.300000000000181
 30
0.0
 11
12.90000019999988
 21
3.1874212930331391
 31
0.0
  0
LINE
  5
16AD0
  8
0
 62
     0
 10
15.43445991119358
 20
1.999999999999801
 30
0.0
 11
17.000000000000082
 21
0.4344599111932724
 31
0.0
  0
LINE
  5
16AD1
  8
0
 62
     0
 10
16.031498329353749
 20
2.75
 30
0.0
 11
17.000000000000082
 21
1.7814983293536379
 31
0.0
  0
ENDBLK
  5
16AD3
  8
0
  0
BLOCK
  8
0
  2
*X67
 70
     1
 10
0.0
 20
0.0
 30
0.0
  3
*X67
  1

  0
LINE
  5
16AD5
  8
0
 62
     0
 10
13.41339771754258
 20
-3.163142703204584
 30
0.0
 11
14.23685749679546
 21
-3.986602482457442
 31
0.0
  0
LINE
  5
16AD6
  8
0
 62
     0
 10
13.43543246913447
 20
-2.7361646487429989
 30
0.0
 11
14.66383555125705
 21
-3.9645677308655531
 31
0.0
  0
LINE
  5
16AD7
  8
0
 62
     0
 10
13.57832483846698
 20
-2.4300442120220671
 30
0.0
 11
14.969955987978009
 21
-3.821675361533067
 31
0.0
  0
LINE
  5
16AD8
  8
0
 62
     0
 10
13.79845481036614
 20
-2.2011613778677481
 30
0.0
 11
15.198838822132331
 21
-3.601545389633912
 31
0.0
  0
LINE
  5
16AD9
  8
0
 62
     0
 10
14.09420797036085
 20
-2.04790173180902
 30
0.0
 11
15.352098468191031
 21
-3.3057922296391662
 31
0.0
  0
LINE
  5
16ADA
  8
0
 62
     0
 10
14.50036871342669
 20
-2.005049668821413
 30
0.0
 11
15.39495053117866
 21
-2.8996314865733832
 31
0.0
  0
LINE
  5
16ADB
  8
0
 62
     0
 10
13.48049176570316
 20
2.6069297273297991
 30
0.0
 11
14.00692992732988
 21
2.0804915657031131
 31
0.0
  0
LINE
  5
16ADC
  8
0
 62
     0
 10
13.408249854336271
 20
3.1281844447501612
 30
0.0
 11
14.52818464475018
 21
2.0082496543362529
 31
0.0
  0
LINE
  5
16ADD
  8
0
 62
     0
 10
13.51667895516789
 20
3.468768149971992
 30
0.0
 11
14.86876834997204
 21
2.1166787551678108
 31
0.0
  0
LINE
  5
16ADE
  8
0
 62
     0
 10
13.71033322290037
 20
3.7241266882929831
 30
0.0
 11
15.124126888293031
 21
2.3103330229002941
 31
0.0
  0
LINE
  5
16ADF
  8
0
 62
     0
 10
13.977233952031639
 20
3.9062387652151642
 30
0.0
 11
15.306238965215179
 21
2.5772337520315882
 31
0.0
  0
LINE
  5
16AE0
  8
0
 62
     0
 10
14.334624784025429
 20
3.9978607392748131
 30
0.0
 11
15.39786093927486
 21
2.9346245840254142
 31
0.0
  0
LINE
  5
16AE1
  8
0
 62
     0
 10
14.93953507999831
 20
3.8419632493554161
 30
0.0
 11
15.24196344935546
 21
3.5395348799982278
 31
0.0
  0
ENDBLK
  5
16AE3
  8
0
  0
BLOCK
  8
0
  2
*X68
 70
     1
 10
0.0
 20
0.0
 30
0.0
  3
*X68
  1

  0
LINE
  5
16AE5
  8
0
 62
     0
 10
6.8579485945102761
 20
5.150000099999942
 30
0.0
 11
1.636218397399261
 21
10.37173029711095
 31
0.0
  0
LINE
  5
16AE6
  8
0
 62
     0
 10
0.0000000000001137
 20
8.4158462460825376
 30
0.0
 11
-1.909133603078998
 21
10.32497984916165
 31
0.0
  0
LINE
  5
16AE7
  8
0
 62
     0
 10
3.2658461460825938
 20
5.150000099999942
 30
0.0
 11
0.0000000000001137
 21
8.4158462460825376
 31
0.0
  0
LINE
  5
16AE8
  8
0
 62
     0
 10
-0.3262563023448592
 20
5.150000099999942
 30
0.0
 11
-4.6100846621066012
 21
9.4338284597616848
 31
0.0
  0
LINE
  5
16AE9
  8
0
 62
     0
 10
-3.9183587507726538
 20
5.150000099999942
 30
0.0
 11
-6.7832174315673219
 21
8.0148587807946114
 31
0.0
  0
LINE
  5
16AEA
  8
0
 62
     0
 10
8.0148587807946114
 20
-6.7832174315674356
 30
0.0
 11
6.3816414492273452
 21
-5.1500001000001703
 31
0.0
  0
LINE
  5
16AEB
  8
0
 62
     0
 10
-7.5104611992003347
 20
5.150000099999942
 30
0.0
 11
-8.5000000000001137
 21
6.1395389007996073
 31
0.0
  0
LINE
  5
16AEC
  8
0
 62
     0
 10
6.1499847166651298
 20
-8.5104458158656371
 30
0.0
 11
2.789539000799663
 21
-5.1500001000000557
 31
0.0
  0
LINE
  5
16AED
  8
0
 62
     0
 10
0.0
 20
-5.9525635476279604
 30
0.0
 11
-0.8025634476280174
 21
-5.1500001000000557
 31
0.0
  0
LINE
  5
16AEE
  8
0
 62
     0
 10
4.0606450332290933
 20
-10.01320858085716
 30
0.0
 11
0.0000000000002274
 21
-5.9525635476283014
 31
0.0
  0
LINE
  5
16AEF
  8
0
 62
     0
 10
0.0
 20
-9.5446659960557554
 30
0.0
 11
-4.3946658960555851
 21
-5.1500001000000557
 31
0.0
  0
LINE
  5
16AF0
  8
0
 62
     0
 10
8.7087069959245582
 20
-18.2533729919802
 30
0.0
 11
0.0000000000003411
 21
-9.5446659960559828
 31
0.0
  0
LINE
  5
16AF1
  8
0
 62
     0
 10
1.925088887040374
 20
-15.061857331523809
 30
0.0
 11
0.0
 21
-13.13676844448343
 31
0.0
  0
LINE
  5
16AF2
  8
0
 62
     0
 10
0.0
 20
-13.13676844448343
 30
0.0
 11
-7.9867683444833801
 21
-5.1500001000000557
 31
0.0
  0
LINE
  5
16AF3
  8
0
 62
     0
 10
10.833910220719069
 20
-23.97067866520263
 30
0.0
 11
3.54999999999984
 21
-16.686768444483391
 31
0.0
  0
LINE
  5
16AF4
  8
0
 62
     0
 10
12.03432820925218
 20
-28.763199102163071
 30
0.0
 11
3.5499999999999541
 21
-20.278870892910842
 31
0.0
  0
LINE
  5
16AF5
  8
0
 62
     0
 10
-1.761475686666472
 20
-14.96739520624442
 30
0.0
 11
-4.0379039399838339
 21
-12.69096695292717
 31
0.0
  0
LINE
  5
16AF6
  8
0
 62
     0
 10
13.099999999999911
 20
-29.8288708929108
 30
0.0
 11
12.37112930708906
 21
-29.100000199999961
 31
0.0
  0
LINE
  5
16AF7
  8
0
 62
     0
 10
7.4790262586612917
 20
-27.799999599999872
 30
0.0
 11
3.54999999999984
 21
-23.870973341338409
 31
0.0
  0
LINE
  5
16AF8
  8
0
 62
     0
 10
-3.5500000000000682
 20
-16.7709733413385
 30
0.0
 11
-6.4848783247022084
 21
-13.83609501663636
 31
0.0
  0
LINE
  5
16AF9
  8
0
 62
     0
 10
12.67902685866159
 20
-33.000000200000159
 30
0.0
 11
11.00000000000011
 21
-31.320973341338689
 31
0.0
  0
LINE
  5
16AFA
  8
0
 62
     0
 10
-3.5499999999999541
 20
-20.363075789766409
 30
0.0
 11
-7.7330368020898268
 21
-16.180038987676539
 31
0.0
  0
LINE
  5
16AFB
  8
0
 62
     0
 10
-3.5499999999999541
 20
-23.95517823819409
 30
0.0
 11
-8.8741186659308369
 21
-18.631059572263212
 31
0.0
  0
LINE
  5
16AFC
  8
0
 62
     0
 10
-3.9236405433106252
 20
-27.173640143311101
 30
0.0
 11
-9.901571718252967
 21
-21.195708968368759
 31
0.0
  0
LINE
  5
16AFD
  8
0
 62
     0
 10
-6.8893835350494319
 20
-27.799999599999872
 30
0.0
 11
-10.8070040231338
 21
-23.882379111915501
 31
0.0
  0
LINE
  5
16AFE
  8
0
 62
     0
 10
-10.130989661818029
 20
-28.150495921658951
 30
0.0
 11
-11.57961971301688
 21
-26.7018658704601
 31
0.0
  0
LINE
  5
16AFF
  8
0
 62
     0
 10
-10.999999999999771
 20
-30.873588031904781
 30
0.0
 11
-12.716460966271249
 21
-29.15712706563329
 31
0.0
  0
LINE
  5
16B00
  8
0
 62
     0
 10
-12.465690280332071
 20
-33.000000200000159
 30
0.0
 11
-13.76550531945383
 21
-31.700185160878501
 31
0.0
  0
ENDBLK
  5
16B02
  8
0
  0
BLOCK
  8
0
  2
*X69
 70
     1
 10
0.0
 20
0.0
 30
0.0
  3
*X69
  1

  0
LINE
  5
16B04
  8
0
 62
     0
 10
17.749270850893371
 20
-61.46873075173783
 30
0.0
 11
18.00000000000006
 21
-61.218001602631091
 31
0.0
  0
LINE
  5
16B05
  8
0
 62
     0
 10
15.504206820626109
 20
-61.46873075173783
 30
0.0
 11
18.00000000000011
 21
-58.972937572363769
 31
0.0
  0
LINE
  5
16B06
  8
0
 62
     0
 10
13.259142790358849
 20
-61.46873075173783
 30
0.0
 11
18.00000000000011
 21
-56.727873542096518
 31
0.0
  0
LINE
  5
16B07
  8
0
 62
     0
 10
11.014078760091589
 20
-61.46873075173778
 30
0.0
 11
18.00000000000011
 21
-54.482809511829259
 31
0.0
  0
LINE
  5
16B08
  8
0
 62
     0
 10
9.0000000000000568
 20
-61.237745481561952
 30
0.0
 11
18.00000000000006
 21
-52.237745481561937
 31
0.0
  0
LINE
  5
16B09
  8
0
 62
     0
 10
9.0000000000000568
 20
-58.992681451294679
 30
0.0
 11
18.00000000000011
 21
-49.992681451294622
 31
0.0
  0
LINE
  5
16B0A
  8
0
 62
     0
 10
9.0000000000001137
 20
-56.747617421027421
 30
0.0
 11
18.00000000000011
 21
-47.747617421027371
 31
0.0
  0
LINE
  5
16B0B
  8
0
 62
     0
 10
9.0000000000001137
 20
-54.50255339076012
 30
0.0
 11
18.000000000000171
 21
-45.502553390759999
 31
0.0
  0
LINE
  5
16B0C
  8
0
 62
     0
 10
9.0
 20
-52.257489360492848
 30
0.0
 11
18.00000000000011
 21
-43.257489360492741
 31
0.0
  0
LINE
  5
16B0D
  8
0
 62
     0
 10
9.0000000000000568
 20
-50.01242533022554
 30
0.0
 11
18.00000000000011
 21
-41.012425330225483
 31
0.0
  0
LINE
  5
16B0E
  8
0
 62
     0
 10
9.0000000000000568
 20
-47.767361299958267
 30
0.0
 11
18.00000000000011
 21
-38.767361299958232
 31
0.0
  0
LINE
  5
16B0F
  8
0
 62
     0
 10
9.0000000000000568
 20
-45.522297269690966
 30
0.0
 11
18.00000000000011
 21
-36.52229726969091
 31
0.0
  0
LINE
  5
16B10
  8
0
 62
     0
 10
9.0000000000000568
 20
-43.277233239423651
 30
0.0
 11
18.000000000000171
 21
-34.277233239423538
 31
0.0
  0
LINE
  5
16B11
  8
0
 62
     0
 10
9.0000000000000568
 20
-41.032169209156393
 30
0.0
 11
18.000000000000171
 21
-32.03216920915628
 31
0.0
  0
LINE
  5
16B12
  8
0
 62
     0
 10
9.0000000000000568
 20
-38.787105178889142
 30
0.0
 11
18.000000000000231
 21
-29.787105178889021
 31
0.0
  0
LINE
  5
16B13
  8
0
 62
     0
 10
9.0000000000000568
 20
-36.54204114862182
 30
0.0
 11
18.000000000000171
 21
-27.54204114862171
 31
0.0
  0
LINE
  5
16B14
  8
0
 62
     0
 10
8.9999999999999432
 20
-34.296977118354619
 30
0.0
 11
18.000000000000171
 21
-25.296977118354391
 31
0.0
  0
LINE
  5
16B15
  8
0
 62
     0
 10
9.0
 20
-32.051913088087311
 30
0.0
 11
18.000000000000171
 21
-23.051913088087129
 31
0.0
  0
LINE
  5
16B16
  8
0
 62
     0
 10
9.0
 20
-29.806849057820049
 30
0.0
 11
18.000000000000231
 21
-20.806849057819822
 31
0.0
  0
LINE
  5
16B17
  8
0
 62
     0
 10
9.0
 20
-27.56178502755273
 30
0.0
 11
18.000000000000231
 21
-18.561785027552499
 31
0.0
  0
LINE
  5
16B18
  8
0
 62
     0
 10
8.9999999999999432
 20
-25.316720997285479
 30
0.0
 11
18.000000000000231
 21
-16.316720997285241
 31
0.0
  0
LINE
  5
16B19
  8
0
 62
     0
 10
8.9999999999999432
 20
-23.07165696701821
 30
0.0
 11
18.000000000000231
 21
-14.071656967017979
 31
0.0
  0
LINE
  5
16B1A
  8
0
 62
     0
 10
8.9999999999999432
 20
-20.826592936750899
 30
0.0
 11
18.000000000000231
 21
-11.826592936750609
 31
0.0
  0
LINE
  5
16B1B
  8
0
 62
     0
 10
8.9999999999999432
 20
-18.58152890648358
 30
0.0
 11
18.000000000000171
 21
-9.5815289064833564
 31
0.0
  0
LINE
  5
16B1C
  8
0
 62
     0
 10
16.353366242229299
 20
-8.9830986339870265
 30
0.0
 11
16.58651145322483
 21
-8.7499534229914389
 31
0.0
  0
LINE
  5
16B1D
  8
0
 62
     0
 10
8.9999999999999432
 20
-16.336464876216318
 30
0.0
 11
16.264414818379521
 21
-9.0720500578367478
 31
0.0
  0
LINE
  5
16B1E
  8
0
 62
     0
 10
17.341447422598829
 20
-5.7499534233501768
 30
0.0
 11
18.00000000000011
 21
-5.091400845948896
 31
0.0
  0
LINE
  5
16B1F
  8
0
 62
     0
 10
8.9999999999999432
 20
-14.091400845949069
 30
0.0
 11
14.34144742402435
 21
-8.7499534219246584
 31
0.0
  0
LINE
  5
16B20
  8
0
 62
     0
 10
15.09638339339835
 20
-5.7499534222833404
 30
0.0
 11
15.475887752038769
 21
-5.3704490636429218
 31
0.0
  0
LINE
  5
16B21
  8
0
 62
     0
 10
15.516052887897841
 20
-5.3302839277838521
 30
0.0
 11
18.00000000000011
 21
-2.8463368156815809
 31
0.0
  0
LINE
  5
16B22
  8
0
 62
     0
 10
9.0
 20
-11.84633681568169
 30
0.0
 11
12.096383394823871
 21
-8.7499534208578211
 31
0.0
  0
LINE
  5
16B23
  8
0
 62
     0
 10
12.85131936419776
 20
-5.7499534212166159
 30
0.0
 11
18.00000000000006
 21
-0.6012727854143236
 31
0.0
  0
LINE
  5
16B24
  8
0
 62
     0
 10
8.9999999999999432
 20
-9.6012727854144373
 30
0.0
 11
9.8085489289221073
 21
-8.7927238564922732
 31
0.0
  0
LINE
  5
16B25
  8
0
 62
     0
 10
10.76769871211496
 20
-5.5885100430321577
 30
0.0
 11
18.00000000000006
 21
1.6437912448529339
 31
0.0
  0
LINE
  5
16B26
  8
0
 62
     0
 10
8.9999999999999432
 20
-5.11114472487992
 30
0.0
 11
18.00000000000006
 21
3.8888552751201919
 31
0.0
  0
LINE
  5
16B27
  8
0
 62
     0
 10
8.9999999999999432
 20
-2.866080694612605
 30
0.0
 11
17.61612726817793
 21
5.7500465735653838
 31
0.0
  0
LINE
  5
16B28
  8
0
 62
     0
 10
8.9999999999999432
 20
-0.6210166643452908
 30
0.0
 11
15.37106323897728
 21
5.7500465746320506
 31
0.0
  0
LINE
  5
16B29
  8
0
 62
     0
 10
16.125999208351288
 20
8.7500465742733127
 30
0.0
 11
18.00000000000011
 21
10.62404736592214
 31
0.0
  0
LINE
  5
16B2A
  8
0
 62
     0
 10
8.9999999999999432
 20
1.624047365921967
 30
0.0
 11
13.02099569600597
 21
5.645043061927935
 31
0.0
  0
LINE
  5
16B2B
  8
0
 62
     0
 10
13.98014547919882
 20
8.8492568753880505
 30
0.0
 11
18.00000000000011
 21
12.869111396189391
 31
0.0
  0
LINE
  5
16B2C
  8
0
 62
     0
 10
9.0
 20
3.869111396189282
 30
0.0
 11
10.88093518057638
 21
5.7500465767656124
 31
0.0
  0
LINE
  5
16B2D
  8
0
 62
     0
 10
11.635871149950271
 20
8.7500465764068736
 30
0.0
 11
18.00000000000011
 21
15.114175426456709
 31
0.0
  0
LINE
  5
16B2E
  8
0
 62
     0
 10
9.3908071207497414
 20
8.7500465774735972
 30
0.0
 11
18.00000000000006
 21
17.359239456723969
 31
0.0
  0
LINE
  5
16B2F
  8
0
 62
     0
 10
9.0000000000001137
 20
10.604303486991229
 30
0.0
 11
18.00000000000006
 21
19.604303486991231
 31
0.0
  0
LINE
  5
16B30
  8
0
 62
     0
 10
9.0000000000001137
 20
12.849367517258541
 30
0.0
 11
18.00000000000011
 21
21.849367517258599
 31
0.0
  0
LINE
  5
16B31
  8
0
 62
     0
 10
9.0000000000001137
 20
15.094431547525859
 30
0.0
 11
18.00000000000011
 21
24.094431547525861
 31
0.0
  0
LINE
  5
16B32
  8
0
 62
     0
 10
9.0000000000000568
 20
17.339495577793109
 30
0.0
 11
18.00000000000011
 21
26.339495577793169
 31
0.0
  0
LINE
  5
16B33
  8
0
 62
     0
 10
9.0000000000000568
 20
19.584559608060371
 30
0.0
 11
18.00000000000011
 21
28.584559608060431
 31
0.0
  0
LINE
  5
16B34
  8
0
 62
     0
 10
9.0000000000001137
 20
21.82962363832775
 30
0.0
 11
18.00000000000011
 21
30.82962363832775
 31
0.0
  0
LINE
  5
16B35
  8
0
 62
     0
 10
9.0000000000000568
 20
24.074687668595001
 30
0.0
 11
18.00000000000006
 21
33.074687668594997
 31
0.0
  0
LINE
  5
16B36
  8
0
 62
     0
 10
9.0000000000000568
 20
26.31975169886227
 30
0.0
 11
18.00000000000006
 21
35.319751698862262
 31
0.0
  0
LINE
  5
16B37
  8
0
 62
     0
 10
9.0000000000001137
 20
28.564815729129521
 30
0.0
 11
18.00000000000011
 21
37.564815729129577
 31
0.0
  0
LINE
  5
16B38
  8
0
 62
     0
 10
9.0000000000001137
 20
30.809879759396839
 30
0.0
 11
18.00000000000011
 21
39.809879759396892
 31
0.0
  0
LINE
  5
16B39
  8
0
 62
     0
 10
9.0000000000000568
 20
33.054943789664151
 30
0.0
 11
18.00000000000011
 21
42.0549437896642
 31
0.0
  0
LINE
  5
16B3A
  8
0
 62
     0
 10
9.0000000000000568
 20
35.300007819931409
 30
0.0
 11
18.00000000000011
 21
44.300007819931459
 31
0.0
  0
LINE
  5
16B3B
  8
0
 62
     0
 10
9.0000000000000568
 20
37.545071850198667
 30
0.0
 11
16.07742504976892
 21
44.622496899967523
 31
0.0
  0
LINE
  5
16B3C
  8
0
 62
     0
 10
9.0000000000001137
 20
39.790135880466039
 30
0.0
 11
13.83236101950166
 21
44.622496899967587
 31
0.0
  0
LINE
  5
16B3D
  8
0
 62
     0
 10
9.0000000000000568
 20
42.035199910733297
 30
0.0
 11
11.587296989234339
 21
44.622496899967587
 31
0.0
  0
LINE
  5
16B3E
  8
0
 62
     0
 10
9.0000000000001137
 20
44.280263941000548
 30
0.0
 11
9.3422329589670881
 21
44.622496899967587
 31
0.0
  0
ENDBLK
  5
16B40
  8
0
  0
BLOCK
  8
0
  2
*X70
 70
     1
 10
0.0
 20
0.0
 30
0.0
  3
*X70
  1

  0
LINE
  5
16B42
  8
0
 62
     0
 10
4.01579819129564
 20
-61.431188349899848
 30
0.0
 11
4.01579819129564
 21
-61.431188349899848
 31
0.0
  0
LINE
  5
16B43
  8
0
 62
     0
 10
3.5476270824212111
 20
-61.002188568063907
 30
0.0
 11
3.5476270824212111
 21
-61.002188568063907
 31
0.0
  0
LINE
  5
16B44
  8
0
 62
     0
 10
1.0195030944992971
 20
-58.685589746149809
 30
0.0
 11
1.0195030944992971
 21
-58.685589746149809
 31
0.0
  0
LINE
  5
16B45
  8
0
 62
     0
 10
8.6550676192222316
 20
-56.456296513577612
 30
0.0
 11
8.6550676192222316
 21
-56.456296513577612
 31
0.0
  0
LINE
  5
16B46
  8
0
 62
     0
 10
6.4452999853349269
 20
-54.431417543311952
 30
0.0
 11
6.4452999853349269
 21
-54.431417543311952
 31
0.0
  0
LINE
  5
16B47
  8
0
 62
     0
 10
5.9771288764604993
 20
-54.002417761476011
 30
0.0
 11
5.9771288764604993
 21
-54.002417761476011
 31
0.0
  0
LINE
  5
16B48
  8
0
 62
     0
 10
3.449004888538584
 20
-51.685818939561912
 30
0.0
 11
3.449004888538584
 21
-51.685818939561912
 31
0.0
  0
LINE
  5
16B49
  8
0
 62
     0
 10
1.23923725465128
 20
-49.660939969296251
 30
0.0
 11
1.23923725465128
 21
-49.660939969296251
 31
0.0
  0
LINE
  5
16B4A
  8
0
 62
     0
 10
0.7710661457768521
 20
-49.23194018746031
 30
0.0
 11
0.7710661457768521
 21
-49.23194018746031
 31
0.0
  0
LINE
  5
16B4B
  8
0
 62
     0
 10
8.8748017793742875
 20
-47.431646736724133
 30
0.0
 11
8.8748017793742875
 21
-47.431646736724133
 31
0.0
  0
LINE
  5
16B4C
  8
0
 62
     0
 10
8.4066306704998581
 20
-47.002646954888192
 30
0.0
 11
8.4066306704998581
 21
-47.002646954888192
 31
0.0
  0
LINE
  5
16B4D
  8
0
 62
     0
 10
5.8785066825779433
 20
-44.686048132974094
 30
0.0
 11
5.8785066825779433
 21
-44.686048132974094
 31
0.0
  0
LINE
  5
16B4E
  8
0
 62
     0
 10
3.668739048690639
 20
-42.661169162708433
 30
0.0
 11
3.668739048690639
 21
-42.661169162708433
 31
0.0
  0
LINE
  5
16B4F
  8
0
 62
     0
 10
3.200567939816211
 20
-42.232169380872492
 30
0.0
 11
3.200567939816211
 21
-42.232169380872492
 31
0.0
  0
LINE
  5
16B50
  8
0
 62
     0
 10
0.6724439518942967
 20
-39.915570558958393
 30
0.0
 11
0.6724439518942967
 21
-39.915570558958393
 31
0.0
  0
LINE
  5
16B51
  8
0
 62
     0
 10
8.3080084766172941
 20
-37.68627732638619
 30
0.0
 11
8.3080084766172941
 21
-37.68627732638619
 31
0.0
  0
LINE
  5
16B52
  8
0
 62
     0
 10
6.0982408427299903
 20
-35.661398356120543
 30
0.0
 11
6.0982408427299903
 21
-35.661398356120543
 31
0.0
  0
LINE
  5
16B53
  8
0
 62
     0
 10
5.630069733855561
 20
-35.232398574284602
 30
0.0
 11
5.630069733855561
 21
-35.232398574284602
 31
0.0
  0
LINE
  5
16B54
  8
0
 62
     0
 10
3.1019457459336461
 20
-32.915799752370503
 30
0.0
 11
3.1019457459336461
 21
-32.915799752370503
 31
0.0
  0
LINE
  5
16B55
  8
0
 62
     0
 10
0.8921781120463432
 20
-30.890920782104839
 30
0.0
 11
0.8921781120463432
 21
-30.890920782104839
 31
0.0
  0
LINE
  5
16B56
  8
0
 62
     0
 10
0.4240070031719147
 20
-30.461921000268891
 30
0.0
 11
0.4240070031719147
 21
-30.461921000268891
 31
0.0
  0
LINE
  5
16B57
  8
0
 62
     0
 10
8.5277426367693003
 20
-28.661627549532721
 30
0.0
 11
8.5277426367693003
 21
-28.661627549532721
 31
0.0
  0
LINE
  5
16B58
  8
0
 62
     0
 10
8.0595715278948692
 20
-28.232627767696769
 30
0.0
 11
8.0595715278948692
 21
-28.232627767696769
 31
0.0
  0
LINE
  5
16B59
  8
0
 62
     0
 10
5.5314475399729552
 20
-25.916028945782671
 30
0.0
 11
5.5314475399729552
 21
-25.916028945782671
 31
0.0
  0
LINE
  5
16B5A
  8
0
 62
     0
 10
3.321679906085651
 20
-23.89114997551701
 30
0.0
 11
3.321679906085651
 21
-23.89114997551701
 31
0.0
  0
LINE
  5
16B5B
  8
0
 62
     0
 10
2.853508797211223
 20
-23.462150193681069
 30
0.0
 11
2.853508797211223
 21
-23.462150193681069
 31
0.0
  0
LINE
  5
16B5C
  8
0
 62
     0
 10
0.3253848092893086
 20
-21.14555137176697
 30
0.0
 11
0.3253848092893086
 21
-21.14555137176697
 31
0.0
  0
LINE
  5
16B5D
  8
0
 62
     0
 10
7.960949334012235
 20
-18.916258139194781
 30
0.0
 11
7.960949334012235
 21
-18.916258139194781
 31
0.0
  0
LINE
  5
16B5E
  8
0
 62
     0
 10
5.751181700124933
 20
-16.89137916892912
 30
0.0
 11
5.751181700124933
 21
-16.89137916892912
 31
0.0
  0
LINE
  5
16B5F
  8
0
 62
     0
 10
5.2830105912505037
 20
-16.462379387093169
 30
0.0
 11
5.2830105912505037
 21
-16.462379387093169
 31
0.0
  0
LINE
  5
16B60
  8
0
 62
     0
 10
2.7548866033285888
 20
-14.14578056517907
 30
0.0
 11
2.7548866033285888
 21
-14.14578056517907
 31
0.0
  0
LINE
  5
16B61
  8
0
 62
     0
 10
0.5451189694412864
 20
-12.12090159491342
 30
0.0
 11
0.5451189694412864
 21
-12.12090159491342
 31
0.0
  0
LINE
  5
16B62
  8
0
 62
     0
 10
0.0769478605668576
 20
-11.69190181307747
 30
0.0
 11
0.0769478605668576
 21
-11.69190181307747
 31
0.0
  0
LINE
  5
16B63
  8
0
 62
     0
 10
8.1806834941643185
 20
-9.8916083623412607
 30
0.0
 11
8.1806834941643185
 21
-9.8916083623412607
 31
0.0
  0
LINE
  5
16B64
  8
0
 62
     0
 10
7.71251238528989
 20
-9.4626085805053162
 30
0.0
 11
7.71251238528989
 21
-9.4626085805053162
 31
0.0
  0
LINE
  5
16B65
  8
0
 62
     0
 10
2.9746207634806661
 20
-5.1211307883256101
 30
0.0
 11
2.9746207634806661
 21
-5.1211307883256101
 31
0.0
  0
LINE
  5
16B66
  8
0
 62
     0
 10
2.506449654606238
 20
-4.6921310064896664
 30
0.0
 11
2.506449654606238
 21
-4.6921310064896664
 31
0.0
  0
LINE
  5
16B67
  8
0
 62
     0
 10
7.6138901914073207
 20
-0.1462389520033798
 30
0.0
 11
7.6138901914073207
 21
-0.1462389520033798
 31
0.0
  0
LINE
  5
16B68
  8
0
 62
     0
 10
5.4041225575200169
 20
1.8786400182622769
 30
0.0
 11
5.4041225575200169
 21
1.8786400182622769
 31
0.0
  0
LINE
  5
16B69
  8
0
 62
     0
 10
4.9359514486455893
 20
2.307639800098221
 30
0.0
 11
4.9359514486455893
 21
2.307639800098221
 31
0.0
  0
LINE
  5
16B6A
  8
0
 62
     0
 10
2.407827460723674
 20
4.6242386220123208
 30
0.0
 11
2.407827460723674
 21
4.6242386220123208
 31
0.0
  0
LINE
  5
16B6B
  8
0
 62
     0
 10
7.8336243515593544
 20
8.8784108248501266
 30
0.0
 11
7.8336243515593544
 21
8.8784108248501266
 31
0.0
  0
LINE
  5
16B6C
  8
0
 62
     0
 10
7.3654532426849251
 20
9.3074106066860711
 30
0.0
 11
7.3654532426849251
 21
9.3074106066860711
 31
0.0
  0
LINE
  5
16B6D
  8
0
 62
     0
 10
4.8373292547630111
 20
11.62400942860017
 30
0.0
 11
4.8373292547630111
 21
11.62400942860017
 31
0.0
  0
LINE
  5
16B6E
  8
0
 62
     0
 10
2.6275616208757082
 20
13.64888839886583
 30
0.0
 11
2.6275616208757082
 21
13.64888839886583
 31
0.0
  0
LINE
  5
16B6F
  8
0
 62
     0
 10
2.1593905120012789
 20
14.07788818070177
 30
0.0
 11
2.1593905120012789
 21
14.07788818070177
 31
0.0
  0
LINE
  5
16B70
  8
0
 62
     0
 10
7.2668310488023229
 20
18.623780235188089
 30
0.0
 11
7.2668310488023229
 21
18.623780235188089
 31
0.0
  0
LINE
  5
16B71
  8
0
 62
     0
 10
5.0570634149150191
 20
20.648659205453761
 30
0.0
 11
5.0570634149150191
 21
20.648659205453761
 31
0.0
  0
LINE
  5
16B72
  8
0
 62
     0
 10
4.5888923060405906
 20
21.077658987289698
 30
0.0
 11
4.5888923060405906
 21
21.077658987289698
 31
0.0
  0
LINE
  5
16B73
  8
0
 62
     0
 10
2.0607683181186771
 20
23.3942578092038
 30
0.0
 11
2.0607683181186771
 21
23.3942578092038
 31
0.0
  0
LINE
  5
16B74
  8
0
 62
     0
 10
7.4865652089542847
 20
27.648430012041619
 30
0.0
 11
7.4865652089542847
 21
27.648430012041619
 31
0.0
  0
LINE
  5
16B75
  8
0
 62
     0
 10
7.0183941000798571
 20
28.07742979387756
 30
0.0
 11
7.0183941000798571
 21
28.07742979387756
 31
0.0
  0
LINE
  5
16B76
  8
0
 62
     0
 10
4.4902701121579423
 20
30.394028615791662
 30
0.0
 11
4.4902701121579423
 21
30.394028615791662
 31
0.0
  0
LINE
  5
16B77
  8
0
 62
     0
 10
2.2805024782706389
 20
32.418907586057323
 30
0.0
 11
2.2805024782706389
 21
32.418907586057323
 31
0.0
  0
LINE
  5
16B78
  8
0
 62
     0
 10
1.81233136939621
 20
32.847907367893256
 30
0.0
 11
1.81233136939621
 21
32.847907367893256
 31
0.0
  0
LINE
  5
16B79
  8
0
 62
     0
 10
6.9197719061972807
 20
37.393799422379502
 30
0.0
 11
6.9197719061972807
 21
37.393799422379502
 31
0.0
  0
LINE
  5
16B7A
  8
0
 62
     0
 10
4.7100042723099769
 20
39.418678392645162
 30
0.0
 11
4.7100042723099769
 21
39.418678392645162
 31
0.0
  0
LINE
  5
16B7B
  8
0
 62
     0
 10
4.2418331634355493
 20
39.847678174481111
 30
0.0
 11
4.2418331634355493
 21
39.847678174481111
 31
0.0
  0
LINE
  5
16B7C
  8
0
 62
     0
 10
1.713709175513634
 20
42.164276996395202
 30
0.0
 11
1.713709175513634
 21
42.164276996395202
 31
0.0
  0
LINE
  5
16B7D
  8
0
 62
     0
 10
7.6039294291079393
 20
-61.37093519581228
 30
0.0
 11
7.6039294291079393
 21
-61.37093519581228
 31
0.0
  0
LINE
  5
16B7E
  8
0
 62
     0
 10
2.569725889050825
 20
-58.163793833590091
 30
0.0
 11
2.569725889050825
 21
-58.163793833590091
 31
0.0
  0
LINE
  5
16B7F
  8
0
 62
     0
 10
6.62366390120894
 20
-55.692888177442953
 30
0.0
 11
6.62366390120894
 21
-55.692888177442953
 31
0.0
  0
LINE
  5
16B80
  8
0
 62
     0
 10
5.5525567650265764
 20
-55.010517674842482
 30
0.0
 11
5.5525567650265764
 21
-55.010517674842482
 31
0.0
  0
LINE
  5
16B81
  8
0
 62
     0
 10
0.5183532249694629
 20
-51.803376312620287
 30
0.0
 11
0.5183532249694629
 21
-51.803376312620287
 31
0.0
  0
LINE
  5
16B82
  8
0
 62
     0
 10
8.4282769273839921
 20
-51.789004465834807
 30
0.0
 11
8.4282769273839921
 21
-51.789004465834807
 31
0.0
  0
LINE
  5
16B83
  8
0
 62
     0
 10
4.5722912371274811
 20
-49.332470656473127
 30
0.0
 11
4.5722912371274811
 21
-49.332470656473127
 31
0.0
  0
LINE
  5
16B84
  8
0
 62
     0
 10
3.501184100945117
 20
-48.650100153872657
 30
0.0
 11
3.501184100945117
 21
-48.650100153872657
 31
0.0
  0
LINE
  5
16B85
  8
0
 62
     0
 10
6.3769042633026087
 20
-45.428586944865053
 30
0.0
 11
6.3769042633026087
 21
-45.428586944865053
 31
0.0
  0
LINE
  5
16B86
  8
0
 62
     0
 10
2.5209185730460968
 20
-42.972053135503373
 30
0.0
 11
2.5209185730460968
 21
-42.972053135503373
 31
0.0
  0
LINE
  5
16B87
  8
0
 62
     0
 10
1.4498114368637329
 20
-42.289682632902903
 30
0.0
 11
1.4498114368637329
 21
-42.289682632902903
 31
0.0
  0
LINE
  5
16B88
  8
0
 62
     0
 10
4.3255315992211782
 20
-39.068169423895192
 30
0.0
 11
4.3255315992211782
 21
-39.068169423895192
 31
0.0
  0
LINE
  5
16B89
  8
0
 62
     0
 10
0.4695459089646658
 20
-36.611635614533512
 30
0.0
 11
0.4695459089646658
 21
-36.611635614533512
 31
0.0
  0
LINE
  5
16B8A
  8
0
 62
     0
 10
8.3794696113792817
 20
-36.597263767748082
 30
0.0
 11
8.3794696113792817
 21
-36.597263767748082
 31
0.0
  0
LINE
  5
16B8B
  8
0
 62
     0
 10
7.3083624751969172
 20
-35.914893265147612
 30
0.0
 11
7.3083624751969172
 21
-35.914893265147612
 31
0.0
  0
LINE
  5
16B8C
  8
0
 62
     0
 10
2.2741589351398028
 20
-32.707751902925423
 30
0.0
 11
2.2741589351398028
 21
-32.707751902925423
 31
0.0
  0
LINE
  5
16B8D
  8
0
 62
     0
 10
6.328096947297821
 20
-30.236846246778288
 30
0.0
 11
6.328096947297821
 21
-30.236846246778288
 31
0.0
  0
LINE
  5
16B8E
  8
0
 62
     0
 10
5.2569898111154574
 20
-29.554475744177829
 30
0.0
 11
5.2569898111154574
 21
-29.554475744177829
 31
0.0
  0
LINE
  5
16B8F
  8
0
 62
     0
 10
0.2227862710583442
 20
-26.34733438195563
 30
0.0
 11
0.2227862710583442
 21
-26.34733438195563
 31
0.0
  0
LINE
  5
16B90
  8
0
 62
     0
 10
8.1327099734729629
 20
-26.332962535170171
 30
0.0
 11
8.1327099734729629
 21
-26.332962535170171
 31
0.0
  0
LINE
  5
16B91
  8
0
 62
     0
 10
4.27672428321645
 20
-23.876428725808481
 30
0.0
 11
4.27672428321645
 21
-23.876428725808481
 31
0.0
  0
LINE
  5
16B92
  8
0
 62
     0
 10
3.2056171470340851
 20
-23.194058223208021
 30
0.0
 11
3.2056171470340851
 21
-23.194058223208021
 31
0.0
  0
LINE
  5
16B93
  8
0
 62
     0
 10
6.08133730939148
 20
-19.97254501420036
 30
0.0
 11
6.08133730939148
 21
-19.97254501420036
 31
0.0
  0
LINE
  5
16B94
  8
0
 62
     0
 10
2.225351619134968
 20
-17.51601120483868
 30
0.0
 11
2.225351619134968
 21
-17.51601120483868
 31
0.0
  0
LINE
  5
16B95
  8
0
 62
     0
 10
1.1542444829526031
 20
-16.83364070223821
 30
0.0
 11
1.1542444829526031
 21
-16.83364070223821
 31
0.0
  0
LINE
  5
16B96
  8
0
 62
     0
 10
4.0299646453101081
 20
-13.61212749323059
 30
0.0
 11
4.0299646453101081
 21
-13.61212749323059
 31
0.0
  0
LINE
  5
16B97
  8
0
 62
     0
 10
0.1739789550535956
 20
-11.15559368386891
 30
0.0
 11
0.1739789550535956
 21
-11.15559368386891
 31
0.0
  0
LINE
  5
16B98
  8
0
 62
     0
 10
8.0839026574682151
 20
-11.14122183708349
 30
0.0
 11
8.0839026574682151
 21
-11.14122183708349
 31
0.0
  0
LINE
  5
16B99
  8
0
 62
     0
 10
7.0127955212858497
 20
-10.45885133448302
 30
0.0
 11
7.0127955212858497
 21
-10.45885133448302
 31
0.0
  0
LINE
  5
16B9A
  8
0
 62
     0
 10
6.0325299933867882
 20
-4.7808043161136462
 30
0.0
 11
6.0325299933867882
 21
-4.7808043161136462
 31
0.0
  0
LINE
  5
16B9B
  8
0
 62
     0
 10
4.9614228572044228
 20
-4.0984338135131786
 30
0.0
 11
4.9614228572044228
 21
-4.0984338135131786
 31
0.0
  0
LINE
  5
16B9C
  8
0
 62
     0
 10
7.8371430195619052
 20
-0.8769206045055604
 30
0.0
 11
7.8371430195619052
 21
-0.8769206045055604
 31
0.0
  0
LINE
  5
16B9D
  8
0
 62
     0
 10
3.9811573293053919
 20
1.5796132048561189
 30
0.0
 11
3.9811573293053919
 21
1.5796132048561189
 31
0.0
  0
LINE
  5
16B9E
  8
0
 62
     0
 10
2.9100501931230269
 20
2.2619837074565861
 30
0.0
 11
2.9100501931230269
 21
2.2619837074565861
 31
0.0
  0
LINE
  5
16B9F
  8
0
 62
     0
 10
5.7857703554804303
 20
5.4834969164642349
 30
0.0
 11
5.7857703554804303
 21
5.4834969164642349
 31
0.0
  0
LINE
  5
16BA0
  8
0
 62
     0
 10
3.734397691399074
 20
11.84391443743405
 30
0.0
 11
3.734397691399074
 21
11.84391443743405
 31
0.0
  0
LINE
  5
16BA1
  8
0
 62
     0
 10
7.7883357035571521
 20
14.31482009358125
 30
0.0
 11
7.7883357035571521
 21
14.31482009358125
 31
0.0
  0
LINE
  5
16BA2
  8
0
 62
     0
 10
6.7172285673747876
 20
14.997190596181721
 30
0.0
 11
6.7172285673747876
 21
14.997190596181721
 31
0.0
  0
LINE
  5
16BA3
  8
0
 62
     0
 10
1.6830250273176739
 20
18.204331958403909
 30
0.0
 11
1.6830250273176739
 21
18.204331958403909
 31
0.0
  0
LINE
  5
16BA4
  8
0
 62
     0
 10
5.7369630394757527
 20
20.675237614551001
 30
0.0
 11
5.7369630394757527
 21
20.675237614551001
 31
0.0
  0
LINE
  5
16BA5
  8
0
 62
     0
 10
4.6658559032933891
 20
21.357608117151461
 30
0.0
 11
4.6658559032933891
 21
21.357608117151461
 31
0.0
  0
LINE
  5
16BA6
  8
0
 62
     0
 10
7.5415760656507649
 20
24.57912132615909
 30
0.0
 11
7.5415760656507649
 21
24.57912132615909
 31
0.0
  0
LINE
  5
16BA7
  8
0
 62
     0
 10
3.685590375394252
 20
27.03565513552077
 30
0.0
 11
3.685590375394252
 21
27.03565513552077
 31
0.0
  0
LINE
  5
16BA8
  8
0
 62
     0
 10
2.614483239211888
 20
27.71802563812124
 30
0.0
 11
2.614483239211888
 21
27.71802563812124
 31
0.0
  0
LINE
  5
16BA9
  8
0
 62
     0
 10
5.4902034015693664
 20
30.939538847128901
 30
0.0
 11
5.4902034015693664
 21
30.939538847128901
 31
0.0
  0
LINE
  5
16BAA
  8
0
 62
     0
 10
1.6342177113128531
 20
33.396072656490567
 30
0.0
 11
1.6342177113128531
 21
33.396072656490567
 31
0.0
  0
LINE
  5
16BAB
  8
0
 62
     0
 10
0.5631105751304892
 20
34.078443159091037
 30
0.0
 11
0.5631105751304892
 21
34.078443159091037
 31
0.0
  0
LINE
  5
16BAC
  8
0
 62
     0
 10
8.4730342775450875
 20
34.092815005876503
 30
0.0
 11
8.4730342775450875
 21
34.092815005876503
 31
0.0
  0
LINE
  5
16BAD
  8
0
 62
     0
 10
3.4388307374879732
 20
37.299956368098691
 30
0.0
 11
3.4388307374879732
 21
37.299956368098691
 31
0.0
  0
LINE
  5
16BAE
  8
0
 62
     0
 10
7.492768749646034
 20
39.77086202424583
 30
0.0
 11
7.492768749646034
 21
39.77086202424583
 31
0.0
  0
LINE
  5
16BAF
  8
0
 62
     0
 10
6.4216616134636686
 20
40.4532325268463
 30
0.0
 11
6.4216616134636686
 21
40.4532325268463
 31
0.0
  0
LINE
  5
16BB0
  8
0
 62
     0
 10
1.387458073406556
 20
43.660373889068488
 30
0.0
 11
1.387458073406556
 21
43.660373889068488
 31
0.0
  0
LINE
  5
16BB1
  8
0
 62
     0
 10
8.2994528038308442
 20
-55.941633358613942
 30
0.0
 11
8.2994528038308442
 21
-55.941633358613942
 31
0.0
  0
LINE
  5
16BB2
  8
0
 62
     0
 10
6.2344714465614741
 20
-56.213493311769859
 30
0.0
 11
6.2344714465614741
 21
-56.213493311769859
 31
0.0
  0
LINE
  5
16BB3
  8
0
 62
     0
 10
4.9123797239194982
 20
-56.387549989095298
 30
0.0
 11
4.9123797239194982
 21
-56.387549989095298
 31
0.0
  0
LINE
  5
16BB4
  8
0
 62
     0
 10
1.462349895310912
 20
-56.84175503278265
 30
0.0
 11
1.462349895310912
 21
-56.84175503278265
 31
0.0
  0
LINE
  5
16BB5
  8
0
 62
     0
 10
5.957582726691057
 20
-49.673504027099071
 30
0.0
 11
5.957582726691057
 21
-49.673504027099071
 31
0.0
  0
LINE
  5
16BB6
  8
0
 62
     0
 10
3.8926013694216861
 20
-49.945363980255003
 30
0.0
 11
3.8926013694216861
 21
-49.945363980255003
 31
0.0
  0
LINE
  5
16BB7
  8
0
 62
     0
 10
2.5705096467797102
 20
-50.119420657580442
 30
0.0
 11
2.5705096467797102
 21
-50.119420657580442
 31
0.0
  0
LINE
  5
16BB8
  8
0
 62
     0
 10
8.3878342008016062
 20
-42.777112974571473
 30
0.0
 11
8.3878342008016062
 21
-42.777112974571473
 31
0.0
  0
LINE
  5
16BB9
  8
0
 62
     0
 10
7.0657424781596294
 20
-42.951169651896898
 30
0.0
 11
7.0657424781596294
 21
-42.951169651896898
 31
0.0
  0
LINE
  5
16BBA
  8
0
 62
     0
 10
3.615712649551043
 20
-43.40537469558425
 30
0.0
 11
3.615712649551043
 21
-43.40537469558425
 31
0.0
  0
LINE
  5
16BBB
  8
0
 62
     0
 10
1.5507312922816709
 20
-43.677234648740168
 30
0.0
 11
1.5507312922816709
 21
-43.677234648740168
 31
0.0
  0
LINE
  5
16BBC
  8
0
 62
     0
 10
0.2286395696396954
 20
-43.851291326065613
 30
0.0
 11
0.2286395696396954
 21
-43.851291326065613
 31
0.0
  0
LINE
  5
16BBD
  8
0
 62
     0
 10
8.1109454809310098
 20
-36.23712368990072
 30
0.0
 11
8.1109454809310098
 21
-36.23712368990072
 31
0.0
  0
LINE
  5
16BBE
  8
0
 62
     0
 10
6.045964123661637
 20
-36.508983643056638
 30
0.0
 11
6.045964123661637
 21
-36.508983643056638
 31
0.0
  0
LINE
  5
16BBF
  8
0
 62
     0
 10
4.7238724010196611
 20
-36.683040320382077
 30
0.0
 11
4.7238724010196611
 21
-36.683040320382077
 31
0.0
  0
LINE
  5
16BC0
  8
0
 62
     0
 10
1.2738425724110749
 20
-37.137245364069422
 30
0.0
 11
1.2738425724110749
 21
-37.137245364069422
 31
0.0
  0
LINE
  5
16BC1
  8
0
 62
     0
 10
5.7690754037913328
 20
-29.96899435838586
 30
0.0
 11
5.7690754037913328
 21
-29.96899435838586
 31
0.0
  0
LINE
  5
16BC2
  8
0
 62
     0
 10
3.7040940465219601
 20
-30.240854311541781
 30
0.0
 11
3.7040940465219601
 21
-30.240854311541781
 31
0.0
  0
LINE
  5
16BC3
  8
0
 62
     0
 10
2.382002323879985
 20
-30.41491098886722
 30
0.0
 11
2.382002323879985
 21
-30.41491098886722
 31
0.0
  0
LINE
  5
16BC4
  8
0
 62
     0
 10
8.1993268779017701
 20
-23.07260330585823
 30
0.0
 11
8.1993268779017701
 21
-23.07260330585823
 31
0.0
  0
LINE
  5
16BC5
  8
0
 62
     0
 10
6.8772351552597932
 20
-23.246659983183669
 30
0.0
 11
6.8772351552597932
 21
-23.246659983183669
 31
0.0
  0
LINE
  5
16BC6
  8
0
 62
     0
 10
3.4272053266512059
 20
-23.700865026871011
 30
0.0
 11
3.4272053266512059
 21
-23.700865026871011
 31
0.0
  0
LINE
  5
16BC7
  8
0
 62
     0
 10
1.3622239693818341
 20
-23.972724980026928
 30
0.0
 11
1.3622239693818341
 21
-23.972724980026928
 31
0.0
  0
LINE
  5
16BC8
  8
0
 62
     0
 10
0.0401322467398583
 20
-24.146781657352371
 30
0.0
 11
0.0401322467398583
 21
-24.146781657352371
 31
0.0
  0
LINE
  5
16BC9
  8
0
 62
     0
 10
7.9224381580313974
 20
-16.532614021187449
 30
0.0
 11
7.9224381580313974
 21
-16.532614021187449
 31
0.0
  0
LINE
  5
16BCA
  8
0
 62
     0
 10
5.8574568007620247
 20
-16.804473974343381
 30
0.0
 11
5.8574568007620247
 21
-16.804473974343381
 31
0.0
  0
LINE
  5
16BCB
  8
0
 62
     0
 10
4.5353650781200487
 20
-16.978530651668819
 30
0.0
 11
4.5353650781200487
 21
-16.978530651668819
 31
0.0
  0
LINE
  5
16BCC
  8
0
 62
     0
 10
1.0853352495114641
 20
-17.432735695356151
 30
0.0
 11
1.0853352495114641
 21
-17.432735695356151
 31
0.0
  0
LINE
  5
16BCD
  8
0
 62
     0
 10
5.5805680808913829
 20
-10.26448468967264
 30
0.0
 11
5.5805680808913829
 21
-10.26448468967264
 31
0.0
  0
LINE
  5
16BCE
  8
0
 62
     0
 10
3.5155867236220111
 20
-10.53634464282856
 30
0.0
 11
3.5155867236220111
 21
-10.53634464282856
 31
0.0
  0
LINE
  5
16BCF
  8
0
 62
     0
 10
2.193495000980036
 20
-10.710401320154
 30
0.0
 11
2.193495000980036
 21
-10.710401320154
 31
0.0
  0
LINE
  5
16BD0
  8
0
 62
     0
 10
8.0108195550021595
 20
-3.3680936371449901
 30
0.0
 11
8.0108195550021595
 21
-3.3680936371449901
 31
0.0
  0
LINE
  5
16BD1
  8
0
 62
     0
 10
6.6887278323601818
 20
-3.5421503144704292
 30
0.0
 11
6.6887278323601818
 21
-3.5421503144704292
 31
0.0
  0
LINE
  5
16BD2
  8
0
 62
     0
 10
3.2386980037515962
 20
-3.9963553581577642
 30
0.0
 11
3.2386980037515962
 21
-3.9963553581577642
 31
0.0
  0
LINE
  5
16BD3
  8
0
 62
     0
 10
1.1737166464822231
 20
-4.2682153113136883
 30
0.0
 11
1.1737166464822231
 21
-4.2682153113136883
 31
0.0
  0
LINE
  5
16BD4
  8
0
 62
     0
 10
7.7339308351315621
 20
3.1718956475257549
 30
0.0
 11
7.7339308351315621
 21
3.1718956475257549
 31
0.0
  0
LINE
  5
16BD5
  8
0
 62
     0
 10
5.6689494778621903
 20
2.9000356943698322
 30
0.0
 11
5.6689494778621903
 21
2.9000356943698322
 31
0.0
  0
LINE
  5
16BD6
  8
0
 62
     0
 10
4.3468577552202143
 20
2.7259790170443932
 30
0.0
 11
4.3468577552202143
 21
2.7259790170443932
 31
0.0
  0
LINE
  5
16BD7
  8
0
 62
     0
 10
0.896827926611628
 20
2.2717739733570581
 30
0.0
 11
0.896827926611628
 21
2.2717739733570581
 31
0.0
  0
LINE
  5
16BD8
  8
0
 62
     0
 10
2.0049876780801821
 20
8.9941083485592426
 30
0.0
 11
2.0049876780801821
 21
8.9941083485592426
 31
0.0
  0
LINE
  5
16BD9
  8
0
 62
     0
 10
8.8420905866000723
 20
9.8942300227279318
 30
0.0
 11
8.8420905866000723
 21
9.8942300227279318
 31
0.0
  0
LINE
  5
16BDA
  8
0
 62
     0
 10
5.3920607579914854
 20
9.4400249790405972
 30
0.0
 11
5.3920607579914854
 21
9.4400249790405972
 31
0.0
  0
LINE
  5
16BDB
  8
0
 62
     0
 10
3.3270794007221132
 20
9.1681650258846741
 30
0.0
 11
3.3270794007221132
 21
9.1681650258846741
 31
0.0
  0
LINE
  5
16BDC
  8
0
 62
     0
 10
7.8223122321023224
 20
16.336416031568241
 30
0.0
 11
7.8223122321023224
 21
16.336416031568241
 31
0.0
  0
LINE
  5
16BDD
  8
0
 62
     0
 10
6.5002205094603456
 20
16.162359354242799
 30
0.0
 11
6.5002205094603456
 21
16.162359354242799
 31
0.0
  0
LINE
  5
16BDE
  8
0
 62
     0
 10
3.05019068085176
 20
15.708154310555461
 30
0.0
 11
3.05019068085176
 21
15.708154310555461
 31
0.0
  0
LINE
  5
16BDF
  8
0
 62
     0
 10
0.9852093235823877
 20
15.436294357399539
 30
0.0
 11
0.9852093235823877
 21
15.436294357399539
 31
0.0
  0
LINE
  5
16BE0
  8
0
 62
     0
 10
7.5454235122316131
 20
22.87640531623898
 30
0.0
 11
7.5454235122316131
 21
22.87640531623898
 31
0.0
  0
LINE
  5
16BE1
  8
0
 62
     0
 10
5.4804421549622413
 20
22.604545363083059
 30
0.0
 11
5.4804421549622413
 21
22.604545363083059
 31
0.0
  0
LINE
  5
16BE2
  8
0
 62
     0
 10
4.1583504323202654
 20
22.43048868575762
 30
0.0
 11
4.1583504323202654
 21
22.43048868575762
 31
0.0
  0
LINE
  5
16BE3
  8
0
 62
     0
 10
0.7083206037116793
 20
21.976283642070278
 30
0.0
 11
0.7083206037116793
 21
21.976283642070278
 31
0.0
  0
LINE
  5
16BE4
  8
0
 62
     0
 10
8.6535832637005257
 20
29.598739691441182
 30
0.0
 11
8.6535832637005257
 21
29.598739691441182
 31
0.0
  0
LINE
  5
16BE5
  8
0
 62
     0
 10
5.2035534350919379
 20
29.14453464775384
 30
0.0
 11
5.2035534350919379
 21
29.14453464775384
 31
0.0
  0
LINE
  5
16BE6
  8
0
 62
     0
 10
3.1385720778225661
 20
28.872674694597919
 30
0.0
 11
3.1385720778225661
 21
28.872674694597919
 31
0.0
  0
LINE
  5
16BE7
  8
0
 62
     0
 10
1.8164803551805899
 20
28.69861801727248
 30
0.0
 11
1.8164803551805899
 21
28.69861801727248
 31
0.0
  0
LINE
  5
16BE8
  8
0
 62
     0
 10
7.6338049092024871
 20
36.040925700281463
 30
0.0
 11
7.6338049092024871
 21
36.040925700281463
 31
0.0
  0
LINE
  5
16BE9
  8
0
 62
     0
 10
6.3117131865605112
 20
35.866869022956017
 30
0.0
 11
6.3117131865605112
 21
35.866869022956017
 31
0.0
  0
LINE
  5
16BEA
  8
0
 62
     0
 10
2.8616833579519252
 20
35.412663979268679
 30
0.0
 11
2.8616833579519252
 21
35.412663979268679
 31
0.0
  0
LINE
  5
16BEB
  8
0
 62
     0
 10
0.7967020006825532
 20
35.140804026112761
 30
0.0
 11
0.7967020006825532
 21
35.140804026112761
 31
0.0
  0
LINE
  5
16BEC
  8
0
 62
     0
 10
7.3569161893318897
 20
42.580914984952237
 30
0.0
 11
7.3569161893318897
 21
42.580914984952237
 31
0.0
  0
LINE
  5
16BED
  8
0
 62
     0
 10
5.2919348320625179
 20
42.309055031796319
 30
0.0
 11
5.2919348320625179
 21
42.309055031796319
 31
0.0
  0
LINE
  5
16BEE
  8
0
 62
     0
 10
3.969843109420542
 20
42.134998354470881
 30
0.0
 11
3.969843109420542
 21
42.134998354470881
 31
0.0
  0
LINE
  5
16BEF
  8
0
 62
     0
 10
0.5198132808119568
 20
41.680793310783542
 30
0.0
 11
0.5198132808119568
 21
41.680793310783542
 31
0.0
  0
LINE
  5
16BF0
  8
0
 62
     0
 10
6.4354054388360371
 20
-59.471602609558943
 30
0.0
 11
6.4354054388360371
 21
-59.471602609558943
 31
0.0
  0
LINE
  5
16BF1
  8
0
 62
     0
 10
6.275402309237827
 20
-54.577470236265448
 30
0.0
 11
6.275402309237827
 21
-54.577470236265448
 31
0.0
  0
LINE
  5
16BF2
  8
0
 62
     0
 10
3.0008363971857528
 20
-57.09013303449894
 30
0.0
 11
3.0008363971857528
 21
-57.09013303449894
 31
0.0
  0
LINE
  5
16BF3
  8
0
 62
     0
 10
6.1153991796394154
 20
-49.683337862972039
 30
0.0
 11
6.1153991796394154
 21
-49.683337862972039
 31
0.0
  0
LINE
  5
16BF4
  8
0
 62
     0
 10
2.840833267587342
 20
-52.196000661205531
 30
0.0
 11
2.840833267587342
 21
-52.196000661205531
 31
0.0
  0
LINE
  5
16BF5
  8
0
 62
     0
 10
5.9553960500409788
 20
-44.789205489678679
 30
0.0
 11
5.9553960500409788
 21
-44.789205489678679
 31
0.0
  0
LINE
  5
16BF6
  8
0
 62
     0
 10
2.6808301379889059
 20
-47.301868287912171
 30
0.0
 11
2.6808301379889059
 21
-47.301868287912171
 31
0.0
  0
LINE
  5
16BF7
  8
0
 62
     0
 10
8.8583714966390943
 20
-37.544766991268268
 30
0.0
 11
8.8583714966390943
 21
-37.544766991268268
 31
0.0
  0
LINE
  5
16BF8
  8
0
 62
     0
 10
5.7953929204426924
 20
-39.895073116385142
 30
0.0
 11
5.7953929204426924
 21
-39.895073116385142
 31
0.0
  0
LINE
  5
16BF9
  8
0
 62
     0
 10
2.520827008390619
 20
-42.40773591461862
 30
0.0
 11
2.520827008390619
 21
-42.40773591461862
 31
0.0
  0
LINE
  5
16BFA
  8
0
 62
     0
 10
8.6983683670406258
 20
-32.650634617974859
 30
0.0
 11
8.6983683670406258
 21
-32.650634617974859
 31
0.0
  0
LINE
  5
16BFB
  8
0
 62
     0
 10
5.635389790844223
 20
-35.000940743091732
 30
0.0
 11
5.635389790844223
 21
-35.000940743091732
 31
0.0
  0
LINE
  5
16BFC
  8
0
 62
     0
 10
2.3608238787921501
 20
-37.513603541325217
 30
0.0
 11
2.3608238787921501
 21
-37.513603541325217
 31
0.0
  0
LINE
  5
16BFD
  8
0
 62
     0
 10
8.5383652374421573
 20
-27.756502244681499
 30
0.0
 11
8.5383652374421573
 21
-27.756502244681499
 31
0.0
  0
LINE
  5
16BFE
  8
0
 62
     0
 10
5.4753866612457553
 20
-30.106808369798369
 30
0.0
 11
5.4753866612457553
 21
-30.106808369798369
 31
0.0
  0
LINE
  5
16BFF
  8
0
 62
     0
 10
2.2008207491936811
 20
-32.619471168031872
 30
0.0
 11
2.2008207491936811
 21
-32.619471168031872
 31
0.0
  0
LINE
  5
16C00
  8
0
 62
     0
 10
8.3783621078436887
 20
-22.862369871388101
 30
0.0
 11
8.3783621078436887
 21
-22.862369871388101
 31
0.0
  0
LINE
  5
16C01
  8
0
 62
     0
 10
5.3153835316472859
 20
-25.21267599650497
 30
0.0
 11
5.3153835316472859
 21
-25.21267599650497
 31
0.0
  0
LINE
  5
16C02
  8
0
 62
     0
 10
2.040817619595213
 20
-27.725338794738459
 30
0.0
 11
2.040817619595213
 21
-27.725338794738459
 31
0.0
  0
LINE
  5
16C03
  8
0
 62
     0
 10
8.2183589782453996
 20
-17.968237498094609
 30
0.0
 11
8.2183589782453996
 21
-17.968237498094609
 31
0.0
  0
LINE
  5
16C04
  8
0
 62
     0
 10
5.1553804020489977
 20
-20.318543623211479
 30
0.0
 11
5.1553804020489977
 21
-20.318543623211479
 31
0.0
  0
LINE
  5
16C05
  8
0
 62
     0
 10
1.880814489996925
 20
-22.831206421444971
 30
0.0
 11
1.880814489996925
 21
-22.831206421444971
 31
0.0
  0
LINE
  5
16C06
  8
0
 62
     0
 10
8.0583558486470217
 20
-13.074105124801131
 30
0.0
 11
8.0583558486470217
 21
-13.074105124801131
 31
0.0
  0
LINE
  5
16C07
  8
0
 62
     0
 10
4.9953772724506189
 20
-15.424411249918
 30
0.0
 11
4.9953772724506189
 21
-15.424411249918
 31
0.0
  0
LINE
  5
16C08
  8
0
 62
     0
 10
1.720811360398546
 20
-17.937074048151491
 30
0.0
 11
1.720811360398546
 21
-17.937074048151491
 31
0.0
  0
LINE
  5
16C09
  8
0
 62
     0
 10
4.835374142852241
 20
-10.53027887662458
 30
0.0
 11
4.835374142852241
 21
-10.53027887662458
 31
0.0
  0
LINE
  5
16C0A
  8
0
 62
     0
 10
1.5608082308001681
 20
-13.04294167485808
 30
0.0
 11
1.5608082308001681
 21
-13.04294167485808
 31
0.0
  0
LINE
  5
16C0B
  8
0
 62
     0
 10
4.6753710132538711
 20
-5.6361465033311111
 30
0.0
 11
4.6753710132538711
 21
-5.6361465033311111
 31
0.0
  0
LINE
  5
16C0C
  8
0
 62
     0
 10
7.7383495894502312
 20
-3.2858403782142722
 30
0.0
 11
7.7383495894502312
 21
-3.2858403782142722
 31
0.0
  0
LINE
  5
16C0D
  8
0
 62
     0
 10
7.5783464598517973
 20
1.608291995079111
 30
0.0
 11
7.5783464598517973
 21
1.608291995079111
 31
0.0
  0
LINE
  5
16C0E
  8
0
 62
     0
 10
4.5153678836553954
 20
-0.7420141300377581
 30
0.0
 11
4.5153678836553954
 21
-0.7420141300377581
 31
0.0
  0
LINE
  5
16C0F
  8
0
 62
     0
 10
1.240801971603321
 20
-3.2546769282712522
 30
0.0
 11
1.240801971603321
 21
-3.2546769282712522
 31
0.0
  0
LINE
  5
16C10
  8
0
 62
     0
 10
4.3553647540568701
 20
4.1521182432556483
 30
0.0
 11
4.3553647540568701
 21
4.1521182432556483
 31
0.0
  0
LINE
  5
16C11
  8
0
 62
     0
 10
1.080798842004796
 20
1.6394554450221539
 30
0.0
 11
1.080798842004796
 21
1.6394554450221539
 31
0.0
  0
LINE
  5
16C12
  8
0
 62
     0
 10
7.2583402006548212
 20
11.39655674166589
 30
0.0
 11
7.2583402006548212
 21
11.39655674166589
 31
0.0
  0
LINE
  5
16C13
  8
0
 62
     0
 10
4.1953616244584193
 20
9.0462506165490275
 30
0.0
 11
4.1953616244584193
 21
9.0462506165490275
 31
0.0
  0
LINE
  5
16C14
  8
0
 62
     0
 10
7.0983370710565712
 20
16.290689114959349
 30
0.0
 11
7.0983370710565712
 21
16.290689114959349
 31
0.0
  0
LINE
  5
16C15
  8
0
 62
     0
 10
4.0353584948601702
 20
13.94038298984249
 30
0.0
 11
4.0353584948601702
 21
13.94038298984249
 31
0.0
  0
LINE
  5
16C16
  8
0
 62
     0
 10
0.7607925828080968
 20
11.427720191608991
 30
0.0
 11
0.7607925828080968
 21
11.427720191608991
 31
0.0
  0
LINE
  5
16C17
  8
0
 62
     0
 10
6.9383339414581933
 20
21.18482148825278
 30
0.0
 11
6.9383339414581933
 21
21.18482148825278
 31
0.0
  0
LINE
  5
16C18
  8
0
 62
     0
 10
3.8753553652617909
 20
18.83451536313591
 30
0.0
 11
3.8753553652617909
 21
18.83451536313591
 31
0.0
  0
LINE
  5
16C19
  8
0
 62
     0
 10
0.6007894532097184
 20
16.321852564902411
 30
0.0
 11
0.6007894532097184
 21
16.321852564902411
 31
0.0
  0
LINE
  5
16C1A
  8
0
 62
     0
 10
6.7783308118597239
 20
26.078953861546189
 30
0.0
 11
6.7783308118597239
 21
26.078953861546189
 31
0.0
  0
LINE
  5
16C1B
  8
0
 62
     0
 10
3.7153522356633228
 20
23.728647736429309
 30
0.0
 11
3.7153522356633228
 21
23.728647736429309
 31
0.0
  0
LINE
  5
16C1C
  8
0
 62
     0
 10
0.4407863236112499
 20
21.21598493819582
 30
0.0
 11
0.4407863236112499
 21
21.21598493819582
 31
0.0
  0
LINE
  5
16C1D
  8
0
 62
     0
 10
6.6183276822614934
 20
30.97308623483967
 30
0.0
 11
6.6183276822614934
 21
30.97308623483967
 31
0.0
  0
LINE
  5
16C1E
  8
0
 62
     0
 10
3.555349106065091
 20
28.6227801097228
 30
0.0
 11
3.555349106065091
 21
28.6227801097228
 31
0.0
  0
LINE
  5
16C1F
  8
0
 62
     0
 10
0.2807831940130185
 20
26.110117311489311
 30
0.0
 11
0.2807831940130185
 21
26.110117311489311
 31
0.0
  0
LINE
  5
16C20
  8
0
 62
     0
 10
6.458324552662968
 20
35.867218608133022
 30
0.0
 11
6.458324552662968
 21
35.867218608133022
 31
0.0
  0
LINE
  5
16C21
  8
0
 62
     0
 10
3.3953459764665661
 20
33.516912483016149
 30
0.0
 11
3.3953459764665661
 21
33.516912483016149
 31
0.0
  0
LINE
  5
16C22
  8
0
 62
     0
 10
0.1207800644144936
 20
31.004249684782661
 30
0.0
 11
0.1207800644144936
 21
31.004249684782661
 31
0.0
  0
LINE
  5
16C23
  8
0
 62
     0
 10
6.2983214230645901
 20
40.761350981426489
 30
0.0
 11
6.2983214230645901
 21
40.761350981426489
 31
0.0
  0
LINE
  5
16C24
  8
0
 62
     0
 10
3.2353428468681882
 20
38.41104485630963
 30
0.0
 11
3.2353428468681882
 21
38.41104485630963
 31
0.0
  0
LINE
  5
16C25
  8
0
 62
     0
 10
3.0753397172696291
 20
43.305177229602961
 30
0.0
 11
3.0753397172696291
 21
43.305177229602961
 31
0.0
  0
ENDBLK
  5
16C27
  8
0
  0
BLOCK
  8
0
  2
*U71
 70
     1
 10
0.0
 20
0.0
 30
0.0
  3
*U71
  1

  0
INSERT
  5
16C29
  8
1DIM
  2
_OPEN30
 10
13.168864624287609
 20
36.962675873603018
 30
0.0
 41
2.0
 42
2.0
 43
2.0
 50
313.14282340584191
  0
POLYLINE
  5
16C2A
  8
1DIM
 66
     1
 10
0.0
 20
0.0
 30
0.0
  0
VERTEX
  5
16C2B
  8
1DIM
 10
11.8012259983783
 20
38.42197864853388
 30
0.0
  0
VERTEX
  5
16C2C
  8
1DIM
 10
-2.0871988093631928
 20
53.241256546509689
 30
0.0
  0
VERTEX
  5
16C2D
  8
1DIM
 10
-33.987198809363193
 20
53.241256546509689
 30
0.0
  0
SEQEND
  5
16C2E
  8
1DIM
  0
ENDBLK
  5
16C30
  8
0
  0
BLOCK
  8
0
  2
*U72
 70
     1
 10
0.0
 20
0.0
 30
0.0
  3
*U72
  1

  0
TEXT
  5
16C32
  8
1DIM
 62
   201
 10
-31.153865476029861
 20
53.941256546509692
 30
0.0
 40
3.5
  1
裏板9mm以上
  0
ENDBLK
  5
16C34
  8
0
  0
BLOCK
  8
0
  2
*U73
 70
     1
 10
0.0
 20
0.0
 30
0.0
  3
*U73
  1

  0
LINE
  5
16C36
  8
0
 10
-29.999999999837598
 20
0.0000465358979227
 30
0.0
 11
-24.700003489975941
 21
-1.4999534641020771
 31
0.0
  0
LINE
  5
16C37
  8
0
 10
-24.700003489975941
 20
-1.4999534641020771
 30
0.0
 11
-0.0000034900840618
 21
-1.499953464101849
 31
0.0
  0
LINE
  5
16C38
  8
0
 10
-29.999999999837598
 20
0.0000465358979227
 30
0.0
 11
-24.6999965095923
 21
1.5000465358980359
 31
0.0
  0
LINE
  5
16C39
  8
0
 10
-0.0000081437821464
 20
-3.4999999999998859
 30
0.0
 11
-0.0000034900840618
 21
-1.499953464101849
 31
0.0
  0
LINE
  5
16C3A
  8
0
 10
-24.6999965095923
 20
1.5000465358980359
 30
0.0
 11
0.0000034903006139
 21
1.500046535897922
 31
0.0
  0
LINE
  5
16C3B
  8
0
 10
-0.0000081437821464
 20
-3.4999999999998859
 30
0.0
 11
1.0999953464131731
 21
-3.5
 31
0.0
  0
LINE
  5
16C3C
  8
0
 10
0.0000034903006139
 20
1.500046535897922
 30
0.0
 11
0.0000081437821322
 21
3.5
 31
0.0
  0
ARC
  5
16C3D
  8
0
 10
1.0999953464131731
 20
-2.0
 30
0.0
 40
1.5
 50
270.0
 51
359.99986668447059
  0
LINE
  5
16C3E
  8
0
 10
0.0000081437821322
 20
3.5
 30
0.0
 11
1.100004653592769
 21
3.5
 31
0.0
  0
LINE
  5
16C3F
  8
0
 10
2.5999953464091159
 20
-2.0000034901923982
 30
0.0
 11
2.6000046535887051
 21
1.9999965098076009
 31
0.0
  0
ARC
  5
16C40
  8
0
 10
1.100004653592769
 20
2.0
 30
0.0
 40
1.5
 50
359.99986668447059
 51
90.0
  0
ENDBLK
  5
16C42
  8
0
  0
BLOCK
  8
0
  2
*U74
 70
     1
 10
0.0
 20
0.0
 30
0.0
  3
*U74
  1

  0
LINE
  5
16C44
  8
0
 10
-9.6499999999999773
 20
2.0
 30
0.0
 11
-0.0000000000000284
 21
2.0
 31
0.0
  0
LINE
  5
16C45
  8
0
 10
-9.6499999999999773
 20
2.0
 30
0.0
 11
-10.0
 21
1.649999999999977
 31
0.0
  0
LINE
  5
16C46
  8
0
 10
0.0
 20
3.4999999999999432
 30
0.0
 11
-0.0000000000000284
 21
2.0
 31
0.0
  0
LINE
  5
16C47
  8
0
 10
-10.0
 20
1.649999999999977
 30
0.0
 11
-10.0
 21
-1.6499999999998629
 31
0.0
  0
LINE
  5
16C48
  8
0
 10
0.0
 20
3.4999999999999432
 30
0.0
 11
0.5999999999999375
 21
3.4999999999999432
 31
0.0
  0
LINE
  5
16C49
  8
0
 10
-10.0
 20
-1.6499999999998629
 30
0.0
 11
-9.6499999999999773
 21
-2.0
 31
0.0
  0
ARC
  5
16C4A
  8
0
 10
0.5999999999999944
 20
1.4999999999999429
 30
0.0
 40
2.0
 50
0.0
 51
90.000000000001606
  0
LINE
  5
16C4B
  8
0
 10
-9.6499999999999773
 20
-2.0
 30
0.0
 11
0.0000000000000568
 21
-2.0
 31
0.0
  0
LINE
  5
16C4C
  8
0
 10
2.5999999999999939
 20
1.4999999999999429
 30
0.0
 11
2.5999999999999939
 21
-1.5
 31
0.0
  0
LINE
  5
16C4D
  8
0
 10
0.0000000000000568
 20
-2.0
 30
0.0
 11
0.0
 21
-3.5
 31
0.0
  0
ARC
  5
16C4E
  8
0
 10
0.5999999999999944
 20
-1.5
 30
0.0
 40
2.0
 50
270.0
 51
0.0
  0
LINE
  5
16C4F
  8
0
 10
0.0
 20
-3.5
 30
0.0
 11
0.5999999999999944
 21
-3.5
 31
0.0
  0
ENDBLK
  5
16C51
  8
0
  0
BLOCK
  8
0
  2
*U75
 70
     1
 10
0.0
 20
0.0
 30
0.0
  3
*U75
  1

  0
LINE
  5
16C77
  8
0
 10
-24.650013959859319
 20
-1.9997699899806769
 30
0.0
 11
-2.3000325751651469
 21
-1.999978593270384
 31
0.0
  0
LINE
  5
16C78
  8
0
 10
-0.3000279215265778
 20
-3.9999972077595198
 30
0.0
 11
-2.3000325751651469
 21
-1.999978593270384
 31
0.0
  0
LINE
  5
16C79
  8
0
 10
-25.000011516714508
 20
-1.649767320475461
 30
0.0
 11
-24.650013959859319
 21
-1.9997699899806769
 31
0.0
  0
LINE
  5
16C7A
  8
0
 10
-0.3000279215265778
 20
-3.9999972077595198
 30
0.0
 11
-0.0000279215387877
 21
-3.9999999999133702
 31
0.0
  0
LINE
  5
16C7B
  8
0
 10
-24.999988481445051
 20
1.650232679454916
 30
0.0
 11
-25.000011516714508
 21
-1.649767320475461
 31
0.0
  0
LINE
  5
16C7C
  8
0
 10
0.0000279215387877
 20
3.9999999999134839
 30
0.0
 11
-0.0000279215387877
 21
-3.9999999999133702
 31
0.0
  0
LINE
  5
16C7D
  8
0
 10
-24.999988481445051
 20
1.650232679454916
 30
0.0
 11
-24.649986038320591
 21
2.0002300099321242
 31
0.0
  0
LINE
  5
16C7E
  8
0
 10
-0.299972078449116
 20
4.0000027920673338
 30
0.0
 11
0.0000279215387877
 21
3.9999999999134839
 31
0.0
  0
LINE
  5
16C7F
  8
0
 10
-24.649986038320591
 20
2.0002300099321242
 30
0.0
 11
-2.299976732000899
 21
2.0000214063830981
 31
0.0
  0
LINE
  5
16C80
  8
0
 10
-0.299972078449116
 20
4.0000027920673338
 30
0.0
 11
-2.299976732000899
 21
2.0000214063830981
 31
0.0
  0
ENDBLK
  5
16C82
  8
0
  0
BLOCK
  8
0
  2
*X76
 70
     1
 10
0.0
 20
0.0
 30
0.0
  3
*X76
  1

  0
LINE
  5
16C84
  8
0
 62
     0
 10
16.671990294007681
 20
-61.391691274362131
 30
0.0
 11
18.0
 21
-60.063681568369759
 31
0.0
  0
LINE
  5
16C85
  8
0
 62
     0
 10
14.42692626374037
 20
-61.391691274362131
 30
0.0
 11
17.99999999999994
 21
-57.818617538102501
 31
0.0
  0
LINE
  5
16C86
  8
0
 62
     0
 10
12.18186223347311
 20
-61.391691274362131
 30
0.0
 11
18.0
 21
-55.573553507835179
 31
0.0
  0
LINE
  5
16C87
  8
0
 62
     0
 10
9.9367982032057398
 20
-61.391691274362181
 30
0.0
 11
18.0
 21
-53.328489477567928
 31
0.0
  0
LINE
  5
16C88
  8
0
 62
     0
 10
9.0000000000001137
 20
-60.083425447300549
 30
0.0
 11
18.0
 21
-51.083425447300669
 31
0.0
  0
LINE
  5
16C89
  8
0
 62
     0
 10
9.0000000000000568
 20
-57.83836141703329
 30
0.0
 11
17.99999999999994
 21
-48.838361417033411
 31
0.0
  0
LINE
  5
16C8A
  8
0
 62
     0
 10
9.0000000000000568
 20
-55.593297386765919
 30
0.0
 11
17.99999999999994
 21
-46.593297386766032
 31
0.0
  0
LINE
  5
16C8B
  8
0
 62
     0
 10
9.0000000000000568
 20
-53.348233356498667
 30
0.0
 11
17.99999999999994
 21
-44.348233356498781
 31
0.0
  0
LINE
  5
16C8C
  8
0
 62
     0
 10
9.0000000000000568
 20
-51.103169326231409
 30
0.0
 11
18.00000000000006
 21
-42.103169326231459
 31
0.0
  0
LINE
  5
16C8D
  8
0
 62
     0
 10
9.0000000000000568
 20
-48.858105295964087
 30
0.0
 11
18.0
 21
-39.858105295964208
 31
0.0
  0
LINE
  5
16C8E
  8
0
 62
     0
 10
9.0000000000000568
 20
-46.613041265696722
 30
0.0
 11
18.0
 21
-37.613041265696843
 31
0.0
  0
LINE
  5
16C8F
  8
0
 62
     0
 10
9.0000000000000568
 20
-44.367977235429457
 30
0.0
 11
18.0
 21
-35.367977235429578
 31
0.0
  0
LINE
  5
16C90
  8
0
 62
     0
 10
9.0000000000000568
 20
-42.122913205162213
 30
0.0
 11
18.0
 21
-33.12291320516232
 31
0.0
  0
LINE
  5
16C91
  8
0
 62
     0
 10
9.0
 20
-39.877849174894948
 30
0.0
 11
17.99999999999994
 21
-30.877849174895061
 31
0.0
  0
LINE
  5
16C92
  8
0
 62
     0
 10
9.0
 20
-37.63278514462769
 30
0.0
 11
18.0
 21
-28.63278514462769
 31
0.0
  0
LINE
  5
16C93
  8
0
 62
     0
 10
9.0
 20
-35.387721114360431
 30
0.0
 11
18.0
 21
-26.387721114360431
 31
0.0
  0
LINE
  5
16C94
  8
0
 62
     0
 10
8.9999999999999432
 20
-33.14265708409318
 30
0.0
 11
17.99999999999994
 21
-24.14265708409317
 31
0.0
  0
LINE
  5
16C95
  8
0
 62
     0
 10
8.9999999999999432
 20
-30.897593053825918
 30
0.0
 11
17.99999999999994
 21
-21.897593053825918
 31
0.0
  0
LINE
  5
16C96
  8
0
 62
     0
 10
8.9999999999999432
 20
-28.65252902355866
 30
0.0
 11
17.99999999999994
 21
-19.65252902355866
 31
0.0
  0
LINE
  5
16C97
  8
0
 62
     0
 10
8.9999999999999432
 20
-26.407464993291399
 30
0.0
 11
18.0
 21
-17.407464993291342
 31
0.0
  0
LINE
  5
16C98
  8
0
 62
     0
 10
9.0
 20
-24.16240096302403
 30
0.0
 11
17.99999999999994
 21
-15.16240096302403
 31
0.0
  0
LINE
  5
16C99
  8
0
 62
     0
 10
8.9999999999999432
 20
-21.917336932756712
 30
0.0
 11
17.99999999999994
 21
-12.91733693275671
 31
0.0
  0
LINE
  5
16C9A
  8
0
 62
     0
 10
8.9999999999999432
 20
-19.67227290248945
 30
0.0
 11
17.99999999999994
 21
-10.67227290248945
 31
0.0
  0
LINE
  5
16C9B
  8
0
 62
     0
 10
8.9999999999999432
 20
-17.427208872222192
 30
0.0
 11
15.821190608570189
 21
-10.606018263652
 31
0.0
  0
LINE
  5
16C9C
  8
0
 62
     0
 10
16.78433035397688
 20
-7.3978144879779393
 30
0.0
 11
18.0
 21
-6.1821448419548801
 31
0.0
  0
LINE
  5
16C9D
  8
0
 62
     0
 10
8.9999999999998863
 20
-15.182144841954941
 30
0.0
 11
13.682098306056441
 21
-10.500046535898431
 31
0.0
  0
LINE
  5
16C9E
  8
0
 62
     0
 10
11.14073620626419
 20
-10.796344605423309
 30
0.0
 11
11.437034275789189
 21
-10.50004653589837
 31
0.0
  0
LINE
  5
16C9F
  8
0
 62
     0
 10
14.437034275789189
 20
-7.5000465358983197
 30
0.0
 11
18.00000000000006
 21
-3.9370808116874509
 31
0.0
  0
LINE
  5
16CA0
  8
0
 62
     0
 10
8.9999999999998863
 20
-12.93708081168762
 30
0.0
 11
11.072835431113271
 21
-10.86424538057423
 31
0.0
  0
LINE
  5
16CA1
  8
0
 62
     0
 10
12.191970245521761
 20
-7.5000465358984911
 30
0.0
 11
18.00000000000006
 21
-1.692016781420193
 31
0.0
  0
LINE
  5
16CA2
  8
0
 62
     0
 10
9.0
 20
-10.69201678142031
 30
0.0
 11
9.1919702455219294
 21
-10.50004653589837
 31
0.0
  0
LINE
  5
16CA3
  8
0
 62
     0
 10
10.32448800965261
 20
-7.1224647415003801
 30
0.0
 11
18.00000000000006
 21
0.5530472488470651
 31
0.0
  0
LINE
  5
16CA4
  8
0
 62
     0
 10
9.9469062152545007
 20
-7.5000465358984911
 30
0.0
 11
10.26327872882478
 21
-7.1836740223282041
 31
0.0
  0
LINE
  5
16CA5
  8
0
 62
     0
 10
8.9999999999999432
 20
-6.2018887208857896
 30
0.0
 11
18.0
 21
2.7981112791143228
 31
0.0
  0
LINE
  5
16CA6
  8
0
 62
     0
 10
8.9999999999999432
 20
-3.956824690618475
 30
0.0
 11
18.00000000000006
 21
5.0431753093816951
 31
0.0
  0
LINE
  5
16CA7
  8
0
 62
     0
 10
8.9999999999999432
 20
-1.711760660351217
 30
0.0
 11
18.00000000000006
 21
7.2882393396489533
 31
0.0
  0
LINE
  5
16CA8
  8
0
 62
     0
 10
8.9999999999999432
 20
0.533303369916041
 30
0.0
 11
15.827771837741579
 21
7.3610752076577342
 31
0.0
  0
LINE
  5
16CA9
  8
0
 62
     0
 10
16.79123737884305
 20
10.56960477902652
 30
0.0
 11
18.0
 21
11.778367400183519
 31
0.0
  0
LINE
  5
16CAA
  8
0
 62
     0
 10
8.9999999999999432
 20
2.7783674001834688
 30
0.0
 11
13.721586063918149
 21
7.4999534641016794
 31
0.0
  0
LINE
  5
16CAB
  8
0
 62
     0
 10
11.13086412323616
 20
7.154295553686949
 30
0.0
 11
11.47652203365084
 21
7.4999534641015648
 31
0.0
  0
LINE
  5
16CAC
  8
0
 62
     0
 10
14.47652203365084
 20
10.499953464101621
 30
0.0
 11
18.00000000000011
 21
14.02343143045084
 31
0.0
  0
LINE
  5
16CAD
  8
0
 62
     0
 10
8.9999999999999432
 20
5.023431430450727
 30
0.0
 11
11.079416660284719
 21
7.102848090735506
 31
0.0
  0
LINE
  5
16CAE
  8
0
 62
     0
 10
12.231458003383411
 20
10.49995346410145
 30
0.0
 11
18.00000000000006
 21
16.26849546071816
 31
0.0
  0
LINE
  5
16CAF
  8
0
 62
     0
 10
8.9999999999999432
 20
7.2684954607179861
 30
0.0
 11
9.2314580033835796
 21
7.4999534641015648
 31
0.0
  0
LINE
  5
16CB0
  8
0
 62
     0
 10
10.33106923882394
 20
10.844628729809241
 30
0.0
 11
18.00000000000006
 21
18.513559490985411
 31
0.0
  0
LINE
  5
16CB1
  8
0
 62
     0
 10
9.9863939731161508
 20
10.49995346410145
 30
0.0
 11
10.25340664579676
 21
10.766966136782059
 31
0.0
  0
LINE
  5
16CB2
  8
0
 62
     0
 10
9.0000000000000568
 20
11.75862352125273
 30
0.0
 11
18.0
 21
20.75862352125273
 31
0.0
  0
LINE
  5
16CB3
  8
0
 62
     0
 10
9.0000000000001137
 20
14.00368755152004
 30
0.0
 11
18.0
 21
23.003687551519992
 31
0.0
  0
LINE
  5
16CB4
  8
0
 62
     0
 10
9.0000000000001137
 20
16.2487515817873
 30
0.0
 11
18.00000000000011
 21
25.24875158178725
 31
0.0
  0
LINE
  5
16CB5
  8
0
 62
     0
 10
9.0000000000000568
 20
18.493815612054561
 30
0.0
 11
18.00000000000006
 21
27.493815612054512
 31
0.0
  0
LINE
  5
16CB6
  8
0
 62
     0
 10
9.0000000000000568
 20
20.73887964232188
 30
0.0
 11
18.00000000000006
 21
29.73887964232182
 31
0.0
  0
LINE
  5
16CB7
  8
0
 62
     0
 10
9.0000000000000568
 20
22.983943672589131
 30
0.0
 11
18.00000000000006
 21
31.983943672589081
 31
0.0
  0
LINE
  5
16CB8
  8
0
 62
     0
 10
9.0000000000001705
 20
25.22900770285645
 30
0.0
 11
18.00000000000006
 21
34.229007702856343
 31
0.0
  0
LINE
  5
16CB9
  8
0
 62
     0
 10
9.0000000000001137
 20
27.474071733123711
 30
0.0
 11
18.00000000000011
 21
36.474071733123708
 31
0.0
  0
LINE
  5
16CBA
  8
0
 62
     0
 10
9.0000000000001137
 20
29.71913576339103
 30
0.0
 11
18.00000000000011
 21
38.719135763391023
 31
0.0
  0
LINE
  5
16CBB
  8
0
 62
     0
 10
9.0000000000001137
 20
31.964199793658281
 30
0.0
 11
18.00000000000011
 21
40.964199793658281
 31
0.0
  0
LINE
  5
16CBC
  8
0
 62
     0
 10
9.0000000000001137
 20
34.209263823925539
 30
0.0
 11
18.00000000000011
 21
43.209263823925539
 31
0.0
  0
LINE
  5
16CBD
  8
0
 62
     0
 10
9.0000000000000568
 20
36.454327854192968
 30
0.0
 11
17.245208523150438
 21
44.699536377343229
 31
0.0
  0
LINE
  5
16CBE
  8
0
 62
     0
 10
9.0000000000000568
 20
38.699391884460113
 30
0.0
 11
15.00014449288318
 21
44.699536377343229
 31
0.0
  0
LINE
  5
16CBF
  8
0
 62
     0
 10
9.0000000000000568
 20
40.944455914727477
 30
0.0
 11
12.75508046261592
 21
44.699536377343229
 31
0.0
  0
LINE
  5
16CC0
  8
0
 62
     0
 10
9.0000000000001137
 20
43.189519944994743
 30
0.0
 11
10.510016432348721
 21
44.699536377343229
 31
0.0
  0
ENDBLK
  5
16CC2
  8
0
  0
BLOCK
  8
0
  2
*X77
 70
     1
 10
0.0
 20
0.0
 30
0.0
  3
*X77
  1

  0
LINE
  5
16CC4
  8
0
 62
     0
 10
4.719668856187476
 20
-60.905108537765202
 30
0.0
 11
4.719668856187476
 21
-60.905108537765202
 31
0.0
  0
LINE
  5
16CC5
  8
0
 62
     0
 10
2.5099012223001722
 20
-58.880229567499541
 30
0.0
 11
2.5099012223001722
 21
-58.880229567499541
 31
0.0
  0
LINE
  5
16CC6
  8
0
 62
     0
 10
2.0417301134257442
 20
-58.4512297856636
 30
0.0
 11
2.0417301134257442
 21
-58.4512297856636
 31
0.0
  0
LINE
  5
16CC7
  8
0
 62
     0
 10
7.1491706502268144
 20
-53.905337731177347
 30
0.0
 11
7.1491706502268144
 21
-53.905337731177347
 31
0.0
  0
LINE
  5
16CC8
  8
0
 62
     0
 10
4.9394030163395106
 20
-51.880458760911701
 30
0.0
 11
4.9394030163395106
 21
-51.880458760911701
 31
0.0
  0
LINE
  5
16CC9
  8
0
 62
     0
 10
4.471231907465083
 20
-51.451458979075753
 30
0.0
 11
4.471231907465083
 21
-51.451458979075753
 31
0.0
  0
LINE
  5
16CCA
  8
0
 62
     0
 10
1.943107919543168
 20
-49.134860157161647
 30
0.0
 11
1.943107919543168
 21
-49.134860157161647
 31
0.0
  0
LINE
  5
16CCB
  8
0
 62
     0
 10
7.3689048103787469
 20
-44.880687954323847
 30
0.0
 11
7.3689048103787469
 21
-44.880687954323847
 31
0.0
  0
LINE
  5
16CCC
  8
0
 62
     0
 10
6.9007337015043193
 20
-44.451688172487913
 30
0.0
 11
6.9007337015043193
 21
-44.451688172487913
 31
0.0
  0
LINE
  5
16CCD
  8
0
 62
     0
 10
4.3726097135824036
 20
-42.135089350573821
 30
0.0
 11
4.3726097135824036
 21
-42.135089350573821
 31
0.0
  0
LINE
  5
16CCE
  8
0
 62
     0
 10
2.1628420796950998
 20
-40.11021038030816
 30
0.0
 11
2.1628420796950998
 21
-40.11021038030816
 31
0.0
  0
LINE
  5
16CCF
  8
0
 62
     0
 10
1.694670970820672
 20
-39.681210598472219
 30
0.0
 11
1.694670970820672
 21
-39.681210598472219
 31
0.0
  0
LINE
  5
16CD0
  8
0
 62
     0
 10
6.8021115076217677
 20
-35.135318543985953
 30
0.0
 11
6.8021115076217677
 21
-35.135318543985953
 31
0.0
  0
LINE
  5
16CD1
  8
0
 62
     0
 10
4.592343873734464
 20
-33.110439573720278
 30
0.0
 11
4.592343873734464
 21
-33.110439573720278
 31
0.0
  0
LINE
  5
16CD2
  8
0
 62
     0
 10
4.1241727648600364
 20
-32.681439791884351
 30
0.0
 11
4.1241727648600364
 21
-32.681439791884351
 31
0.0
  0
LINE
  5
16CD3
  8
0
 62
     0
 10
1.5960487769381211
 20
-30.364840969970238
 30
0.0
 11
1.5960487769381211
 21
-30.364840969970238
 31
0.0
  0
LINE
  5
16CD4
  8
0
 62
     0
 10
7.0218456677738237
 20
-26.110668767132399
 30
0.0
 11
7.0218456677738237
 21
-26.110668767132399
 31
0.0
  0
LINE
  5
16CD5
  8
0
 62
     0
 10
6.5536745588993961
 20
-25.681668985296461
 30
0.0
 11
6.5536745588993961
 21
-25.681668985296461
 31
0.0
  0
LINE
  5
16CD6
  8
0
 62
     0
 10
4.0255505709774813
 20
-23.365070163382359
 30
0.0
 11
4.0255505709774813
 21
-23.365070163382359
 31
0.0
  0
LINE
  5
16CD7
  8
0
 62
     0
 10
1.8157829370901779
 20
-21.340191193116699
 30
0.0
 11
1.8157829370901779
 21
-21.340191193116699
 31
0.0
  0
LINE
  5
16CD8
  8
0
 62
     0
 10
1.347611828215749
 20
-20.911191411280761
 30
0.0
 11
1.347611828215749
 21
-20.911191411280761
 31
0.0
  0
LINE
  5
16CD9
  8
0
 62
     0
 10
8.9831763529386919
 20
-18.681898178708529
 30
0.0
 11
8.9831763529386919
 21
-18.681898178708529
 31
0.0
  0
LINE
  5
16CDA
  8
0
 62
     0
 10
6.4550523650167762
 20
-16.365299356794441
 30
0.0
 11
6.4550523650167762
 21
-16.365299356794441
 31
0.0
  0
LINE
  5
16CDB
  8
0
 62
     0
 10
4.2452847311294732
 20
-14.34042038652878
 30
0.0
 11
4.2452847311294732
 21
-14.34042038652878
 31
0.0
  0
LINE
  5
16CDC
  8
0
 62
     0
 10
3.7771136222550439
 20
-13.911420604692839
 30
0.0
 11
3.7771136222550439
 21
-13.911420604692839
 31
0.0
  0
LINE
  5
16CDD
  8
0
 62
     0
 10
1.248989634333129
 20
-11.59482178277873
 30
0.0
 11
1.248989634333129
 21
-11.59482178277873
 31
0.0
  0
LINE
  5
16CDE
  8
0
 62
     0
 10
6.6747865251688028
 20
-7.340649579940961
 30
0.0
 11
6.6747865251688028
 21
-7.340649579940961
 31
0.0
  0
LINE
  5
16CDF
  8
0
 62
     0
 10
6.2066154162943752
 20
-6.9116497981050173
 30
0.0
 11
6.2066154162943752
 21
-6.9116497981050173
 31
0.0
  0
LINE
  5
16CE0
  8
0
 62
     0
 10
3.6784914283724599
 20
-4.5950509761909171
 30
0.0
 11
3.6784914283724599
 21
-4.5950509761909171
 31
0.0
  0
LINE
  5
16CE1
  8
0
 62
     0
 10
1.468723794485157
 20
-2.5701720059252589
 30
0.0
 11
1.468723794485157
 21
-2.5701720059252589
 31
0.0
  0
LINE
  5
16CE2
  8
0
 62
     0
 10
1.0005526856107281
 20
-2.1411722240893152
 30
0.0
 11
1.0005526856107281
 21
-2.1411722240893152
 31
0.0
  0
LINE
  5
16CE3
  8
0
 62
     0
 10
8.6361172103337154
 20
0.0881210084828284
 30
0.0
 11
8.6361172103337154
 21
0.0881210084828284
 31
0.0
  0
LINE
  5
16CE4
  8
0
 62
     0
 10
6.1079932224118014
 20
2.4047198303969282
 30
0.0
 11
6.1079932224118014
 21
2.4047198303969282
 31
0.0
  0
LINE
  5
16CE5
  8
0
 62
     0
 10
3.8982255885244972
 20
4.4295988006625846
 30
0.0
 11
3.8982255885244972
 21
4.4295988006625846
 31
0.0
  0
LINE
  5
16CE6
  8
0
 62
     0
 10
3.4300544796500692
 20
4.85859858249853
 30
0.0
 11
3.4300544796500692
 21
4.85859858249853
 31
0.0
  0
LINE
  5
16CE7
  8
0
 62
     0
 10
0.9019304917281541
 20
7.1751974044126294
 30
0.0
 11
0.9019304917281541
 21
7.1751974044126294
 31
0.0
  0
LINE
  5
16CE8
  8
0
 62
     0
 10
6.3277273825637756
 20
11.42936960725048
 30
0.0
 11
6.3277273825637756
 21
11.42936960725048
 31
0.0
  0
LINE
  5
16CE9
  8
0
 62
     0
 10
5.8595562736893481
 20
11.85836938908642
 30
0.0
 11
5.8595562736893481
 21
11.85836938908642
 31
0.0
  0
LINE
  5
16CEA
  8
0
 62
     0
 10
3.3314322857674332
 20
14.17496821100052
 30
0.0
 11
3.3314322857674332
 21
14.17496821100052
 31
0.0
  0
LINE
  5
16CEB
  8
0
 62
     0
 10
1.121664651880129
 20
16.199847181266179
 30
0.0
 11
1.121664651880129
 21
16.199847181266179
 31
0.0
  0
LINE
  5
16CEC
  8
0
 62
     0
 10
0.6534935430057013
 20
16.628846963102131
 30
0.0
 11
0.6534935430057013
 21
16.628846963102131
 31
0.0
  0
LINE
  5
16CED
  8
0
 62
     0
 10
8.757229176603154
 20
18.429140413838351
 30
0.0
 11
8.757229176603154
 21
18.429140413838351
 31
0.0
  0
LINE
  5
16CEE
  8
0
 62
     0
 10
8.2890580677287247
 20
18.858140195674299
 30
0.0
 11
8.2890580677287247
 21
18.858140195674299
 31
0.0
  0
LINE
  5
16CEF
  8
0
 62
     0
 10
5.7609340798068081
 20
21.174739017588401
 30
0.0
 11
5.7609340798068081
 21
21.174739017588401
 31
0.0
  0
LINE
  5
16CF0
  8
0
 62
     0
 10
3.5511664459195051
 20
23.199617987854051
 30
0.0
 11
3.5511664459195051
 21
23.199617987854051
 31
0.0
  0
LINE
  5
16CF1
  8
0
 62
     0
 10
3.0829953370450758
 20
23.628617769689999
 30
0.0
 11
3.0829953370450758
 21
23.628617769689999
 31
0.0
  0
LINE
  5
16CF2
  8
0
 62
     0
 10
0.5548713491231618
 20
25.945216591604101
 30
0.0
 11
0.5548713491231618
 21
25.945216591604101
 31
0.0
  0
LINE
  5
16CF3
  8
0
 62
     0
 10
8.1904358738460896
 20
28.17450982417618
 30
0.0
 11
8.1904358738460896
 21
28.17450982417618
 31
0.0
  0
LINE
  5
16CF4
  8
0
 62
     0
 10
5.9806682399587858
 20
30.199388794441841
 30
0.0
 11
5.9806682399587858
 21
30.199388794441841
 31
0.0
  0
LINE
  5
16CF5
  8
0
 62
     0
 10
5.5124971310843582
 20
30.628388576277789
 30
0.0
 11
5.5124971310843582
 21
30.628388576277789
 31
0.0
  0
LINE
  5
16CF6
  8
0
 62
     0
 10
2.984373143162443
 20
32.944987398191877
 30
0.0
 11
2.984373143162443
 21
32.944987398191877
 31
0.0
  0
LINE
  5
16CF7
  8
0
 62
     0
 10
0.7746055092751402
 20
34.969866368457538
 30
0.0
 11
0.7746055092751402
 21
34.969866368457538
 31
0.0
  0
LINE
  5
16CF8
  8
0
 62
     0
 10
0.3064344004007115
 20
35.398866150293493
 30
0.0
 11
0.3064344004007115
 21
35.398866150293493
 31
0.0
  0
LINE
  5
16CF9
  8
0
 62
     0
 10
8.41017003399811
 20
37.199159601029763
 30
0.0
 11
8.41017003399811
 21
37.199159601029763
 31
0.0
  0
LINE
  5
16CFA
  8
0
 62
     0
 10
7.9419989251236807
 20
37.628159382865697
 30
0.0
 11
7.9419989251236807
 21
37.628159382865697
 31
0.0
  0
LINE
  5
16CFB
  8
0
 62
     0
 10
5.4138749372017658
 20
39.944758204779802
 30
0.0
 11
5.4138749372017658
 21
39.944758204779802
 31
0.0
  0
LINE
  5
16CFC
  8
0
 62
     0
 10
3.204107303314462
 20
41.969637175045463
 30
0.0
 11
3.204107303314462
 21
41.969637175045463
 31
0.0
  0
LINE
  5
16CFD
  8
0
 62
     0
 10
2.735936194440034
 20
42.398636956881397
 30
0.0
 11
2.735936194440034
 21
42.398636956881397
 31
0.0
  0
LINE
  5
16CFE
  8
0
 62
     0
 10
3.8802392881250851
 20
-61.296643484138428
 30
0.0
 11
3.8802392881250851
 21
-61.296643484138428
 31
0.0
  0
LINE
  5
16CFF
  8
0
 62
     0
 10
6.7559594504826217
 20
-58.075130275130718
 30
0.0
 11
6.7559594504826217
 21
-58.075130275130718
 31
0.0
  0
LINE
  5
16D00
  8
0
 62
     0
 10
2.8999737602261102
 20
-55.618596465769052
 30
0.0
 11
2.8999737602261102
 21
-55.618596465769052
 31
0.0
  0
LINE
  5
16D01
  8
0
 62
     0
 10
1.8288666240437459
 20
-54.936225963168582
 30
0.0
 11
1.8288666240437459
 21
-54.936225963168582
 31
0.0
  0
LINE
  5
16D02
  8
0
 62
     0
 10
4.7045867864011877
 20
-51.714712754160921
 30
0.0
 11
4.7045867864011877
 21
-51.714712754160921
 31
0.0
  0
LINE
  5
16D03
  8
0
 62
     0
 10
0.8486010961446758
 20
-49.258178944799241
 30
0.0
 11
0.8486010961446758
 21
-49.258178944799241
 31
0.0
  0
LINE
  5
16D04
  8
0
 62
     0
 10
8.7585247985592201
 20
-49.243807098013797
 30
0.0
 11
8.7585247985592201
 21
-49.243807098013797
 31
0.0
  0
LINE
  5
16D05
  8
0
 62
     0
 10
7.6874176623768546
 20
-48.561436595413333
 30
0.0
 11
7.6874176623768546
 21
-48.561436595413333
 31
0.0
  0
LINE
  5
16D06
  8
0
 62
     0
 10
2.6532141223197412
 20
-45.354295233191131
 30
0.0
 11
2.6532141223197412
 21
-45.354295233191131
 31
0.0
  0
LINE
  5
16D07
  8
0
 62
     0
 10
6.7071521344778677
 20
-42.883389577044078
 30
0.0
 11
6.7071521344778677
 21
-42.883389577044078
 31
0.0
  0
LINE
  5
16D08
  8
0
 62
     0
 10
5.6360449982955041
 20
-42.201019074443607
 30
0.0
 11
5.6360449982955041
 21
-42.201019074443607
 31
0.0
  0
LINE
  5
16D09
  8
0
 62
     0
 10
0.6018414582383905
 20
-38.993877712221433
 30
0.0
 11
0.6018414582383905
 21
-38.993877712221433
 31
0.0
  0
LINE
  5
16D0A
  8
0
 62
     0
 10
8.5117651606529581
 20
-38.97950586543589
 30
0.0
 11
8.5117651606529581
 21
-38.97950586543589
 31
0.0
  0
LINE
  5
16D0B
  8
0
 62
     0
 10
4.6557794703964452
 20
-36.522972056074209
 30
0.0
 11
4.6557794703964452
 21
-36.522972056074209
 31
0.0
  0
LINE
  5
16D0C
  8
0
 62
     0
 10
3.5846723342140798
 20
-35.840601553473739
 30
0.0
 11
3.5846723342140798
 21
-35.840601553473739
 31
0.0
  0
LINE
  5
16D0D
  8
0
 62
     0
 10
6.4603924965714628
 20
-32.619088344466078
 30
0.0
 11
6.4603924965714628
 21
-32.619088344466078
 31
0.0
  0
LINE
  5
16D0E
  8
0
 62
     0
 10
2.6044068063149499
 20
-30.162554535104402
 30
0.0
 11
2.6044068063149499
 21
-30.162554535104402
 31
0.0
  0
LINE
  5
16D0F
  8
0
 62
     0
 10
1.5332996701325861
 20
-29.480184032503931
 30
0.0
 11
1.5332996701325861
 21
-29.480184032503931
 31
0.0
  0
LINE
  5
16D10
  8
0
 62
     0
 10
4.4090198324901886
 20
-26.258670823496349
 30
0.0
 11
4.4090198324901886
 21
-26.258670823496349
 31
0.0
  0
LINE
  5
16D11
  8
0
 62
     0
 10
0.5530341422336775
 20
-23.802137014134669
 30
0.0
 11
0.5530341422336775
 21
-23.802137014134669
 31
0.0
  0
LINE
  5
16D12
  8
0
 62
     0
 10
8.4629578446482672
 20
-23.78776516734921
 30
0.0
 11
8.4629578446482672
 21
-23.78776516734921
 31
0.0
  0
LINE
  5
16D13
  8
0
 62
     0
 10
7.3918507084659044
 20
-23.105394664748751
 30
0.0
 11
7.3918507084659044
 21
-23.105394664748751
 31
0.0
  0
LINE
  5
16D14
  8
0
 62
     0
 10
2.3576471684087901
 20
-19.898253302526548
 30
0.0
 11
2.3576471684087901
 21
-19.898253302526548
 31
0.0
  0
LINE
  5
16D15
  8
0
 62
     0
 10
6.4115851805667248
 20
-17.427347646379371
 30
0.0
 11
6.4115851805667248
 21
-17.427347646379371
 31
0.0
  0
LINE
  5
16D16
  8
0
 62
     0
 10
5.3404780443843611
 20
-16.7449771437789
 30
0.0
 11
5.3404780443843611
 21
-16.7449771437789
 31
0.0
  0
LINE
  5
16D17
  8
0
 62
     0
 10
0.3062745043272478
 20
-13.53783578155671
 30
0.0
 11
0.3062745043272478
 21
-13.53783578155671
 31
0.0
  0
LINE
  5
16D18
  8
0
 62
     0
 10
8.2161982067418311
 20
-13.52346393477128
 30
0.0
 11
8.2161982067418311
 21
-13.52346393477128
 31
0.0
  0
LINE
  5
16D19
  8
0
 62
     0
 10
4.3602125164853183
 20
-11.0669301254096
 30
0.0
 11
4.3602125164853183
 21
-11.0669301254096
 31
0.0
  0
LINE
  5
16D1A
  8
0
 62
     0
 10
6.1648255426604877
 20
-7.1630464138015846
 30
0.0
 11
6.1648255426604877
 21
-7.1630464138015846
 31
0.0
  0
LINE
  5
16D1B
  8
0
 62
     0
 10
2.3088398524039762
 20
-4.7065126044399053
 30
0.0
 11
2.3088398524039762
 21
-4.7065126044399053
 31
0.0
  0
LINE
  5
16D1C
  8
0
 62
     0
 10
1.237732716221611
 20
-4.0241421018394377
 30
0.0
 11
1.237732716221611
 21
-4.0241421018394377
 31
0.0
  0
LINE
  5
16D1D
  8
0
 62
     0
 10
4.1134528785791007
 20
-0.802628892831747
 30
0.0
 11
4.1134528785791007
 21
-0.802628892831747
 31
0.0
  0
LINE
  5
16D1E
  8
0
 62
     0
 10
0.2574671883225893
 20
1.6539049165299331
 30
0.0
 11
0.2574671883225893
 21
1.6539049165299331
 31
0.0
  0
LINE
  5
16D1F
  8
0
 62
     0
 10
8.1673908907370851
 20
1.6682767633154569
 30
0.0
 11
8.1673908907370851
 21
1.6682767633154569
 31
0.0
  0
LINE
  5
16D20
  8
0
 62
     0
 10
7.0962837545547197
 20
2.350647265915923
 30
0.0
 11
7.0962837545547197
 21
2.350647265915923
 31
0.0
  0
LINE
  5
16D21
  8
0
 62
     0
 10
2.0620802144976071
 20
5.557788628138117
 30
0.0
 11
2.0620802144976071
 21
5.557788628138117
 31
0.0
  0
LINE
  5
16D22
  8
0
 62
     0
 10
0.0107075504163213
 20
11.91820614910781
 30
0.0
 11
0.0107075504163213
 21
11.91820614910781
 31
0.0
  0
LINE
  5
16D23
  8
0
 62
     0
 10
7.9206312528308631
 20
11.932577995893361
 30
0.0
 11
7.9206312528308631
 21
11.932577995893361
 31
0.0
  0
LINE
  5
16D24
  8
0
 62
     0
 10
4.0646455625743521
 20
14.389111805255039
 30
0.0
 11
4.0646455625743521
 21
14.389111805255039
 31
0.0
  0
LINE
  5
16D25
  8
0
 62
     0
 10
2.9935384263919871
 20
15.07148230785551
 30
0.0
 11
2.9935384263919871
 21
15.07148230785551
 31
0.0
  0
LINE
  5
16D26
  8
0
 62
     0
 10
5.8692585887494468
 20
18.292995516863161
 30
0.0
 11
5.8692585887494468
 21
18.292995516863161
 31
0.0
  0
LINE
  5
16D27
  8
0
 62
     0
 10
2.0132728984929349
 20
20.749529326224842
 30
0.0
 11
2.0132728984929349
 21
20.749529326224842
 31
0.0
  0
LINE
  5
16D28
  8
0
 62
     0
 10
0.9421657623105714
 20
21.431899828825308
 30
0.0
 11
0.9421657623105714
 21
21.431899828825308
 31
0.0
  0
LINE
  5
16D29
  8
0
 62
     0
 10
8.8520894647250579
 20
21.44627167561082
 30
0.0
 11
8.8520894647250579
 21
21.44627167561082
 31
0.0
  0
LINE
  5
16D2A
  8
0
 62
     0
 10
3.817885924667944
 20
24.653413037833008
 30
0.0
 11
3.817885924667944
 21
24.653413037833008
 31
0.0
  0
LINE
  5
16D2B
  8
0
 62
     0
 10
7.8718239368261278
 20
27.124318693980069
 30
0.0
 11
7.8718239368261278
 21
27.124318693980069
 31
0.0
  0
LINE
  5
16D2C
  8
0
 62
     0
 10
6.8007168006437642
 20
27.806689196580539
 30
0.0
 11
6.8007168006437642
 21
27.806689196580539
 31
0.0
  0
LINE
  5
16D2D
  8
0
 62
     0
 10
1.76651326058665
 20
31.013830558802731
 30
0.0
 11
1.76651326058665
 21
31.013830558802731
 31
0.0
  0
LINE
  5
16D2E
  8
0
 62
     0
 10
5.8204512727446627
 20
33.484736214949912
 30
0.0
 11
5.8204512727446627
 21
33.484736214949912
 31
0.0
  0
LINE
  5
16D2F
  8
0
 62
     0
 10
4.749344136562299
 20
34.167106717550368
 30
0.0
 11
4.749344136562299
 21
34.167106717550368
 31
0.0
  0
LINE
  5
16D30
  8
0
 62
     0
 10
7.6250642989196979
 20
37.388619926558029
 30
0.0
 11
7.6250642989196979
 21
37.388619926558029
 31
0.0
  0
LINE
  5
16D31
  8
0
 62
     0
 10
3.769078608663186
 20
39.845153735919709
 30
0.0
 11
3.769078608663186
 21
39.845153735919709
 31
0.0
  0
LINE
  5
16D32
  8
0
 62
     0
 10
2.697971472480821
 20
40.527524238520179
 30
0.0
 11
2.697971472480821
 21
40.527524238520179
 31
0.0
  0
LINE
  5
16D33
  8
0
 62
     0
 10
5.5736916348382826
 20
43.749037447527833
 30
0.0
 11
5.5736916348382826
 21
43.749037447527833
 31
0.0
  0
LINE
  5
16D34
  8
0
 62
     0
 10
8.5586983347236547
 20
-60.733363906378372
 30
0.0
 11
8.5586983347236547
 21
-60.733363906378372
 31
0.0
  0
LINE
  5
16D35
  8
0
 62
     0
 10
6.493716977454282
 20
-61.00522385953429
 30
0.0
 11
6.493716977454282
 21
-61.00522385953429
 31
0.0
  0
LINE
  5
16D36
  8
0
 62
     0
 10
5.1716252548123061
 20
-61.179280536859729
 30
0.0
 11
5.1716252548123061
 21
-61.179280536859729
 31
0.0
  0
LINE
  5
16D37
  8
0
 62
     0
 10
6.2168282575837468
 20
-54.465234574863508
 30
0.0
 11
6.2168282575837468
 21
-54.465234574863508
 31
0.0
  0
LINE
  5
16D38
  8
0
 62
     0
 10
4.151846900314375
 20
-54.737094528019441
 30
0.0
 11
4.151846900314375
 21
-54.737094528019441
 31
0.0
  0
LINE
  5
16D39
  8
0
 62
     0
 10
2.829755177672399
 20
-54.911151205344872
 30
0.0
 11
2.829755177672399
 21
-54.911151205344872
 31
0.0
  0
LINE
  5
16D3A
  8
0
 62
     0
 10
8.6470797316944097
 20
-47.568843522335911
 30
0.0
 11
8.6470797316944097
 21
-47.568843522335911
 31
0.0
  0
LINE
  5
16D3B
  8
0
 62
     0
 10
7.324988009052432
 20
-47.742900199661349
 30
0.0
 11
7.324988009052432
 21
-47.742900199661349
 31
0.0
  0
LINE
  5
16D3C
  8
0
 62
     0
 10
3.8749581804438469
 20
-48.197105243348688
 30
0.0
 11
3.8749581804438469
 21
-48.197105243348688
 31
0.0
  0
LINE
  5
16D3D
  8
0
 62
     0
 10
1.8099768231744751
 20
-48.468965196504612
 30
0.0
 11
1.8099768231744751
 21
-48.468965196504612
 31
0.0
  0
LINE
  5
16D3E
  8
0
 62
     0
 10
0.4878851005324989
 20
-48.643021873830051
 30
0.0
 11
0.4878851005324989
 21
-48.643021873830051
 31
0.0
  0
LINE
  5
16D3F
  8
0
 62
     0
 10
8.3701910118238132
 20
-41.028854237665151
 30
0.0
 11
8.3701910118238132
 21
-41.028854237665151
 31
0.0
  0
LINE
  5
16D40
  8
0
 62
     0
 10
6.3052096545544423
 20
-41.300714190821083
 30
0.0
 11
6.3052096545544423
 21
-41.300714190821083
 31
0.0
  0
LINE
  5
16D41
  8
0
 62
     0
 10
4.9831179319124663
 20
-41.474770868146521
 30
0.0
 11
4.9831179319124663
 21
-41.474770868146521
 31
0.0
  0
LINE
  5
16D42
  8
0
 62
     0
 10
1.5330881033038799
 20
-41.928975911833859
 30
0.0
 11
1.5330881033038799
 21
-41.928975911833859
 31
0.0
  0
LINE
  5
16D43
  8
0
 62
     0
 10
6.0283209346837987
 20
-34.76072490615033
 30
0.0
 11
6.0283209346837987
 21
-34.76072490615033
 31
0.0
  0
LINE
  5
16D44
  8
0
 62
     0
 10
3.9633395774144269
 20
-35.032584859306262
 30
0.0
 11
3.9633395774144269
 21
-35.032584859306262
 31
0.0
  0
LINE
  5
16D45
  8
0
 62
     0
 10
2.6412478547724509
 20
-35.206641536631693
 30
0.0
 11
2.6412478547724509
 21
-35.206641536631693
 31
0.0
  0
LINE
  5
16D46
  8
0
 62
     0
 10
8.4585724087945735
 20
-27.8643338536227
 30
0.0
 11
8.4585724087945735
 21
-27.8643338536227
 31
0.0
  0
LINE
  5
16D47
  8
0
 62
     0
 10
7.1364806861525958
 20
-28.038390530948138
 30
0.0
 11
7.1364806861525958
 21
-28.038390530948138
 31
0.0
  0
LINE
  5
16D48
  8
0
 62
     0
 10
3.6864508575440111
 20
-28.49259557463547
 30
0.0
 11
3.6864508575440111
 21
-28.49259557463547
 31
0.0
  0
LINE
  5
16D49
  8
0
 62
     0
 10
1.621469500274638
 20
-28.764455527791402
 30
0.0
 11
1.621469500274638
 21
-28.764455527791402
 31
0.0
  0
LINE
  5
16D4A
  8
0
 62
     0
 10
0.2993777776326627
 20
-28.93851220511683
 30
0.0
 11
0.2993777776326627
 21
-28.93851220511683
 31
0.0
  0
LINE
  5
16D4B
  8
0
 62
     0
 10
8.1816836889240907
 20
-21.324344568951911
 30
0.0
 11
8.1816836889240907
 21
-21.324344568951911
 31
0.0
  0
LINE
  5
16D4C
  8
0
 62
     0
 10
6.116702331654718
 20
-21.596204522107829
 30
0.0
 11
6.116702331654718
 21
-21.596204522107829
 31
0.0
  0
LINE
  5
16D4D
  8
0
 62
     0
 10
4.7946106090127421
 20
-21.770261199433271
 30
0.0
 11
4.7946106090127421
 21
-21.770261199433271
 31
0.0
  0
LINE
  5
16D4E
  8
0
 62
     0
 10
1.3445807804041561
 20
-22.224466243120609
 30
0.0
 11
1.3445807804041561
 21
-22.224466243120609
 31
0.0
  0
LINE
  5
16D4F
  8
0
 62
     0
 10
5.8398136117840771
 20
-15.05621523743708
 30
0.0
 11
5.8398136117840771
 21
-15.05621523743708
 31
0.0
  0
LINE
  5
16D50
  8
0
 62
     0
 10
3.7748322545147039
 20
-15.328075190592999
 30
0.0
 11
3.7748322545147039
 21
-15.328075190592999
 31
0.0
  0
LINE
  5
16D51
  8
0
 62
     0
 10
2.452740531872728
 20
-15.50213186791844
 30
0.0
 11
2.452740531872728
 21
-15.50213186791844
 31
0.0
  0
LINE
  5
16D52
  8
0
 62
     0
 10
7.9931763660241417
 20
-1.61983490023871
 30
0.0
 11
7.9931763660241417
 21
-1.61983490023871
 31
0.0
  0
LINE
  5
16D53
  8
0
 62
     0
 10
5.9281950087547699
 20
-1.8916948533946341
 30
0.0
 11
5.9281950087547699
 21
-1.8916948533946341
 31
0.0
  0
LINE
  5
16D54
  8
0
 62
     0
 10
4.606103286112794
 20
-2.065751530720072
 30
0.0
 11
4.606103286112794
 21
-2.065751530720072
 31
0.0
  0
LINE
  5
16D55
  8
0
 62
     0
 10
1.1560734575042091
 20
-2.5199565744074079
 30
0.0
 11
1.1560734575042091
 21
-2.5199565744074079
 31
0.0
  0
LINE
  5
16D56
  8
0
 62
     0
 10
5.6513062888843519
 20
4.648294431276164
 30
0.0
 11
5.6513062888843519
 21
4.648294431276164
 31
0.0
  0
LINE
  5
16D57
  8
0
 62
     0
 10
3.586324931614981
 20
4.3764344781202409
 30
0.0
 11
3.586324931614981
 21
4.3764344781202409
 31
0.0
  0
LINE
  5
16D58
  8
0
 62
     0
 10
2.2642332089730042
 20
4.2023778007948032
 30
0.0
 11
2.2642332089730042
 21
4.2023778007948032
 31
0.0
  0
LINE
  5
16D59
  8
0
 62
     0
 10
3.3094362117444769
 20
10.916423762791
 30
0.0
 11
3.3094362117444769
 21
10.916423762791
 31
0.0
  0
LINE
  5
16D5A
  8
0
 62
     0
 10
1.2444548544750369
 20
10.644563809635081
 30
0.0
 11
1.2444548544750369
 21
10.644563809635081
 31
0.0
  0
LINE
  5
16D5B
  8
0
 62
     0
 10
8.081557762995029
 20
11.54468548380378
 30
0.0
 11
8.081557762995029
 21
11.54468548380378
 31
0.0
  0
LINE
  5
16D5C
  8
0
 62
     0
 10
6.7594660403530522
 20
11.37062880647834
 30
0.0
 11
6.7594660403530522
 21
11.37062880647834
 31
0.0
  0
LINE
  5
16D5D
  8
0
 62
     0
 10
7.8046690431244183
 20
18.084674768474539
 30
0.0
 11
7.8046690431244183
 21
18.084674768474539
 31
0.0
  0
LINE
  5
16D5E
  8
0
 62
     0
 10
5.7396876858550456
 20
17.812814815318621
 30
0.0
 11
5.7396876858550456
 21
17.812814815318621
 31
0.0
  0
LINE
  5
16D5F
  8
0
 62
     0
 10
4.4175959632130697
 20
17.638758137993179
 30
0.0
 11
4.4175959632130697
 21
17.638758137993179
 31
0.0
  0
LINE
  5
16D60
  8
0
 62
     0
 10
0.9675661346044847
 20
17.184553094305841
 30
0.0
 11
0.9675661346044847
 21
17.184553094305841
 31
0.0
  0
LINE
  5
16D61
  8
0
 62
     0
 10
8.9128287945932172
 20
24.807009143676751
 30
0.0
 11
8.9128287945932172
 21
24.807009143676751
 31
0.0
  0
LINE
  5
16D62
  8
0
 62
     0
 10
5.4627989659846303
 20
24.35280409998941
 30
0.0
 11
5.4627989659846303
 21
24.35280409998941
 31
0.0
  0
LINE
  5
16D63
  8
0
 62
     0
 10
3.3978176087152572
 20
24.080944146833492
 30
0.0
 11
3.3978176087152572
 21
24.080944146833492
 31
0.0
  0
LINE
  5
16D64
  8
0
 62
     0
 10
2.0757258860732808
 20
23.90688746950805
 30
0.0
 11
2.0757258860732808
 21
23.90688746950805
 31
0.0
  0
LINE
  5
16D65
  8
0
 62
     0
 10
7.8930504400952897
 20
31.249195152517011
 30
0.0
 11
7.8930504400952897
 21
31.249195152517011
 31
0.0
  0
LINE
  5
16D66
  8
0
 62
     0
 10
6.5709587174533137
 20
31.075138475191579
 30
0.0
 11
6.5709587174533137
 21
31.075138475191579
 31
0.0
  0
LINE
  5
16D67
  8
0
 62
     0
 10
3.1209288888447282
 20
30.620933431504241
 30
0.0
 11
3.1209288888447282
 21
30.620933431504241
 31
0.0
  0
LINE
  5
16D68
  8
0
 62
     0
 10
1.0559475315753559
 20
30.34907347834832
 30
0.0
 11
1.0559475315753559
 21
30.34907347834832
 31
0.0
  0
LINE
  5
16D69
  8
0
 62
     0
 10
7.6161617202245822
 20
37.789184437187778
 30
0.0
 11
7.6161617202245822
 21
37.789184437187778
 31
0.0
  0
LINE
  5
16D6A
  8
0
 62
     0
 10
5.5511803629552086
 20
37.517324484031853
 30
0.0
 11
5.5511803629552086
 21
37.517324484031853
 31
0.0
  0
LINE
  5
16D6B
  8
0
 62
     0
 10
4.2290886403132326
 20
37.343267806706422
 30
0.0
 11
4.2290886403132326
 21
37.343267806706422
 31
0.0
  0
LINE
  5
16D6C
  8
0
 62
     0
 10
0.7790588117046476
 20
36.889062763019083
 30
0.0
 11
0.7790588117046476
 21
36.889062763019083
 31
0.0
  0
LINE
  5
16D6D
  8
0
 62
     0
 10
8.7243214716932656
 20
44.511518812389951
 30
0.0
 11
8.7243214716932656
 21
44.511518812389951
 31
0.0
  0
LINE
  5
16D6E
  8
0
 62
     0
 10
5.2742916430846796
 20
44.05731376870262
 30
0.0
 11
5.2742916430846796
 21
44.05731376870262
 31
0.0
  0
LINE
  5
16D6F
  8
0
 62
     0
 10
3.2093102858153082
 20
43.785453815546688
 30
0.0
 11
3.2093102858153082
 21
43.785453815546688
 31
0.0
  0
LINE
  5
16D70
  8
0
 62
     0
 10
1.887218563173332
 20
43.61139713822125
 30
0.0
 11
1.887218563173332
 21
43.61139713822125
 31
0.0
  0
LINE
  5
16D71
  8
0
 62
     0
 10
8.2992554627512423
 20
-60.099467008910388
 30
0.0
 11
8.2992554627512423
 21
-60.099467008910388
 31
0.0
  0
LINE
  5
16D72
  8
0
 62
     0
 10
8.1392523331528608
 20
-55.205334635616929
 30
0.0
 11
8.1392523331528608
 21
-55.205334635616929
 31
0.0
  0
LINE
  5
16D73
  8
0
 62
     0
 10
5.076273756956458
 20
-57.555640760733802
 30
0.0
 11
5.076273756956458
 21
-57.555640760733802
 31
0.0
  0
LINE
  5
16D74
  8
0
 62
     0
 10
1.8017078449043851
 20
-60.06830355896728
 30
0.0
 11
1.8017078449043851
 21
-60.06830355896728
 31
0.0
  0
LINE
  5
16D75
  8
0
 62
     0
 10
7.9792492035542066
 20
-50.311202262323569
 30
0.0
 11
7.9792492035542066
 21
-50.311202262323569
 31
0.0
  0
LINE
  5
16D76
  8
0
 62
     0
 10
4.9162706273578047
 20
-52.661508387440442
 30
0.0
 11
4.9162706273578047
 21
-52.661508387440442
 31
0.0
  0
LINE
  5
16D77
  8
0
 62
     0
 10
1.6417047153057309
 20
-55.174171185673941
 30
0.0
 11
1.6417047153057309
 21
-55.174171185673941
 31
0.0
  0
LINE
  5
16D78
  8
0
 62
     0
 10
7.8192460739558518
 20
-45.41706988903023
 30
0.0
 11
7.8192460739558518
 21
-45.41706988903023
 31
0.0
  0
LINE
  5
16D79
  8
0
 62
     0
 10
4.7562674977594499
 20
-47.767376014147089
 30
0.0
 11
4.7562674977594499
 21
-47.767376014147089
 31
0.0
  0
LINE
  5
16D7A
  8
0
 62
     0
 10
1.4817015857073761
 20
-50.280038812380589
 30
0.0
 11
1.4817015857073761
 21
-50.280038812380589
 31
0.0
  0
LINE
  5
16D7B
  8
0
 62
     0
 10
7.6592429443577439
 20
-40.522937515736587
 30
0.0
 11
7.6592429443577439
 21
-40.522937515736587
 31
0.0
  0
LINE
  5
16D7C
  8
0
 62
     0
 10
4.596264368161342
 20
-42.87324364085346
 30
0.0
 11
4.596264368161342
 21
-42.87324364085346
 31
0.0
  0
LINE
  5
16D7D
  8
0
 62
     0
 10
1.3216984561092691
 20
-45.385906439086959
 30
0.0
 11
1.3216984561092691
 21
-45.385906439086959
 31
0.0
  0
LINE
  5
16D7E
  8
0
 62
     0
 10
7.4992398147591617
 20
-35.628805142443262
 30
0.0
 11
7.4992398147591617
 21
-35.628805142443262
 31
0.0
  0
LINE
  5
16D7F
  8
0
 62
     0
 10
4.4362612385627598
 20
-37.979111267560121
 30
0.0
 11
4.4362612385627598
 21
-37.979111267560121
 31
0.0
  0
LINE
  5
16D80
  8
0
 62
     0
 10
1.1616953265106871
 20
-40.491774065793606
 30
0.0
 11
1.1616953265106871
 21
-40.491774065793606
 31
0.0
  0
LINE
  5
16D81
  8
0
 62
     0
 10
7.3392366851608069
 20
-30.734672769149899
 30
0.0
 11
7.3392366851608069
 21
-30.734672769149899
 31
0.0
  0
LINE
  5
16D82
  8
0
 62
     0
 10
4.2762581089644049
 20
-33.084978894266769
 30
0.0
 11
4.2762581089644049
 21
-33.084978894266769
 31
0.0
  0
LINE
  5
16D83
  8
0
 62
     0
 10
1.001692196912332
 20
-35.597641692500261
 30
0.0
 11
1.001692196912332
 21
-35.597641692500261
 31
0.0
  0
LINE
  5
16D84
  8
0
 62
     0
 10
7.1792335555623392
 20
-25.84054039585649
 30
0.0
 11
7.1792335555623392
 21
-25.84054039585649
 31
0.0
  0
LINE
  5
16D85
  8
0
 62
     0
 10
4.1162549793659373
 20
-28.190846520973359
 30
0.0
 11
4.1162549793659373
 21
-28.190846520973359
 31
0.0
  0
LINE
  5
16D86
  8
0
 62
     0
 10
0.8416890673138636
 20
-30.703509319206859
 30
0.0
 11
0.8416890673138636
 21
-30.703509319206859
 31
0.0
  0
LINE
  5
16D87
  8
0
 62
     0
 10
7.0192304259640501
 20
-20.946408022562949
 30
0.0
 11
7.0192304259640501
 21
-20.946408022562949
 31
0.0
  0
LINE
  5
16D88
  8
0
 62
     0
 10
3.9562518497676491
 20
-23.296714147679818
 30
0.0
 11
3.9562518497676491
 21
-23.296714147679818
 31
0.0
  0
LINE
  5
16D89
  8
0
 62
     0
 10
0.6816859377155757
 20
-25.809376945913311
 30
0.0
 11
0.6816859377155757
 21
-25.809376945913311
 31
0.0
  0
LINE
  5
16D8A
  8
0
 62
     0
 10
6.8592272963655807
 20
-16.052275649269589
 30
0.0
 11
6.8592272963655807
 21
-16.052275649269589
 31
0.0
  0
LINE
  5
16D8B
  8
0
 62
     0
 10
3.7962487201691801
 20
-18.402581774386459
 30
0.0
 11
3.7962487201691801
 21
-18.402581774386459
 31
0.0
  0
LINE
  5
16D8C
  8
0
 62
     0
 10
0.5216828081171072
 20
-20.915244572619962
 30
0.0
 11
0.5216828081171072
 21
-20.915244572619962
 31
0.0
  0
LINE
  5
16D8D
  8
0
 62
     0
 10
6.6992241667671131
 20
-11.15814327597619
 30
0.0
 11
6.6992241667671131
 21
-11.15814327597619
 31
0.0
  0
LINE
  5
16D8E
  8
0
 62
     0
 10
3.6362455905707121
 20
-13.50844940109306
 30
0.0
 11
3.6362455905707121
 21
-13.50844940109306
 31
0.0
  0
LINE
  5
16D8F
  8
0
 62
     0
 10
0.3616796785186386
 20
-16.021112199326549
 30
0.0
 11
0.3616796785186386
 21
-16.021112199326549
 31
0.0
  0
LINE
  5
16D90
  8
0
 62
     0
 10
6.5392210371686241
 20
-6.2640109026828332
 30
0.0
 11
6.5392210371686241
 21
-6.2640109026828332
 31
0.0
  0
LINE
  5
16D91
  8
0
 62
     0
 10
0.2016765489201704
 20
-11.126979826033139
 30
0.0
 11
0.2016765489201704
 21
-11.126979826033139
 31
0.0
  0
LINE
  5
16D92
  8
0
 62
     0
 10
6.37921790757047
 20
-1.3698785293892941
 30
0.0
 11
6.37921790757047
 21
-1.3698785293892941
 31
0.0
  0
LINE
  5
16D93
  8
0
 62
     0
 10
3.316239331374069
 20
-3.7201846545061632
 30
0.0
 11
3.316239331374069
 21
-3.7201846545061632
 31
0.0
  0
LINE
  5
16D94
  8
0
 62
     0
 10
0.041673419321996
 20
-6.2328474527396569
 30
0.0
 11
0.041673419321996
 21
-6.2328474527396569
 31
0.0
  0
LINE
  5
16D95
  8
0
 62
     0
 10
6.2192147779718221
 20
3.5242538439039741
 30
0.0
 11
6.2192147779718221
 21
3.5242538439039741
 31
0.0
  0
LINE
  5
16D96
  8
0
 62
     0
 10
3.1562362017754202
 20
1.173947718787105
 30
0.0
 11
3.1562362017754202
 21
1.173947718787105
 31
0.0
  0
LINE
  5
16D97
  8
0
 62
     0
 10
2.9962330721770178
 20
6.0680800920805931
 30
0.0
 11
2.9962330721770178
 21
6.0680800920805931
 31
0.0
  0
LINE
  5
16D98
  8
0
 62
     0
 10
5.8992085187751311
 20
13.31251859049098
 30
0.0
 11
5.8992085187751311
 21
13.31251859049098
 31
0.0
  0
LINE
  5
16D99
  8
0
 62
     0
 10
2.8362299425787301
 20
10.96221246537411
 30
0.0
 11
2.8362299425787301
 21
10.96221246537411
 31
0.0
  0
LINE
  5
16D9A
  8
0
 62
     0
 10
5.7392053891766626
 20
18.206650963784352
 30
0.0
 11
5.7392053891766626
 21
18.206650963784352
 31
0.0
  0
LINE
  5
16D9B
  8
0
 62
     0
 10
2.6762268129802611
 20
15.856344838667489
 30
0.0
 11
2.6762268129802611
 21
15.856344838667489
 31
0.0
  0
LINE
  5
16D9C
  8
0
 62
     0
 10
5.5792022595783752
 20
23.10078333707779
 30
0.0
 11
5.5792022595783752
 21
23.10078333707779
 31
0.0
  0
LINE
  5
16D9D
  8
0
 62
     0
 10
2.5162236833819742
 20
20.75047721196092
 30
0.0
 11
2.5162236833819742
 21
20.75047721196092
 31
0.0
  0
LINE
  5
16D9E
  8
0
 62
     0
 10
8.8448988533574582
 20
30.623547560830851
 30
0.0
 11
8.8448988533574582
 21
30.623547560830851
 31
0.0
  0
LINE
  5
16D9F
  8
0
 62
     0
 10
5.4191991299799058
 20
27.994915710371188
 30
0.0
 11
5.4191991299799058
 21
27.994915710371188
 31
0.0
  0
LINE
  5
16DA0
  8
0
 62
     0
 10
2.3562205537835048
 20
25.644609585254329
 30
0.0
 11
2.3562205537835048
 21
25.644609585254329
 31
0.0
  0
LINE
  5
16DA1
  8
0
 62
     0
 10
8.6848957237588778
 20
35.517679934124253
 30
0.0
 11
8.6848957237588778
 21
35.517679934124253
 31
0.0
  0
LINE
  5
16DA2
  8
0
 62
     0
 10
5.2591960003813236
 20
32.889048083664598
 30
0.0
 11
5.2591960003813236
 21
32.889048083664598
 31
0.0
  0
LINE
  5
16DA3
  8
0
 62
     0
 10
2.1962174241849231
 20
30.538741958547732
 30
0.0
 11
2.1962174241849231
 21
30.538741958547732
 31
0.0
  0
LINE
  5
16DA4
  8
0
 62
     0
 10
8.5248925941605211
 20
40.411812307417598
 30
0.0
 11
8.5248925941605211
 21
40.411812307417598
 31
0.0
  0
LINE
  5
16DA5
  8
0
 62
     0
 10
5.0991928707829688
 20
37.78318045695795
 30
0.0
 11
5.0991928707829688
 21
37.78318045695795
 31
0.0
  0
LINE
  5
16DA6
  8
0
 62
     0
 10
2.0362142945865682
 20
35.432874331841077
 30
0.0
 11
2.0362142945865682
 21
35.432874331841077
 31
0.0
  0
LINE
  5
16DA7
  8
0
 62
     0
 10
4.9391897411846823
 20
42.677312830251488
 30
0.0
 11
4.9391897411846823
 21
42.677312830251488
 31
0.0
  0
LINE
  5
16DA8
  8
0
 62
     0
 10
1.87621116498828
 20
40.327006705134622
 30
0.0
 11
1.87621116498828
 21
40.327006705134622
 31
0.0
  0
ENDBLK
  5
16DAA
  8
0
  0
BLOCK
  8
0
  2
*U78
 70
     1
 10
0.0
 20
0.0
 30
0.0
  3
*U78
  1

  0
TEXT
  5
16DAC
  8
1DIM
 62
   201
 10
-31.153865476029861
 20
54.018296023885341
 30
0.0
 40
3.5
  1
裏板9mm以上
  0
ENDBLK
  5
16DAE
  8
0
  0
BLOCK
  8
0
  2
*U79
 70
     1
 10
0.0
 20
0.0
 30
0.0
  3
*U79
  1

  0
INSERT
  5
16DB0
  8
1DIM
  2
_OPEN30
 10
13.168864624287609
 20
37.039715350978668
 30
0.0
 41
2.0
 42
2.0
 43
2.0
 50
313.14282340584191
  0
POLYLINE
  5
16DB1
  8
1DIM
 66
     1
 10
0.0
 20
0.0
 30
0.0
  0
VERTEX
  5
16DB2
  8
1DIM
 10
11.8012259983783
 20
38.499018125909529
 30
0.0
  0
VERTEX
  5
16DB3
  8
1DIM
 10
-2.0871988093631928
 20
53.318296023885338
 30
0.0
  0
VERTEX
  5
16DB4
  8
1DIM
 10
-33.987198809363193
 20
53.318296023885338
 30
0.0
  0
SEQEND
  5
16DB5
  8
1DIM
  0
ENDBLK
  5
16DB7
  8
0
  0
BLOCK
  8
0
  2
*U80
 70
     1
 10
0.0
 20
0.0
 30
0.0
  3
*U80
  1

  0
LINE
  5
16DB9
  8
0
 10
-0.3500000000000227
 20
2.0
 30
0.0
 11
0.0
 21
1.649999999999977
 31
0.0
  0
LINE
  5
16DBA
  8
0
 10
-10.20000000000004
 20
2.0
 30
0.0
 11
-0.3500000000000227
 21
2.0
 31
0.0
  0
LINE
  5
16DBB
  8
0
 10
0.0
 20
1.649999999999977
 30
0.0
 11
0.0
 21
-1.6499999999998629
 31
0.0
  0
LINE
  5
16DBC
  8
0
 10
-12.0
 20
0.2000000000000028
 30
0.0
 11
-10.20000000000004
 21
2.0
 31
0.0
  0
LINE
  5
16DBD
  8
0
 10
0.0
 20
-1.6499999999998629
 30
0.0
 11
-0.3500000000000227
 21
-2.0
 31
0.0
  0
LINE
  5
16DBE
  8
0
 10
-12.0
 20
0.2000000000000028
 30
0.0
 11
-12.0
 21
-0.200000000000017
 31
0.0
  0
LINE
  5
16DBF
  8
0
 10
-10.19999999999999
 20
-1.9999999999999849
 30
0.0
 11
-0.3500000000000227
 21
-2.0
 31
0.0
  0
LINE
  5
16DC0
  8
0
 10
-12.0
 20
-0.200000000000017
 30
0.0
 11
-10.19999999999999
 21
-1.9999999999999849
 31
0.0
  0
ENDBLK
  5
16DC2
  8
0
  0
BLOCK
  8
0
  2
*U81
 70
     1
 10
0.0
 20
0.0
 30
0.0
  3
*U81
  1

  0
LINE
  5
16DC4
  8
0
 10
-7.9999999999999991
 20
2.5
 30
0.0
 11
-7.9999978000002088
 21
2.4999999999999432
 31
0.0
  0
LINE
  5
16DC5
  8
0
 10
-7.9999999999999991
 20
-2.4999999999999432
 30
0.0
 11
-7.9999999999999991
 21
2.5
 31
0.0
  0
LINE
  5
16DC6
  8
0
 10
-7.9999978000002088
 20
2.4999999999999432
 30
0.0
 11
-7.4999979000001629
 21
3.0
 31
0.0
  0
LINE
  5
16DC7
  8
0
 10
-8.0000021000010921
 20
-2.4999999999999432
 30
0.0
 11
-7.9999999999999991
 21
-2.4999999999999432
 31
0.0
  0
LINE
  5
16DC8
  8
0
 10
-7.4999979000001629
 20
3.0
 30
0.0
 11
-1.999998199999983
 21
3.0
 31
0.0
  0
LINE
  5
16DC9
  8
0
 10
-7.5000018999986429
 20
-3.000000000000056
 30
0.0
 11
-8.0000021000010921
 21
-2.4999999999999432
 31
0.0
  0
LINE
  5
16DCA
  8
0
 10
-1.999998199999983
 20
3.0
 30
0.0
 11
-1.49999999999998
 21
2.0
 31
0.0
  0
LINE
  5
16DCB
  8
0
 10
-1.999998199999959
 20
-2.9999999999999432
 30
0.0
 11
-7.5000018999986429
 21
-3.000000000000056
 31
0.0
  0
LINE
  5
16DCC
  8
0
 10
-1.49999999999998
 20
2.0
 30
0.0
 11
-0.5000000000000004
 21
2.0
 31
0.0
  0
LINE
  5
16DCD
  8
0
 10
-1.50000000000001
 20
-2.0
 30
0.0
 11
-1.999998199999959
 21
-2.9999999999999432
 31
0.0
  0
ARC
  5
16DCE
  8
0
 10
-0.5000000000000006
 20
1.5
 30
0.0
 40
0.5000000000000004
 50
0.0
 51
90.0
  0
LINE
  5
16DCF
  8
0
 10
-0.5
 20
-2.0
 30
0.0
 11
-1.50000000000001
 21
-2.0
 31
0.0
  0
LINE
  5
16DD0
  8
0
 10
-0.0000000000000001
 20
1.5
 30
0.0
 11
-0.0000000000000001
 21
-1.5
 31
0.0
  0
ARC
  5
16DD1
  8
0
 10
-0.5
 20
-1.5
 30
0.0
 40
0.5
 50
270.0
 51
0.0
  0
ENDBLK
  5
16DD3
  8
0
  0
BLOCK
  8
0
  2
*U82
 70
     1
 10
0.0
 20
0.0
 30
0.0
  3
*U82
  1

  0
LINE
  5
16DD5
  8
1HATCH
 10
-1.5
 20
2.000000000000056
 30
0.0
 11
-1.7499990999999879
 21
2.5
 31
0.0
  0
LINE
  5
16DD6
  8
1HATCH
 10
-1.7499990999999879
 20
2.5
 30
0.0
 11
-7.999997800000223
 21
2.5
 31
0.0
  0
LINE
  5
16DD7
  8
1HATCH
 10
-1.5
 20
-2.000000000000056
 30
0.0
 11
-1.5
 21
2.000000000000056
 31
0.0
  0
LINE
  5
16DD8
  8
1HATCH
 10
-7.999997800000223
 20
2.5
 30
0.0
 11
-7.9999999999999991
 21
2.4999977999997318
 31
0.0
  0
LINE
  5
16DD9
  8
1HATCH
 10
-1.749999099999981
 20
-2.5
 30
0.0
 11
-1.5
 21
-2.000000000000056
 31
0.0
  0
LINE
  5
16DDA
  8
1HATCH
 10
-7.9999999999999991
 20
2.4999977999997318
 30
0.0
 11
-7.9999999999999991
 21
-2.5
 31
0.0
  0
LINE
  5
16DDB
  8
1HATCH
 10
-7.9999999999999991
 20
-2.5
 30
0.0
 11
-1.749999099999981
 21
-2.5
 31
0.0
  0
ENDBLK
  5
16DDD
  8
0
  0
BLOCK
  8
0
  2
*U83
 70
     1
 10
0.0
 20
0.0
 30
0.0
  3
*U83
  1

  0
LINE
  5
16DDF
  8
1HATCH
 10
-1.9999981999999989
 20
3.000000000000056
 30
0.0
 11
-7.4999979000001362
 21
3.0
 31
0.0
  0
LINE
  5
16DE0
  8
1HATCH
 10
-7.4999979000001362
 20
3.0
 30
0.0
 11
-7.999997800000143
 21
2.5
 31
0.0
  0
LINE
  5
16DE1
  8
1HATCH
 10
-1.749999099999983
 20
2.5
 30
0.0
 11
-1.9999981999999989
 21
3.000000000000056
 31
0.0
  0
LINE
  5
16DE2
  8
1HATCH
 10
-7.999997800000143
 20
2.5
 30
0.0
 11
-1.749999099999983
 21
2.5
 31
0.0
  0
ENDBLK
  5
16DE4
  8
0
  0
BLOCK
  8
0
  2
*U84
 70
     1
 10
0.0
 20
0.0
 30
0.0
  3
*U84
  1

  0
ARC
  5
16DE6
  8
1HATCH
 10
-0.5000000000000002
 20
1.5
 30
0.0
 40
0.5000000000000002
 50
0.0
 51
90.000000000000028
  0
LINE
  5
16DE7
  8
1HATCH
 10
-0.5000000000000004
 20
2.0
 30
0.0
 11
-1.5
 21
2.0
 31
0.0
  0
LINE
  5
16DE8
  8
1HATCH
 10
0.0
 20
-1.5
 30
0.0
 11
0.0
 21
1.5
 31
0.0
  0
LINE
  5
16DE9
  8
1HATCH
 10
-1.5
 20
2.0
 30
0.0
 11
-1.5
 21
-2.0
 31
0.0
  0
ARC
  5
16DEA
  8
1HATCH
 10
-0.5
 20
-1.5
 30
0.0
 40
0.5
 50
270.0
 51
0.0
  0
LINE
  5
16DEB
  8
1HATCH
 10
-1.5
 20
-2.0
 30
0.0
 11
-0.5
 21
-2.0
 31
0.0
  0
ENDBLK
  5
16DED
  8
0
  0
BLOCK
  8
0
  2
*U85
 70
     1
 10
0.0
 20
0.0
 30
0.0
  3
*U85
  1

  0
LINE
  5
16DEF
  8
0
 10
-14.649999999999981
 20
2.0
 30
0.0
 11
-0.0000000000000284
 21
2.0
 31
0.0
  0
LINE
  5
16DF0
  8
0
 10
-14.649999999999981
 20
2.0
 30
0.0
 11
-15.0
 21
1.649999999999977
 31
0.0
  0
LINE
  5
16DF1
  8
0
 10
0.0
 20
3.4999999999999432
 30
0.0
 11
-0.0000000000000284
 21
2.0
 31
0.0
  0
LINE
  5
16DF2
  8
0
 10
-15.0
 20
1.649999999999977
 30
0.0
 11
-15.0
 21
-1.6499999999998629
 31
0.0
  0
LINE
  5
16DF3
  8
0
 10
0.0
 20
3.4999999999999432
 30
0.0
 11
0.5999999999999375
 21
3.4999999999999432
 31
0.0
  0
LINE
  5
16DF4
  8
0
 10
-15.0
 20
-1.6499999999998629
 30
0.0
 11
-14.649999999999981
 21
-2.0
 31
0.0
  0
ARC
  5
16DF5
  8
0
 10
0.5999999999999944
 20
1.4999999999999429
 30
0.0
 40
2.0
 50
0.0
 51
90.000000000001606
  0
LINE
  5
16DF6
  8
0
 10
-14.649999999999981
 20
-2.0
 30
0.0
 11
0.0000000000000568
 21
-2.0
 31
0.0
  0
LINE
  5
16DF7
  8
0
 10
2.5999999999999939
 20
1.4999999999999429
 30
0.0
 11
2.5999999999999939
 21
-1.5
 31
0.0
  0
LINE
  5
16DF8
  8
0
 10
0.0000000000000568
 20
-2.0
 30
0.0
 11
0.0
 21
-3.5
 31
0.0
  0
ARC
  5
16DF9
  8
0
 10
0.5999999999999944
 20
-1.5
 30
0.0
 40
2.0
 50
270.0
 51
0.0
  0
LINE
  5
16DFA
  8
0
 10
0.0
 20
-3.5
 30
0.0
 11
0.5999999999999944
 21
-3.5
 31
0.0
  0
ENDBLK
  5
16DFC
  8
0
  0
BLOCK
  8
0
  2
*U86
 70
     1
 10
0.0
 20
0.0
 30
0.0
  3
*U86
  1

  0
ARC
  5
16DFE
  8
0
 10
-0.5000000000000006
 20
-1.499999999992212
 30
0.0
 40
0.5
 50
269.99968004273472
 51
0.0
  0
LINE
  5
16DFF
  8
0
 10
0.0
 20
1.499999999992212
 30
0.0
 11
0.0
 21
-1.499999999992212
 31
0.0
  0
LINE
  5
16E00
  8
0
 10
-0.500002792153873
 20
-1.999999999984424
 30
0.0
 11
-2.9999999999350222
 21
-1.9999860392306339
 31
0.0
  0
ARC
  5
16E01
  8
0
 10
-0.5
 20
1.499999999992212
 30
0.0
 40
0.5000000000000001
 50
0.0
 51
89.999680042734667
  0
LINE
  5
16E02
  8
0
 10
-2.9999999999350222
 20
-1.9999860392306339
 30
0.0
 11
-3.49999819993592
 21
-2.9999860392323958
 31
0.0
  0
LINE
  5
16E03
  8
0
 10
-2.9999999999350848
 20
2.000013960769365
 30
0.0
 11
-0.499997207846127
 21
1.999999999984424
 31
0.0
  0
LINE
  5
16E04
  8
0
 10
-3.49999819993592
 20
-2.9999860392323958
 30
0.0
 11
-10.50000189991937
 21
-2.999979058844076
 31
0.0
  0
LINE
  5
16E05
  8
0
 10
-3.4999981999341561
 20
3.000013960767546
 30
0.0
 11
-2.9999999999350848
 21
2.000013960769365
 31
0.0
  0
LINE
  5
16E06
  8
0
 10
-10.50000189991937
 20
-2.999979058844076
 30
0.0
 11
-11.000002099921749
 21
-2.4999790588440192
 31
0.0
  0
LINE
  5
16E07
  8
0
 10
-10.499997899921031
 20
3.0000209411519441
 30
0.0
 11
-3.4999981999341561
 21
3.000013960767546
 31
0.0
  0
LINE
  5
16E08
  8
0
 10
-11.000002099921749
 20
-2.4999790588440192
 30
0.0
 11
-10.99999999991879
 21
-2.499979058845951
 31
0.0
  0
LINE
  5
16E09
  8
0
 10
-10.99999779992098
 20
2.500020941152115
 30
0.0
 11
-10.499997899921031
 21
3.0000209411519441
 31
0.0
  0
LINE
  5
16E0A
  8
0
 10
-10.99999999991879
 20
-2.499979058845951
 30
0.0
 11
-10.99999999991879
 21
2.500020941154105
 31
0.0
  0
LINE
  5
16E0B
  8
0
 10
-10.99999999991879
 20
2.500020941154105
 30
0.0
 11
-10.99999779992098
 21
2.500020941152115
 31
0.0
  0
ENDBLK
  5
16E0D
  8
0
  0
BLOCK
  8
0
  2
*U87
 70
     1
 10
0.0
 20
0.0
 30
0.0
  3
*U87
  1

  0
LINE
  5
16E0F
  8
0
 10
-11.650000000000031
 20
2.0
 30
0.0
 11
-1.3000001740740139
 21
2.0
 31
0.0
  0
LINE
  5
16E10
  8
0
 10
-11.650000000000031
 20
2.0
 30
0.0
 11
-12.000000000000011
 21
1.649999999999977
 31
0.0
  0
LINE
  5
16E11
  8
0
 10
-1.3000001740740139
 20
2.0
 30
0.0
 11
-0.3000001000000054
 21
3.0
 31
0.0
  0
LINE
  5
16E12
  8
0
 10
-12.000000000000011
 20
1.649999999999977
 30
0.0
 11
-12.000000000000011
 21
-1.6499999999998629
 31
0.0
  0
LINE
  5
16E13
  8
0
 10
-0.3000001000000054
 20
3.0
 30
0.0
 11
0.0
 21
3.0
 31
0.0
  0
LINE
  5
16E14
  8
0
 10
-12.000000000000011
 20
-1.6499999999998629
 30
0.0
 11
-11.650000000000031
 21
-2.0
 31
0.0
  0
LINE
  5
16E15
  8
0
 10
0.0
 20
3.0
 30
0.0
 11
0.0
 21
-3.0
 31
0.0
  0
LINE
  5
16E16
  8
0
 10
-11.650000000000031
 20
-2.0
 30
0.0
 11
-1.3000001740740139
 21
-2.0
 31
0.0
  0
LINE
  5
16E17
  8
0
 10
-0.3000000100000193
 20
-3.0
 30
0.0
 11
0.0
 21
-3.0
 31
0.0
  0
LINE
  5
16E18
  8
0
 10
-1.3000001740740139
 20
-2.0
 30
0.0
 11
-0.3000000100000193
 21
-3.0
 31
0.0
  0
ENDBLK
  5
16E1A
  8
0
  0
BLOCK
  8
0
  2
*U88
 70
     1
 10
0.0
 20
0.0
 30
0.0
  3
*U88
  1

  0
TEXT
  5
16E1C
  8
1DIM
 62
   201
 10
-675.05092977307777
 20
-1500.9745415125619
 30
0.0
 40
3.5
  1
18 
 50
90.0
  0
ENDBLK
  5
16E1E
  8
0
  0
BLOCK
  8
0
  2
*U89
 70
     1
 10
0.0
 20
0.0
 30
0.0
  3
*U89
  1

  0
TEXT
  5
16E20
  8
1DIM
 62
   201
 10
-675.05092977307777
 20
-1478.5578265500569
 30
0.0
 40
3.5
  1
28 
 50
90.0
  0
ENDBLK
  5
16E22
  8
0
  0
BLOCK
  8
0
  2
*U90
 70
     1
 10
0.0
 20
0.0
 30
0.0
  3
*U90
  1

  0
TEXT
  5
16E24
  8
1DIM
 62
   201
 10
-944.16216610439369
 20
-1450.9411115875521
 30
0.0
 40
3.5
  1
166 
  0
ENDBLK
  5
16E26
  8
0
  0
BLOCK
  8
0
  2
*U91
 70
     1
 10
0.0
 20
0.0
 30
0.0
  3
*U91
  1

  0
TEXT
  5
16E28
  8
1DIM
 62
   201
 10
-847.77882769106009
 20
-1427.312778254219
 30
0.0
 40
3.5
  1
80 （ペーパー無し最小値）
 50
90.0
  0
ENDBLK
  5
16E2A
  8
0
  0
BLOCK
  8
0
  2
*U92
 70
     1
 10
0.0
 20
0.0
 30
0.0
  3
*U92
  1

  0
TEXT
  5
16E2C
  8
1DIM
 62
   201
 10
-736.97592977307795
 20
-1450.9411115875521
 30
0.0
 40
3.5
  1
40 
  0
ENDBLK
  5
16E2E
  8
0
  0
BLOCK
  8
0
  2
*U93
 70
     1
 10
0.0
 20
0.0
 30
0.0
  3
*U93
  1

  0
TEXT
  5
16E30
  8
1DIM
 62
   201
 10
-741.97592977307795
 20
-1440.9411115875521
 30
0.0
 40
3.5
  1
50 
  0
ENDBLK
  5
16E32
  8
0
  0
BLOCK
  8
0
  2
*U94
 70
     1
 10
0.0
 20
0.0
 30
0.0
  3
*U94
  1

  0
TEXT
  5
16E34
  8
1DIM
 62
   201
 10
-803.01487873206918
 20
-1430.9311115875521
 30
0.0
 40
3.5
  1
123 （ペーパー付き最大値）
  0
ENDBLK
  5
16E36
  8
0
  0
BLOCK
  8
0
  2
*U95
 70
     1
 10
0.0
 20
0.0
 30
0.0
  3
*U95
  1

  0
TEXT
  5
16E38
  8
1DIM
 62
   201
 10
-942.99549263772701
 20
-1324.8006596712139
 30
0.0
 40
3.5
  1
25 
  0
ENDBLK
  5
16E3A
  8
0
  0
BLOCK
  8
0
  2
*U96
 70
     1
 10
0.0
 20
0.0
 30
0.0
  3
*U96
  1

  0
TEXT
  5
16E3C
  8
1DIM
 62
   201
 10
-909.44331601948716
 20
-1350.6011115875519
 30
0.0
 40
3.5
  1
44 
  0
ENDBLK
  5
16E3E
  8
0
  0
BLOCK
  8
0
  2
*U97
 70
     1
 10
0.0
 20
0.0
 30
0.0
  3
*U97
  1

  0
TEXT
  5
16E40
  8
1DIM
 62
   201
 10
-943.8704906377269
 20
-1569.468011577937
 30
0.0
 40
3.5
  1
130 
  0
ENDBLK
  5
16E42
  8
0
  0
ENDSEC
  0
SECTION
  2
ENTITIES
  0
LINE
  5
153C1
  8
01
 10
-875.07882597106027
 20
-1465.491123523489
 30
0.0
 11
-928.07882597106038
 21
-1465.491123523489
 31
0.0
  0
LINE
  5
153C2
  8
01
 10
-1002.0788219710601
 20
-1512.9647409616
 30
0.0
 11
-878.07882597106038
 21
-1512.9647409616
 31
0.0
  0
ARC
  5
153C4
  8
01
 10
-1002.0788219710601
 20
-1509.9647409615991
 30
0.0
 40
3.0
 50
180.0
 51
270.0
  0
LINE
  5
153C5
  8
01
 10
-952.07882197106039
 20
-1465.491123523489
 30
0.0
 11
-1005.0788219710601
 21
-1465.491123523489
 31
0.0
  0
ARC
  5
153C9
  8
01
 10
-878.07882597106038
 20
-1509.9647409615991
 30
0.0
 40
3.0
 50
270.0
 51
0.0
  0
LINE
  5
153D7
  8
01
 10
-874.07881397106041
 20
-1477.7908077094421
 30
0.0
 11
-874.07881397106041
 21
-1465.4908077094419
 31
0.0
  0
LINE
  5
153D8
  8
01
 10
-1006.07883797106
 20
-1477.7908077094421
 30
0.0
 11
-1006.07883797106
 21
-1465.4908077094419
 31
0.0
  0
LINE
  5
15403
  8
01
 10
-875.0788139710603
 20
-1466.4908077094419
 30
0.0
 11
-875.0788139710603
 21
-1465.4908077094419
 31
0.0
  0
LINE
  5
15404
  8
01
 10
-875.0788139710603
 20
-1465.4908077094419
 30
0.0
 11
-874.07881397106041
 21
-1465.4908077094419
 31
0.0
  0
LINE
  5
15405
  8
01
 10
-875.0788139710603
 20
-1477.7908077094421
 30
0.0
 11
-874.07881397106041
 21
-1477.7908077094421
 31
0.0
  0
LINE
  5
15407
  8
01
 10
-875.0788139710603
 20
-1477.7908077094421
 30
0.0
 11
-875.0788139710603
 21
-1476.7908077094421
 31
0.0
  0
LINE
  5
1540B
  8
01
 10
-1005.07883797106
 20
-1477.7908077094421
 30
0.0
 11
-1005.07883797106
 21
-1476.7908077094421
 31
0.0
  0
LINE
  5
1540D
  8
01
 10
-1005.07883797106
 20
-1477.7908077094421
 30
0.0
 11
-1006.07883797106
 21
-1477.7908077094421
 31
0.0
  0
LINE
  5
1540E
  8
01
 10
-1005.07883797106
 20
-1465.4908077094419
 30
0.0
 11
-1006.07883797106
 21
-1465.4908077094419
 31
0.0
  0
LINE
  5
1540F
  8
01
 10
-1005.07883797106
 20
-1466.4908077094419
 30
0.0
 11
-1005.07883797106
 21
-1465.4908077094419
 31
0.0
  0
LINE
  5
1541C
  8
01
 10
-1015.07883797106
 20
-1483.765470587552
 30
0.0
 11
-1015.07883797106
 21
-1520.1385285875519
 31
0.0
  0
LINE
  5
1541D
  8
01
 10
-1023.07883797106
 20
-1483.765470587552
 30
0.0
 11
-1023.07883797106
 21
-1520.1385285875519
 31
0.0
  0
LINE
  5
15421
  8
01
 10
-1005.07883797106
 20
-1536.262888587552
 30
0.0
 11
-875.07882797106026
 21
-1536.262888587552
 31
0.0
  0
LINE
  5
15422
  8
01
 10
-1005.07883797106
 20
-1528.2628875875521
 30
0.0
 11
-875.07882797106026
 21
-1528.2628875875521
 31
0.0
  0
ARC
  5
15425
  8
01
 10
-861.07882757106017
 20
-1513.8442945993429
 30
0.0
 40
4.0
 50
0.0
 51
180.0
  0
LINE
  5
15426
  8
01
 10
-865.07882797106026
 20
-1513.8442945993429
 30
0.0
 11
-865.07882797106026
 21
-1520.1385285875519
 31
0.0
  0
LINE
  5
1542A
  8
01
 10
-857.07882769106027
 20
-1513.8442945993429
 30
0.0
 11
-857.07882769106027
 21
-1520.1385285875519
 31
0.0
  0
LINE
  5
1542E
  8
01
 10
-873.57882597106038
 20
-1468.6411115875519
 30
0.0
 11
-873.57882597106038
 21
-1474.6411115875519
 31
0.0
  0
ARC
  5
1542F
  8
01
 10
-874.57882597106038
 20
-1474.6411115875519
 30
0.0
 40
1.0
 50
300.00079391678918
 51
0.0
  0
ARC
  5
15430
  8
01
 10
-874.57882597106038
 20
-1468.6411115875519
 30
0.0
 40
1.0
 50
0.0
 51
59.999206083210723
  0
LINE
  5
1543D
  8
01
 10
-950.82882597106027
 20
-1395.3012081792281
 30
0.0
 11
-950.07882597106016
 21
-1395.3012081792281
 31
0.0
  0
LINE
  5
1543E
  8
01
 10
-950.82882597106027
 20
-1407.3012081792281
 30
0.0
 11
-950.07882597106016
 21
-1407.3012081792281
 31
0.0
  0
LINE
  5
1543F
  8
01
 10
-929.32882597106027
 20
-1395.3012081792281
 30
0.0
 11
-929.32882597106027
 21
-1407.3012081792281
 31
0.0
  0
LINE
  5
15440
  8
01
 10
-950.82882597106027
 20
-1395.3012081792281
 30
0.0
 11
-950.82882597106027
 21
-1407.3012081792281
 31
0.0
  0
LINE
  5
15441
  8
01
 10
-1015.07883797106
 20
-1413.425567179228
 30
0.0
 11
-1015.0788219710601
 21
-1424.176848179228
 31
0.0
  0
ARC
  5
15444
  8
01
 10
-874.57882597106061
 20
-1398.3012081792281
 30
0.0
 40
1.0
 50
0.0
 51
59.999206083210723
  0
ARC
  5
15445
  8
01
 10
-874.57882597106061
 20
-1404.3012081792281
 30
0.0
 40
1.0
 50
300.00079391678918
 51
0.0
  0
LINE
  5
15446
  8
01
 10
-873.57882597106038
 20
-1398.3012081792281
 30
0.0
 11
-873.57882597106038
 21
-1404.3012081792281
 31
0.0
  0
LINE
  5
15449
  8
01
 10
-857.07881169106042
 20
-1418.9806961792281
 30
0.0
 11
-857.07881169106042
 21
-1424.176848179228
 31
0.0
  0
LINE
  5
1544D
  8
01
 10
-865.07881197106042
 20
-1418.9806961792281
 30
0.0
 11
-865.07881197106042
 21
-1424.176848179228
 31
0.0
  0
ARC
  5
1544E
  8
01
 10
-861.07881157106044
 20
-1418.9806961792281
 30
0.0
 40
4.0
 50
0.0
 51
180.0
  0
LINE
  5
15454
  8
01
 10
-1023.07883797106
 20
-1413.425567179228
 30
0.0
 11
-1023.0788219710601
 21
-1424.176848179228
 31
0.0
  0
LINE
  5
15458
  8
01
 10
-875.07882797106026
 20
-1397.119785970448
 30
0.0
 11
-875.07882797106026
 21
-1397.3012081792281
 31
0.0
  0
LINE
  5
15459
  8
01
 10
-874.07881397106053
 20
-1401.3012081792281
 30
0.0
 11
-874.07881397106053
 21
-1401.300904301118
 31
0.0
  0
LINE
  5
1545B
  8
01
 10
-1005.07883797106
 20
-1407.450904301118
 30
0.0
 11
-1005.07883797106
 21
-1406.450904301118
 31
0.0
  0
LINE
  5
1545C
  8
01
 10
-1005.07883797106
 20
-1407.450904301118
 30
0.0
 11
-1006.07883797106
 21
-1407.450904301118
 31
0.0
  0
LINE
  5
1545D
  8
01
 10
-1005.07883797106
 20
-1395.1509043011181
 30
0.0
 11
-1006.07883797106
 21
-1395.1509043011181
 31
0.0
  0
LINE
  5
1545E
  8
01
 10
-1005.07883797106
 20
-1396.1509043011181
 30
0.0
 11
-1005.07883797106
 21
-1395.1509043011181
 31
0.0
  0
LINE
  5
1545F
  8
01
 10
-875.0788139710603
 20
-1407.450904301118
 30
0.0
 11
-875.0788139710603
 21
-1406.450904301118
 31
0.0
  0
LINE
  5
15460
  8
01
 10
-874.07881397106041
 20
-1407.450904301118
 30
0.0
 11
-874.07881397106041
 21
-1395.1509043011181
 31
0.0
  0
LINE
  5
15461
  8
01
 10
-875.0788139710603
 20
-1407.450904301118
 30
0.0
 11
-874.07881397106041
 21
-1407.450904301118
 31
0.0
  0
LINE
  5
15462
  8
01
 10
-875.0788139710603
 20
-1395.1509043011181
 30
0.0
 11
-874.07881397106041
 21
-1395.1509043011181
 31
0.0
  0
LINE
  5
15463
  8
01
 10
-875.0788139710603
 20
-1396.1509043011181
 30
0.0
 11
-875.0788139710603
 21
-1395.1509043011181
 31
0.0
  0
LINE
  5
15464
  8
01
 10
-928.07882597106038
 20
-1407.4512101792291
 30
0.0
 11
-928.07882597106038
 21
-1406.4512101792291
 31
0.0
  0
LINE
  5
15465
  8
01
 10
-928.07882597106038
 20
-1407.4512101792291
 30
0.0
 11
-929.07882597106038
 21
-1407.4512101792291
 31
0.0
  0
LINE
  5
15466
  8
01
 10
-928.07882597106038
 20
-1395.1512101792291
 30
0.0
 11
-929.07882597106038
 21
-1395.1512101792291
 31
0.0
  0
LINE
  5
15467
  8
01
 10
-928.07882597106038
 20
-1396.1512101792291
 30
0.0
 11
-928.07882597106038
 21
-1395.1512101792291
 31
0.0
  0
LINE
  5
15468
  8
01
 10
-952.0788119710603
 20
-1407.450904301118
 30
0.0
 11
-952.0788119710603
 21
-1406.450904301118
 31
0.0
  0
LINE
  5
15469
  8
01
 10
-951.0788119710603
 20
-1407.450904301118
 30
0.0
 11
-951.0788119710603
 21
-1395.1509043011181
 31
0.0
  0
LINE
  5
1546A
  8
01
 10
-952.0788119710603
 20
-1407.450904301118
 30
0.0
 11
-951.0788119710603
 21
-1407.450904301118
 31
0.0
  0
LINE
  5
1546B
  8
01
 10
-952.0788119710603
 20
-1395.1509043011181
 30
0.0
 11
-951.0788119710603
 21
-1395.1509043011181
 31
0.0
  0
LINE
  5
1546C
  8
01
 10
-952.0788119710603
 20
-1396.1509043011181
 30
0.0
 11
-952.0788119710603
 21
-1395.1509043011181
 31
0.0
  0
LINE
  5
1546D
  8
01
 10
-929.07882597106038
 20
-1407.4512101792291
 30
0.0
 11
-929.07882597106038
 21
-1395.1512101792291
 31
0.0
  0
LINE
  5
1546E
  8
01
 10
-1006.07883797106
 20
-1407.450904301118
 30
0.0
 11
-1006.07883797106
 21
-1395.1509043011181
 31
0.0
  0
LINE
  5
1546F
  8
01
 10
-952.07882197106039
 20
-1395.151220115165
 30
0.0
 11
-1005.0788219710601
 21
-1395.151220115165
 31
0.0
  0
ARC
  5
15470
  8
01
 10
-878.07882597106061
 20
-1438.6411115875519
 30
0.0
 40
3.0
 50
270.0
 51
0.0
  0
LINE
  5
15471
  8
01
 10
-875.07882597106027
 20
-1395.151220115165
 30
0.0
 11
-875.07882597106027
 21
-1438.6411115875519
 31
0.0
  0
ARC
  5
15472
  8
01
 10
-930.0788259710605
 20
-1414.7312081792279
 30
0.0
 40
2.0
 50
270.0
 51
0.0
  0
LINE
  5
15473
  8
01
 10
-928.07882597106038
 20
-1395.151220115165
 30
0.0
 11
-928.07882597106038
 21
-1414.7312081792279
 31
0.0
  0
ARC
  5
15474
  8
01
 10
-950.07882197106073
 20
-1414.7312081792279
 30
0.0
 40
2.0
 50
180.0
 51
270.0
  0
LINE
  5
15475
  8
01
 10
-952.07882197106039
 20
-1395.151220115165
 30
0.0
 11
-952.07882197106039
 21
-1414.7312081792279
 31
0.0
  0
LINE
  5
15476
  8
01
 10
-930.07882597106027
 20
-1416.7312081792279
 30
0.0
 11
-950.07882197106028
 21
-1416.7312081792279
 31
0.0
  0
ARC
  5
15477
  8
01
 10
-1002.078821971061
 20
-1438.6411115875519
 30
0.0
 40
3.0
 50
180.0
 51
270.0
  0
LINE
  5
15478
  8
01
 10
-1005.0788219710601
 20
-1395.151220115165
 30
0.0
 11
-1005.0788219710601
 21
-1438.6411115875519
 31
0.0
  0
LINE
  5
15479
  8
01
 10
-1002.0788219710601
 20
-1441.6411115875519
 30
0.0
 11
-878.07882597106038
 21
-1441.6411115875519
 31
0.0
  0
LINE
  5
1547A
  8
01
 10
-875.07882597106027
 20
-1395.151220115165
 30
0.0
 11
-928.07882597106038
 21
-1395.151220115165
 31
0.0
  0
LINE
  5
15489
  8
01
 10
-930.07882597106095
 20
-1407.3012081792281
 30
0.0
 11
-929.32882597106027
 21
-1407.3012081792281
 31
0.0
  0
LINE
  5
1548A
  8
01
 10
-930.0788259710605
 20
-1395.3012081792281
 30
0.0
 11
-929.32882597106027
 21
-1395.3012081792281
 31
0.0
  0
LINE
  5
1548B
  8
01
 10
-929.07882597106038
 20
-1397.3012081792281
 30
0.0
 11
-929.32882597106027
 21
-1397.3012081792281
 31
0.0
  0
LINE
  5
1548C
  8
01
 10
-929.32882597106027
 20
-1405.3012081792281
 30
0.0
 11
-929.07882597106038
 21
-1405.3012081792281
 31
0.0
  0
LINE
  5
1548D
  8
01
 10
-951.0788119710603
 20
-1405.3012081792281
 30
0.0
 11
-950.82882597106016
 21
-1405.3012081792281
 31
0.0
  0
LINE
  5
1548E
  8
01
 10
-951.0788119710603
 20
-1397.3012081792281
 30
0.0
 11
-950.82882597106016
 21
-1397.3012081792281
 31
0.0
  0
LINE
  5
154AD
  8
01
 10
-875.0788259710605
 20
-1465.491123523489
 30
0.0
 11
-875.07882597106027
 21
-1509.9647409615991
 31
0.0
  0
LINE
  5
154AE
  8
01
 10
-1005.0788219710601
 20
-1465.491123523489
 30
0.0
 11
-1005.0788219710601
 21
-1509.9647409615991
 31
0.0
  0
ARC
  5
15911
  8
01
 10
-763.35092977307795
 20
-1480.6411115875519
 30
0.0
 40
1.0
 50
180.0
 51
270.00000000001302
  0
LINE
  5
15912
  8
01
 10
-764.35092977307795
 20
-1480.6411115875519
 30
0.0
 11
-764.35092977307795
 21
-1462.6411115875519
 31
0.0
  0
LINE
  5
15913
  8
01
 10
-763.35092977307795
 20
-1461.6411115875519
 30
0.0
 11
-714.35092977307795
 21
-1461.6411115875519
 31
0.0
  0
ARC
  5
15914
  8
01
 10
-763.35092977307795
 20
-1462.6411115875519
 30
0.0
 40
1.0
 50
90.0
 51
180.0
  0
LINE
  5
15915
  8
01
 10
-763.35092977307772
 20
-1481.6411115875519
 30
0.0
 11
-723.35092977307977
 21
-1481.641111587553
 31
0.0
  0
LINE
  5
15918
  8
1CENTER
 10
-754.35092977307795
 20
-1474.6411115875519
 30
0.0
 11
-754.35092977307795
 21
-1468.6411115875519
 31
0.0
  0
LINE
  5
15919
  8
1CENTER
 10
-757.35092977307795
 20
-1471.6411115875519
 30
0.0
 11
-751.35092977307795
 21
-1471.6411115875519
 31
0.0
  0
LINE
  5
1591A
  8
01
 10
-705.35092977307795
 20
-1449.6412081792289
 30
0.0
 11
-705.35092977307795
 21
-1529.641208179228
 31
0.0
  0
LINE
  5
1591B
  8
01
 10
-696.35092977307795
 20
-1449.6412081792289
 30
0.0
 11
-696.35092977307795
 21
-1529.641208179228
 31
0.0
  0
LINE
  5
1591C
  8
01
 10
-714.35092977307795
 20
-1449.6412081792289
 30
0.0
 11
-714.35092977307795
 21
-1529.641208179228
 31
0.0
  0
LINE
  5
15931
  8
01
 10
-721.10092977307795
 20
-1516.6412081792289
 30
0.0
 11
-714.35092977307795
 21
-1516.6412081792289
 31
0.0
  0
LINE
  5
15932
  8
01
 10
-721.10092977307806
 20
-1473.641241697434
 30
0.0
 11
-721.10092977307795
 21
-1516.6512081792289
 31
0.0
  0
ARC
  5
15933
  8
01
 10
-722.85092977307875
 20
-1516.341208179228
 30
0.0
 40
0.5
 50
180.0
 51
269.99999999998698
  0
ARC
  5
15934
  8
01
 10
-721.30092977307822
 20
-1516.6412081792289
 30
0.0
 40
0.2
 50
269.99999999998698
 51
0.0
  0
LINE
  5
15935
  8
01
 10
-721.30092977307822
 20
-1516.8412081792289
 30
0.0
 11
-722.85092977307875
 21
-1516.841208179228
 31
0.0
  0
LINE
  5
15936
  8
01
 10
-721.30092977307822
 20
-1516.8412081792289
 30
0.0
 11
-722.85092977307875
 21
-1516.841208179228
 31
0.0
  0
LINE
  5
15937
  8
01
 10
-723.35092977307897
 20
-1482.041111587552
 30
0.0
 11
-723.35092977307886
 21
-1516.341208179228
 31
0.0
  0
LINE
  5
15938
  8
01
 10
-723.35092977307966
 20
-1481.6411115875519
 30
0.0
 11
-723.35092977307886
 21
-1516.341208179228
 31
0.0
  0
LINE
  5
15939
  8
01
 10
-721.10092977307886
 20
-1485.8411115875531
 30
0.0
 11
-721.10092977307795
 21
-1516.6412081792289
 31
0.0
  0
LINE
  5
1593A
  8
01
 10
-721.10092977307897
 20
-1474.341241697434
 30
0.0
 11
-721.10092977307886
 21
-1484.3411115875531
 31
0.0
  0
LINE
  5
1593B
  8
01
 10
-721.10092977307897
 20
-1474.341241697434
 30
0.0
 11
-721.10092977307886
 21
-1484.3411115875531
 31
0.0
  0
LINE
  5
1593C
  8
01
 10
-723.35092977307954
 20
-1482.041111587552
 30
0.0
 11
-723.35092977307886
 21
-1516.341208179228
 31
0.0
  0
LINE
  5
1593D
  8
01
 10
-723.35092977307897
 20
-1471.9412081792291
 30
0.0
 11
-723.35092977307886
 21
-1516.341208179228
 31
0.0
  0
LINE
  5
1593E
  8
01
 10
-721.30092977307822
 20
-1516.8412081792289
 30
0.0
 11
-722.85092977307875
 21
-1516.841208179228
 31
0.0
  0
LINE
  5
1593F
  8
01
 10
-721.30092977307822
 20
-1516.8412081792289
 30
0.0
 11
-722.85092977307875
 21
-1516.841208179228
 31
0.0
  0
ARC
  5
15940
  8
01
 10
-721.30092977307822
 20
-1516.6412081792289
 30
0.0
 40
0.2
 50
269.99999999998698
 51
0.0
  0
ARC
  5
15941
  8
01
 10
-722.85092977307875
 20
-1516.341208179228
 30
0.0
 40
0.5
 50
180.0
 51
269.99999999998698
  0
ARC
  5
15942
  8
1PHANTOM
 10
-716.85092977307795
 20
-1513.641208179228
 30
0.0
 40
0.5
 50
270.0
 51
0.0
  0
LINE
  5
15943
  8
1PHANTOM
 10
-716.85092977307795
 20
-1514.141208179228
 30
0.0
 11
-721.10092977307795
 21
-1514.141208179228
 31
0.0
  0
LINE
  5
15944
  8
1PHANTOM
 10
-716.85092977307795
 20
-1474.1412081792289
 30
0.0
 11
-721.10092977307784
 21
-1474.1412081792289
 31
0.0
  0
ARC
  5
15945
  8
1PHANTOM
 10
-716.85092977307795
 20
-1474.6412081792289
 30
0.0
 40
0.5
 50
0.0
 51
89.999999999993491
  0
LINE
  5
15946
  8
1PHANTOM
 10
-716.35092977307795
 20
-1474.6412081792289
 30
0.0
 11
-716.35092977307795
 21
-1513.641208179228
 31
0.0
  0
LINE
  5
15947
  8
01
 10
-721.10092977307784
 20
-1471.6412081792289
 30
0.0
 11
-721.10092977307795
 21
-1516.6512081792289
 31
0.0
  0
LINE
  5
15948
  8
1PHANTOM
 10
-717.35092977307795
 20
-1490.1412080292289
 30
0.0
 11
-716.35092977307795
 21
-1489.1412083292289
 31
0.0
  0
LINE
  5
15949
  8
1PHANTOM
 10
-717.35092093125741
 20
-1485.8412081792289
 30
0.0
 11
-717.35093861489872
 21
-1493.4412081792291
 31
0.0
  0
LINE
  5
1594A
  8
1PHANTOM
 10
-716.35092977307795
 20
-1485.8412081792289
 30
0.0
 11
-716.35092977307795
 21
-1493.4412081792291
 31
0.0
  0
LINE
  5
1594B
  8
1PHANTOM
 10
-717.35093861489872
 20
-1493.4412081792291
 30
0.0
 11
-716.35092977307795
 21
-1493.4412081792291
 31
0.0
  0
LINE
  5
1594C
  8
1PHANTOM
 10
-717.35092093125741
 20
-1485.8412081792289
 30
0.0
 11
-716.35092977307795
 21
-1485.8412081792289
 31
0.0
  0
LINE
  5
1594D
  8
1PHANTOM
 10
-717.35092977307795
 20
-1508.1412080292289
 30
0.0
 11
-716.35092977307795
 21
-1507.1412083292289
 31
0.0
  0
LINE
  5
1594E
  8
1PHANTOM
 10
-717.35092093125741
 20
-1503.8412081792289
 30
0.0
 11
-717.35093861489872
 21
-1511.4412081792291
 31
0.0
  0
LINE
  5
1594F
  8
1PHANTOM
 10
-716.35092977307795
 20
-1503.8412081792289
 30
0.0
 11
-716.35092977307795
 21
-1511.4412081792291
 31
0.0
  0
LINE
  5
15950
  8
1PHANTOM
 10
-717.35093861489872
 20
-1511.4412081792291
 30
0.0
 11
-716.35092977307795
 21
-1511.4412081792291
 31
0.0
  0
LINE
  5
15951
  8
1PHANTOM
 10
-717.35092093125741
 20
-1503.8412081792289
 30
0.0
 11
-716.35092977307795
 21
-1503.8412081792289
 31
0.0
  0
LINE
  5
15952
  8
01
 10
-721.30092977307777
 20
-1471.4412081792291
 30
0.0
 11
-722.85092977307897
 21
-1471.4412081792291
 31
0.0
  0
ARC
  5
15953
  8
01
 10
-721.30092977307777
 20
-1471.6412081792289
 30
0.0
 40
0.2
 50
0.0
 51
89.999999999993491
  0
ARC
  5
15954
  8
01
 10
-722.85092977307897
 20
-1471.9412081792291
 30
0.0
 40
0.5
 50
90.0
 51
180.0
  0
LINE
  5
15955
  8
01
 10
-721.10092977307772
 20
-1471.6412081792289
 30
0.0
 11
-714.35092977307795
 21
-1471.6412081792289
 31
0.0
  0
CIRCLE
  5
15956
  8
01
 10
-754.35095509812686
 20
-1471.641155451824
 30
0.0
 40
6.1500000000000004
  0
LINE
  5
15958
  8
01
 10
-792.81505038199691
 20
-1530.262922750657
 30
0.0
 11
-764.31636554482964
 21
-1480.9017526637899
 31
0.0
  0
ARC
  5
15959
  8
01
 10
-789.35094876685912
 20
-1532.262922750657
 30
0.0
 40
4.0
 50
150.00000000000011
 51
329.99999999999989
  0
LINE
  5
1595A
  8
01
 10
-779.94902497821272
 20
-1509.97831305983
 30
0.0
 11
-774.75287255550575
 21
-1512.978313059831
 31
0.0
  0
ARC
  5
1595B
  8
01
 10
-780.44902497821261
 20
-1510.844338463615
 30
0.0
 40
1.0
 50
59.999999999999361
 51
150.0000000000004
  0
LINE
  5
1595C
  8
01
 10
-755.50563031145725
 20
-1481.641111587553
 30
0.0
 11
-785.88684715172133
 21
-1534.262922750657
 31
0.0
  0
ARC
  5
1595D
  8
01
 10
-775.25287255550575
 20
-1513.844338463615
 30
0.0
 40
1.0
 50
330.00000000000011
 51
59.999999999999368
  0
CIRCLE
  5
1595E
  8
01
 10
-754.35095509812686
 20
-1471.641155451824
 30
0.0
 40
4.1500000000000004
  0
LINE
  5
1595F
  8
1DIM
 10
-781.31505038199668
 20
-1510.344338463615
 30
0.0
 11
-774.3868471517211
 21
-1514.344338463615
 31
0.0
  0
CIRCLE
  5
159E5
  8
1PHANTOM
 10
-789.35094876685912
 20
-1546.762922750657
 30
0.0
 40
18.5
  0
CIRCLE
  5
159E6
  8
1PHANTOM
 10
-789.35094876685912
 20
-1546.762922750657
 30
0.0
 40
57.5
  0
ARC
  5
15C03
  8
01
 10
-776.87557746053994
 20
-1540.0123108066541
 30
0.0
 40
65.0
 50
105.5211375411595
 51
155.8070373470652
  0
ARC
  5
15C04
  8
01
 10
-776.87557746053994
 20
-1540.0123108066541
 30
0.0
 40
66.0
 50
105.52114149075911
 51
155.8070373470652
  0
LINE
  5
15C05
  8
01
 10
-836.16665723302197
 20
-1513.3745958255761
 30
0.0
 11
-837.07882769106016
 21
-1512.9647848258669
 31
0.0
  0
LINE
  5
15C06
  8
01
 10
-773.07261591320332
 20
-1471.49580696104
 30
0.0
 11
-773.34021849335375
 21
-1470.5322775846871
 31
0.0
  0
LINE
  5
15C07
  8
01
 10
-758.96802674015703
 20
-1467.5784976951229
 30
0.0
 11
-794.26917836909183
 21
-1477.3827439277909
 31
0.0
  0
LINE
  5
15C08
  8
01
 10
-755.99668427391032
 20
-1465.715410845326
 30
0.0
 11
-794.53677661291135
 21
-1476.419213347101
 31
0.0
  0
LINE
  5
15C17
  8
01
 10
-950.07882597106027
 20
-1462.6411115875519
 30
0.0
 11
-950.07882597106027
 21
-1470.5322337204111
 31
0.0
  0
LINE
  5
15C18
  8
01
 10
-930.07882597106027
 20
-1462.6411115875519
 30
0.0
 11
-930.0788259710605
 21
-1470.532233720415
 31
0.0
  0
LINE
  5
15C19
  8
01
 10
-949.07882597106027
 20
-1461.6411115875519
 30
0.0
 11
-931.07882597106027
 21
-1461.6411115875519
 31
0.0
  0
ARC
  5
15C1A
  8
01
 10
-949.07882597106027
 20
-1462.6411115875519
 30
0.0
 40
1.0
 50
90.0
 51
180.0
  0
ARC
  5
15C1B
  8
01
 10
-931.07882597106027
 20
-1462.6411115875519
 30
0.0
 40
1.0
 50
0.0
 51
90.0
  0
ARC
  5
15C23
  8
01
 10
-961.27882597105986
 20
-1515.8412081792289
 30
0.0
 40
1.0
 50
180.0
 51
269.99999999997391
  0
ARC
  5
15C24
  8
01
 10
-918.87882597106034
 20
-1515.841208179228
 30
0.0
 40
1.0
 50
270.00000000001302
 51
359.99999999997402
  0
LINE
  5
15C27
  8
01
 10
-962.27882597106043
 20
-1512.9647409616
 30
0.0
 11
-962.27882597106043
 21
-1515.8412081792289
 31
0.0
  0
LINE
  5
15C29
  8
01
 10
-918.87882597106022
 20
-1516.8412081792289
 30
0.0
 11
-961.27882597106054
 21
-1516.8412081792289
 31
0.0
  0
LINE
  5
15C2B
  8
1CENTER
 10
-952.57882597106027
 20
-1495.6412081792289
 30
0.0
 11
-952.57882597106027
 21
-1483.6412081792289
 31
0.0
  0
LINE
  5
15C2C
  8
1CENTER
 10
-958.57882597106038
 20
-1489.6412081792289
 30
0.0
 11
-946.57882597106038
 21
-1489.6412081792289
 31
0.0
  0
LINE
  5
15C2D
  8
1CENTER
 10
-927.57882597106027
 20
-1495.6412081792289
 30
0.0
 11
-927.57882597106027
 21
-1483.6412081792289
 31
0.0
  0
LINE
  5
15C2E
  8
1CENTER
 10
-933.57882597106038
 20
-1489.6412081792289
 30
0.0
 11
-921.57882597106038
 21
-1489.6412081792289
 31
0.0
  0
LINE
  5
15C2F
  8
1CENTER
 10
-940.07882597106027
 20
-1513.6412081792289
 30
0.0
 11
-940.07882597106027
 21
-1501.6412081792289
 31
0.0
  0
LINE
  5
15C30
  8
1CENTER
 10
-946.07882597106038
 20
-1507.6412081792289
 30
0.0
 11
-934.07882597106038
 21
-1507.6412081792289
 31
0.0
  0
LINE
  5
15C73
  8
01
 10
-950.82882597106027
 20
-1465.6411115875519
 30
0.0
 11
-950.07882597106016
 21
-1465.6411115875519
 31
0.0
  0
LINE
  5
15C75
  8
01
 10
-929.32882597106027
 20
-1465.6411115875519
 30
0.0
 11
-929.32882597106027
 21
-1470.386283342189
 31
0.0
  0
LINE
  5
15C76
  8
01
 10
-950.82882597106027
 20
-1465.6411115875519
 30
0.0
 11
-950.82882597106027
 21
-1470.386281724104
 31
0.0
  0
LINE
  5
15C79
  8
01
 10
-928.07882597106038
 20
-1465.491113587552
 30
0.0
 11
-929.07882597106038
 21
-1465.491113587552
 31
0.0
  0
LINE
  5
15C7A
  8
01
 10
-928.07882597106038
 20
-1466.4911135875529
 30
0.0
 11
-928.07882597106038
 21
-1465.491113587552
 31
0.0
  0
LINE
  5
15C7E
  8
01
 10
-952.0788119710603
 20
-1465.4908077094419
 30
0.0
 11
-951.0788119710603
 21
-1465.4908077094419
 31
0.0
  0
LINE
  5
15C7F
  8
01
 10
-952.0788119710603
 20
-1466.4908077094419
 30
0.0
 11
-952.0788119710603
 21
-1465.4908077094419
 31
0.0
  0
LINE
  5
15C82
  8
01
 10
-930.0788259710605
 20
-1465.6411115875519
 30
0.0
 11
-929.32882597106027
 21
-1465.6411115875519
 31
0.0
  0
LINE
  5
15C83
  8
01
 10
-929.07882597106038
 20
-1467.6411115875519
 30
0.0
 11
-929.32882597106027
 21
-1467.6411115875519
 31
0.0
  0
LINE
  5
15C86
  8
01
 10
-951.0788119710603
 20
-1467.6411115875519
 30
0.0
 11
-950.82882597106016
 21
-1467.6411115875519
 31
0.0
  0
LINE
  5
15C87
  8
01
 10
-917.87882597106
 20
-1512.9647409616
 30
0.0
 11
-917.87882597106
 21
-1515.8412081792289
 31
0.0
  0
LINE
  5
15C8B
  8
1PHANTOM
 10
-883.04704578485087
 20
-1489.2628788863849
 30
0.0
 11
-883.04704578485143
 21
-1604.2628788863849
 31
0.0
  0
LINE
  5
15C8C
  8
1PHANTOM
 10
-997.04704578485087
 20
-1489.2628788863849
 30
0.0
 11
-997.04704578485041
 21
-1604.2628788863849
 31
0.0
  0
LINE
  5
15C8D
  8
1PHANTOM
 10
-883.04704578485087
 20
-1489.2628788863849
 30
0.0
 11
-997.04704578485087
 21
-1489.2628788863849
 31
0.0
  0
LINE
  5
15C8E
  8
1PHANTOM
 10
-883.04704578485143
 20
-1604.2628788863849
 30
0.0
 11
-997.04704578485041
 21
-1604.2628788863849
 31
0.0
  0
ARC
  5
15C99
  8
01
 10
-931.07882597106027
 20
-1410.301111587552
 30
0.0
 40
1.0
 50
270.0
 51
0.0
  0
ARC
  5
15C9A
  8
01
 10
-949.07882597106027
 20
-1410.301111587552
 30
0.0
 40
1.0
 50
180.0
 51
270.0
  0
LINE
  5
15C9B
  8
01
 10
-918.07882597106016
 20
-1367.801111587552
 30
0.0
 11
-930.07882597106027
 21
-1367.801111587552
 31
0.0
  0
LINE
  5
15C9C
  8
01
 10
-931.07882597106027
 20
-1411.301111587552
 30
0.0
 11
-949.07882597106027
 21
-1411.301111587552
 31
0.0
  0
LINE
  5
15C9D
  8
01
 10
-918.07882597106016
 20
-1361.301111587552
 30
0.0
 11
-962.07882597106038
 21
-1361.301111587552
 31
0.0
  0
LINE
  5
15C9E
  8
01
 10
-962.07882597106038
 20
-1361.301111587552
 30
0.0
 11
-962.07882597106038
 21
-1367.801111587552
 31
0.0
  0
LINE
  5
15C9F
  8
01
 10
-918.07882597106016
 20
-1361.301111587552
 30
0.0
 11
-918.07882597106016
 21
-1367.801111587552
 31
0.0
  0
LINE
  5
15CA0
  8
01
 10
-950.07882597106027
 20
-1361.301111587552
 30
0.0
 11
-950.07882597106027
 21
-1410.301111587552
 31
0.0
  0
LINE
  5
15CA1
  8
01
 10
-930.07882597106027
 20
-1361.301111587552
 30
0.0
 11
-930.07882597106027
 21
-1410.301111587552
 31
0.0
  0
LINE
  5
15CA2
  8
01
 10
-950.07882597106061
 20
-1367.801111587552
 30
0.0
 11
-962.07882597106038
 21
-1367.801111587552
 31
0.0
  0
LINE
  5
15CA3
  8
01
 10
-962.27882597106066
 20
-1369.551111587552
 30
0.0
 11
-962.27882597106066
 21
-1368.001111587552
 31
0.0
  0
ARC
  5
15CA4
  8
01
 10
-961.77882597106088
 20
-1369.551111587552
 30
0.0
 40
0.5
 50
179.99999999997391
 51
270.00000000002598
  0
ARC
  5
15CA5
  8
01
 10
-962.07882597106061
 20
-1368.001111587552
 30
0.0
 40
0.2
 50
90.0
 51
180.0
  0
ARC
  5
15CA6
  8
01
 10
-929.67882597106063
 20
-1369.8511115875519
 30
0.0
 40
0.2
 50
180.0
 51
270.0
  0
ARC
  5
15CA7
  8
01
 10
-950.47882597106036
 20
-1369.8511115875519
 30
0.0
 40
0.2
 50
270.0
 51
0.0
  0
ARC
  5
15CA8
  8
01
 10
-929.67882597106063
 20
-1368.001111587552
 30
0.0
 40
0.2
 50
90.0
 51
180.0
  0
ARC
  5
15CA9
  8
01
 10
-950.47882597106036
 20
-1368.001111587552
 30
0.0
 40
0.2
 50
0.0
 51
90.0
  0
ARC
  5
15CAA
  8
01
 10
-918.07882597106016
 20
-1368.001111587552
 30
0.0
 40
0.2
 50
0.0
 51
90.0
  0
ARC
  5
15CAB
  8
01
 10
-918.37882597105988
 20
-1369.551111587552
 30
0.0
 40
0.5
 50
269.99999999997391
 51
0.0
  0
LINE
  5
15CAC
  8
01
 10
-917.87882597106
 20
-1369.551111587552
 30
0.0
 11
-917.87882597106
 21
-1368.001111587552
 31
0.0
  0
LINE
  5
15CAD
  8
01
 10
-929.87882597106045
 20
-1369.8511115875519
 30
0.0
 11
-929.87882597106045
 21
-1368.001111587552
 31
0.0
  0
LINE
  5
15CAE
  8
01
 10
-950.27882597106031
 20
-1368.001111587552
 30
0.0
 11
-950.27882597106031
 21
-1369.8511115875519
 31
0.0
  0
LINE
  5
15CAF
  8
01
 10
-961.77882597105997
 20
-1370.051111587552
 30
0.0
 11
-950.07882597106027
 21
-1370.051111587552
 31
0.0
  0
LINE
  5
15CB0
  8
01
 10
-962.07882597105981
 20
-1367.801111587552
 30
0.0
 11
-950.07882597106027
 21
-1367.801111587552
 31
0.0
  0
LINE
  5
15CB1
  8
01
 10
-930.07882597106016
 20
-1370.051111587552
 30
0.0
 11
-918.37882597105988
 21
-1370.051111587552
 31
0.0
  0
LINE
  5
15CB2
  8
01
 10
-930.07882597106016
 20
-1367.801111587552
 30
0.0
 11
-918.07882597106016
 21
-1367.801111587552
 31
0.0
  0
LINE
  5
15CB3
  8
1PHANTOM
 10
-959.07882597106061
 20
-1363.301111587552
 30
0.0
 11
-921.07882597106016
 21
-1363.3011115875529
 31
0.0
  0
ARC
  5
15CB4
  8
1PHANTOM
 10
-959.07882597106061
 20
-1363.801111587552
 30
0.0
 40
0.5
 50
90.0
 51
180.0
  0
LINE
  5
15CB5
  8
1PHANTOM
 10
-920.57882597106016
 20
-1363.8011115875529
 30
0.0
 11
-920.57882597106016
 21
-1367.801111587552
 31
0.0
  0
ARC
  5
15CB6
  8
1PHANTOM
 10
-921.07882597106016
 20
-1363.8011115875529
 30
0.0
 40
0.5
 50
0.0
 51
90.0
  0
LINE
  5
15CB7
  8
1PHANTOM
 10
-959.5788259710605
 20
-1363.801111587552
 30
0.0
 11
-959.5788259710605
 21
-1367.801111587552
 31
0.0
  0
LINE
  5
15CB9
  8
1PHANTOM
 10
-927.07882612106005
 20
-1364.301111587552
 30
0.0
 11
-928.07882582106004
 21
-1363.301111587552
 31
0.0
  0
LINE
  5
15CBA
  8
1PHANTOM
 10
-931.37882597106
 20
-1364.3011027457319
 30
0.0
 11
-923.77882597106009
 21
-1364.301120429373
 31
0.0
  0
LINE
  5
15CBB
  8
1PHANTOM
 10
-931.37882597106
 20
-1363.301111587552
 30
0.0
 11
-923.77882597106009
 21
-1363.301111587552
 31
0.0
  0
LINE
  5
15CBC
  8
1PHANTOM
 10
-923.77882597106009
 20
-1364.301120429373
 30
0.0
 11
-923.77882597106009
 21
-1363.301111587552
 31
0.0
  0
LINE
  5
15CBD
  8
1PHANTOM
 10
-931.37882597106
 20
-1364.3011027457319
 30
0.0
 11
-931.37882597106
 21
-1363.301111587552
 31
0.0
  0
LINE
  5
15CBF
  8
1PHANTOM
 10
-939.57882612106005
 20
-1364.301111587552
 30
0.0
 11
-940.57882582106004
 21
-1363.301111587552
 31
0.0
  0
LINE
  5
15CC0
  8
1PHANTOM
 10
-943.87882597106
 20
-1364.3011027457319
 30
0.0
 11
-936.27882597106009
 21
-1364.301120429373
 31
0.0
  0
LINE
  5
15CC1
  8
1PHANTOM
 10
-943.87882597106
 20
-1363.301111587552
 30
0.0
 11
-936.27882597106009
 21
-1363.301111587552
 31
0.0
  0
LINE
  5
15CC2
  8
1PHANTOM
 10
-936.27882597106009
 20
-1364.301120429373
 30
0.0
 11
-936.27882597106009
 21
-1363.301111587552
 31
0.0
  0
LINE
  5
15CC3
  8
1PHANTOM
 10
-943.87882597106
 20
-1364.3011027457319
 30
0.0
 11
-943.87882597106
 21
-1363.301111587552
 31
0.0
  0
LINE
  5
15CC5
  8
1PHANTOM
 10
-952.07882612106005
 20
-1364.301111587552
 30
0.0
 11
-953.07882582106004
 21
-1363.301111587552
 31
0.0
  0
LINE
  5
15CC6
  8
1PHANTOM
 10
-956.37882597106
 20
-1364.3011027457319
 30
0.0
 11
-948.77882597106009
 21
-1364.301120429373
 31
0.0
  0
LINE
  5
15CC7
  8
1PHANTOM
 10
-956.37882597106
 20
-1363.301111587552
 30
0.0
 11
-948.77882597106009
 21
-1363.301111587552
 31
0.0
  0
LINE
  5
15CC8
  8
1PHANTOM
 10
-948.77882597106009
 20
-1364.301120429373
 30
0.0
 11
-948.77882597106009
 21
-1363.301111587552
 31
0.0
  0
LINE
  5
15CC9
  8
1PHANTOM
 10
-956.37882597106
 20
-1364.3011027457319
 30
0.0
 11
-956.37882597106
 21
-1363.301111587552
 31
0.0
  0
LINE
  5
15CCC
  8
01
 10
-950.07882197106028
 20
-1470.532233720415
 30
0.0
 11
-930.07882597106027
 21
-1470.532233720415
 31
0.0
  0
LINE
  5
15CCD
  8
01
 10
-952.07882197106039
 20
-1468.532233720415
 30
0.0
 11
-952.07882197106039
 21
-1465.491123523489
 31
0.0
  0
LINE
  5
15CCE
  8
01
 10
-928.07882597106038
 20
-1468.532233720415
 30
0.0
 11
-928.07882597106038
 21
-1465.491123523489
 31
0.0
  0
ARC
  5
15CCF
  8
01
 10
-930.07882597106027
 20
-1468.532233720415
 30
0.0
 40
2.0
 50
270.0
 51
0.0
  0
ARC
  5
15CD0
  8
01
 10
-950.07882197106028
 20
-1468.532233720415
 30
0.0
 40
2.0
 50
180.0
 51
270.0
  0
LINE
  5
15CD6
  8
01
 10
-951.07881197106053
 20
-1467.6411115875519
 30
0.0
 11
-950.82882597106027
 21
-1467.6411115875519
 31
0.0
  0
LINE
  5
15CD9
  8
01
 10
-929.32882597106027
 20
-1467.6411115875519
 30
0.0
 11
-929.07882597106016
 21
-1467.6411115875519
 31
0.0
  0
LINE
  5
15CDA
  8
01
 10
-951.07881197106053
 20
-1470.264290301448
 30
0.0
 11
-951.0788119710603
 21
-1465.4908077094419
 31
0.0
  0
LINE
  5
15CDD
  8
01
 10
-929.0788259710605
 20
-1470.264284527984
 30
0.0
 11
-929.07882597106038
 21
-1465.491113587552
 31
0.0
  0
LINE
  5
15ED2
  8
01
 10
-1005.0788219710601
 20
-1440.3012081792281
 30
0.0
 11
-1004.577637551752
 21
-1440.3012081792281
 31
0.0
  0
LINE
  5
15ED3
  8
01
 10
-875.07881097106031
 20
-1440.3012081792281
 30
0.0
 11
-875.55102391368939
 21
-1440.3012081792281
 31
0.0
  0
TEXT
  5
160B9
  8
1TEXT
 10
-759.59854882069692
 20
-1366.801111587552
 30
0.0
 40
4.0
  1
表面処理：
 72
     1
 11
-748.95092977307775
 21
-1366.801111587552
 31
0.0
  0
TEXT
  5
160BA
  8
1TEXT
 10
-758.28426310641123
 20
-1373.779006607537
 30
0.0
 40
4.0
  1
クローム
 72
     1
 11
-748.95092977307775
 21
-1373.779006607537
 31
0.0
  0
LINE
  5
160BB
  8
1DIM
 10
-766.35092977307795
 20
-1361.301111587552
 30
0.0
 11
-696.35092977307795
 21
-1361.301111587552
 31
0.0
  0
LINE
  5
160BC
  8
1DIM
 10
-766.35092977307795
 20
-1375.301111587552
 30
0.0
 11
-696.35092977307795
 21
-1375.301111587552
 31
0.0
  0
LINE
  5
160BD
  8
1DIM
 10
-766.35092977307795
 20
-1368.301111587552
 30
0.0
 11
-696.35092977307795
 21
-1368.301111587552
 31
0.0
  0
LINE
  5
160BE
  8
1DIM
 10
-731.35092977307795
 20
-1361.301111587552
 30
0.0
 11
-731.35092977307795
 21
-1375.301111587552
 31
0.0
  0
TEXT
  5
160BF
  8
1TEXT
 10
-726.95092977307741
 20
-1374.0154685712021
 30
0.0
 40
4.0
  1
SC043XC
 72
     1
 11
-713.95092977307741
 21
-1374.0154685712021
 31
0.0
  0
TEXT
  5
160C0
  8
1TEXT
 10
-720.75092977307781
 20
-1366.801111587552
 30
0.0
 40
4.0
  1
コード
 72
     1
 11
-713.95092977307786
 21
-1366.801111587552
 31
0.0
  0
LINE
  5
160C1
  8
1DIM
 10
-766.35092977307795
 20
-1375.301111587552
 30
0.0
 11
-766.35092977307795
 21
-1361.301111587552
 31
0.0
  0
LINE
  5
160C2
  8
1DIM
 10
-696.35092977307795
 20
-1375.301111587552
 30
0.0
 11
-696.35092977307795
 21
-1361.301111587552
 31
0.0
  0
TEXT
  5
160C3
  8
1TEXT
 10
-766.35092977307795
 20
-1355.2656156783351
 30
0.0
 40
8.0
  1
SC043XC
  0
ARC
  5
16772
  8
01
 10
-1005.271339547733
 20
-1415.2892155512529
 30
0.0
 40
17.981245567541979
 50
92.573861915643107
 51
97.99981568365456
  0
ARC
  5
16773
  8
01
 10
-1005.446705365359
 20
-1415.2626713675579
 30
0.0
 40
17.931359590135571
 50
97.456720863681994
 51
102.8826746316935
  0
ARC
  5
16774
  8
01
 10
-1005.6187730078821
 20
-1415.2195899481801
 30
0.0
 40
17.851699566859772
 50
102.37513915152989
 51
107.8010929195414
  0
ARC
  5
16775
  8
01
 10
-1005.785989839517
 20
-1415.1605619164311
 30
0.0
 40
17.744938661721061
 50
107.3452858690468
 51
112.7712396370583
  0
ARC
  5
16776
  8
01
 10
-1005.946891122239
 20
-1415.0858880472399
 30
0.0
 40
17.61421284316296
 50
112.38266344173699
 51
117.8086172097485
  0
ARC
  5
16777
  8
01
 10
-1006.099992878746
 20
-1414.9963598850691
 30
0.0
 40
17.463850353217332
 50
117.50135526326331
 51
122.9273090312749
  0
ARC
  5
16778
  8
01
 10
-1006.243942995814
 20
-1414.8926786428569
 30
0.0
 40
17.298696878056742
 50
122.7137825173195
 51
128.139736285331
  0
ARC
  5
16779
  8
01
 10
-1006.377456293988
 20
-1414.7760427862161
 30
0.0
 40
17.124538382653199
 50
128.02940086213059
 51
133.4553546301421
  0
ARC
  5
1677A
  8
01
 10
-1006.49934066578
 20
-1414.647165365011
 30
0.0
 40
16.947154158937568
 50
133.4559068709579
 51
138.88186063896941
  0
ARC
  5
1677B
  8
01
 10
-1006.608491558811
 20
-1414.507410181785
 30
0.0
 40
16.773053293599599
 50
138.99631584295491
 51
144.42226961096651
  0
ARC
  5
1677C
  8
01
 10
-1006.703928665745
 20
-1414.3578256233229
 30
0.0
 40
16.60853407040457
 50
144.65042202410709
 51
150.07637579211871
  0
ARC
  5
1677D
  8
01
 10
-1006.784812062427
 20
-1414.2000842953989
 30
0.0
 40
16.460026737558991
 50
150.4118140934597
 51
155.83776786147121
  0
ARC
  5
1677E
  8
01
 10
-1006.8503911394409
 20
-1414.0352158038011
 30
0.0
 40
16.333176316730629
 50
156.27128811787679
 51
161.6972418858883
  0
ARC
  5
1677F
  8
01
 10
-1006.900106808756
 20
-1413.864980956464
 30
0.0
 40
16.23317216810803
 50
162.21259870134571
 51
167.63855246935719
  0
ARC
  5
16780
  8
01
 10
-1006.933498228528
 20
-1413.690824578166
 30
0.0
 40
16.164093384394619
 50
168.216232733797
 51
173.64218650180851
  0
ARC
  5
16781
  8
01
 10
-1006.9502805615
 20
-1413.514310561083
 30
0.0
 40
16.128801562927379
 50
174.25878651048981
 51
179.68474027850129
  0
ARC
  5
16782
  8
01
 10
-1005.351644369247
 20
-1415.2791775594069
 30
0.0
 40
9.9638183521626704
 50
94.185363533817068
 51
99.451665413539345
  0
ARC
  5
16783
  8
01
 10
-1005.520638509421
 20
-1415.2463840201831
 30
0.0
 40
9.9050322261870232
 50
98.518497025731506
 51
103.7847989054539
  0
ARC
  5
16784
  8
01
 10
-1005.685897626677
 20
-1415.1981988111429
 30
0.0
 40
9.8199883569035968
 50
102.91530467940279
 51
108.1816065591251
  0
ARC
  5
16785
  8
01
 10
-1005.84602157439
 20
-1415.13492461959
 30
0.0
 40
9.7108122760581583
 50
107.4004785770744
 51
112.6667804567968
  0
ARC
  5
16786
  8
01
 10
-1005.999697997376
 20
-1415.0574023366721
 30
0.0
 40
9.5807091070289605
 50
111.997375991097
 51
117.26367787081929
  0
ARC
  5
16787
  8
01
 10
-1006.14557337933
 20
-1414.9658371331459
 30
0.0
 40
9.4329005186874202
 50
116.73082526097021
 51
121.9971271406925
  0
ARC
  5
16788
  8
01
 10
-1006.282453507234
 20
-1414.861561985547
 30
0.0
 40
9.2721373622440648
 50
121.6212247545788
 51
126.8875266343012
  0
ARC
  5
16789
  8
01
 10
-1006.40916864673
 20
-1414.744889768476
 30
0.0
 40
9.1028147312031891
 50
126.6904099708061
 51
131.95671185052851
  0
ARC
  5
1678A
  8
01
 10
-1006.5246452861981
 20
-1414.6173216623099
 30
0.0
 40
8.9307446123937151
 50
131.95295139509619
 51
137.21925327481861
  0
ARC
  5
1678B
  8
01
 10
-1006.627928520624
 20
-1414.4795159658761
 30
0.0
 40
8.7613969646332919
 50
137.42194238487349
 51
142.6882442645958
  0
ARC
  5
1678C
  8
01
 10
-1006.718130075305
 20
-1414.332958902243
 30
0.0
 40
8.60104209715732
 50
143.10051572612781
 51
148.3668176058502
  0
ARC
  5
1678D
  8
01
 10
-1006.794500049934
 20
-1414.1787029740849
 30
0.0
 40
8.4556076463839744
 50
148.9853670814764
 51
154.2516689611989
  0
ARC
  5
1678E
  8
01
 10
-1006.8563766863369
 20
-1414.0179555656159
 30
0.0
 40
8.3308773591199081
 50
155.0626007741642
 51
160.32890265388659
  0
ARC
  5
1678F
  8
01
 10
-1006.903247240562
 20
-1413.8523438833649
 30
0.0
 40
8.2321873079966501
 50
161.30452245853999
 51
166.57082433826241
  0
ARC
  5
16790
  8
01
 10
-1006.934719494679
 20
-1413.682985472695
 30
0.0
 40
8.1637610940742924
 50
167.6757044982019
 51
172.9420063779242
  0
ARC
  5
16791
  8
01
 10
-1006.950514140673
 20
-1413.511736642045
 30
0.0
 40
8.1287805752337192
 50
174.12631349893459
 51
179.3926153786569
  0
ARC
  5
16792
  8
01
 10
-1006.949950841145
 20
-1424.084872744424
 30
0.0
 40
16.129133368599248
 50
180.32672403264851
 51
185.95172423674481
  0
ARC
  5
16793
  8
01
 10
-1006.9319209441441
 20
-1423.9019649482359
 30
0.0
 40
16.167034525835909
 50
186.58984074007481
 51
192.2148409441711
  0
ARC
  5
16794
  8
01
 10
-1006.896055378788
 20
-1423.721642208327
 30
0.0
 40
16.24111614066814
 50
192.80982626079219
 51
198.43482646488849
  0
ARC
  5
16795
  8
01
 10
-1006.8426870691829
 20
-1423.5457692848629
 30
0.0
 40
16.34804925354927
 50
198.96044564575689
 51
204.58544584985319
  0
ARC
  5
16796
  8
01
 10
-1006.772339056742
 20
-1423.3758614966951
 30
0.0
 40
16.483185513458871
 50
205.02077202712701
 51
210.6457722312233
  0
ARC
  5
16797
  8
01
 10
-1006.685699855673
 20
-1423.2137326079851
 30
0.0
 40
16.640639056142881
 50
210.97398177288861
 51
216.59898197698479
  0
ARC
  5
16798
  8
01
 10
-1006.583543097502
 20
-1423.0608196095709
 30
0.0
 40
16.813935500755608
 50
216.8097648858066
 51
222.43476508990281
  0
ARC
  5
16799
  8
01
 10
-1006.466886618936
 20
-1422.9188201055949
 30
0.0
 40
16.995867590142929
 50
222.5227125284585
 51
228.14771273255471
  0
ARC
  5
1679A
  8
01
 10
-1006.336851750933
 20
-1422.7887935401991
 30
0.0
 40
17.179484003350691
 50
228.11401664175179
 51
233.73901684584811
  0
ARC
  5
1679B
  8
01
 10
-1006.1948586507179
 20
-1422.672081416179
 30
0.0
 40
17.357636011029221
 50
233.58894985888421
 51
239.21395006298039
  0
ARC
  5
1679C
  8
01
 10
-1006.041935815492
 20
-1422.5700206856559
 30
0.0
 40
17.523764554540971
 50
238.9552073281626
 51
244.5802075322589
  0
ARC
  5
1679D
  8
01
 10
-1005.879694633127
 20
-1422.4833263087271
 30
0.0
 40
17.672045498464222
 50
244.22576855742469
 51
249.85076876152101
  0
ARC
  5
1679E
  8
01
 10
-1005.709985827475
 20
-1422.412955472143
 30
0.0
 40
17.7970811894454
 50
249.41588269348611
 51
255.04088289758229
  0
ARC
  5
1679F
  8
01
 10
-1005.534057017043
 20
-1422.35959192531
 30
0.0
 40
17.894730383300221
 50
254.5407775231136
 51
260.16577772720979
  0
ARC
  5
167A0
  8
01
 10
-1005.3536190430181
 20
-1422.3238177576161
 30
0.0
 40
17.961617797927101
 50
259.61813847141991
 51
265.24313867551598
  0
ARC
  5
167A1
  8
01
 10
-1005.1707777465761
 20
-1422.3057112890911
 30
0.0
 40
17.995731832509112
 50
264.66777481702439
 51
270.29277502112069
  0
ARC
  5
167A2
  8
01
 10
-1006.949938031904
 20
-1424.0848510366341
 30
0.0
 40
8.1294044915060741
 50
180.64839967266769
 51
186.27339987676399
  0
ARC
  5
167A3
  8
01
 10
-1006.931926247409
 20
-1423.9020108408261
 30
0.0
 40
8.1692662595294614
 50
187.53438232309909
 51
193.15938252719531
  0
ARC
  5
167A4
  8
01
 10
-1006.896059170678
 20
-1423.7216471398369
 30
0.0
 40
8.2469536096804852
 50
194.32290563284829
 51
199.9479058369447
  0
ARC
  5
167A5
  8
01
 10
-1006.842685852626
 20
-1423.545704225766
 30
0.0
 40
8.3584462460632079
 50
200.95683741857499
 51
206.5818376226712
  0
ARC
  5
167A6
  8
01
 10
-1006.772332547366
 20
-1423.3759012813759
 30
0.0
 40
8.4981981656606962
 50
207.3934308228317
 51
213.018431026928
  0
ARC
  5
167A7
  8
01
 10
-1006.685667889928
 20
-1423.2137021027611
 30
0.0
 40
8.6597049249485565
 50
213.6058351614362
 51
219.23083536553241
  0
ARC
  5
167A8
  8
01
 10
-1006.583538962679
 20
-1423.0608919860099
 30
0.0
 40
8.8356222635444457
 50
219.57955718612831
 51
225.20455739022461
  0
ARC
  5
167A9
  8
01
 10
-1006.466895762101
 20
-1422.918728231208
 30
0.0
 40
9.0187064474610121
 50
225.315050505057
 51
230.94005070915341
  0
ARC
  5
167AA
  8
01
 10
-1006.336904042549
 20
-1422.788814361101
 30
0.0
 40
9.2015147531347612
 50
230.82128202250391
 51
236.44628222660009
  0
ARC
  5
167AB
  8
01
 10
-1006.1947937166281
 20
-1422.6721388477561
 30
0.0
 40
9.3774505483626545
 50
236.11670054643409
 51
241.7417007505303
  0
ARC
  5
167AC
  8
01
 10
-1006.041921165733
 20
-1422.5699438312449
 30
0.0
 40
9.5402333380546605
 50
241.22358446253531
 51
246.8485846666315
  0
ARC
  5
167AD
  8
01
 10
-1005.879790484211
 20
-1422.4833625102819
 30
0.0
 40
9.6842690993595824
 50
246.1679864447793
 51
251.7929866488756
  0
ARC
  5
167AE
  8
01
 10
-1005.7099381238399
 20
-1422.41295225559
 30
0.0
 40
9.8052149955117969
 50
250.9786890528668
 51
256.60368925696309
  0
ARC
  5
167AF
  8
01
 10
-1005.534010559889
 20
-1422.359646105866
 30
0.0
 40
9.8991042042902357
 50
255.6845744007787
 51
261.30957460487491
  0
ARC
  5
167B0
  8
01
 10
-1005.353704646543
 20
-1422.3237619944809
 30
0.0
 40
9.963318614360654
 50
260.31572858450397
 51
265.94072878860032
  0
ARC
  5
167B1
  8
01
 10
-1005.170743861049
 20
-1422.3057376907821
 30
0.0
 40
9.9958921526960491
 50
264.90189729485297
 51
270.5268974989491
  0
ARC
  5
167B2
  8
01
 10
-874.98685569554459
 20
-1422.3057214668261
 30
0.0
 40
17.99572165235249
 50
269.7072264052041
 51
275.33222660930028
  0
ARC
  5
167B3
  8
01
 10
-874.80401139910236
 20
-1422.323746513481
 30
0.0
 40
17.961688506423251
 50
274.756831352147
 51
280.3818315562433
  0
ARC
  5
167B4
  8
01
 10
-874.6235704250779
 20
-1422.3596021030439
 30
0.0
 40
17.894720440515869
 50
279.8342294160326
 51
285.45922962012889
  0
ARC
  5
167B5
  8
01
 10
-874.44764361464559
 20
-1422.412986005344
 30
0.0
 40
17.797052078203361
 50
284.95914714162501
 51
290.58414734572131
  0
ARC
  5
167B6
  8
01
 10
-874.27783468166149
 20
-1422.4833343620451
 30
0.0
 40
17.672002931053932
 50
290.14893090417888
 51
295.77393110827518
  0
ARC
  5
167B7
  8
01
 10
-874.11579570395998
 20
-1422.5699951524571
 30
0.0
 40
17.523839691588481
 50
295.4200387223907
 51
301.04503892648688
  0
ARC
  5
167B8
  8
01
 10
-873.96277209140248
 20
-1422.6721323048471
 30
0.0
 40
17.357593572968199
 50
300.78614300357191
 51
306.4111432076682
  0
ARC
  5
167B9
  8
01
 10
-873.82077999118815
 20
-1422.7887630069979
 30
0.0
 40
17.17950773603928
 50
306.26091889034728
 51
311.88591909444352
  0
ARC
  5
167BA
  8
01
 10
-873.69063879585235
 20
-1422.9187630214201
 30
0.0
 40
16.99584016857542
 50
311.8518956400992
 51
317.4768958441955
  0
ARC
  5
167BB
  8
01
 10
-873.57418537195042
 20
-1423.0608765160109
 30
0.0
 40
16.813980849323691
 50
317.56559275871859
 51
323.19059296281478
  0
ARC
  5
167BC
  8
01
 10
-873.47190913097836
 20
-1423.2137356435339
 30
0.0
 40
16.640620984660281
 50
323.40098483298112
 51
329.02598503707742
  0
ARC
  5
167BD
  8
01
 10
-873.38530111311559
 20
-1423.375874192202
 30
0.0
 40
16.483189291105511
 50
329.35427876173623
 51
334.97927896583252
  0
ARC
  5
167BE
  8
01
 10
-873.31493104520519
 20
-1423.5457249850631
 30
0.0
 40
16.348056799531669
 50
335.4143916576723
 51
341.03939186176848
  0
ARC
  5
167BF
  8
01
 10
-873.26157116833224
 20
-1423.7216544878349
 30
0.0
 40
16.2411133691113
 50
341.56520850183438
 51
347.19020870593062
  0
ARC
  5
167C0
  8
01
 10
-873.22570608297644
 20
-1423.901966439352
 30
0.0
 40
16.167034609070591
 50
347.78515727443431
 51
353.41015747853061
  0
ARC
  5
167C1
  8
01
 10
-873.20768887870759
 20
-1424.0849259473059
 30
0.0
 40
16.129140708611502
 50
354.04846135600923
 51
359.67346156010552
  0
ARC
  5
167C2
  8
01
 10
-874.98688958107152
 20
-1422.30572751305
 30
0.0
 40
9.9959023345957494
 50
269.47310017168348
 51
275.09810037577972
  0
ARC
  5
167C3
  8
01
 10
-874.80392729557786
 20
-1422.3237416390141
 30
0.0
 40
9.9633388479747769
 50
274.05925718886152
 51
279.68425739295787
  0
ARC
  5
167C4
  8
01
 10
-874.62361888223154
 20
-1422.3596155726659
 30
0.0
 40
9.8991341603007452
 50
278.69039011050359
 51
284.31539031459988
  0
ARC
  5
167C5
  8
01
 10
-874.44769081828053
 20
-1422.412972611055
 30
0.0
 40
9.8051954255900462
 50
283.39634398533258
 51
289.02134418942887
  0
ARC
  5
167C6
  8
01
 10
-874.27783795790936
 20
-1422.483331977083
 30
0.0
 40
9.6842976352072903
 50
288.20694847804123
 51
293.83194868213752
  0
ARC
  5
167C7
  8
01
 10
-874.11569809865534
 20
-1422.5699952199111
 30
0.0
 40
9.5401830691802143
 50
293.15149427662459
 51
298.77649448072088
  0
ARC
  5
167C8
  8
01
 10
-873.96283772549248
 20
-1422.6721296700241
 30
0.0
 40
9.3774592764127664
 50
298.25826711707202
 51
303.8832673211682
  0
ARC
  5
167C9
  8
01
 10
-873.82072439957199
 20
-1422.7887644724331
 30
0.0
 40
9.201555780374937
 50
303.55352966000112
 51
309.1785298640973
  0
ARC
  5
167CA
  8
01
 10
-873.69073218001938
 20
-1422.918769942142
 30
0.0
 40
9.0186760962547652
 50
309.0601221327646
 51
314.68512233686079
  0
ARC
  5
167CB
  8
01
 10
-873.57410015717414
 20
-1423.0608721305421
 30
0.0
 40
8.835643529572307
 50
314.7953895556484
 51
320.42038975974452
  0
ARC
  5
167CC
  8
01
 10
-873.4719516244561
 20
-1423.2137382248311
 30
0.0
 40
8.6596755515491441
 50
320.7693144971114
 51
326.39431470120758
  0
ARC
  5
167CD
  8
01
 10
-873.38529754475928
 20
-1423.375874801493
 30
0.0
 40
8.4982120077592125
 50
326.98140866365378
 51
332.60640886775002
  0
ARC
  5
167CE
  8
01
 10
-873.31494383949439
 20
-1423.5457245634609
 30
0.0
 40
8.3584384425162348
 50
333.41828383641712
 51
339.0432840405133
  0
ARC
  5
167CF
  8
01
 10
-873.26157172144269
 20
-1423.721653228705
 30
0.0
 40
8.2469521085358384
 50
340.05212798939641
 51
345.67712819349271
  0
ARC
  5
167D0
  8
01
 10
-873.22570269471203
 20
-1423.9019670587979
 30
0.0
 40
8.1692743125242071
 50
346.8403081257552
 51
352.4653083298515
  0
ARC
  5
167D1
  8
01
 10
-873.20769231021643
 20
-1424.084925316313
 30
0.0
 40
8.1294000627994514
 50
353.7271162761179
 51
359.35211648021408
  0
ARC
  5
167D2
  8
01
 10
-874.9869055810691
 20
-1518.2674079213739
 30
0.0
 40
9.9959023345955433
 50
269.47310017166978
 51
275.09810037576608
  0
ARC
  5
167D3
  8
01
 10
-874.80394329557805
 20
-1518.285422047338
 30
0.0
 40
9.9633388479750025
 50
274.05925718886141
 51
279.6842573929577
  0
ARC
  5
167D4
  8
01
 10
-874.62363488223139
 20
-1518.321295980991
 30
0.0
 40
9.8991341603007452
 50
278.69039011050359
 51
284.31539031459988
  0
ARC
  5
167D5
  8
01
 10
-874.44770681828049
 20
-1518.3746530193789
 30
0.0
 40
9.8051954255900462
 50
283.39634398533258
 51
289.02134418942887
  0
ARC
  5
167D6
  8
01
 10
-874.27785395790931
 20
-1518.4450123854069
 30
0.0
 40
9.6842976352075052
 50
288.20694847804077
 51
293.83194868213701
  0
ARC
  5
167D7
  8
01
 10
-874.11571409865553
 20
-1518.5316756282341
 30
0.0
 40
9.5401830691802143
 50
293.15149427662459
 51
298.77649448072088
  0
ARC
  5
167D8
  8
01
 10
-873.96285372549471
 20
-1518.633810078348
 30
0.0
 40
9.3774592764138411
 50
298.25826711708419
 51
303.88326732118048
  0
ARC
  5
167D9
  8
01
 10
-873.82074039957195
 20
-1518.750444880757
 30
0.0
 40
9.201555780374937
 50
303.55352966000112
 51
309.1785298640973
  0
ARC
  5
167DA
  8
01
 10
-873.69074818001707
 20
-1518.8804503504659
 30
0.0
 40
9.0186760962533317
 50
309.06012213275341
 51
314.68512233684959
  0
ARC
  5
167DB
  8
01
 10
-873.5741161571741
 20
-1519.0225525388671
 30
0.0
 40
8.8356435295721454
 50
314.79538955564942
 51
320.4203897597456
  0
ARC
  5
167DC
  8
01
 10
-873.47196762445844
 20
-1519.1754186331559
 30
0.0
 40
8.6596755515509933
 50
320.7693144971214
 51
326.39431470121758
  0
ARC
  5
167DD
  8
01
 10
-873.38531354475685
 20
-1519.3375552098171
 30
0.0
 40
8.4982120077572105
 50
326.98140866364503
 51
332.60640886774121
  0
ARC
  5
167DE
  8
01
 10
-873.31495983949446
 20
-1519.507404971785
 30
0.0
 40
8.3584384425162348
 50
333.41828383641712
 51
339.0432840405133
  0
ARC
  5
167DF
  8
01
 10
-873.26158772144277
 20
-1519.6833336370289
 30
0.0
 40
8.2469521085359165
 50
340.05212798939488
 51
345.67712819349111
  0
ARC
  5
167E0
  8
01
 10
-873.22571869471187
 20
-1519.8636474671221
 30
0.0
 40
8.1692743125242071
 50
346.8403081257552
 51
352.4653083298515
  0
ARC
  5
167E1
  8
01
 10
-873.20770831021628
 20
-1520.0466057246369
 30
0.0
 40
8.1294000627994514
 50
353.7271162761179
 51
359.35211648021408
  0
ARC
  5
167E2
  8
01
 10
-874.98687169554455
 20
-1518.26740187515
 30
0.0
 40
17.99572165235249
 50
269.7072264052041
 51
275.33222660930028
  0
ARC
  5
167E3
  8
01
 10
-874.80402739910005
 20
-1518.2854269218051
 30
0.0
 40
17.961688506422821
 50
274.7568313521395
 51
280.38183155623568
  0
ARC
  5
167E4
  8
01
 10
-874.62358642507775
 20
-1518.321282511369
 30
0.0
 40
17.894720440515869
 50
279.8342294160326
 51
285.45922962012889
  0
ARC
  5
167E5
  8
01
 10
-874.44765961464782
 20
-1518.3746664136679
 30
0.0
 40
17.797052078204171
 50
284.95914714163189
 51
290.58414734572813
  0
ARC
  5
167E6
  8
01
 10
-874.27785068165929
 20
-1518.4450147703681
 30
0.0
 40
17.67200293105315
 50
290.14893090417189
 51
295.77393110826819
  0
ARC
  5
167E7
  8
01
 10
-874.11581170396005
 20
-1518.531675560781
 30
0.0
 40
17.523839691588481
 50
295.4200387223907
 51
301.04503892648688
  0
ARC
  5
167E8
  8
01
 10
-873.96278809140256
 20
-1518.633812713171
 30
0.0
 40
17.357593572968199
 50
300.78614300357191
 51
306.4111432076682
  0
ARC
  5
167E9
  8
01
 10
-873.82079599118799
 20
-1518.750443415322
 30
0.0
 40
17.179507736039461
 50
306.26091889034677
 51
311.88591909444301
  0
ARC
  5
167EA
  8
01
 10
-873.69065479585242
 20
-1518.880443429744
 30
0.0
 40
16.99584016857559
 50
311.8518956400988
 51
317.47689584419493
  0
ARC
  5
167EB
  8
01
 10
-873.57420137195277
 20
-1519.022556924335
 30
0.0
 40
16.81398084932561
 50
317.56559275872348
 51
323.19059296281972
  0
ARC
  5
167EC
  8
01
 10
-873.47192513097832
 20
-1519.1754160518581
 30
0.0
 40
16.640620984660281
 50
323.40098483298112
 51
329.02598503707742
  0
ARC
  5
167ED
  8
01
 10
-873.38531711311316
 20
-1519.3375546005259
 30
0.0
 40
16.48318929110345
 50
329.35427876173202
 51
334.9792789658282
  0
ARC
  5
167EE
  8
01
 10
-873.31494704520514
 20
-1519.5074053933879
 30
0.0
 40
16.348056799531761
 50
335.4143916576715
 51
341.03939186176768
  0
ARC
  5
167EF
  8
01
 10
-873.26158716833231
 20
-1519.6833348961591
 30
0.0
 40
16.2411133691113
 50
341.56520850183438
 51
347.19020870593062
  0
ARC
  5
167F0
  8
01
 10
-873.22572208297652
 20
-1519.8636468476759
 30
0.0
 40
16.16703460907064
 50
347.78515727443352
 51
353.41015747852981
  0
ARC
  5
167F1
  8
01
 10
-873.20770487870755
 20
-1520.046606355631
 30
0.0
 40
16.12914070861148
 50
354.04846135601002
 51
359.67346156010632
  0
ARC
  5
167F2
  8
01
 10
-1006.949954031904
 20
-1520.046531444958
 30
0.0
 40
8.1294044915060795
 50
180.6483996726694
 51
186.27339987676561
  0
ARC
  5
167F3
  8
01
 10
-1006.931942247411
 20
-1519.86369124915
 30
0.0
 40
8.1692662595271237
 50
187.5343823231029
 51
193.15938252719911
  0
ARC
  5
167F4
  8
01
 10
-1006.896075170676
 20
-1519.6833275481611
 30
0.0
 40
8.2469536096826896
 50
194.32290563284451
 51
199.94790583694069
  0
ARC
  5
167F5
  8
01
 10
-1006.842701852626
 20
-1519.5073846340899
 30
0.0
 40
8.3584462460632079
 50
200.95683741857499
 51
206.5818376226712
  0
ARC
  5
167F6
  8
01
 10
-1006.7723485473661
 20
-1519.337581689701
 30
0.0
 40
8.4981981656605914
 50
207.3934308228304
 51
213.01843102692669
  0
ARC
  5
167F7
  8
01
 10
-1006.685683889928
 20
-1519.175382511085
 30
0.0
 40
8.6597049249485565
 50
213.6058351614362
 51
219.23083536553241
  0
ARC
  5
167F8
  8
01
 10
-1006.583554962679
 20
-1519.0225723943331
 30
0.0
 40
8.8356222635445913
 50
219.57955718612939
 51
225.2045573902256
  0
ARC
  5
167F9
  8
01
 10
-1006.466911762103
 20
-1518.8804086395321
 30
0.0
 40
9.0187064474595751
 50
225.3150505050684
 51
230.94005070916461
  0
ARC
  5
167FA
  8
01
 10
-1006.336920042549
 20
-1518.7504947694249
 30
0.0
 40
9.2015147531347612
 50
230.82128202250391
 51
236.44628222660009
  0
ARC
  5
167FB
  8
01
 10
-1006.194809716626
 20
-1518.63381925608
 30
0.0
 40
9.3774505483637327
 50
236.11670054642181
 51
241.74170075051799
  0
ARC
  5
167FC
  8
01
 10
-1006.041937165733
 20
-1518.5316242395679
 30
0.0
 40
9.5402333380548576
 50
241.22358446253591
 51
246.84858466663209
  0
ARC
  5
167FD
  8
01
 10
-1005.879806484211
 20
-1518.4450429186061
 30
0.0
 40
9.6842690993597902
 50
246.16798644477981
 51
251.792986648876
  0
ARC
  5
167FE
  8
01
 10
-1005.70995412384
 20
-1518.3746326639141
 30
0.0
 40
9.8052149955117969
 50
250.9786890528668
 51
256.60368925696309
  0
ARC
  5
167FF
  8
01
 10
-1005.534026559889
 20
-1518.3213265141901
 30
0.0
 40
9.8991042042902357
 50
255.6845744007787
 51
261.30957460487491
  0
ARC
  5
16800
  8
01
 10
-1005.353720646543
 20
-1518.2854424028039
 30
0.0
 40
9.9633186143608778
 50
260.3157285845042
 51
265.94072878860038
  0
ARC
  5
16801
  8
01
 10
-1005.170759861051
 20
-1518.267418099106
 30
0.0
 40
9.9958921526958378
 50
264.90189729486661
 51
270.5268974989628
  0
ARC
  5
16802
  8
01
 10
-1006.949966841148
 20
-1520.0465531527479
 30
0.0
 40
16.129133368596971
 50
180.32672403264931
 51
185.9517242367456
  0
ARC
  5
16803
  8
01
 10
-1006.931936944144
 20
-1519.8636453565589
 30
0.0
 40
16.167034525835909
 50
186.58984074007481
 51
192.2148409441711
  0
ARC
  5
16804
  8
01
 10
-1006.896071378788
 20
-1519.6833226166509
 30
0.0
 40
16.24111614066814
 50
192.80982626079219
 51
198.43482646488849
  0
ARC
  5
16805
  8
01
 10
-1006.842703069181
 20
-1519.507449693187
 30
0.0
 40
16.348049253551419
 50
198.96044564575431
 51
204.5854458498506
  0
ARC
  5
16806
  8
01
 10
-1006.772355056742
 20
-1519.337541905019
 30
0.0
 40
16.483185513458871
 50
205.02077202712701
 51
210.6457722312233
  0
ARC
  5
16807
  8
01
 10
-1006.685715855675
 20
-1519.175413016309
 30
0.0
 40
16.64063905614104
 50
210.9739817728933
 51
216.59898197698951
  0
ARC
  5
16808
  8
01
 10
-1006.583559097502
 20
-1519.022500017895
 30
0.0
 40
16.813935500755608
 50
216.8097648858066
 51
222.43476508990281
  0
ARC
  5
16809
  8
01
 10
-1006.466902618934
 20
-1518.8805005139191
 30
0.0
 40
16.99586759014446
 50
222.5227125284527
 51
228.147712732549
  0
ARC
  5
1680A
  8
01
 10
-1006.336867750933
 20
-1518.750473948523
 30
0.0
 40
17.179484003350851
 50
228.1140166417523
 51
233.73901684584851
  0
ARC
  5
1680B
  8
01
 10
-1006.194874650718
 20
-1518.6337618245029
 30
0.0
 40
17.35763601102904
 50
233.58894985888381
 51
239.21395006297999
  0
ARC
  5
1680C
  8
01
 10
-1006.0419518154951
 20
-1518.53170109398
 30
0.0
 40
17.523764554539991
 50
238.95520732816939
 51
244.5802075322656
  0
ARC
  5
1680D
  8
01
 10
-1005.879710633127
 20
-1518.445006717051
 30
0.0
 40
17.672045498464222
 50
244.22576855742469
 51
249.85076876152101
  0
ARC
  5
1680E
  8
01
 10
-1005.710001827473
 20
-1518.3746358804669
 30
0.0
 40
17.7970811894462
 50
249.4158826934792
 51
255.04088289757539
  0
ARC
  5
1680F
  8
01
 10
-1005.5340730170431
 20
-1518.3212723336339
 30
0.0
 40
17.894730383300221
 50
254.5407775231136
 51
260.16577772720979
  0
ARC
  5
16810
  8
01
 10
-1005.3536350430199
 20
-1518.28549816594
 30
0.0
 40
17.961617797926671
 50
259.6181384714273
 51
265.24313867552348
  0
ARC
  5
16811
  8
01
 10
-1005.170793746576
 20
-1518.267391697415
 30
0.0
 40
17.995731832509112
 50
264.66777481702439
 51
270.29277502112069
  0
ARC
  5
16812
  8
01
 10
-1005.351644369244
 20
-1485.619080967731
 30
0.0
 40
9.9638183521628534
 50
94.185363533831406
 51
99.451665413553755
  0
ARC
  5
16813
  8
01
 10
-1005.520638509423
 20
-1485.5862874285081
 30
0.0
 40
9.9050322261866537
 50
98.518497025717195
 51
103.7847989054395
  0
ARC
  5
16814
  8
01
 10
-1005.685897626677
 20
-1485.538102219467
 30
0.0
 40
9.8199883569033748
 50
102.91530467940311
 51
108.1816065591255
  0
ARC
  5
16815
  8
01
 10
-1005.846021574387
 20
-1485.4748280279141
 30
0.0
 40
9.7108122760588724
 50
107.4004785770879
 51
112.6667804568103
  0
ARC
  5
16816
  8
01
 10
-1005.999697997376
 20
-1485.3973057449959
 30
0.0
 40
9.5807091070289605
 50
111.997375991097
 51
117.26367787081929
  0
ARC
  5
16817
  8
01
 10
-1006.14557337933
 20
-1485.30574054147
 30
0.0
 40
9.4329005186874202
 50
116.73082526097021
 51
121.9971271406925
  0
ARC
  5
16818
  8
01
 10
-1006.282453507234
 20
-1485.2014653938711
 30
0.0
 40
9.2721373622440648
 50
121.6212247545788
 51
126.8875266343012
  0
ARC
  5
16819
  8
01
 10
-1006.40916864673
 20
-1485.0847931768001
 30
0.0
 40
9.1028147312031891
 50
126.6904099708061
 51
131.95671185052851
  0
ARC
  5
1681A
  8
01
 10
-1006.5246452862
 20
-1484.957225070634
 30
0.0
 40
8.9307446123918748
 50
131.95295139508519
 51
137.21925327480761
  0
ARC
  5
1681B
  8
01
 10
-1006.627928520624
 20
-1484.8194193741999
 30
0.0
 40
8.7613969646332919
 50
137.42194238487349
 51
142.6882442645958
  0
ARC
  5
1681C
  8
01
 10
-1006.718130075305
 20
-1484.672862310566
 30
0.0
 40
8.60104209715732
 50
143.10051572612781
 51
148.3668176058502
  0
ARC
  5
1681D
  8
01
 10
-1006.794500049931
 20
-1484.518606382409
 30
0.0
 40
8.4556076463862322
 50
148.9853670814839
 51
154.25166896120621
  0
ARC
  5
1681E
  8
01
 10
-1006.85637668634
 20
-1484.3578589739391
 30
0.0
 40
8.3308773591175438
 50
155.0626007741584
 51
160.32890265388079
  0
ARC
  5
1681F
  8
01
 10
-1006.903247240562
 20
-1484.192247291689
 30
0.0
 40
8.2321873079966501
 50
161.30452245853999
 51
166.57082433826241
  0
ARC
  5
16820
  8
01
 10
-1006.934719494677
 20
-1484.0228888810191
 30
0.0
 40
8.1637610940766745
 50
167.67570449820391
 51
172.9420063779263
  0
ARC
  5
16821
  8
01
 10
-1006.950514140676
 20
-1483.8516400503679
 30
0.0
 40
8.128780575231211
 50
174.12631349893439
 51
179.39261537865681
  0
ARC
  5
16822
  8
01
 10
-1005.271339547733
 20
-1485.6291189595761
 30
0.0
 40
17.981245567541752
 50
92.573861915643135
 51
97.999815683654674
  0
ARC
  5
16823
  8
01
 10
-1005.446705365359
 20
-1485.602574775882
 30
0.0
 40
17.931359590135798
 50
97.456720863681909
 51
102.88267463169331
  0
ARC
  5
16824
  8
01
 10
-1005.6187730078821
 20
-1485.5594933565039
 30
0.0
 40
17.851699566859772
 50
102.37513915152989
 51
107.8010929195414
  0
ARC
  5
16825
  8
01
 10
-1005.785989839517
 20
-1485.5004653247549
 30
0.0
 40
17.744938661721271
 50
107.34528586904661
 51
112.7712396370581
  0
ARC
  5
16826
  8
01
 10
-1005.946891122237
 20
-1485.425791455564
 30
0.0
 40
17.614212843164079
 50
112.3826634417439
 51
117.8086172097553
  0
ARC
  5
16827
  8
01
 10
-1006.099992878746
 20
-1485.3362632933929
 30
0.0
 40
17.463850353217332
 50
117.50135526326331
 51
122.9273090312749
  0
ARC
  5
16828
  8
01
 10
-1006.243942995814
 20
-1485.232582051181
 30
0.0
 40
17.298696878056742
 50
122.7137825173195
 51
128.139736285331
  0
ARC
  5
16829
  8
01
 10
-1006.37745629399
 20
-1485.1159461945399
 30
0.0
 40
17.124538382651728
 50
128.02940086212431
 51
133.45535463013579
  0
ARC
  5
1682A
  8
01
 10
-1006.499340665777
 20
-1484.9870687733339
 30
0.0
 40
16.947154158939291
 50
133.45590687096399
 51
138.8818606389755
  0
ARC
  5
1682B
  8
01
 10
-1006.608491558814
 20
-1484.847313590109
 30
0.0
 40
16.773053293597801
 50
138.9963158429496
 51
144.42226961096111
  0
ARC
  5
1682C
  8
01
 10
-1006.703928665742
 20
-1484.697729031647
 30
0.0
 40
16.60853407040652
 50
144.65042202411189
 51
150.07637579212351
  0
ARC
  5
1682D
  8
01
 10
-1006.78481206243
 20
-1484.539987703723
 30
0.0
 40
16.460026737556909
 50
150.4118140934556
 51
155.83776786146711
  0
ARC
  5
1682E
  8
01
 10
-1006.850391139439
 20
-1484.3751192121249
 30
0.0
 40
16.333176316732821
 50
156.27128811788009
 51
161.69724188589171
  0
ARC
  5
1682F
  8
01
 10
-1006.900106808756
 20
-1484.2048843647881
 30
0.0
 40
16.23317216810803
 50
162.21259870134571
 51
167.63855246935719
  0
ARC
  5
16830
  8
01
 10
-1006.933498228531
 20
-1484.0307279864901
 30
0.0
 40
16.164093384392292
 50
168.21623273379521
 51
173.6421865018068
  0
ARC
  5
16831
  8
01
 10
-1006.9502805615
 20
-1483.8542139694071
 30
0.0
 40
16.128801562927361
 50
174.25878651049061
 51
179.68474027850209
  0
LINE
  5
16832
  8
1DIM
 10
-1005.0788219710601
 20
-1509.9647409615991
 30
0.0
 11
-1005.0788219710601
 21
-1571.168011577937
 31
0.0
  0
LINE
  5
16833
  8
1DIM
 10
-875.07882597106027
 20
-1509.9647409615991
 30
0.0
 11
-875.07882597106027
 21
-1571.168011577937
 31
0.0
  0
LINE
  5
16834
  8
1DIM
 10
-1003.0788219710601
 20
-1570.168011577937
 30
0.0
 11
-877.07882597106038
 21
-1570.168011577937
 31
0.0
  0
TEXT
  5
16838
  8
1DIM
 10
-926.83300719416604
 20
-1557.947838235536
 30
0.0
 40
3.5
  1
材質：真鍮
  0
TEXT
  5
16839
  8
1DIM
 10
-926.83300719416604
 20
-1563.781171568869
 30
0.0
 40
3.5
  1
仕上げ：クローム
  0
TEXT
  5
1683C
  8
1DIM
 10
-898.28304471122829
 20
-1374.1568862145909
 30
0.0
 40
3.5
  1
材質：ステンレス
  0
TEXT
  5
1683D
  8
1DIM
 10
-898.28304471122829
 20
-1379.990219547924
 30
0.0
 40
3.5
  1
仕上げ：鏡面研磨
  0
TEXT
  5
16840
  8
1DIM
 10
-1005.133436856469
 20
-1385.151329111593
 30
0.0
 40
3.5
  1
材質：ABS樹脂
  0
TEXT
  5
16841
  8
1DIM
 10
-1007.000103523136
 20
-1390.9846624449269
 30
0.0
 40
3.5
  1
仕上げ：クローム
  0
TEXT
  5
16844
  8
1DIM
 10
-910.07882597106038
 20
-1359.9114480005569
 30
0.0
 40
3.5
  1
材質：亜鉛ダイキャスト
  0
TEXT
  5
16845
  8
1DIM
 10
-910.07882597106038
 20
-1365.7447813338899
 30
0.0
 40
3.5
  1
仕上げ：クローム
  0
LINE
  5
16848
  8
1DIM
 10
-962.07882597106038
 20
-1361.301111587552
 30
0.0
 11
-962.07882597106038
 21
-1350.301111587552
 31
0.0
  0
LINE
  5
16849
  8
1DIM
 10
-918.07882597106016
 20
-1361.301111587552
 30
0.0
 11
-918.07882597106016
 21
-1350.301111587552
 31
0.0
  0
LINE
  5
1684A
  8
1DIM
 10
-960.07882597106038
 20
-1351.301111587552
 30
0.0
 11
-920.07882597106016
 21
-1351.301111587552
 31
0.0
  0
LINE
  5
1684B
  8
1DIM
 10
-918.07882597106016
 20
-1351.301111587552
 30
0.0
 11
-902.90998268615385
 21
-1351.301111587552
 31
0.0
  0
LINE
  5
1684F
  8
1DIM
 10
-952.57882597106027
 20
-1331.340196996407
 30
0.0
 11
-952.57882597106027
 21
-1324.500659671214
 31
0.0
  0
LINE
  5
16850
  8
1DIM
 10
-927.57882597106027
 20
-1331.340196996407
 30
0.0
 11
-927.57882597106027
 21
-1324.500659671214
 31
0.0
  0
LINE
  5
16851
  8
1DIM
 10
-950.57882597106038
 20
-1325.500659671214
 30
0.0
 11
-929.57882597106027
 21
-1325.500659671214
 31
0.0
  0
LINE
  5
16855
  8
1DIM
 10
-837.07882769106016
 20
-1512.9547848258669
 30
0.0
 11
-837.07882769106016
 21
-1430.6311115875519
 31
0.0
  0
LINE
  5
16856
  8
1DIM
 10
-714.35092977307818
 20
-1437.652928757029
 30
0.0
 11
-714.35092977307818
 21
-1430.6311115875519
 31
0.0
  0
LINE
  5
16857
  8
1DIM
 10
-835.07882769106016
 20
-1431.6311115875519
 30
0.0
 11
-716.35092977307806
 21
-1431.6311115875519
 31
0.0
  0
LINE
  5
1685B
  8
1DIM
 10
-764.35092977307795
 20
-1462.6411115875519
 30
0.0
 11
-764.35092977307795
 21
-1440.6411115875519
 31
0.0
  0
LINE
  5
1685C
  8
1DIM
 10
-714.35092977307795
 20
-1461.6311115875519
 30
0.0
 11
-714.35092977307795
 21
-1440.6411115875519
 31
0.0
  0
LINE
  5
1685D
  8
1DIM
 10
-762.35092977307795
 20
-1441.6411115875519
 30
0.0
 11
-716.35092977307795
 21
-1441.6411115875519
 31
0.0
  0
LINE
  5
16861
  8
1DIM
 10
-754.35092977307795
 20
-1468.6411115875519
 30
0.0
 11
-754.35092977307795
 21
-1450.6411115875519
 31
0.0
  0
LINE
  5
16862
  8
1DIM
 10
-714.35092977307795
 20
-1461.6411115875519
 30
0.0
 11
-714.35092977307795
 21
-1450.6411115875519
 31
0.0
  0
LINE
  5
16863
  8
1DIM
 10
-752.35092977307795
 20
-1451.6411115875519
 30
0.0
 11
-716.35092977307795
 21
-1451.6411115875519
 31
0.0
  0
LINE
  5
16867
  8
1DIM
 10
-918.07882597106016
 20
-1361.301111587552
 30
0.0
 11
-846.07882769106016
 21
-1361.301111587552
 31
0.0
  0
LINE
  5
16868
  8
1DIM
 10
-878.07882597106038
 20
-1441.6411115875519
 30
0.0
 11
-846.07882769106016
 21
-1441.6411115875519
 31
0.0
  0
LINE
  5
16869
  8
1DIM
 10
-847.07882769106027
 20
-1363.301111587552
 30
0.0
 11
-847.07882769106027
 21
-1439.6411115875519
 31
0.0
  0
LINE
  5
1686D
  8
1DIM
 10
-1023.07883797106
 20
-1483.765470587552
 30
0.0
 11
-1023.07883797106
 21
-1450.6411115875519
 31
0.0
  0
LINE
  5
1686E
  8
1DIM
 10
-857.0788275710604
 20
-1513.8442945993429
 30
0.0
 11
-857.0788275710604
 21
-1450.6411115875519
 31
0.0
  0
LINE
  5
1686F
  8
1DIM
 10
-1021.07883797106
 20
-1451.6411115875519
 30
0.0
 11
-859.0788275710604
 21
-1451.6411115875519
 31
0.0
  0
LINE
  5
16874
  8
1CENTER
 10
-952.57882597106027
 20
-1331.340196996407
 30
0.0
 11
-952.57882597106027
 21
-1367.9713879968619
 31
0.0
  0
LINE
  5
16875
  8
0
 10
-953.67314978505544
 20
-1336.4011090413931
 30
0.0
 11
-951.71081469618014
 21
-1335.6011136073421
 31
0.0
  0
LINE
  5
16876
  8
0
 10
-951.71081469618014
 20
-1335.6011136073421
 30
0.0
 11
-952.29909127122244
 21
-1335.28934375109
 31
0.0
  0
LINE
  5
16877
  8
0
 10
-954.57877943516246
 20
-1358.8011069341831
 30
0.0
 11
-950.57877943516235
 21
-1358.0011162413639
 31
0.0
  0
LINE
  5
16878
  8
0
 10
-954.57877943516246
 20
-1347.6011069341789
 30
0.0
 11
-950.57877943516235
 21
-1346.8011162413561
 31
0.0
  0
LINE
  5
16879
  8
0
 10
-954.57877943516246
 20
-1344.4011069341791
 30
0.0
 11
-950.57877943516235
 21
-1343.6011162413561
 31
0.0
  0
LINE
  5
1687A
  8
0
 10
-950.57877943516235
 20
-1343.6011162413561
 30
0.0
 11
-951.07877943516246
 21
-1343.501115077959
 31
0.0
  0
LINE
  5
1687B
  8
0
 10
-954.07877943516235
 20
-1342.9011080975761
 30
0.0
 11
-954.57877943516246
 21
-1342.8011069341781
 31
0.0
  0
LINE
  5
1687C
  8
0
 10
-950.57877943516235
 20
-1346.8011162413561
 30
0.0
 11
-951.07877943516246
 21
-1346.701115077959
 31
0.0
  0
LINE
  5
1687D
  8
0
 10
-950.57877943516235
 20
-1345.201116241356
 30
0.0
 11
-951.07877943516246
 21
-1345.1011150779591
 31
0.0
  0
LINE
  5
1687E
  8
0
 10
-954.07877943516235
 20
-1344.501108097576
 30
0.0
 11
-954.57877943516246
 21
-1344.4011069341791
 31
0.0
  0
LINE
  5
1687F
  8
0
 10
-954.07877943516235
 20
-1346.101108097575
 30
0.0
 11
-954.57877943516246
 21
-1346.0011069341781
 31
0.0
  0
LINE
  5
16880
  8
0
 10
-954.57877943516246
 20
-1346.0011069341781
 30
0.0
 11
-950.57877943516235
 21
-1345.201116241356
 31
0.0
  0
LINE
  5
16881
  8
0
 10
-951.25800059177311
 20
-1337.201114660947
 30
0.0
 11
-951.80975005557639
 21
-1337.018350518319
 31
0.0
  0
LINE
  5
16882
  8
0
 10
-950.57877943516235
 20
-1340.401116241356
 30
0.0
 11
-951.07877943516246
 21
-1340.3011150779589
 31
0.0
  0
LINE
  5
16883
  8
0
 10
-950.57877943516235
 20
-1342.0011162413559
 30
0.0
 11
-951.07877943516246
 21
-1341.901115077959
 31
0.0
  0
LINE
  5
16884
  8
0
 10
-950.80518648736643
 20
-1338.8011157145529
 30
0.0
 11
-951.34178022263757
 21
-1338.671845016923
 31
0.0
  0
LINE
  5
16885
  8
0
 10
-953.65786483795375
 20
-1338.1138775001391
 30
0.0
 11
-954.12596329310372
 21
-1338.0011079877891
 31
0.0
  0
LINE
  5
16886
  8
0
 10
-954.07877943516235
 20
-1341.3011080975759
 30
0.0
 11
-954.57877943516246
 21
-1341.2011069341779
 31
0.0
  0
LINE
  5
16887
  8
0
 10
-954.07877943516235
 20
-1339.701108097576
 30
0.0
 11
-954.57877943516246
 21
-1339.6011069341789
 31
0.0
  0
LINE
  5
16888
  8
0
 10
-953.21597794442437
 20
-1336.552544837833
 30
0.0
 11
-953.67314978505544
 21
-1336.4011090413931
 31
0.0
  0
LINE
  5
16889
  8
0
 10
-954.12596329310372
 20
-1338.0011079877891
 30
0.0
 11
-951.25800059177311
 21
-1337.201114660947
 31
0.0
  0
LINE
  5
1688A
  8
0
 10
-954.57877943516246
 20
-1341.2011069341779
 30
0.0
 11
-950.57877943516235
 21
-1340.401116241356
 31
0.0
  0
LINE
  5
1688B
  8
0
 10
-954.57877943516246
 20
-1339.6011069341789
 30
0.0
 11
-950.80518648736643
 21
-1338.8011157145529
 31
0.0
  0
LINE
  5
1688C
  8
0
 10
-954.57877943516246
 20
-1342.8011069341781
 30
0.0
 11
-950.57877943516235
 21
-1342.0011162413559
 31
0.0
  0
LINE
  5
1688D
  8
0
 10
-954.57877943516246
 20
-1355.601106934183
 30
0.0
 11
-950.57877943516235
 21
-1354.801116241365
 31
0.0
  0
LINE
  5
1688E
  8
0
 10
-950.57877943516235
 20
-1354.801116241365
 30
0.0
 11
-951.07877943516246
 21
-1354.701115077967
 31
0.0
  0
LINE
  5
1688F
  8
0
 10
-954.07877943516235
 20
-1354.1011080975759
 30
0.0
 11
-954.57877943516246
 21
-1354.001106934179
 31
0.0
  0
LINE
  5
16890
  8
0
 10
-950.57877943516235
 20
-1356.4011162413649
 30
0.0
 11
-951.07877943516246
 21
-1356.3011150779671
 31
0.0
  0
LINE
  5
16891
  8
0
 10
-950.57877943516235
 20
-1358.0011162413639
 30
0.0
 11
-951.07877943516246
 21
-1357.901115077967
 31
0.0
  0
LINE
  5
16892
  8
0
 10
-954.07877943516235
 20
-1355.701108097581
 30
0.0
 11
-954.57877943516246
 21
-1355.601106934183
 31
0.0
  0
LINE
  5
16893
  8
0
 10
-954.07877943516235
 20
-1357.3011080975809
 30
0.0
 11
-954.57877943516246
 21
-1357.2011069341829
 31
0.0
  0
LINE
  5
16894
  8
0
 10
-954.57877943516246
 20
-1357.2011069341829
 30
0.0
 11
-950.57877943516235
 21
-1356.4011162413649
 31
0.0
  0
LINE
  5
16895
  8
0
 10
-950.57877943516235
 20
-1350.00111624136
 30
0.0
 11
-951.07877943516246
 21
-1349.901115077962
 31
0.0
  0
LINE
  5
16896
  8
0
 10
-950.57877943516235
 20
-1348.401116241356
 30
0.0
 11
-951.07877943516246
 21
-1348.3011150779589
 31
0.0
  0
LINE
  5
16897
  8
0
 10
-950.57877943516235
 20
-1353.2011162413601
 30
0.0
 11
-951.07877943516246
 21
-1353.101115077963
 31
0.0
  0
LINE
  5
16898
  8
0
 10
-950.57877943516235
 20
-1351.6011162413611
 30
0.0
 11
-951.07877943516246
 21
-1351.501115077963
 31
0.0
  0
LINE
  5
16899
  8
0
 10
-954.07877943516235
 20
-1347.701108097576
 30
0.0
 11
-954.57877943516246
 21
-1347.6011069341789
 31
0.0
  0
LINE
  5
1689A
  8
0
 10
-954.07877943516235
 20
-1349.3011080975759
 30
0.0
 11
-954.57877943516246
 21
-1349.2011069341779
 31
0.0
  0
LINE
  5
1689B
  8
0
 10
-954.07877943516235
 20
-1352.501108097576
 30
0.0
 11
-954.57877943516246
 21
-1352.4011069341791
 31
0.0
  0
LINE
  5
1689C
  8
0
 10
-954.07877943516235
 20
-1350.9011080975761
 30
0.0
 11
-954.57877943516246
 21
-1350.8011069341781
 31
0.0
  0
LINE
  5
1689D
  8
0
 10
-954.57877943516246
 20
-1350.8011069341781
 30
0.0
 11
-950.57877943516235
 21
-1350.00111624136
 31
0.0
  0
LINE
  5
1689E
  8
0
 10
-954.57877943516246
 20
-1349.2011069341779
 30
0.0
 11
-950.57877943516235
 21
-1348.401116241356
 31
0.0
  0
LINE
  5
1689F
  8
0
 10
-954.57877943516246
 20
-1352.4011069341791
 30
0.0
 11
-950.57877943516235
 21
-1351.6011162413611
 31
0.0
  0
LINE
  5
168A0
  8
0
 10
-954.57877943516246
 20
-1354.001106934179
 30
0.0
 11
-950.57877943516235
 21
-1353.2011162413601
 31
0.0
  0
LINE
  5
168A1
  8
0
 10
-951.07877943516246
 20
-1364.301115077853
 30
0.0
 11
-954.07877943516223
 21
-1364.3011080974691
 31
0.0
  0
LINE
  5
168A2
  8
0
 10
-954.07877943516235
 20
-1363.7011080975849
 30
0.0
 11
-954.57877943516246
 21
-1363.6011069341871
 31
0.0
  0
LINE
  5
168A3
  8
0
 10
-954.57877943516246
 20
-1363.6011069341871
 30
0.0
 11
-950.57877943516235
 21
-1362.8011162413691
 31
0.0
  0
LINE
  5
168A4
  8
0
 10
-950.57877943516235
 20
-1362.8011162413691
 30
0.0
 11
-951.07877943516246
 21
-1362.7011150779711
 31
0.0
  0
LINE
  5
168A5
  8
0
 10
-954.07877943516235
 20
-1362.101108097585
 30
0.0
 11
-954.57877943516246
 21
-1362.001106934187
 31
0.0
  0
LINE
  5
168A6
  8
0
 10
-954.07877943516235
 20
-1360.5011080975851
 30
0.0
 11
-954.57877943516246
 21
-1360.4011069341871
 31
0.0
  0
LINE
  5
168A7
  8
0
 10
-954.57877943516246
 20
-1360.4011069341871
 30
0.0
 11
-950.57877943516235
 21
-1359.601116241369
 31
0.0
  0
LINE
  5
168A8
  8
0
 10
-950.57877943516235
 20
-1361.2011162413689
 30
0.0
 11
-951.07877943516246
 21
-1361.1011150779709
 31
0.0
  0
LINE
  5
168A9
  8
0
 10
-950.57877943516235
 20
-1359.601116241369
 30
0.0
 11
-951.07877943516246
 21
-1359.501115077971
 31
0.0
  0
LINE
  5
168AA
  8
0
 10
-954.57877943516246
 20
-1362.001106934187
 30
0.0
 11
-950.57877943516235
 21
-1361.2011162413689
 31
0.0
  0
LINE
  5
168AB
  8
0
 10
-954.07877943516235
 20
-1358.9011080975811
 30
0.0
 11
-954.57877943516246
 21
-1358.8011069341831
 31
0.0
  0
LINE
  5
168AD
  8
1CENTER
 10
-940.07882597106027
 20
-1331.340196996407
 30
0.0
 11
-940.07882597106027
 21
-1367.9713879968619
 31
0.0
  0
LINE
  5
168AE
  8
0
 10
-941.17314978505544
 20
-1336.4011090413931
 30
0.0
 11
-939.21081469618014
 21
-1335.6011136073421
 31
0.0
  0
LINE
  5
168AF
  8
0
 10
-939.21081469618014
 20
-1335.6011136073421
 30
0.0
 11
-939.79909127122244
 21
-1335.28934375109
 31
0.0
  0
LINE
  5
168B0
  8
0
 10
-942.07877943516246
 20
-1358.8011069341831
 30
0.0
 11
-938.07877943516235
 21
-1358.0011162413639
 31
0.0
  0
LINE
  5
168B1
  8
0
 10
-942.07877943516246
 20
-1347.6011069341789
 30
0.0
 11
-938.07877943516235
 21
-1346.8011162413561
 31
0.0
  0
LINE
  5
168B2
  8
0
 10
-942.07877943516246
 20
-1344.4011069341791
 30
0.0
 11
-938.07877943516235
 21
-1343.6011162413561
 31
0.0
  0
LINE
  5
168B3
  8
0
 10
-938.07877943516235
 20
-1343.6011162413561
 30
0.0
 11
-938.57877943516246
 21
-1343.501115077959
 31
0.0
  0
LINE
  5
168B4
  8
0
 10
-941.57877943516235
 20
-1342.9011080975761
 30
0.0
 11
-942.07877943516246
 21
-1342.8011069341781
 31
0.0
  0
LINE
  5
168B5
  8
0
 10
-938.07877943516235
 20
-1346.8011162413561
 30
0.0
 11
-938.57877943516246
 21
-1346.701115077959
 31
0.0
  0
LINE
  5
168B6
  8
0
 10
-938.07877943516235
 20
-1345.201116241356
 30
0.0
 11
-938.57877943516246
 21
-1345.1011150779591
 31
0.0
  0
LINE
  5
168B7
  8
0
 10
-941.57877943516235
 20
-1344.501108097576
 30
0.0
 11
-942.07877943516246
 21
-1344.4011069341791
 31
0.0
  0
LINE
  5
168B8
  8
0
 10
-941.57877943516235
 20
-1346.101108097575
 30
0.0
 11
-942.07877943516246
 21
-1346.0011069341781
 31
0.0
  0
LINE
  5
168B9
  8
0
 10
-942.07877943516246
 20
-1346.0011069341781
 30
0.0
 11
-938.07877943516235
 21
-1345.201116241356
 31
0.0
  0
LINE
  5
168BA
  8
0
 10
-938.75800059177311
 20
-1337.201114660947
 30
0.0
 11
-939.30975005557639
 21
-1337.018350518319
 31
0.0
  0
LINE
  5
168BB
  8
0
 10
-938.07877943516235
 20
-1340.401116241356
 30
0.0
 11
-938.57877943516246
 21
-1340.3011150779589
 31
0.0
  0
LINE
  5
168BC
  8
0
 10
-938.07877943516235
 20
-1342.0011162413559
 30
0.0
 11
-938.57877943516246
 21
-1341.901115077959
 31
0.0
  0
LINE
  5
168BD
  8
0
 10
-938.30518648736643
 20
-1338.8011157145529
 30
0.0
 11
-938.84178022263757
 21
-1338.671845016923
 31
0.0
  0
LINE
  5
168BE
  8
0
 10
-941.15786483795375
 20
-1338.1138775001391
 30
0.0
 11
-941.62596329310372
 21
-1338.0011079877891
 31
0.0
  0
LINE
  5
168BF
  8
0
 10
-941.57877943516235
 20
-1341.3011080975759
 30
0.0
 11
-942.07877943516246
 21
-1341.2011069341779
 31
0.0
  0
LINE
  5
168C0
  8
0
 10
-941.57877943516235
 20
-1339.701108097576
 30
0.0
 11
-942.07877943516246
 21
-1339.6011069341789
 31
0.0
  0
LINE
  5
168C1
  8
0
 10
-940.71597794442437
 20
-1336.552544837833
 30
0.0
 11
-941.17314978505544
 21
-1336.4011090413931
 31
0.0
  0
LINE
  5
168C2
  8
0
 10
-941.62596329310372
 20
-1338.0011079877891
 30
0.0
 11
-938.75800059177311
 21
-1337.201114660947
 31
0.0
  0
LINE
  5
168C3
  8
0
 10
-942.07877943516246
 20
-1341.2011069341779
 30
0.0
 11
-938.07877943516235
 21
-1340.401116241356
 31
0.0
  0
LINE
  5
168C4
  8
0
 10
-942.07877943516246
 20
-1339.6011069341789
 30
0.0
 11
-938.30518648736643
 21
-1338.8011157145529
 31
0.0
  0
LINE
  5
168C5
  8
0
 10
-942.07877943516246
 20
-1342.8011069341781
 30
0.0
 11
-938.07877943516235
 21
-1342.0011162413559
 31
0.0
  0
LINE
  5
168C6
  8
0
 10
-942.07877943516246
 20
-1355.601106934183
 30
0.0
 11
-938.07877943516235
 21
-1354.801116241365
 31
0.0
  0
LINE
  5
168C7
  8
0
 10
-938.07877943516235
 20
-1354.801116241365
 30
0.0
 11
-938.57877943516246
 21
-1354.701115077967
 31
0.0
  0
LINE
  5
168C8
  8
0
 10
-941.57877943516235
 20
-1354.1011080975759
 30
0.0
 11
-942.07877943516246
 21
-1354.001106934179
 31
0.0
  0
LINE
  5
168C9
  8
0
 10
-938.07877943516235
 20
-1356.4011162413649
 30
0.0
 11
-938.57877943516246
 21
-1356.3011150779671
 31
0.0
  0
LINE
  5
168CA
  8
0
 10
-938.07877943516235
 20
-1358.0011162413639
 30
0.0
 11
-938.57877943516246
 21
-1357.901115077967
 31
0.0
  0
LINE
  5
168CB
  8
0
 10
-941.57877943516235
 20
-1355.701108097581
 30
0.0
 11
-942.07877943516246
 21
-1355.601106934183
 31
0.0
  0
LINE
  5
168CC
  8
0
 10
-941.57877943516235
 20
-1357.3011080975809
 30
0.0
 11
-942.07877943516246
 21
-1357.2011069341829
 31
0.0
  0
LINE
  5
168CD
  8
0
 10
-942.07877943516246
 20
-1357.2011069341829
 30
0.0
 11
-938.07877943516235
 21
-1356.4011162413649
 31
0.0
  0
LINE
  5
168CE
  8
0
 10
-938.07877943516235
 20
-1350.00111624136
 30
0.0
 11
-938.57877943516246
 21
-1349.901115077962
 31
0.0
  0
LINE
  5
168CF
  8
0
 10
-938.07877943516235
 20
-1348.401116241356
 30
0.0
 11
-938.57877943516246
 21
-1348.3011150779589
 31
0.0
  0
LINE
  5
168D0
  8
0
 10
-938.07877943516235
 20
-1353.2011162413601
 30
0.0
 11
-938.57877943516246
 21
-1353.101115077963
 31
0.0
  0
LINE
  5
168D1
  8
0
 10
-938.07877943516235
 20
-1351.6011162413611
 30
0.0
 11
-938.57877943516246
 21
-1351.501115077963
 31
0.0
  0
LINE
  5
168D2
  8
0
 10
-941.57877943516235
 20
-1347.701108097576
 30
0.0
 11
-942.07877943516246
 21
-1347.6011069341789
 31
0.0
  0
LINE
  5
168D3
  8
0
 10
-941.57877943516235
 20
-1349.3011080975759
 30
0.0
 11
-942.07877943516246
 21
-1349.2011069341779
 31
0.0
  0
LINE
  5
168D4
  8
0
 10
-941.57877943516235
 20
-1352.501108097576
 30
0.0
 11
-942.07877943516246
 21
-1352.4011069341791
 31
0.0
  0
LINE
  5
168D5
  8
0
 10
-941.57877943516235
 20
-1350.9011080975761
 30
0.0
 11
-942.07877943516246
 21
-1350.8011069341781
 31
0.0
  0
LINE
  5
168D6
  8
0
 10
-942.07877943516246
 20
-1350.8011069341781
 30
0.0
 11
-938.07877943516235
 21
-1350.00111624136
 31
0.0
  0
LINE
  5
168D7
  8
0
 10
-942.07877943516246
 20
-1349.2011069341779
 30
0.0
 11
-938.07877943516235
 21
-1348.401116241356
 31
0.0
  0
LINE
  5
168D8
  8
0
 10
-942.07877943516246
 20
-1352.4011069341791
 30
0.0
 11
-938.07877943516235
 21
-1351.6011162413611
 31
0.0
  0
LINE
  5
168D9
  8
0
 10
-942.07877943516246
 20
-1354.001106934179
 30
0.0
 11
-938.07877943516235
 21
-1353.2011162413601
 31
0.0
  0
LINE
  5
168DA
  8
0
 10
-938.57877943516246
 20
-1364.301115077853
 30
0.0
 11
-941.57877943516223
 21
-1364.3011080974691
 31
0.0
  0
LINE
  5
168DB
  8
0
 10
-941.57877943516235
 20
-1363.7011080975849
 30
0.0
 11
-942.07877943516246
 21
-1363.6011069341871
 31
0.0
  0
LINE
  5
168DC
  8
0
 10
-942.07877943516246
 20
-1363.6011069341871
 30
0.0
 11
-938.07877943516235
 21
-1362.8011162413691
 31
0.0
  0
LINE
  5
168DD
  8
0
 10
-938.07877943516235
 20
-1362.8011162413691
 30
0.0
 11
-938.57877943516246
 21
-1362.7011150779711
 31
0.0
  0
LINE
  5
168DE
  8
0
 10
-941.57877943516235
 20
-1362.101108097585
 30
0.0
 11
-942.07877943516246
 21
-1362.001106934187
 31
0.0
  0
LINE
  5
168DF
  8
0
 10
-941.57877943516235
 20
-1360.5011080975851
 30
0.0
 11
-942.07877943516246
 21
-1360.4011069341871
 31
0.0
  0
LINE
  5
168E0
  8
0
 10
-942.07877943516246
 20
-1360.4011069341871
 30
0.0
 11
-938.07877943516235
 21
-1359.601116241369
 31
0.0
  0
LINE
  5
168E1
  8
0
 10
-938.07877943516235
 20
-1361.2011162413689
 30
0.0
 11
-938.57877943516246
 21
-1361.1011150779709
 31
0.0
  0
LINE
  5
168E2
  8
0
 10
-938.07877943516235
 20
-1359.601116241369
 30
0.0
 11
-938.57877943516246
 21
-1359.501115077971
 31
0.0
  0
LINE
  5
168E3
  8
0
 10
-942.07877943516246
 20
-1362.001106934187
 30
0.0
 11
-938.07877943516235
 21
-1361.2011162413689
 31
0.0
  0
LINE
  5
168E4
  8
0
 10
-941.57877943516235
 20
-1358.9011080975811
 30
0.0
 11
-942.07877943516246
 21
-1358.8011069341831
 31
0.0
  0
LINE
  5
168E6
  8
1CENTER
 10
-927.57882597106027
 20
-1331.340196996407
 30
0.0
 11
-927.57882597106027
 21
-1367.9713879968619
 31
0.0
  0
LINE
  5
168E7
  8
0
 10
-928.67314978505544
 20
-1336.4011090413931
 30
0.0
 11
-926.71081469618014
 21
-1335.6011136073421
 31
0.0
  0
LINE
  5
168E8
  8
0
 10
-926.71081469618014
 20
-1335.6011136073421
 30
0.0
 11
-927.29909127122244
 21
-1335.28934375109
 31
0.0
  0
LINE
  5
168E9
  8
0
 10
-929.57877943516246
 20
-1358.8011069341831
 30
0.0
 11
-925.57877943516235
 21
-1358.0011162413639
 31
0.0
  0
LINE
  5
168EA
  8
0
 10
-929.57877943516246
 20
-1347.6011069341789
 30
0.0
 11
-925.57877943516235
 21
-1346.8011162413561
 31
0.0
  0
LINE
  5
168EB
  8
0
 10
-929.57877943516246
 20
-1344.4011069341791
 30
0.0
 11
-925.57877943516235
 21
-1343.6011162413561
 31
0.0
  0
LINE
  5
168EC
  8
0
 10
-925.57877943516235
 20
-1343.6011162413561
 30
0.0
 11
-926.07877943516246
 21
-1343.501115077959
 31
0.0
  0
LINE
  5
168ED
  8
0
 10
-929.07877943516235
 20
-1342.9011080975761
 30
0.0
 11
-929.57877943516246
 21
-1342.8011069341781
 31
0.0
  0
LINE
  5
168EE
  8
0
 10
-925.57877943516235
 20
-1346.8011162413561
 30
0.0
 11
-926.07877943516246
 21
-1346.701115077959
 31
0.0
  0
LINE
  5
168EF
  8
0
 10
-925.57877943516235
 20
-1345.201116241356
 30
0.0
 11
-926.07877943516246
 21
-1345.1011150779591
 31
0.0
  0
LINE
  5
168F0
  8
0
 10
-929.07877943516235
 20
-1344.501108097576
 30
0.0
 11
-929.57877943516246
 21
-1344.4011069341791
 31
0.0
  0
LINE
  5
168F1
  8
0
 10
-929.07877943516235
 20
-1346.101108097575
 30
0.0
 11
-929.57877943516246
 21
-1346.0011069341781
 31
0.0
  0
LINE
  5
168F2
  8
0
 10
-929.57877943516246
 20
-1346.0011069341781
 30
0.0
 11
-925.57877943516235
 21
-1345.201116241356
 31
0.0
  0
LINE
  5
168F3
  8
0
 10
-926.25800059177311
 20
-1337.201114660947
 30
0.0
 11
-926.80975005557639
 21
-1337.018350518319
 31
0.0
  0
LINE
  5
168F4
  8
0
 10
-925.57877943516235
 20
-1340.401116241356
 30
0.0
 11
-926.07877943516246
 21
-1340.3011150779589
 31
0.0
  0
LINE
  5
168F5
  8
0
 10
-925.57877943516235
 20
-1342.0011162413559
 30
0.0
 11
-926.07877943516246
 21
-1341.901115077959
 31
0.0
  0
LINE
  5
168F6
  8
0
 10
-925.80518648736643
 20
-1338.8011157145529
 30
0.0
 11
-926.34178022263757
 21
-1338.671845016923
 31
0.0
  0
LINE
  5
168F7
  8
0
 10
-928.65786483795375
 20
-1338.1138775001391
 30
0.0
 11
-929.12596329310372
 21
-1338.0011079877891
 31
0.0
  0
LINE
  5
168F8
  8
0
 10
-929.07877943516235
 20
-1341.3011080975759
 30
0.0
 11
-929.57877943516246
 21
-1341.2011069341779
 31
0.0
  0
LINE
  5
168F9
  8
0
 10
-929.07877943516235
 20
-1339.701108097576
 30
0.0
 11
-929.57877943516246
 21
-1339.6011069341789
 31
0.0
  0
LINE
  5
168FA
  8
0
 10
-928.21597794442437
 20
-1336.552544837833
 30
0.0
 11
-928.67314978505544
 21
-1336.4011090413931
 31
0.0
  0
LINE
  5
168FB
  8
0
 10
-929.12596329310372
 20
-1338.0011079877891
 30
0.0
 11
-926.25800059177311
 21
-1337.201114660947
 31
0.0
  0
LINE
  5
168FC
  8
0
 10
-929.57877943516246
 20
-1341.2011069341779
 30
0.0
 11
-925.57877943516235
 21
-1340.401116241356
 31
0.0
  0
LINE
  5
168FD
  8
0
 10
-929.57877943516246
 20
-1339.6011069341789
 30
0.0
 11
-925.80518648736643
 21
-1338.8011157145529
 31
0.0
  0
LINE
  5
168FE
  8
0
 10
-929.57877943516246
 20
-1342.8011069341781
 30
0.0
 11
-925.57877943516235
 21
-1342.0011162413559
 31
0.0
  0
LINE
  5
168FF
  8
0
 10
-929.57877943516246
 20
-1355.601106934183
 30
0.0
 11
-925.57877943516235
 21
-1354.801116241365
 31
0.0
  0
LINE
  5
16900
  8
0
 10
-925.57877943516235
 20
-1354.801116241365
 30
0.0
 11
-926.07877943516246
 21
-1354.701115077967
 31
0.0
  0
LINE
  5
16901
  8
0
 10
-929.07877943516235
 20
-1354.1011080975759
 30
0.0
 11
-929.57877943516246
 21
-1354.001106934179
 31
0.0
  0
LINE
  5
16902
  8
0
 10
-925.57877943516235
 20
-1356.4011162413649
 30
0.0
 11
-926.07877943516246
 21
-1356.3011150779671
 31
0.0
  0
LINE
  5
16903
  8
0
 10
-925.57877943516235
 20
-1358.0011162413639
 30
0.0
 11
-926.07877943516246
 21
-1357.901115077967
 31
0.0
  0
LINE
  5
16904
  8
0
 10
-929.07877943516235
 20
-1355.701108097581
 30
0.0
 11
-929.57877943516246
 21
-1355.601106934183
 31
0.0
  0
LINE
  5
16905
  8
0
 10
-929.07877943516235
 20
-1357.3011080975809
 30
0.0
 11
-929.57877943516246
 21
-1357.2011069341829
 31
0.0
  0
LINE
  5
16906
  8
0
 10
-929.57877943516246
 20
-1357.2011069341829
 30
0.0
 11
-925.57877943516235
 21
-1356.4011162413649
 31
0.0
  0
LINE
  5
16907
  8
0
 10
-925.57877943516235
 20
-1350.00111624136
 30
0.0
 11
-926.07877943516246
 21
-1349.901115077962
 31
0.0
  0
LINE
  5
16908
  8
0
 10
-925.57877943516235
 20
-1348.401116241356
 30
0.0
 11
-926.07877943516246
 21
-1348.3011150779589
 31
0.0
  0
LINE
  5
16909
  8
0
 10
-925.57877943516235
 20
-1353.2011162413601
 30
0.0
 11
-926.07877943516246
 21
-1353.101115077963
 31
0.0
  0
LINE
  5
1690A
  8
0
 10
-925.57877943516235
 20
-1351.6011162413611
 30
0.0
 11
-926.07877943516246
 21
-1351.501115077963
 31
0.0
  0
LINE
  5
1690B
  8
0
 10
-929.07877943516235
 20
-1347.701108097576
 30
0.0
 11
-929.57877943516246
 21
-1347.6011069341789
 31
0.0
  0
LINE
  5
1690C
  8
0
 10
-929.07877943516235
 20
-1349.3011080975759
 30
0.0
 11
-929.57877943516246
 21
-1349.2011069341779
 31
0.0
  0
LINE
  5
1690D
  8
0
 10
-929.07877943516235
 20
-1352.501108097576
 30
0.0
 11
-929.57877943516246
 21
-1352.4011069341791
 31
0.0
  0
LINE
  5
1690E
  8
0
 10
-929.07877943516235
 20
-1350.9011080975761
 30
0.0
 11
-929.57877943516246
 21
-1350.8011069341781
 31
0.0
  0
LINE
  5
1690F
  8
0
 10
-929.57877943516246
 20
-1350.8011069341781
 30
0.0
 11
-925.57877943516235
 21
-1350.00111624136
 31
0.0
  0
LINE
  5
16910
  8
0
 10
-929.57877943516246
 20
-1349.2011069341779
 30
0.0
 11
-925.57877943516235
 21
-1348.401116241356
 31
0.0
  0
LINE
  5
16911
  8
0
 10
-929.57877943516246
 20
-1352.4011069341791
 30
0.0
 11
-925.57877943516235
 21
-1351.6011162413611
 31
0.0
  0
LINE
  5
16912
  8
0
 10
-929.57877943516246
 20
-1354.001106934179
 30
0.0
 11
-925.57877943516235
 21
-1353.2011162413601
 31
0.0
  0
LINE
  5
16913
  8
0
 10
-926.07877943516246
 20
-1364.301115077853
 30
0.0
 11
-929.07877943516223
 21
-1364.3011080974691
 31
0.0
  0
LINE
  5
16914
  8
0
 10
-929.07877943516235
 20
-1363.7011080975849
 30
0.0
 11
-929.57877943516246
 21
-1363.6011069341871
 31
0.0
  0
LINE
  5
16915
  8
0
 10
-929.57877943516246
 20
-1363.6011069341871
 30
0.0
 11
-925.57877943516235
 21
-1362.8011162413691
 31
0.0
  0
LINE
  5
16916
  8
0
 10
-925.57877943516235
 20
-1362.8011162413691
 30
0.0
 11
-926.07877943516246
 21
-1362.7011150779711
 31
0.0
  0
LINE
  5
16917
  8
0
 10
-929.07877943516235
 20
-1362.101108097585
 30
0.0
 11
-929.57877943516246
 21
-1362.001106934187
 31
0.0
  0
LINE
  5
16918
  8
0
 10
-929.07877943516235
 20
-1360.5011080975851
 30
0.0
 11
-929.57877943516246
 21
-1360.4011069341871
 31
0.0
  0
LINE
  5
16919
  8
0
 10
-929.57877943516246
 20
-1360.4011069341871
 30
0.0
 11
-925.57877943516235
 21
-1359.601116241369
 31
0.0
  0
LINE
  5
1691A
  8
0
 10
-925.57877943516235
 20
-1361.2011162413689
 30
0.0
 11
-926.07877943516246
 21
-1361.1011150779709
 31
0.0
  0
LINE
  5
1691B
  8
0
 10
-925.57877943516235
 20
-1359.601116241369
 30
0.0
 11
-926.07877943516246
 21
-1359.501115077971
 31
0.0
  0
LINE
  5
1691C
  8
0
 10
-929.57877943516246
 20
-1362.001106934187
 30
0.0
 11
-925.57877943516235
 21
-1361.2011162413689
 31
0.0
  0
LINE
  5
1691D
  8
0
 10
-929.07877943516235
 20
-1358.9011080975811
 30
0.0
 11
-929.57877943516246
 21
-1358.8011069341831
 31
0.0
  0
LINE
  5
1691E
  8
1DIM
 10
-684.39001518193186
 20
-1489.6412081792289
 30
0.0
 11
-673.35092977307806
 21
-1489.6412081792289
 31
0.0
  0
LINE
  5
1691F
  8
1DIM
 10
-714.35092977307795
 20
-1461.6411115875519
 30
0.0
 11
-673.35092977307806
 21
-1461.6411115875519
 31
0.0
  0
LINE
  5
16920
  8
1DIM
 10
-674.35092977307795
 20
-1487.6412081792289
 30
0.0
 11
-674.35092977307795
 21
-1463.6411115875519
 31
0.0
  0
LINE
  5
16924
  8
1DIM
 10
-684.39001518193186
 20
-1507.6412081792289
 30
0.0
 11
-673.35092977307806
 21
-1507.6412081792289
 31
0.0
  0
LINE
  5
16925
  8
1DIM
 10
-684.39001518193186
 20
-1489.6412081792289
 30
0.0
 11
-673.35092977307806
 21
-1489.6412081792289
 31
0.0
  0
LINE
  5
16926
  8
1DIM
 10
-674.35092977307795
 20
-1505.6412081792289
 30
0.0
 11
-674.35092977307795
 21
-1491.6412081792289
 31
0.0
  0
TEXT
  5
1692A
  8
1HATCH
 10
-710.69582853068675
 20
-1429.349365372565
 30
0.0
 40
3.5
  1
PB
  0
TEXT
  5
1692F
  8
1DIM
 10
-704.52848403614826
 20
-1435.350711389689
 30
0.0
 40
3.5
  1
合板9mm以上
  0
LINE
  5
16931
  8
1CENTER
 10
-684.39001518193186
 20
-1507.6412081792289
 30
0.0
 11
-721.02120618238678
 21
-1507.6412081792289
 31
0.0
  0
LINE
  5
16932
  8
0
 10
-689.45092722691822
 20
-1506.5468843652341
 30
0.0
 11
-688.65093179286725
 21
-1508.5092194541089
 31
0.0
  0
LINE
  5
16933
  8
0
 10
-688.65093179286725
 20
-1508.5092194541089
 30
0.0
 11
-688.33916193661514
 21
-1507.9209428790671
 31
0.0
  0
LINE
  5
16934
  8
0
 10
-711.85092511970822
 20
-1505.6412547151269
 30
0.0
 11
-711.05093442688997
 21
-1509.6412547151269
 31
0.0
  0
LINE
  5
16935
  8
0
 10
-700.65092511970386
 20
-1505.6412547151269
 30
0.0
 11
-699.85093442688117
 21
-1509.6412547151269
 31
0.0
  0
LINE
  5
16936
  8
0
 10
-697.45092511970381
 20
-1505.6412547151269
 30
0.0
 11
-696.65093442688124
 21
-1509.6412547151269
 31
0.0
  0
LINE
  5
16937
  8
0
 10
-696.65093442688124
 20
-1509.6412547151269
 30
0.0
 11
-696.55093326348401
 21
-1509.1412547151269
 31
0.0
  0
LINE
  5
16938
  8
0
 10
-695.95092628310101
 20
-1506.1412547151269
 30
0.0
 11
-695.85092511970367
 21
-1505.6412547151269
 31
0.0
  0
LINE
  5
16939
  8
0
 10
-699.85093442688117
 20
-1509.6412547151269
 30
0.0
 11
-699.75093326348394
 21
-1509.1412547151269
 31
0.0
  0
LINE
  5
1693A
  8
0
 10
-698.25093442688114
 20
-1509.6412547151269
 30
0.0
 11
-698.15093326348403
 21
-1509.1412547151269
 31
0.0
  0
LINE
  5
1693B
  8
0
 10
-697.55092628310092
 20
-1506.1412547151269
 30
0.0
 11
-697.45092511970381
 21
-1505.6412547151269
 31
0.0
  0
LINE
  5
1693C
  8
0
 10
-699.15092628310083
 20
-1506.1412547151269
 30
0.0
 11
-699.05092511970372
 21
-1505.6412547151269
 31
0.0
  0
LINE
  5
1693D
  8
0
 10
-699.05092511970372
 20
-1505.6412547151269
 30
0.0
 11
-698.25093442688114
 21
-1509.6412547151269
 31
0.0
  0
LINE
  5
1693E
  8
0
 10
-690.25093284647289
 20
-1508.9620335585159
 30
0.0
 11
-690.06816870384478
 21
-1508.410284094713
 31
0.0
  0
LINE
  5
1693F
  8
0
 10
-693.45093442688108
 20
-1509.6412547151269
 30
0.0
 11
-693.35093326348408
 21
-1509.1412547151269
 31
0.0
  0
LINE
  5
16940
  8
0
 10
-695.0509344268811
 20
-1509.6412547151269
 30
0.0
 11
-694.95093326348422
 21
-1509.1412547151269
 31
0.0
  0
LINE
  5
16941
  8
0
 10
-691.85093390007853
 20
-1509.414847662923
 30
0.0
 11
-691.72166320244855
 21
-1508.878253927651
 31
0.0
  0
LINE
  5
16942
  8
0
 10
-691.16369568566404
 20
-1506.5621693123351
 30
0.0
 11
-691.050926173314
 21
-1506.0940708571859
 31
0.0
  0
LINE
  5
16943
  8
0
 10
-694.35092628310088
 20
-1506.1412547151269
 30
0.0
 11
-694.25092511970365
 21
-1505.6412547151269
 31
0.0
  0
LINE
  5
16944
  8
0
 10
-692.75092628310085
 20
-1506.1412547151269
 30
0.0
 11
-692.65092511970386
 21
-1505.6412547151269
 31
0.0
  0
LINE
  5
16945
  8
0
 10
-689.60236302335863
 20
-1507.004056205865
 30
0.0
 11
-689.45092722691822
 21
-1506.5468843652341
 31
0.0
  0
LINE
  5
16946
  8
0
 10
-691.050926173314
 20
-1506.0940708571859
 30
0.0
 11
-690.25093284647289
 21
-1508.9620335585159
 31
0.0
  0
LINE
  5
16947
  8
0
 10
-694.25092511970365
 20
-1505.6412547151269
 30
0.0
 11
-693.45093442688108
 21
-1509.6412547151269
 31
0.0
  0
LINE
  5
16948
  8
0
 10
-692.65092511970386
 20
-1505.6412547151269
 30
0.0
 11
-691.85093390007853
 21
-1509.414847662923
 31
0.0
  0
LINE
  5
16949
  8
0
 10
-695.85092511970367
 20
-1505.6412547151269
 30
0.0
 11
-695.0509344268811
 21
-1509.6412547151269
 31
0.0
  0
LINE
  5
1694A
  8
0
 10
-708.65092511970818
 20
-1505.6412547151269
 30
0.0
 11
-707.85093442688992
 21
-1509.6412547151269
 31
0.0
  0
LINE
  5
1694B
  8
0
 10
-707.85093442688992
 20
-1509.6412547151269
 30
0.0
 11
-707.75093326349224
 21
-1509.1412547151269
 31
0.0
  0
LINE
  5
1694C
  8
0
 10
-707.15092628310151
 20
-1506.1412547151269
 30
0.0
 11
-707.05092511970383
 21
-1505.6412547151269
 31
0.0
  0
LINE
  5
1694D
  8
0
 10
-709.45093442688994
 20
-1509.6412547151269
 30
0.0
 11
-709.35093326349238
 21
-1509.1412547151269
 31
0.0
  0
LINE
  5
1694E
  8
0
 10
-711.05093442688997
 20
-1509.6412547151269
 30
0.0
 11
-710.95093326349229
 21
-1509.1412547151269
 31
0.0
  0
LINE
  5
1694F
  8
0
 10
-708.75092628310585
 20
-1506.1412547151269
 30
0.0
 11
-708.65092511970818
 21
-1505.6412547151269
 31
0.0
  0
LINE
  5
16950
  8
0
 10
-710.35092628310588
 20
-1506.1412547151269
 30
0.0
 11
-710.25092511970831
 21
-1505.6412547151269
 31
0.0
  0
LINE
  5
16951
  8
0
 10
-710.25092511970831
 20
-1505.6412547151269
 30
0.0
 11
-709.45093442688994
 21
-1509.6412547151269
 31
0.0
  0
LINE
  5
16952
  8
0
 10
-703.05093442688553
 20
-1509.6412547151269
 30
0.0
 11
-702.95093326348785
 21
-1509.1412547151269
 31
0.0
  0
LINE
  5
16953
  8
0
 10
-701.45093442688119
 20
-1509.6412547151269
 30
0.0
 11
-701.35093326348397
 21
-1509.1412547151269
 31
0.0
  0
LINE
  5
16954
  8
0
 10
-706.25093442688546
 20
-1509.6412547151269
 30
0.0
 11
-706.15093326348779
 21
-1509.1412547151269
 31
0.0
  0
LINE
  5
16955
  8
0
 10
-704.65093442688556
 20
-1509.6412547151269
 30
0.0
 11
-704.55093326348788
 21
-1509.1412547151269
 31
0.0
  0
LINE
  5
16956
  8
0
 10
-700.75092628310097
 20
-1506.1412547151269
 30
0.0
 11
-700.65092511970386
 21
-1505.6412547151269
 31
0.0
  0
LINE
  5
16957
  8
0
 10
-702.35092628310144
 20
-1506.1412547151269
 30
0.0
 11
-702.25092511970365
 21
-1505.6412547151269
 31
0.0
  0
LINE
  5
16958
  8
0
 10
-705.5509262831016
 20
-1506.1412547151269
 30
0.0
 11
-705.45092511970392
 21
-1505.6412547151269
 31
0.0
  0
LINE
  5
16959
  8
0
 10
-703.95092628310135
 20
-1506.1412547151269
 30
0.0
 11
-703.85092511970367
 21
-1505.6412547151269
 31
0.0
  0
LINE
  5
1695A
  8
0
 10
-703.85092511970367
 20
-1505.6412547151269
 30
0.0
 11
-703.05093442688553
 21
-1509.6412547151269
 31
0.0
  0
LINE
  5
1695B
  8
0
 10
-702.25092511970365
 20
-1505.6412547151269
 30
0.0
 11
-701.45093442688119
 21
-1509.6412547151269
 31
0.0
  0
LINE
  5
1695C
  8
0
 10
-705.45092511970392
 20
-1505.6412547151269
 30
0.0
 11
-704.65093442688556
 21
-1509.6412547151269
 31
0.0
  0
LINE
  5
1695D
  8
0
 10
-707.05092511970383
 20
-1505.6412547151269
 30
0.0
 11
-706.25093442688546
 21
-1509.6412547151269
 31
0.0
  0
LINE
  5
1695E
  8
0
 10
-717.35093326337869
 20
-1509.1412547151269
 30
0.0
 11
-717.35092628299401
 21
-1506.1412547151269
 31
0.0
  0
LINE
  5
1695F
  8
0
 10
-716.75092628310995
 20
-1506.141254715126
 30
0.0
 11
-716.65092511971238
 21
-1505.6412547151269
 31
0.0
  0
LINE
  5
16960
  8
0
 10
-716.65092511971238
 20
-1505.6412547151269
 30
0.0
 11
-715.85093442689413
 21
-1509.6412547151269
 31
0.0
  0
LINE
  5
16961
  8
0
 10
-715.85093442689413
 20
-1509.6412547151269
 30
0.0
 11
-715.75093326349645
 21
-1509.1412547151269
 31
0.0
  0
LINE
  5
16962
  8
0
 10
-715.15092628311015
 20
-1506.1412547151269
 30
0.0
 11
-715.05092511971236
 21
-1505.6412547151269
 31
0.0
  0
LINE
  5
16963
  8
0
 10
-713.55092628311024
 20
-1506.1412547151269
 30
0.0
 11
-713.45092511971245
 21
-1505.6412547151269
 31
0.0
  0
LINE
  5
16964
  8
0
 10
-713.45092511971245
 20
-1505.6412547151269
 30
0.0
 11
-712.65093442689431
 21
-1509.6412547151269
 31
0.0
  0
LINE
  5
16965
  8
0
 10
-714.25093442689422
 20
-1509.6412547151269
 30
0.0
 11
-714.15093326349654
 21
-1509.1412547151269
 31
0.0
  0
LINE
  5
16966
  8
0
 10
-712.65093442689431
 20
-1509.6412547151269
 30
0.0
 11
-712.55093326349663
 21
-1509.1412547151269
 31
0.0
  0
LINE
  5
16967
  8
0
 10
-715.05092511971236
 20
-1505.6412547151269
 30
0.0
 11
-714.25093442689422
 21
-1509.6412547151269
 31
0.0
  0
LINE
  5
16968
  8
0
 10
-711.9509262831059
 20
-1506.1412547151269
 30
0.0
 11
-711.85092511970822
 21
-1505.6412547151269
 31
0.0
  0
LINE
  5
1696A
  8
1CENTER
 10
-684.39001518193186
 20
-1489.6412081792289
 30
0.0
 11
-721.02120618238678
 21
-1489.6412081792289
 31
0.0
  0
LINE
  5
1696B
  8
0
 10
-689.45092722691822
 20
-1488.5468843652341
 30
0.0
 11
-688.65093179286725
 21
-1490.5092194541089
 31
0.0
  0
LINE
  5
1696C
  8
0
 10
-688.65093179286725
 20
-1490.5092194541089
 30
0.0
 11
-688.33916193661514
 21
-1489.9209428790671
 31
0.0
  0
LINE
  5
1696D
  8
0
 10
-711.85092511970822
 20
-1487.6412547151269
 30
0.0
 11
-711.05093442688997
 21
-1491.6412547151269
 31
0.0
  0
LINE
  5
1696E
  8
0
 10
-700.65092511970386
 20
-1487.6412547151269
 30
0.0
 11
-699.85093442688117
 21
-1491.6412547151269
 31
0.0
  0
LINE
  5
1696F
  8
0
 10
-697.45092511970381
 20
-1487.6412547151269
 30
0.0
 11
-696.65093442688124
 21
-1491.6412547151269
 31
0.0
  0
LINE
  5
16970
  8
0
 10
-696.65093442688124
 20
-1491.6412547151269
 30
0.0
 11
-696.55093326348401
 21
-1491.1412547151269
 31
0.0
  0
LINE
  5
16971
  8
0
 10
-695.95092628310101
 20
-1488.1412547151269
 30
0.0
 11
-695.85092511970367
 21
-1487.6412547151269
 31
0.0
  0
LINE
  5
16972
  8
0
 10
-699.85093442688117
 20
-1491.6412547151269
 30
0.0
 11
-699.75093326348394
 21
-1491.1412547151269
 31
0.0
  0
LINE
  5
16973
  8
0
 10
-698.25093442688114
 20
-1491.6412547151269
 30
0.0
 11
-698.15093326348403
 21
-1491.1412547151269
 31
0.0
  0
LINE
  5
16974
  8
0
 10
-697.55092628310092
 20
-1488.1412547151269
 30
0.0
 11
-697.45092511970381
 21
-1487.6412547151269
 31
0.0
  0
LINE
  5
16975
  8
0
 10
-699.15092628310083
 20
-1488.1412547151269
 30
0.0
 11
-699.05092511970372
 21
-1487.6412547151269
 31
0.0
  0
LINE
  5
16976
  8
0
 10
-699.05092511970372
 20
-1487.6412547151269
 30
0.0
 11
-698.25093442688114
 21
-1491.6412547151269
 31
0.0
  0
LINE
  5
16977
  8
0
 10
-690.25093284647289
 20
-1490.9620335585159
 30
0.0
 11
-690.06816870384478
 21
-1490.410284094713
 31
0.0
  0
LINE
  5
16978
  8
0
 10
-693.45093442688108
 20
-1491.6412547151269
 30
0.0
 11
-693.35093326348408
 21
-1491.1412547151269
 31
0.0
  0
LINE
  5
16979
  8
0
 10
-695.0509344268811
 20
-1491.6412547151269
 30
0.0
 11
-694.95093326348422
 21
-1491.1412547151269
 31
0.0
  0
LINE
  5
1697A
  8
0
 10
-691.85093390007853
 20
-1491.414847662923
 30
0.0
 11
-691.72166320244855
 21
-1490.878253927651
 31
0.0
  0
LINE
  5
1697B
  8
0
 10
-691.16369568566404
 20
-1488.5621693123351
 30
0.0
 11
-691.050926173314
 21
-1488.094070857185
 31
0.0
  0
LINE
  5
1697C
  8
0
 10
-694.35092628310088
 20
-1488.1412547151269
 30
0.0
 11
-694.25092511970365
 21
-1487.6412547151269
 31
0.0
  0
LINE
  5
1697D
  8
0
 10
-692.75092628310085
 20
-1488.1412547151269
 30
0.0
 11
-692.65092511970386
 21
-1487.6412547151269
 31
0.0
  0
LINE
  5
1697E
  8
0
 10
-689.60236302335863
 20
-1489.004056205865
 30
0.0
 11
-689.45092722691822
 21
-1488.5468843652341
 31
0.0
  0
LINE
  5
1697F
  8
0
 10
-691.050926173314
 20
-1488.094070857185
 30
0.0
 11
-690.25093284647289
 21
-1490.9620335585159
 31
0.0
  0
LINE
  5
16980
  8
0
 10
-694.25092511970365
 20
-1487.6412547151269
 30
0.0
 11
-693.45093442688108
 21
-1491.6412547151269
 31
0.0
  0
LINE
  5
16981
  8
0
 10
-692.65092511970386
 20
-1487.6412547151269
 30
0.0
 11
-691.85093390007853
 21
-1491.414847662923
 31
0.0
  0
LINE
  5
16982
  8
0
 10
-695.85092511970367
 20
-1487.6412547151269
 30
0.0
 11
-695.0509344268811
 21
-1491.6412547151269
 31
0.0
  0
LINE
  5
16983
  8
0
 10
-708.65092511970818
 20
-1487.6412547151269
 30
0.0
 11
-707.85093442688992
 21
-1491.6412547151269
 31
0.0
  0
LINE
  5
16984
  8
0
 10
-707.85093442688992
 20
-1491.6412547151269
 30
0.0
 11
-707.75093326349224
 21
-1491.1412547151269
 31
0.0
  0
LINE
  5
16985
  8
0
 10
-707.15092628310151
 20
-1488.1412547151269
 30
0.0
 11
-707.05092511970383
 21
-1487.6412547151269
 31
0.0
  0
LINE
  5
16986
  8
0
 10
-709.45093442688994
 20
-1491.6412547151269
 30
0.0
 11
-709.35093326349238
 21
-1491.1412547151269
 31
0.0
  0
LINE
  5
16987
  8
0
 10
-711.05093442688997
 20
-1491.6412547151269
 30
0.0
 11
-710.95093326349229
 21
-1491.1412547151269
 31
0.0
  0
LINE
  5
16988
  8
0
 10
-708.75092628310585
 20
-1488.1412547151269
 30
0.0
 11
-708.65092511970818
 21
-1487.6412547151269
 31
0.0
  0
LINE
  5
16989
  8
0
 10
-710.35092628310588
 20
-1488.1412547151269
 30
0.0
 11
-710.25092511970831
 21
-1487.6412547151269
 31
0.0
  0
LINE
  5
1698A
  8
0
 10
-710.25092511970831
 20
-1487.6412547151269
 30
0.0
 11
-709.45093442688994
 21
-1491.6412547151269
 31
0.0
  0
LINE
  5
1698B
  8
0
 10
-703.05093442688553
 20
-1491.6412547151269
 30
0.0
 11
-702.95093326348785
 21
-1491.1412547151269
 31
0.0
  0
LINE
  5
1698C
  8
0
 10
-701.45093442688119
 20
-1491.6412547151269
 30
0.0
 11
-701.35093326348397
 21
-1491.1412547151269
 31
0.0
  0
LINE
  5
1698D
  8
0
 10
-706.25093442688546
 20
-1491.6412547151269
 30
0.0
 11
-706.15093326348779
 21
-1491.1412547151269
 31
0.0
  0
LINE
  5
1698E
  8
0
 10
-704.65093442688556
 20
-1491.6412547151269
 30
0.0
 11
-704.55093326348788
 21
-1491.1412547151269
 31
0.0
  0
LINE
  5
1698F
  8
0
 10
-700.75092628310097
 20
-1488.1412547151269
 30
0.0
 11
-700.65092511970386
 21
-1487.6412547151269
 31
0.0
  0
LINE
  5
16990
  8
0
 10
-702.35092628310144
 20
-1488.1412547151269
 30
0.0
 11
-702.25092511970365
 21
-1487.6412547151269
 31
0.0
  0
LINE
  5
16991
  8
0
 10
-705.5509262831016
 20
-1488.1412547151269
 30
0.0
 11
-705.45092511970392
 21
-1487.6412547151269
 31
0.0
  0
LINE
  5
16992
  8
0
 10
-703.95092628310135
 20
-1488.1412547151269
 30
0.0
 11
-703.85092511970367
 21
-1487.6412547151269
 31
0.0
  0
LINE
  5
16993
  8
0
 10
-703.85092511970367
 20
-1487.6412547151269
 30
0.0
 11
-703.05093442688553
 21
-1491.6412547151269
 31
0.0
  0
LINE
  5
16994
  8
0
 10
-702.25092511970365
 20
-1487.6412547151269
 30
0.0
 11
-701.45093442688119
 21
-1491.6412547151269
 31
0.0
  0
LINE
  5
16995
  8
0
 10
-705.45092511970392
 20
-1487.6412547151269
 30
0.0
 11
-704.65093442688556
 21
-1491.6412547151269
 31
0.0
  0
LINE
  5
16996
  8
0
 10
-707.05092511970383
 20
-1487.6412547151269
 30
0.0
 11
-706.25093442688546
 21
-1491.6412547151269
 31
0.0
  0
LINE
  5
16997
  8
0
 10
-717.35093326337869
 20
-1491.1412547151269
 30
0.0
 11
-717.35092628299401
 21
-1488.1412547151269
 31
0.0
  0
LINE
  5
16998
  8
0
 10
-716.75092628310995
 20
-1488.1412547151269
 30
0.0
 11
-716.65092511971238
 21
-1487.6412547151269
 31
0.0
  0
LINE
  5
16999
  8
0
 10
-716.65092511971238
 20
-1487.6412547151269
 30
0.0
 11
-715.85093442689413
 21
-1491.641254715126
 31
0.0
  0
LINE
  5
1699A
  8
0
 10
-715.85093442689413
 20
-1491.641254715126
 30
0.0
 11
-715.75093326349645
 21
-1491.1412547151269
 31
0.0
  0
LINE
  5
1699B
  8
0
 10
-715.15092628311015
 20
-1488.1412547151269
 30
0.0
 11
-715.05092511971236
 21
-1487.6412547151269
 31
0.0
  0
LINE
  5
1699C
  8
0
 10
-713.55092628311024
 20
-1488.1412547151269
 30
0.0
 11
-713.45092511971245
 21
-1487.6412547151269
 31
0.0
  0
LINE
  5
1699D
  8
0
 10
-713.45092511971245
 20
-1487.6412547151269
 30
0.0
 11
-712.65093442689431
 21
-1491.6412547151269
 31
0.0
  0
LINE
  5
1699E
  8
0
 10
-714.25093442689422
 20
-1491.6412547151269
 30
0.0
 11
-714.15093326349654
 21
-1491.1412547151269
 31
0.0
  0
LINE
  5
1699F
  8
0
 10
-712.65093442689431
 20
-1491.6412547151269
 30
0.0
 11
-712.55093326349663
 21
-1491.1412547151269
 31
0.0
  0
LINE
  5
169A0
  8
0
 10
-715.05092511971236
 20
-1487.6412547151269
 30
0.0
 11
-714.25093442689422
 21
-1491.6412547151269
 31
0.0
  0
LINE
  5
169A1
  8
0
 10
-711.9509262831059
 20
-1488.1412547151269
 30
0.0
 11
-711.85092511970822
 21
-1487.6412547151269
 31
0.0
  0
LINE
  5
169A2
  8
0
 10
-687.35092977324041
 20
-1489.6412547151269
 30
0.0
 11
-692.65092628310208
 21
-1488.1412547151269
 31
0.0
  0
LINE
  5
169A3
  8
0
 10
-692.65092628310208
 20
-1488.1412547151269
 30
0.0
 11
-717.35092628299401
 21
-1488.1412547151269
 31
0.0
  0
LINE
  5
169A4
  8
0
 10
-687.35092977324041
 20
-1489.6412547151269
 30
0.0
 11
-692.65093326348574
 21
-1491.1412547151269
 31
0.0
  0
LINE
  5
169A5
  8
0
 10
-717.35092162929595
 20
-1486.1412081792289
 30
0.0
 11
-717.35092628299401
 21
-1488.1412547151269
 31
0.0
  0
LINE
  5
169A6
  8
0
 10
-692.65093326348574
 20
-1491.1412547151269
 30
0.0
 11
-717.35093326337869
 21
-1491.1412547151269
 31
0.0
  0
LINE
  5
169A7
  8
0
 10
-717.35092162929595
 20
-1486.1412081792289
 30
0.0
 11
-718.45092511949122
 21
-1486.1412081792289
 31
0.0
  0
LINE
  5
169A8
  8
0
 10
-717.35093326337869
 20
-1491.1412547151269
 30
0.0
 11
-717.35093791686006
 21
-1493.1412081792289
 31
0.0
  0
ARC
  5
169A9
  8
0
 10
-718.45092511949122
 20
-1487.6412081792289
 30
0.0
 40
1.5
 50
90.0
 51
179.9998666844663
  0
LINE
  5
169AA
  8
0
 10
-717.35093791686006
 20
-1493.1412081792289
 30
0.0
 11
-718.45093442667076
 21
-1493.1412081792289
 31
0.0
  0
LINE
  5
169AB
  8
0
 10
-719.95092511948712
 20
-1487.6412046890359
 30
0.0
 11
-719.95093442666666
 21
-1491.6412046890359
 31
0.0
  0
ARC
  5
169AC
  8
0
 10
-718.45093442667076
 20
-1491.6412081792289
 30
0.0
 40
1.5
 50
179.9998666844663
 51
270.0
  0
LINE
  5
169AD
  8
0
 10
-687.35092977324041
 20
-1507.6412547151269
 30
0.0
 11
-692.65092628310208
 21
-1506.1412547151269
 31
0.0
  0
LINE
  5
169AE
  8
0
 10
-692.65092628310208
 20
-1506.1412547151269
 30
0.0
 11
-717.35092628299401
 21
-1506.1412547151269
 31
0.0
  0
LINE
  5
169AF
  8
0
 10
-687.35092977324041
 20
-1507.6412547151269
 30
0.0
 11
-692.65093326348574
 21
-1509.1412547151269
 31
0.0
  0
LINE
  5
169B0
  8
0
 10
-717.35092162929595
 20
-1504.1412081792289
 30
0.0
 11
-717.35092628299401
 21
-1506.1412547151269
 31
0.0
  0
LINE
  5
169B1
  8
0
 10
-692.65093326348574
 20
-1509.1412547151269
 30
0.0
 11
-717.35093326337869
 21
-1509.1412547151269
 31
0.0
  0
LINE
  5
169B2
  8
0
 10
-717.35092162929595
 20
-1504.1412081792289
 30
0.0
 11
-718.45092511949122
 21
-1504.1412081792289
 31
0.0
  0
LINE
  5
169B3
  8
0
 10
-717.35093326337869
 20
-1509.1412547151269
 30
0.0
 11
-717.35093791686006
 21
-1511.1412081792289
 31
0.0
  0
ARC
  5
169B4
  8
0
 10
-718.45092511949122
 20
-1505.6412081792289
 30
0.0
 40
1.5
 50
90.0
 51
179.9998666844663
  0
LINE
  5
169B5
  8
0
 10
-717.35093791686006
 20
-1511.1412081792289
 30
0.0
 11
-718.45093442667076
 21
-1511.1412081792289
 31
0.0
  0
LINE
  5
169B6
  8
0
 10
-719.95092511948712
 20
-1505.6412046890359
 30
0.0
 11
-719.95093442666666
 21
-1509.6412046890359
 31
0.0
  0
ARC
  5
169B7
  8
0
 10
-718.45093442667076
 20
-1509.6412081792289
 30
0.0
 40
1.5
 50
179.9998666844663
 51
270.0
  0
LINE
  5
169B8
  8
1DIM
 10
-702.03590559720169
 20
-1448.633667349711
 30
0.0
 11
-707.2284840361483
 21
-1436.050711389689
 31
0.0
1001
ACAD
1000
DSTYLE
1002
{
1070
   271
1070
     0
1002
}
  0
LINE
  5
169B9
  8
1DIM
 10
-707.2284840361483
 20
-1436.050711389689
 30
0.0
 11
-675.32848403614832
 21
-1436.050711389689
 31
0.0
1001
ACAD
1000
DSTYLE
1002
{
1070
   271
1070
     0
1002
}
  0
LINE
  5
169BA
  8
0
  6
BYBLOCK
 10
-701.54052972407396
 20
-1448.4292417690961
 30
0.0
 11
-701.27297893705872
 21
-1450.482435293841
 31
0.0
  0
LINE
  5
169BB
  8
0
  6
BYBLOCK
 10
-701.27297893705872
 20
-1450.482435293841
 30
0.0
 11
-702.53128147032919
 21
-1448.838092930326
 31
0.0
  0
LINE
  5
169BC
  8
0
  6
BYBLOCK
 10
-701.27297893705872
 20
-1450.482435293841
 30
0.0
 11
-702.03590559720169
 21
-1448.633667349711
 31
0.0
  0
LINE
  5
169BD
  8
1HATCH
 10
-710.11953019774012
 20
-1448.5602212173781
 30
0.0
 11
-713.39582853068691
 21
-1430.049365372565
 31
0.0
1001
ACAD
1000
DSTYLE
1002
{
1070
   271
1070
     0
1002
}
  0
LINE
  5
169BE
  8
1HATCH
 10
-713.39582853068691
 20
-1430.049365372565
 30
0.0
 11
-704.86249519735361
 21
-1430.049365372565
 31
0.0
1001
ACAD
1000
DSTYLE
1002
{
1070
   271
1070
     0
1002
}
  0
LINE
  5
169BF
  8
0
  6
BYBLOCK
 10
-709.591833562337
 20
-1448.4668224236441
 30
0.0
 11
-709.77096115099994
 21
-1450.529611889554
 31
0.0
  0
LINE
  5
169C0
  8
0
  6
BYBLOCK
 10
-709.77096115099994
 20
-1450.529611889554
 30
0.0
 11
-710.64722683314335
 21
-1448.6536200111109
 31
0.0
  0
LINE
  5
169C1
  8
0
  6
BYBLOCK
 10
-709.77096115099994
 20
-1450.529611889554
 30
0.0
 11
-710.11953019774012
 21
-1448.5602212173781
 31
0.0
  0
TEXT
  5
169C2
  8
1DIM
 10
-675.05092977307777
 20
-1500.9745415125619
 30
0.0
 40
3.5
  1
18 
 50
90.0
  0
LINE
  5
169C3
  8
0
  6
BYBLOCK
 10
-674.88682815307811
 20
-1491.6412081792289
 30
0.0
 11
-674.35092977307795
 21
-1489.6412081792289
 31
0.0
  0
LINE
  5
169C4
  8
0
  6
BYBLOCK
 10
-674.35092977307795
 20
-1489.6412081792289
 30
0.0
 11
-673.81503139307802
 21
-1491.6412081792289
 31
0.0
  0
LINE
  5
169C5
  8
0
  6
BYBLOCK
 10
-674.35092977307795
 20
-1489.6412081792289
 30
0.0
 11
-674.35092977307795
 21
-1491.6412081792289
 31
0.0
  0
LINE
  5
169C6
  8
0
  6
BYBLOCK
 10
-673.81503139307802
 20
-1505.6412081792289
 30
0.0
 11
-674.35092977307795
 21
-1507.6412081792289
 31
0.0
  0
LINE
  5
169C7
  8
0
  6
BYBLOCK
 10
-674.35092977307795
 20
-1507.6412081792289
 30
0.0
 11
-674.88682815307811
 21
-1505.6412081792289
 31
0.0
  0
LINE
  5
169C8
  8
0
  6
BYBLOCK
 10
-674.35092977307795
 20
-1507.6412081792289
 30
0.0
 11
-674.35092977307795
 21
-1505.6412081792289
 31
0.0
  0
TEXT
  5
169C9
  8
1DIM
 10
-675.05092977307777
 20
-1478.5578265500569
 30
0.0
 40
3.5
  1
28 
 50
90.0
  0
LINE
  5
169CA
  8
0
  6
BYBLOCK
 10
-674.88682815307811
 20
-1463.6411115875519
 30
0.0
 11
-674.35092977307795
 21
-1461.6411115875519
 31
0.0
  0
LINE
  5
169CB
  8
0
  6
BYBLOCK
 10
-674.35092977307795
 20
-1461.6411115875519
 30
0.0
 11
-673.81503139307802
 21
-1463.6411115875519
 31
0.0
  0
LINE
  5
169CC
  8
0
  6
BYBLOCK
 10
-674.35092977307795
 20
-1461.6411115875519
 30
0.0
 11
-674.35092977307795
 21
-1463.6411115875519
 31
0.0
  0
LINE
  5
169CD
  8
0
  6
BYBLOCK
 10
-673.81503139307802
 20
-1487.6412081792289
 30
0.0
 11
-674.35092977307795
 21
-1489.6412081792289
 31
0.0
  0
LINE
  5
169CE
  8
0
  6
BYBLOCK
 10
-674.35092977307795
 20
-1489.6412081792289
 30
0.0
 11
-674.88682815307811
 21
-1487.6412081792289
 31
0.0
  0
LINE
  5
169CF
  8
0
  6
BYBLOCK
 10
-674.35092977307795
 20
-1489.6412081792289
 30
0.0
 11
-674.35092977307795
 21
-1487.6412081792289
 31
0.0
  0
LINE
  5
169D0
  8
0
 10
-927.57877943516246
 20
-1334.301111587715
 30
0.0
 11
-929.07877943516235
 21
-1339.601108097577
 31
0.0
  0
LINE
  5
169D1
  8
0
 10
-929.07877943516235
 20
-1339.601108097577
 30
0.0
 11
-929.07877943516223
 21
-1364.3011080974691
 31
0.0
  0
LINE
  5
169D2
  8
0
 10
-927.57877943516246
 20
-1334.301111587715
 30
0.0
 11
-926.07877943516235
 21
-1339.60111507796
 31
0.0
  0
LINE
  5
169D3
  8
0
 10
-931.07882597106027
 20
-1364.3011034437709
 30
0.0
 11
-929.07877943516223
 21
-1364.3011080974691
 31
0.0
  0
LINE
  5
169D4
  8
0
 10
-926.07877943516235
 20
-1339.60111507796
 30
0.0
 11
-926.07877943516246
 21
-1364.301115077853
 31
0.0
  0
LINE
  5
169D5
  8
0
 10
-931.07882597106027
 20
-1364.3011034437709
 30
0.0
 11
-931.07882597106027
 21
-1365.401106933966
 31
0.0
  0
LINE
  5
169D6
  8
0
 10
-926.07877943516246
 20
-1364.301115077853
 30
0.0
 11
-924.07882597106027
 21
-1364.3011197313349
 31
0.0
  0
ARC
  5
169D7
  8
0
 10
-929.57882597106027
 20
-1365.401106933966
 30
0.0
 40
1.5
 50
180.0
 51
269.99986668447059
  0
LINE
  5
169D8
  8
0
 10
-924.07882597106027
 20
-1364.3011197313349
 30
0.0
 11
-924.07882597106027
 21
-1365.4011162411459
 31
0.0
  0
LINE
  5
169D9
  8
0
 10
-929.57882946125278
 20
-1366.901106933962
 30
0.0
 11
-925.57882946125267
 21
-1366.9011162411409
 31
0.0
  0
ARC
  5
169DA
  8
0
 10
-925.57882597106038
 20
-1365.4011162411459
 30
0.0
 40
1.5
 50
269.99986668447059
 51
0.0
  0
LINE
  5
169DB
  8
0
 10
-940.07877943516246
 20
-1334.301111587715
 30
0.0
 11
-941.57877943516235
 21
-1339.601108097577
 31
0.0
  0
LINE
  5
169DC
  8
0
 10
-941.57877943516235
 20
-1339.601108097577
 30
0.0
 11
-941.57877943516223
 21
-1364.3011080974691
 31
0.0
  0
LINE
  5
169DD
  8
0
 10
-940.07877943516246
 20
-1334.301111587715
 30
0.0
 11
-938.57877943516235
 21
-1339.60111507796
 31
0.0
  0
LINE
  5
169DE
  8
0
 10
-943.57882597106027
 20
-1364.3011034437709
 30
0.0
 11
-941.57877943516223
 21
-1364.3011080974691
 31
0.0
  0
LINE
  5
169DF
  8
0
 10
-938.57877943516235
 20
-1339.60111507796
 30
0.0
 11
-938.57877943516246
 21
-1364.301115077853
 31
0.0
  0
LINE
  5
169E0
  8
0
 10
-943.57882597106027
 20
-1364.3011034437709
 30
0.0
 11
-943.57882597106027
 21
-1365.401106933966
 31
0.0
  0
LINE
  5
169E1
  8
0
 10
-938.57877943516246
 20
-1364.301115077853
 30
0.0
 11
-936.57882597106027
 21
-1364.3011197313349
 31
0.0
  0
ARC
  5
169E2
  8
0
 10
-942.07882597106027
 20
-1365.401106933966
 30
0.0
 40
1.5
 50
180.0
 51
269.99986668447059
  0
LINE
  5
169E3
  8
0
 10
-936.57882597106027
 20
-1364.3011197313349
 30
0.0
 11
-936.57882597106027
 21
-1365.4011162411459
 31
0.0
  0
LINE
  5
169E4
  8
0
 10
-942.07882946125278
 20
-1366.901106933962
 30
0.0
 11
-938.07882946125267
 21
-1366.9011162411409
 31
0.0
  0
ARC
  5
169E5
  8
0
 10
-938.07882597106038
 20
-1365.4011162411459
 30
0.0
 40
1.5
 50
269.99986668447059
 51
0.0
  0
LINE
  5
169E6
  8
0
 10
-952.57877943516246
 20
-1334.301111587715
 30
0.0
 11
-954.07877943516235
 21
-1339.601108097577
 31
0.0
  0
LINE
  5
169E7
  8
0
 10
-954.07877943516235
 20
-1339.601108097577
 30
0.0
 11
-954.07877943516223
 21
-1364.3011080974691
 31
0.0
  0
LINE
  5
169E8
  8
0
 10
-952.57877943516246
 20
-1334.301111587715
 30
0.0
 11
-951.07877943516235
 21
-1339.60111507796
 31
0.0
  0
LINE
  5
169E9
  8
0
 10
-956.07882597106027
 20
-1364.3011034437709
 30
0.0
 11
-954.07877943516223
 21
-1364.3011080974691
 31
0.0
  0
LINE
  5
169EA
  8
0
 10
-951.07877943516235
 20
-1339.60111507796
 30
0.0
 11
-951.07877943516246
 21
-1364.301115077853
 31
0.0
  0
LINE
  5
169EB
  8
0
 10
-956.07882597106027
 20
-1364.3011034437709
 30
0.0
 11
-956.07882597106027
 21
-1365.401106933966
 31
0.0
  0
LINE
  5
169EC
  8
0
 10
-951.07877943516246
 20
-1364.301115077853
 30
0.0
 11
-949.07882597106027
 21
-1364.3011197313349
 31
0.0
  0
ARC
  5
169ED
  8
0
 10
-954.57882597106027
 20
-1365.401106933966
 30
0.0
 40
1.5
 50
180.0
 51
269.99986668447059
  0
LINE
  5
169EE
  8
0
 10
-949.07882597106027
 20
-1364.3011197313349
 30
0.0
 11
-949.07882597106027
 21
-1365.4011162411459
 31
0.0
  0
LINE
  5
169EF
  8
0
 10
-954.57882946125278
 20
-1366.901106933962
 30
0.0
 11
-950.57882946125267
 21
-1366.9011162411409
 31
0.0
  0
ARC
  5
169F0
  8
0
 10
-950.57882597106038
 20
-1365.4011162411459
 30
0.0
 40
1.5
 50
269.99986668447059
 51
0.0
  0
TEXT
  5
169F1
  8
1DIM
 10
-944.16216610439369
 20
-1450.9411115875521
 30
0.0
 40
3.5
  1
166 
  0
LINE
  5
169F2
  8
0
  6
BYBLOCK
 10
-859.0788275710604
 20
-1451.105213207552
 30
0.0
 11
-857.0788275710604
 21
-1451.6411115875519
 31
0.0
  0
LINE
  5
169F3
  8
0
  6
BYBLOCK
 10
-857.0788275710604
 20
-1451.6411115875519
 30
0.0
 11
-859.0788275710604
 21
-1452.1770099675521
 31
0.0
  0
LINE
  5
169F4
  8
0
  6
BYBLOCK
 10
-857.0788275710604
 20
-1451.6411115875519
 30
0.0
 11
-859.0788275710604
 21
-1451.6411115875519
 31
0.0
  0
LINE
  5
169F5
  8
0
  6
BYBLOCK
 10
-1021.07883797106
 20
-1452.1770099675521
 30
0.0
 11
-1023.07883797106
 21
-1451.6411115875519
 31
0.0
  0
LINE
  5
169F6
  8
0
  6
BYBLOCK
 10
-1023.07883797106
 20
-1451.6411115875519
 30
0.0
 11
-1021.07883797106
 21
-1451.105213207552
 31
0.0
  0
LINE
  5
169F7
  8
0
  6
BYBLOCK
 10
-1023.07883797106
 20
-1451.6411115875519
 30
0.0
 11
-1021.07883797106
 21
-1451.6411115875519
 31
0.0
  0
TEXT
  5
169F8
  8
1DIM
 10
-847.77882769106009
 20
-1427.312778254219
 30
0.0
 40
3.5
  1
80 （ペーパー無し最小値）
 50
90.0
  0
LINE
  5
169F9
  8
0
  6
BYBLOCK
 10
-846.54292931106022
 20
-1439.6411115875519
 30
0.0
 11
-847.07882769106027
 21
-1441.6411115875519
 31
0.0
  0
LINE
  5
169FA
  8
0
  6
BYBLOCK
 10
-847.07882769106027
 20
-1441.6411115875519
 30
0.0
 11
-847.6147260710602
 21
-1439.6411115875519
 31
0.0
  0
LINE
  5
169FB
  8
0
  6
BYBLOCK
 10
-847.07882769106027
 20
-1441.6411115875519
 30
0.0
 11
-847.07882769106027
 21
-1439.6411115875519
 31
0.0
  0
LINE
  5
169FC
  8
0
  6
BYBLOCK
 10
-847.6147260710602
 20
-1363.301111587552
 30
0.0
 11
-847.07882769106027
 21
-1361.301111587552
 31
0.0
  0
LINE
  5
169FD
  8
0
  6
BYBLOCK
 10
-847.07882769106027
 20
-1361.301111587552
 30
0.0
 11
-846.54292931106022
 21
-1363.301111587552
 31
0.0
  0
LINE
  5
169FE
  8
0
  6
BYBLOCK
 10
-847.07882769106027
 20
-1361.301111587552
 30
0.0
 11
-847.07882769106027
 21
-1363.301111587552
 31
0.0
  0
TEXT
  5
169FF
  8
1DIM
 10
-736.97592977307795
 20
-1450.9411115875521
 30
0.0
 40
3.5
  1
40 
  0
LINE
  5
16A00
  8
0
  6
BYBLOCK
 10
-716.35092977307795
 20
-1451.105213207552
 30
0.0
 11
-714.35092977307795
 21
-1451.6411115875519
 31
0.0
  0
LINE
  5
16A01
  8
0
  6
BYBLOCK
 10
-714.35092977307795
 20
-1451.6411115875519
 30
0.0
 11
-716.35092977307795
 21
-1452.1770099675521
 31
0.0
  0
LINE
  5
16A02
  8
0
  6
BYBLOCK
 10
-714.35092977307795
 20
-1451.6411115875519
 30
0.0
 11
-716.35092977307795
 21
-1451.6411115875519
 31
0.0
  0
LINE
  5
16A03
  8
0
  6
BYBLOCK
 10
-752.35092977307795
 20
-1452.1770099675521
 30
0.0
 11
-754.35092977307795
 21
-1451.6411115875519
 31
0.0
  0
LINE
  5
16A04
  8
0
  6
BYBLOCK
 10
-754.35092977307795
 20
-1451.6411115875519
 30
0.0
 11
-752.35092977307795
 21
-1451.105213207552
 31
0.0
  0
LINE
  5
16A05
  8
0
  6
BYBLOCK
 10
-754.35092977307795
 20
-1451.6411115875519
 30
0.0
 11
-752.35092977307795
 21
-1451.6411115875519
 31
0.0
  0
TEXT
  5
16A06
  8
1DIM
 10
-741.97592977307795
 20
-1440.9411115875521
 30
0.0
 40
3.5
  1
50 
  0
LINE
  5
16A07
  8
0
  6
BYBLOCK
 10
-716.35092977307795
 20
-1441.105213207552
 30
0.0
 11
-714.35092977307795
 21
-1441.6411115875519
 31
0.0
  0
LINE
  5
16A08
  8
0
  6
BYBLOCK
 10
-714.35092977307795
 20
-1441.6411115875519
 30
0.0
 11
-716.35092977307795
 21
-1442.1770099675521
 31
0.0
  0
LINE
  5
16A09
  8
0
  6
BYBLOCK
 10
-714.35092977307795
 20
-1441.6411115875519
 30
0.0
 11
-716.35092977307795
 21
-1441.6411115875519
 31
0.0
  0
LINE
  5
16A0A
  8
0
  6
BYBLOCK
 10
-762.35092977307795
 20
-1442.1770099675521
 30
0.0
 11
-764.35092977307795
 21
-1441.6411115875519
 31
0.0
  0
LINE
  5
16A0B
  8
0
  6
BYBLOCK
 10
-764.35092977307795
 20
-1441.6411115875519
 30
0.0
 11
-762.35092977307795
 21
-1441.105213207552
 31
0.0
  0
LINE
  5
16A0C
  8
0
  6
BYBLOCK
 10
-764.35092977307795
 20
-1441.6411115875519
 30
0.0
 11
-762.35092977307795
 21
-1441.6411115875519
 31
0.0
  0
TEXT
  5
16A0D
  8
1DIM
 10
-803.01487873206918
 20
-1430.9311115875521
 30
0.0
 40
3.5
  1
123 （ペーパー付き最大値）
  0
LINE
  5
16A0E
  8
0
  6
BYBLOCK
 10
-716.35092977307806
 20
-1431.095213207552
 30
0.0
 11
-714.35092977307818
 21
-1431.6311115875519
 31
0.0
  0
LINE
  5
16A0F
  8
0
  6
BYBLOCK
 10
-714.35092977307818
 20
-1431.6311115875519
 30
0.0
 11
-716.35092977307806
 21
-1432.1670099675521
 31
0.0
  0
LINE
  5
16A10
  8
0
  6
BYBLOCK
 10
-714.35092977307818
 20
-1431.6311115875519
 30
0.0
 11
-716.35092977307806
 21
-1431.6311115875519
 31
0.0
  0
LINE
  5
16A11
  8
0
  6
BYBLOCK
 10
-835.07882769106016
 20
-1432.1670099675521
 30
0.0
 11
-837.07882769106016
 21
-1431.6311115875519
 31
0.0
  0
LINE
  5
16A12
  8
0
  6
BYBLOCK
 10
-837.07882769106016
 20
-1431.6311115875519
 30
0.0
 11
-835.07882769106016
 21
-1431.095213207552
 31
0.0
  0
LINE
  5
16A13
  8
0
  6
BYBLOCK
 10
-837.07882769106016
 20
-1431.6311115875519
 30
0.0
 11
-835.07882769106016
 21
-1431.6311115875519
 31
0.0
  0
TEXT
  5
16A14
  8
1DIM
 10
-942.99549263772701
 20
-1324.8006596712139
 30
0.0
 40
3.5
  1
25 
  0
LINE
  5
16A15
  8
0
  6
BYBLOCK
 10
-929.57882597106027
 20
-1324.964761291214
 30
0.0
 11
-927.57882597106027
 21
-1325.500659671214
 31
0.0
  0
LINE
  5
16A16
  8
0
  6
BYBLOCK
 10
-927.57882597106027
 20
-1325.500659671214
 30
0.0
 11
-929.57882597106027
 21
-1326.0365580512139
 31
0.0
  0
LINE
  5
16A17
  8
0
  6
BYBLOCK
 10
-927.57882597106027
 20
-1325.500659671214
 30
0.0
 11
-929.57882597106027
 21
-1325.500659671214
 31
0.0
  0
LINE
  5
16A18
  8
0
  6
BYBLOCK
 10
-950.57882597106038
 20
-1326.0365580512139
 30
0.0
 11
-952.57882597106027
 21
-1325.500659671214
 31
0.0
  0
LINE
  5
16A19
  8
0
  6
BYBLOCK
 10
-952.57882597106027
 20
-1325.500659671214
 30
0.0
 11
-950.57882597106038
 21
-1324.964761291214
 31
0.0
  0
LINE
  5
16A1A
  8
0
  6
BYBLOCK
 10
-952.57882597106027
 20
-1325.500659671214
 30
0.0
 11
-950.57882597106038
 21
-1325.500659671214
 31
0.0
  0
TEXT
  5
16A1B
  8
1DIM
 10
-909.44331601948716
 20
-1350.6011115875519
 30
0.0
 40
3.5
  1
44 
  0
LINE
  5
16A1C
  8
0
  6
BYBLOCK
 10
-920.07882597106016
 20
-1350.7652132075521
 30
0.0
 11
-918.07882597106016
 21
-1351.301111587552
 31
0.0
  0
LINE
  5
16A1D
  8
0
  6
BYBLOCK
 10
-918.07882597106016
 20
-1351.301111587552
 30
0.0
 11
-920.07882597106016
 21
-1351.8370099675519
 31
0.0
  0
LINE
  5
16A1E
  8
0
  6
BYBLOCK
 10
-918.07882597106016
 20
-1351.301111587552
 30
0.0
 11
-920.07882597106016
 21
-1351.301111587552
 31
0.0
  0
LINE
  5
16A1F
  8
0
  6
BYBLOCK
 10
-960.07882597106038
 20
-1351.8370099675519
 30
0.0
 11
-962.07882597106038
 21
-1351.301111587552
 31
0.0
  0
LINE
  5
16A20
  8
0
  6
BYBLOCK
 10
-962.07882597106038
 20
-1351.301111587552
 30
0.0
 11
-960.07882597106038
 21
-1350.7652132075521
 31
0.0
  0
LINE
  5
16A21
  8
0
  6
BYBLOCK
 10
-962.07882597106038
 20
-1351.301111587552
 30
0.0
 11
-960.07882597106038
 21
-1351.301111587552
 31
0.0
  0
LINE
  5
16A22
  8
1DIM
 10
-928.75095283540475
 20
-1384.4341190255379
 30
0.0
 11
-912.77882597106031
 21
-1366.44478133389
 31
0.0
1001
ACAD
1000
DSTYLE
1002
{
1070
   271
1070
     0
1002
}
  0
LINE
  5
16A23
  8
1DIM
 10
-912.77882597106031
 20
-1366.44478133389
 30
0.0
 11
-864.81215930439373
 21
-1366.44478133389
 31
0.0
1001
ACAD
1000
DSTYLE
1002
{
1070
   271
1070
     0
1002
}
  0
LINE
  5
16A24
  8
0
  6
BYBLOCK
 10
-928.3502139771266
 20
-1384.7899215566599
 30
0.0
 11
-930.07882597106027
 21
-1385.9296968187689
 31
0.0
  0
LINE
  5
16A25
  8
0
  6
BYBLOCK
 10
-930.07882597106027
 20
-1385.9296968187689
 30
0.0
 11
-929.15169169368301
 21
-1384.0783164944171
 31
0.0
  0
LINE
  5
16A26
  8
0
  6
BYBLOCK
 10
-930.07882597106027
 20
-1385.9296968187689
 30
0.0
 11
-928.75095283540475
 21
-1384.4341190255379
 31
0.0
  0
LINE
  5
16A27
  8
1DIM
 10
-955.81585909768569
 20
-1371.613090108596
 30
0.0
 11
-971.86677018980288
 21
-1391.684662444927
 31
0.0
1001
ACAD
1000
DSTYLE
1002
{
1070
   271
1070
     0
1002
}
  0
LINE
  5
16A28
  8
1DIM
 10
-971.86677018980288
 20
-1391.684662444927
 30
0.0
 11
-1007.233436856469
 21
-1391.684662444927
 31
0.0
1001
ACAD
1000
DSTYLE
1002
{
1070
   271
1070
     0
1002
}
  0
LINE
  5
16A29
  8
0
  6
BYBLOCK
 10
-956.234389977197
 20
-1371.278397747491
 30
0.0
 11
-954.56677018980292
 21
-1370.051111587552
 31
0.0
  0
LINE
  5
16A2A
  8
0
  6
BYBLOCK
 10
-954.56677018980292
 20
-1370.051111587552
 30
0.0
 11
-955.39732821817449
 21
-1371.9477824697019
 31
0.0
  0
LINE
  5
16A2B
  8
0
  6
BYBLOCK
 10
-954.56677018980292
 20
-1370.051111587552
 30
0.0
 11
-955.81585909768569
 21
-1371.613090108596
 31
0.0
  0
LINE
  5
16A2C
  8
1DIM
 10
-912.49460677904688
 20
-1393.6556423219349
 30
0.0
 11
-900.98304471122844
 21
-1380.690219547924
 31
0.0
1001
ACAD
1000
DSTYLE
1002
{
1070
   271
1070
     0
1002
}
  0
LINE
  5
16A2D
  8
1DIM
 10
-900.98304471122844
 20
-1380.690219547924
 30
0.0
 11
-865.61637804456166
 21
-1380.690219547924
 31
0.0
1001
ACAD
1000
DSTYLE
1002
{
1070
   271
1070
     0
1002
}
  0
LINE
  5
16A2E
  8
0
  6
BYBLOCK
 10
-912.09386792076884
 20
-1394.011444853056
 30
0.0
 11
-913.82247991470228
 21
-1395.151220115165
 31
0.0
  0
LINE
  5
16A2F
  8
0
  6
BYBLOCK
 10
-913.82247991470228
 20
-1395.151220115165
 30
0.0
 11
-912.89534563732514
 21
-1393.2998397908129
 31
0.0
  0
LINE
  5
16A30
  8
0
  6
BYBLOCK
 10
-913.82247991470228
 20
-1395.151220115165
 30
0.0
 11
-912.49460677904688
 21
-1393.6556423219349
 31
0.0
  0
LINE
  5
16A31
  8
1DIM
 10
-945.83932546833034
 20
-1535.9986060822989
 30
0.0
 11
-929.53300719416609
 21
-1564.4811715688691
 31
0.0
1001
ACAD
1000
DSTYLE
1002
{
1070
   271
1070
     0
1002
}
  0
LINE
  5
16A32
  8
1DIM
 10
-929.53300719416609
 20
-1564.4811715688691
 30
0.0
 11
-894.16634052749941
 21
-1564.4811715688691
 31
0.0
1001
ACAD
1000
DSTYLE
1002
{
1070
   271
1070
     0
1002
}
  0
LINE
  5
16A33
  8
0
  6
BYBLOCK
 10
-946.30440041114036
 20
-1536.264862295855
 30
0.0
 11
-946.83300719416604
 21
-1534.262922750657
 31
0.0
  0
LINE
  5
16A34
  8
0
  6
BYBLOCK
 10
-946.83300719416604
 20
-1534.262922750657
 30
0.0
 11
-945.37425052552044
 21
-1535.732349868744
 31
0.0
  0
LINE
  5
16A35
  8
0
  6
BYBLOCK
 10
-946.83300719416604
 20
-1534.262922750657
 30
0.0
 11
-945.83932546833034
 21
-1535.9986060822989
 31
0.0
  0
TEXT
  5
16A36
  8
1DIM
 10
-943.8704906377269
 20
-1569.468011577937
 30
0.0
 40
3.5
  1
130 
  0
LINE
  5
16A37
  8
0
  6
BYBLOCK
 10
-877.07882597106038
 20
-1569.6321131979371
 30
0.0
 11
-875.07882597106027
 21
-1570.168011577937
 31
0.0
  0
LINE
  5
16A38
  8
0
  6
BYBLOCK
 10
-875.07882597106027
 20
-1570.168011577937
 30
0.0
 11
-877.07882597106038
 21
-1570.703909957936
 31
0.0
  0
LINE
  5
16A39
  8
0
  6
BYBLOCK
 10
-875.07882597106027
 20
-1570.168011577937
 30
0.0
 11
-877.07882597106038
 21
-1570.168011577937
 31
0.0
  0
LINE
  5
16A3A
  8
0
  6
BYBLOCK
 10
-1003.0788219710601
 20
-1570.703909957936
 30
0.0
 11
-1005.0788219710601
 21
-1570.168011577937
 31
0.0
  0
LINE
  5
16A3B
  8
0
  6
BYBLOCK
 10
-1005.0788219710601
 20
-1570.168011577937
 30
0.0
 11
-1003.0788219710601
 21
-1569.6321131979371
 31
0.0
  0
LINE
  5
16A3C
  8
0
  6
BYBLOCK
 10
-1005.0788219710601
 20
-1570.168011577937
 30
0.0
 11
-1003.0788219710601
 21
-1570.168011577937
 31
0.0
  0
VIEWPORT
  5
57
 67
     1
  8
0
 10
-12.73141056964354
 20
10.083731670551
 30
0.0
 40
426.49732989047362
 41
282.80698729109162
 68
     1
 69
     1
1001
ACAD
1000
MVIEW
1002
{
1070
    16
1010
0.0
1020
0.0
1030
0.0
1010
0.0
1020
0.0
1030
1.0
1040
0.0
1040
282.80698729109162
1040
-12.73141056964354
1040
10.083731670551
1040
50.0
1040
0.0
1040
0.0
1070
     0
1070
  1000
1070
     1
1070
     1
1070
     0
1070
     0
1070
     0
1070
     0
1040
0.0
1040
0.0
1040
0.0
1040
10.0
1040
10.0
1040
10.0
1040
10.0
1070
     0
1002
{
1002
}
1002
}
  0
ENDSEC
  0
EOF
