  0
SECTION
  2
HEADER
  9
$ACADVER
  1
AC1009
  9
$INSBASE
 10
0.0
 20
0.0
 30
0.0
  9
$EXTMIN
 10
-862.60332339910212
 20
-2175.720958638331
 30
0.0
  9
$EXTMAX
 10
-663.11303831494638
 20
-2011.0666271021889
 30
0.0
  9
$LIMMIN
 10
0.0
 20
0.0
  9
$LIMMAX
 10
420.0
 20
297.0
  9
$ORTHOMODE
 70
     0
  9
$REGENMODE
 70
     1
  9
$FILLMODE
 70
     1
  9
$QTEXTMODE
 70
     0
  9
$MIRRTEXT
 70
     0
  9
$DRAGMODE
 70
     2
  9
$LTSCALE
 40
0.5
  9
$OSMODE
 70
  2173
  9
$ATTMODE
 70
     1
  9
$TEXTSIZE
 40
4.0
  9
$TRACEWID
 40
1.0
  9
$TEXTSTYLE
  7
STANDARD
  9
$CLAYER
  8
1TEXT
  9
$CELTYPE
  6
BYLAYER
  9
$CECOLOR
 62
   256
  9
$DIMSCALE
 40
1.0
  9
$DIMASZ
 40
2.0
  9
$DIMEXO
 40
0.0
  9
$DIMDLI
 40
7.0
  9
$DIMRND
 40
0.0
  9
$DIMDLE
 40
0.0
  9
$DIMEXE
 40
1.0
  9
$DIMTP
 40
0.0
  9
$DIMTM
 40
0.0
  9
$DIMTXT
 40
3.5
  9
$DIMCEN
 40
0.0
  9
$DIMTSZ
 40
0.0
  9
$DIMTOL
 70
     0
  9
$DIMLIM
 70
     0
  9
$DIMTIH
 70
     0
  9
$DIMTOH
 70
     0
  9
$DIMSE1
 70
     0
  9
$DIMSE2
 70
     0
  9
$DIMTAD
 70
     1
  9
$DIMZIN
 70
     8
  9
$DIMBLK
  1

  9
$DIMASO
 70
     1
  9
$DIMSHO
 70
     1
  9
$DIMPOST
  1
 
  9
$DIMAPOST
  1

  9
$DIMALT
 70
     0
  9
$DIMALTD
 70
     2
  9
$DIMALTF
 40
25.399999999999999
  9
$DIMLFAC
 40
1.0
  9
$DIMTOFL
 70
     1
  9
$DIMTVP
 40
0.0
  9
$DIMTIX
 70
     0
  9
$DIMSOXD
 70
     0
  9
$DIMSAH
 70
     1
  9
$DIMBLK1
  1
OPEN30
  9
$DIMBLK2
  1
OPEN30
  9
$DIMSTYLE
  2
NEWX10
  9
$DIMCLRD
 70
   256
  9
$DIMCLRE
 70
   256
  9
$DIMCLRT
 70
   201
  9
$DIMTFAC
 40
0.7
  9
$DIMGAP
 40
0.7
  9
$LUNITS
 70
     2
  9
$LUPREC
 70
     4
  9
$SKETCHINC
 40
1.0
  9
$FILLETRAD
 40
0.3
  9
$AUNITS
 70
     0
  9
$AUPREC
 70
     2
  9
$MENU
  1
acad
  9
$ELEVATION
 40
0.0
  9
$PELEVATION
 40
0.0
  9
$THICKNESS
 40
0.0
  9
$LIMCHECK
 70
     0
  9
$BLIPMODE
 70
     0
  9
$CHAMFERA
 40
10.0
  9
$CHAMFERB
 40
10.0
  9
$SKPOLY
 70
     0
  9
$TDCREATE
 40
2453033.7326634838
  9
$TDUPDATE
 40
2453510.6884385762
  9
$TDINDWG
 40
0.9674981944
  9
$TDUSRTIMER
 40
0.9674981944
  9
$USRTIMER
 70
     1
  9
$ANGBASE
 50
0.0
  9
$ANGDIR
 70
     0
  9
$PDMODE
 70
     0
  9
$PDSIZE
 40
0.0
  9
$PLINEWID
 40
0.0
  9
$COORDS
 70
     2
  9
$SPLFRAME
 70
     0
  9
$SPLINETYPE
 70
     6
  9
$SPLINESEGS
 70
     8
  9
$ATTDIA
 70
     0
  9
$ATTREQ
 70
     1
  9
$HANDLING
 70
     1
  9
$HANDSEED
  5
11702
  9
$SURFTAB1
 70
     6
  9
$SURFTAB2
 70
     6
  9
$SURFTYPE
 70
     6
  9
$SURFU
 70
     6
  9
$SURFV
 70
     6
  9
$UCSNAME
  2

  9
$UCSORG
 10
0.0
 20
0.0
 30
0.0
  9
$UCSXDIR
 10
1.0
 20
0.0
 30
0.0
  9
$UCSYDIR
 10
0.0
 20
1.0
 30
0.0
  9
$PUCSNAME
  2

  9
$PUCSORG
 10
0.0
 20
0.0
 30
0.0
  9
$PUCSXDIR
 10
1.0
 20
0.0
 30
0.0
  9
$PUCSYDIR
 10
0.0
 20
1.0
 30
0.0
  9
$USERI1
 70
     0
  9
$USERI2
 70
     0
  9
$USERI3
 70
     0
  9
$USERI4
 70
     0
  9
$USERI5
 70
     0
  9
$USERR1
 40
0.0
  9
$USERR2
 40
0.0
  9
$USERR3
 40
0.0
  9
$USERR4
 40
0.0
  9
$USERR5
 40
0.0
  9
$WORLDVIEW
 70
     1
  9
$SHADEDGE
 70
     3
  9
$SHADEDIF
 70
    70
  9
$TILEMODE
 70
     1
  9
$MAXACTVP
 70
    48
  9
$PLIMCHECK
 70
     0
  9
$PEXTMIN
 10
1.0000000000000000E+020
 20
1.0000000000000000E+020
 30
1.0000000000000000E+020
  9
$PEXTMAX
 10
-1.0000000000000000E+020
 20
-1.0000000000000000E+020
 30
-1.0000000000000000E+020
  9
$PLIMMIN
 10
0.0
 20
0.0
  9
$PLIMMAX
 10
420.0
 20
297.0
  9
$UNITMODE
 70
     0
  9
$VISRETAIN
 70
     1
  9
$PLINEGEN
 70
     0
  9
$PSLTSCALE
 70
     1
  0
ENDSEC
  0
SECTION
  2
TABLES
  0
TABLE
  2
VPORT
 70
     4
  0
VPORT
  2
*ACTIVE
 70
     0
 10
0.0
 20
0.0
 11
1.0
 21
1.0
 12
-762.85818085702442
 22
-2093.3937928702599
 13
0.0
 23
0.0
 14
10.0
 24
10.0
 15
10.0
 25
10.0
 16
0.0
 26
0.0
 36
1.0
 17
0.0
 27
0.0
 37
0.0
 40
174.71997495299331
 41
1.508086253369272
 42
50.0
 43
0.0
 44
0.0
 50
0.0
 51
0.0
 71
     0
 72
   100
 73
     1
 74
     1
 75
     0
 76
     0
 77
     0
 78
     0
  0
ENDTAB
  0
TABLE
  2
LTYPE
 70
     4
  0
LTYPE
  2
CONTINUOUS
 70
     0
  3
Solid line
 72
    65
 73
     0
 40
0.0
  0
LTYPE
  2
CENTER2
 70
     0
  3
Center (.5x) ___ _ ___ _ ___ _ ___ _ ___ _ ___
 72
    65
 73
     4
 40
28.574999999999999
 49
19.050000000000001
 49
-3.1749999999999989
 49
3.1749999999999989
 49
-3.1749999999999989
  0
ENDTAB
  0
TABLE
  2
LAYER
 70
    13
  0
LAYER
  2
0
 70
     0
 62
     7
  6
CONTINUOUS
  0
LAYER
  2
1CENTER
 70
     0
 62
     7
  6
CENTER2
  0
LAYER
  2
1TEXT
 70
     0
 62
     7
  6
CONTINUOUS
  0
LAYER
  2
1DIM
 70
     0
 62
     7
  6
CONTINUOUS
  0
LAYER
  2
01
 70
     0
 62
     1
  6
CONTINUOUS
  0
LAYER
  2
1DIM1
 70
     0
 62
     7
  6
CONTINUOUS
  0
LAYER
  2
1HATCH
 70
     0
 62
     7
  6
CONTINUOUS
  0
ENDTAB
  0
TABLE
  2
STYLE
 70
     1
  0
STYLE
  2
STANDARD
 70
     0
 40
0.0
 41
1.0
 50
0.0
 71
     0
 42
4.0
  3
txt.shx
  4
extfont.shx
  0
ENDTAB
  0
TABLE
  2
VIEW
 70
     0
  0
ENDTAB
  0
TABLE
  2
UCS
 70
     0
  0
ENDTAB
  0
TABLE
  2
APPID
 70
     9
  0
APPID
  2
ACAD
 70
     0
  0
APPID
  2
DRAWINGVARIABLESXDATA
 70
     0
  0
APPID
  2
CONTENTTABDATA
 70
     0
  0
APPID
  2
CONTENTCURRENTTAB
 70
     0
  0
APPID
  2
CONTENTBLOCKDESCRIPTION
 70
     0
  0
APPID
  2
CONTENTBLOCKICON
 70
     0
  0
APPID
  2
CONTENTLONGBLOCKNAME
 70
     0
  0
APPID
  2
ACAD_PSEXT
 70
     0
  0
APPID
  2
ACAD_DSTYLE_DIMTEXT_FILL
 70
     0
  0
ENDTAB
  0
TABLE
  2
DIMSTYLE
 70
     1
  0
DIMSTYLE
  2
NEWX10
 70
     0
  3
 
  4

  5

  6
OPEN30
  7
OPEN30
 40
1.0
 41
2.0
 42
0.0
 43
7.0
 44
1.0
 45
0.0
 46
0.0
 47
0.0
 48
0.0
140
3.5
141
0.0
142
0.0
143
25.399999999999999
144
1.0
145
0.0
146
0.7
147
0.7
 71
     0
 72
     0
 73
     0
 74
     0
 75
     0
 76
     0
 77
     1
 78
     8
170
     0
171
     2
172
     1
173
     1
174
     0
175
     0
176
   256
177
   256
178
   201
  0
ENDTAB
  0
ENDSEC
  0
SECTION
  2
BLOCKS
  0
BLOCK
  8
0
  2
$MODEL_SPACE
 70
     0
 10
0.0
 20
0.0
 30
0.0
  3
$MODEL_SPACE
  1

  0
ENDBLK
  5
1A
  8
0
  0
BLOCK
 67
     1
  8
0
  2
$PAPER_SPACE
 70
     0
 10
0.0
 20
0.0
 30
0.0
  3
$PAPER_SPACE
  1

  0
ENDBLK
  5
17
 67
     1
  8
0
  0
BLOCK
  8
0
  2
_OPEN30
 70
     0
 10
0.0
 20
0.0
 30
0.0
  3
_OPEN30
  1

  0
LINE
  5
44
  8
0
  6
BYBLOCK
 62
     0
 10
-1.0
 20
0.26794919
 30
0.0
 11
0.0
 21
0.0
 31
0.0
  0
LINE
  5
45
  8
0
  6
BYBLOCK
 62
     0
 10
0.0
 20
0.0
 30
0.0
 11
-1.0
 21
-0.26794919
 31
0.0
  0
LINE
  5
46
  8
0
  6
BYBLOCK
 62
     0
 10
0.0
 20
0.0
 30
0.0
 11
-1.0
 21
0.0
 31
0.0
  0
ENDBLK
  5
47
  8
0
  0
ENDSEC
  0
SECTION
  2
ENTITIES
  0
TEXT
  5
1095A
  8
1TEXT
 10
-845.84493068989286
 20
-2043.7210906383309
 30
0.0
 40
6.9999930000003578
  1
SC095
 41
1.00000100000095
  0
TEXT
  5
1095B
  8
1TEXT
 10
-726.36065736256546
 20
-2167.2209671383312
 30
0.0
 40
3.999996000000464
  1
表面処理：
 41
1.000001000000897
 72
     1
 11
-715.7130383149464
 21
-2167.2209671383312
 31
0.0
  0
TEXT
  5
1095C
  8
1TEXT
 10
-725.04637164827989
 20
-2174.0562489625672
 30
0.0
 40
3.9999960000000101
  1
クローム
 41
1.0000010000010111
 72
     1
 11
-715.7130383149464
 21
-2174.0562489625672
 31
0.0
  0
LINE
  5
1095D
  8
1DIM
 10
-733.11303831494649
 20
-2161.7209726383312
 30
0.0
 11
-663.11303831494638
 21
-2161.7209726383312
 31
0.0
  0
LINE
  5
1095E
  8
1DIM
 10
-733.11303831494649
 20
-2175.720958638331
 30
0.0
 11
-663.11303831494638
 21
-2175.720958638331
 31
0.0
  0
LINE
  5
1095F
  8
1DIM
 10
-733.11303831494649
 20
-2168.7209656383302
 30
0.0
 11
-663.11303831494638
 21
-2168.7209656383302
 31
0.0
  0
LINE
  5
10960
  8
1DIM
 10
-698.11303831494649
 20
-2161.7209726383312
 30
0.0
 11
-698.11303831494649
 21
-2175.720958638331
 31
0.0
  0
TEXT
  5
10961
  8
1TEXT
 10
-693.71303831494617
 20
-2174.4353169076239
 30
0.0
 40
3.9999960000000101
  1
SC095XC
 41
1.0000010000010111
 72
     1
 11
-680.71303831494595
 21
-2174.4353169076239
 31
0.0
  0
TEXT
  5
10962
  8
1TEXT
 10
-687.51303831494636
 20
-2167.2209671383312
 30
0.0
 40
3.999996000000464
  1
コード
 41
1.000001000000897
 72
     1
 11
-680.7130383149464
 21
-2167.2209671383312
 31
0.0
  0
LINE
  5
10963
  8
1DIM
 10
-733.11303831494649
 20
-2175.720958638331
 30
0.0
 11
-733.11303831494649
 21
-2161.7209726383312
 31
0.0
  0
LINE
  5
10964
  8
1DIM
 10
-663.11303831494638
 20
-2175.720958638331
 30
0.0
 11
-663.11303831494638
 21
-2161.7209726383312
 31
0.0
  0
LINE
  5
10965
  8
01
 10
-696.11303831494661
 20
-2067.7172946421738
 30
0.0
 11
-696.11303831494661
 21
-2147.717214642174
 31
0.0
  0
LINE
  5
10966
  8
01
 10
-687.11303831494649
 20
-2067.7172946421738
 30
0.0
 11
-687.11303831494649
 21
-2147.717214642174
 31
0.0
  0
LINE
  5
10967
  8
01
 10
-705.11303831494661
 20
-2067.7172946421738
 30
0.0
 11
-705.11303831494661
 21
-2147.717214642174
 31
0.0
  0
TEXT
  5
10968
  8
1DIM
 10
-695.29059257801703
 20
-2053.426812143131
 30
0.0
 40
3.4999964999997242
  1
合板9mm以上
 41
1.0000010000010959
  0
SOLID
  5
10969
  8
1DIM
 10
-692.48988614838197
 20
-2066.5826005039949
 30
0.0
 11
-692.03508747892727
 21
-2068.5585209155602
 31
0.0
 12
-693.10614212975872
 22
-2066.8369091364002
 32
0.0
 13
-693.10614212975872
 23
-2066.8369091364002
 33
0.0
  0
LINE
  5
1096A
  8
1DIM
 10
-692.79801413907035
 20
-2066.7097548201968
 30
0.0
 11
-697.99059257801707
 21
-2054.1268114431309
 31
0.0
  0
LINE
  5
1096B
  8
1DIM
 10
-697.99059257801707
 20
-2054.1268114431309
 30
0.0
 11
-666.09059257801709
 21
-2054.1268114431309
 31
0.0
  0
SOLID
  5
1096C
  8
1HATCH
 10
-700.55340696091275
 20
-2066.5782139782818
 30
0.0
 11
-700.53306969286859
 21
-2068.605697464096
 31
0.0
 12
-701.20987051830468
 22
-2066.6944035443389
 32
0.0
 13
-701.20987051830468
 23
-2066.6944035443389
 33
0.0
  0
LINE
  5
1096D
  8
1HATCH
 10
-700.88163873960877
 20
-2066.6363087613099
 30
0.0
 11
-704.15793707255568
 21
-2048.1254714273532
 31
0.0
  0
LINE
  5
1096E
  8
1HATCH
 10
-704.15793707255568
 20
-2048.1254714273532
 30
0.0
 11
-695.62460373922227
 21
-2048.1254714273532
 31
0.0
  0
TEXT
  5
1096F
  8
1HATCH
 10
-701.45793707255564
 20
-2047.425472127353
 30
0.0
 40
3.4999964999999511
  1
PB
 41
1.0000010000010151
  0
LINE
  5
10970
  8
1CENTER
 10
-705.11303831494661
 20
-2107.7172546421739
 30
0.0
 11
-687.11303831494649
 21
-2107.7172546421739
 31
0.0
  0
LINE
  5
10971
  8
01
 10
-803.11303831494661
 20
-2126.7210076383321
 30
0.0
 11
-803.11303831494661
 21
-2094.22104013833
 31
0.0
  0
LINE
  5
10972
  8
01
 10
-783.11303831494638
 20
-2126.7210076383321
 30
0.0
 11
-783.11303831494649
 21
-2094.22104013833
 31
0.0
  0
LINE
  5
10973
  8
01
 10
-709.61303831494661
 20
-2094.0210403383312
 30
0.0
 11
-710.61303831494661
 21
-2094.0210403383321
 31
0.0
  0
LINE
  5
10974
  8
01
 10
-710.61303831494683
 20
-2127.221007138332
 30
0.0
 11
-709.61303831494672
 21
-2127.221007138332
 31
0.0
  0
LINE
  5
10975
  8
01
 10
-711.11303831494683
 20
-2126.7210076383321
 30
0.0
 11
-711.11303831494661
 21
-2094.5210398383319
 31
0.0
  0
POLYLINE
  5
10976
  8
01
 10
-710.61303831494661
 20
-2094.0210403383321
 30
0.0
 66
     1
 70
     8
  0
VERTEX
  8
01
  5
10AD2
 10
-710.613
 20
-2094.02
 30
0.000000
  70
    32
  0
VERTEX
  8
01
  5
10AD3
 10
-710.619
 20
-2094.02
 30
0.000000
  70
    32
  0
VERTEX
  8
01
  5
10AD4
 10
-710.625
 20
-2094.02
 30
0.000000
  70
    32
  0
VERTEX
  8
01
  5
10AD5
 10
-710.631
 20
-2094.02
 30
0.000000
  70
    32
  0
VERTEX
  8
01
  5
10AD6
 10
-710.638
 20
-2094.02
 30
0.000000
  70
    32
  0
VERTEX
  8
01
  5
10AD7
 10
-710.644
 20
-2094.02
 30
0.000000
  70
    32
  0
VERTEX
  8
01
  5
10AD8
 10
-710.650
 20
-2094.02
 30
0.000000
  70
    32
  0
VERTEX
  8
01
  5
10AD9
 10
-710.656
 20
-2094.02
 30
0.000000
  70
    32
  0
VERTEX
  8
01
  5
10ADA
 10
-710.662
 20
-2094.02
 30
0.000000
  70
    32
  0
VERTEX
  8
01
  5
10ADB
 10
-710.668
 20
-2094.02
 30
0.000000
  70
    32
  0
VERTEX
  8
01
  5
10ADC
 10
-710.674
 20
-2094.02
 30
0.000000
  70
    32
  0
VERTEX
  8
01
  5
10ADD
 10
-710.680
 20
-2094.03
 30
0.000000
  70
    32
  0
VERTEX
  8
01
  5
10ADE
 10
-710.686
 20
-2094.03
 30
0.000000
  70
    32
  0
VERTEX
  8
01
  5
10ADF
 10
-710.692
 20
-2094.03
 30
0.000000
  70
    32
  0
VERTEX
  8
01
  5
10AE0
 10
-710.699
 20
-2094.03
 30
0.000000
  70
    32
  0
VERTEX
  8
01
  5
10AE1
 10
-710.705
 20
-2094.03
 30
0.000000
  70
    32
  0
VERTEX
  8
01
  5
10AE2
 10
-710.711
 20
-2094.03
 30
0.000000
  70
    32
  0
VERTEX
  8
01
  5
10AE3
 10
-710.717
 20
-2094.03
 30
0.000000
  70
    32
  0
VERTEX
  8
01
  5
10AE4
 10
-710.723
 20
-2094.03
 30
0.000000
  70
    32
  0
VERTEX
  8
01
  5
10AE5
 10
-710.729
 20
-2094.03
 30
0.000000
  70
    32
  0
VERTEX
  8
01
  5
10AE6
 10
-710.735
 20
-2094.04
 30
0.000000
  70
    32
  0
VERTEX
  8
01
  5
10AE7
 10
-710.740
 20
-2094.04
 30
0.000000
  70
    32
  0
VERTEX
  8
01
  5
10AE8
 10
-710.746
 20
-2094.04
 30
0.000000
  70
    32
  0
VERTEX
  8
01
  5
10AE9
 10
-710.752
 20
-2094.04
 30
0.000000
  70
    32
  0
VERTEX
  8
01
  5
10AEA
 10
-710.758
 20
-2094.04
 30
0.000000
  70
    32
  0
VERTEX
  8
01
  5
10AEB
 10
-710.764
 20
-2094.04
 30
0.000000
  70
    32
  0
VERTEX
  8
01
  5
10AEC
 10
-710.770
 20
-2094.05
 30
0.000000
  70
    32
  0
VERTEX
  8
01
  5
10AED
 10
-710.776
 20
-2094.05
 30
0.000000
  70
    32
  0
VERTEX
  8
01
  5
10AEE
 10
-710.781
 20
-2094.05
 30
0.000000
  70
    32
  0
VERTEX
  8
01
  5
10AEF
 10
-710.787
 20
-2094.05
 30
0.000000
  70
    32
  0
VERTEX
  8
01
  5
10AF0
 10
-710.793
 20
-2094.05
 30
0.000000
  70
    32
  0
VERTEX
  8
01
  5
10AF1
 10
-710.799
 20
-2094.06
 30
0.000000
  70
    32
  0
VERTEX
  8
01
  5
10AF2
 10
-710.804
 20
-2094.06
 30
0.000000
  70
    32
  0
VERTEX
  8
01
  5
10AF3
 10
-710.810
 20
-2094.06
 30
0.000000
  70
    32
  0
VERTEX
  8
01
  5
10AF4
 10
-710.816
 20
-2094.06
 30
0.000000
  70
    32
  0
VERTEX
  8
01
  5
10AF5
 10
-710.821
 20
-2094.07
 30
0.000000
  70
    32
  0
VERTEX
  8
01
  5
10AF6
 10
-710.827
 20
-2094.07
 30
0.000000
  70
    32
  0
VERTEX
  8
01
  5
10AF7
 10
-710.832
 20
-2094.07
 30
0.000000
  70
    32
  0
VERTEX
  8
01
  5
10AF8
 10
-710.838
 20
-2094.07
 30
0.000000
  70
    32
  0
VERTEX
  8
01
  5
10AF9
 10
-710.843
 20
-2094.08
 30
0.000000
  70
    32
  0
VERTEX
  8
01
  5
10AFA
 10
-710.849
 20
-2094.08
 30
0.000000
  70
    32
  0
VERTEX
  8
01
  5
10AFB
 10
-710.854
 20
-2094.08
 30
0.000000
  70
    32
  0
VERTEX
  8
01
  5
10AFC
 10
-710.859
 20
-2094.09
 30
0.000000
  70
    32
  0
VERTEX
  8
01
  5
10AFD
 10
-710.865
 20
-2094.09
 30
0.000000
  70
    32
  0
VERTEX
  8
01
  5
10AFE
 10
-710.870
 20
-2094.09
 30
0.000000
  70
    32
  0
VERTEX
  8
01
  5
10AFF
 10
-710.875
 20
-2094.10
 30
0.000000
  70
    32
  0
VERTEX
  8
01
  5
10B00
 10
-710.881
 20
-2094.10
 30
0.000000
  70
    32
  0
VERTEX
  8
01
  5
10B01
 10
-710.886
 20
-2094.10
 30
0.000000
  70
    32
  0
VERTEX
  8
01
  5
10B02
 10
-710.891
 20
-2094.11
 30
0.000000
  70
    32
  0
VERTEX
  8
01
  5
10B03
 10
-710.896
 20
-2094.11
 30
0.000000
  70
    32
  0
VERTEX
  8
01
  5
10B04
 10
-710.901
 20
-2094.11
 30
0.000000
  70
    32
  0
VERTEX
  8
01
  5
10B05
 10
-710.906
 20
-2094.12
 30
0.000000
  70
    32
  0
VERTEX
  8
01
  5
10B06
 10
-710.911
 20
-2094.12
 30
0.000000
  70
    32
  0
VERTEX
  8
01
  5
10B07
 10
-710.916
 20
-2094.12
 30
0.000000
  70
    32
  0
VERTEX
  8
01
  5
10B08
 10
-710.921
 20
-2094.13
 30
0.000000
  70
    32
  0
VERTEX
  8
01
  5
10B09
 10
-710.925
 20
-2094.13
 30
0.000000
  70
    32
  0
VERTEX
  8
01
  5
10B0A
 10
-710.930
 20
-2094.13
 30
0.000000
  70
    32
  0
VERTEX
  8
01
  5
10B0B
 10
-710.935
 20
-2094.14
 30
0.000000
  70
    32
  0
VERTEX
  8
01
  5
10B0C
 10
-710.940
 20
-2094.14
 30
0.000000
  70
    32
  0
VERTEX
  8
01
  5
10B0D
 10
-710.944
 20
-2094.15
 30
0.000000
  70
    32
  0
VERTEX
  8
01
  5
10B0E
 10
-710.949
 20
-2094.15
 30
0.000000
  70
    32
  0
VERTEX
  8
01
  5
10B0F
 10
-710.953
 20
-2094.15
 30
0.000000
  70
    32
  0
VERTEX
  8
01
  5
10B10
 10
-710.958
 20
-2094.16
 30
0.000000
  70
    32
  0
VERTEX
  8
01
  5
10B11
 10
-710.962
 20
-2094.16
 30
0.000000
  70
    32
  0
VERTEX
  8
01
  5
10B12
 10
-710.967
 20
-2094.17
 30
0.000000
  70
    32
  0
VERTEX
  8
01
  5
10B13
 10
-710.971
 20
-2094.17
 30
0.000000
  70
    32
  0
VERTEX
  8
01
  5
10B14
 10
-710.975
 20
-2094.18
 30
0.000000
  70
    32
  0
VERTEX
  8
01
  5
10B15
 10
-710.979
 20
-2094.18
 30
0.000000
  70
    32
  0
VERTEX
  8
01
  5
10B16
 10
-710.984
 20
-2094.19
 30
0.000000
  70
    32
  0
VERTEX
  8
01
  5
10B17
 10
-710.988
 20
-2094.19
 30
0.000000
  70
    32
  0
VERTEX
  8
01
  5
10B18
 10
-710.992
 20
-2094.19
 30
0.000000
  70
    32
  0
VERTEX
  8
01
  5
10B19
 10
-710.996
 20
-2094.20
 30
0.000000
  70
    32
  0
VERTEX
  8
01
  5
10B1A
 10
-711.000
 20
-2094.20
 30
0.000000
  70
    32
  0
VERTEX
  8
01
  5
10B1B
 10
-711.003
 20
-2094.21
 30
0.000000
  70
    32
  0
VERTEX
  8
01
  5
10B1C
 10
-711.007
 20
-2094.21
 30
0.000000
  70
    32
  0
VERTEX
  8
01
  5
10B1D
 10
-711.011
 20
-2094.22
 30
0.000000
  70
    32
  0
VERTEX
  8
01
  5
10B1E
 10
-711.015
 20
-2094.22
 30
0.000000
  70
    32
  0
VERTEX
  8
01
  5
10B1F
 10
-711.018
 20
-2094.23
 30
0.000000
  70
    32
  0
VERTEX
  8
01
  5
10B20
 10
-711.022
 20
-2094.23
 30
0.000000
  70
    32
  0
VERTEX
  8
01
  5
10B21
 10
-711.025
 20
-2094.24
 30
0.000000
  70
    32
  0
VERTEX
  8
01
  5
10B22
 10
-711.029
 20
-2094.24
 30
0.000000
  70
    32
  0
VERTEX
  8
01
  5
10B23
 10
-711.032
 20
-2094.25
 30
0.000000
  70
    32
  0
VERTEX
  8
01
  5
10B24
 10
-711.035
 20
-2094.25
 30
0.000000
  70
    32
  0
VERTEX
  8
01
  5
10B25
 10
-711.039
 20
-2094.26
 30
0.000000
  70
    32
  0
VERTEX
  8
01
  5
10B26
 10
-711.042
 20
-2094.26
 30
0.000000
  70
    32
  0
VERTEX
  8
01
  5
10B27
 10
-711.045
 20
-2094.27
 30
0.000000
  70
    32
  0
VERTEX
  8
01
  5
10B28
 10
-711.048
 20
-2094.27
 30
0.000000
  70
    32
  0
VERTEX
  8
01
  5
10B29
 10
-711.051
 20
-2094.28
 30
0.000000
  70
    32
  0
VERTEX
  8
01
  5
10B2A
 10
-711.054
 20
-2094.29
 30
0.000000
  70
    32
  0
VERTEX
  8
01
  5
10B2B
 10
-711.057
 20
-2094.29
 30
0.000000
  70
    32
  0
VERTEX
  8
01
  5
10B2C
 10
-711.060
 20
-2094.30
 30
0.000000
  70
    32
  0
VERTEX
  8
01
  5
10B2D
 10
-711.062
 20
-2094.30
 30
0.000000
  70
    32
  0
VERTEX
  8
01
  5
10B2E
 10
-711.065
 20
-2094.31
 30
0.000000
  70
    32
  0
VERTEX
  8
01
  5
10B2F
 10
-711.068
 20
-2094.31
 30
0.000000
  70
    32
  0
VERTEX
  8
01
  5
10B30
 10
-711.070
 20
-2094.32
 30
0.000000
  70
    32
  0
VERTEX
  8
01
  5
10B31
 10
-711.073
 20
-2094.32
 30
0.000000
  70
    32
  0
VERTEX
  8
01
  5
10B32
 10
-711.075
 20
-2094.33
 30
0.000000
  70
    32
  0
VERTEX
  8
01
  5
10B33
 10
-711.077
 20
-2094.34
 30
0.000000
  70
    32
  0
VERTEX
  8
01
  5
10B34
 10
-711.080
 20
-2094.34
 30
0.000000
  70
    32
  0
VERTEX
  8
01
  5
10B35
 10
-711.082
 20
-2094.35
 30
0.000000
  70
    32
  0
VERTEX
  8
01
  5
10B36
 10
-711.084
 20
-2094.35
 30
0.000000
  70
    32
  0
VERTEX
  8
01
  5
10B37
 10
-711.086
 20
-2094.36
 30
0.000000
  70
    32
  0
VERTEX
  8
01
  5
10B38
 10
-711.088
 20
-2094.36
 30
0.000000
  70
    32
  0
VERTEX
  8
01
  5
10B39
 10
-711.090
 20
-2094.37
 30
0.000000
  70
    32
  0
VERTEX
  8
01
  5
10B3A
 10
-711.092
 20
-2094.38
 30
0.000000
  70
    32
  0
VERTEX
  8
01
  5
10B3B
 10
-711.093
 20
-2094.38
 30
0.000000
  70
    32
  0
VERTEX
  8
01
  5
10B3C
 10
-711.095
 20
-2094.39
 30
0.000000
  70
    32
  0
VERTEX
  8
01
  5
10B3D
 10
-711.097
 20
-2094.39
 30
0.000000
  70
    32
  0
VERTEX
  8
01
  5
10B3E
 10
-711.098
 20
-2094.40
 30
0.000000
  70
    32
  0
VERTEX
  8
01
  5
10B3F
 10
-711.100
 20
-2094.41
 30
0.000000
  70
    32
  0
VERTEX
  8
01
  5
10B40
 10
-711.101
 20
-2094.41
 30
0.000000
  70
    32
  0
VERTEX
  8
01
  5
10B41
 10
-711.102
 20
-2094.42
 30
0.000000
  70
    32
  0
VERTEX
  8
01
  5
10B42
 10
-711.103
 20
-2094.42
 30
0.000000
  70
    32
  0
VERTEX
  8
01
  5
10B43
 10
-711.105
 20
-2094.43
 30
0.000000
  70
    32
  0
VERTEX
  8
01
  5
10B44
 10
-711.106
 20
-2094.44
 30
0.000000
  70
    32
  0
VERTEX
  8
01
  5
10B45
 10
-711.107
 20
-2094.44
 30
0.000000
  70
    32
  0
VERTEX
  8
01
  5
10B46
 10
-711.108
 20
-2094.45
 30
0.000000
  70
    32
  0
VERTEX
  8
01
  5
10B47
 10
-711.108
 20
-2094.45
 30
0.000000
  70
    32
  0
VERTEX
  8
01
  5
10B48
 10
-711.109
 20
-2094.46
 30
0.000000
  70
    32
  0
VERTEX
  8
01
  5
10B49
 10
-711.110
 20
-2094.47
 30
0.000000
  70
    32
  0
VERTEX
  8
01
  5
10B4A
 10
-711.111
 20
-2094.47
 30
0.000000
  70
    32
  0
VERTEX
  8
01
  5
10B4B
 10
-711.111
 20
-2094.48
 30
0.000000
  70
    32
  0
VERTEX
  8
01
  5
10B4C
 10
-711.112
 20
-2094.48
 30
0.000000
  70
    32
  0
VERTEX
  8
01
  5
10B4D
 10
-711.112
 20
-2094.49
 30
0.000000
  70
    32
  0
VERTEX
  8
01
  5
10B4E
 10
-711.112
 20
-2094.50
 30
0.000000
  70
    32
  0
VERTEX
  8
01
  5
10B4F
 10
-711.113
 20
-2094.50
 30
0.000000
  70
    32
  0
VERTEX
  8
01
  5
10B50
 10
-711.113
 20
-2094.51
 30
0.000000
  70
    32
  0
VERTEX
  8
01
  5
10B51
 10
-711.113
 20
-2094.51
 30
0.000000
  70
    32
  0
VERTEX
  8
01
  5
10B52
 10
-711.113
 20
-2094.52
 30
0.000000
  70
    32
  0
SEQEND
  8
01
  5
10B53
  0
POLYLINE
  5
10977
  8
01
 10
-711.11303831494683
 20
-2126.7210076383321
 30
0.0
 66
     1
 70
     8
  0
VERTEX
  8
01
  5
10B54
 10
-711.113
 20
-2126.72
 30
0.000000
  70
    32
  0
VERTEX
  8
01
  5
10B55
 10
-711.113
 20
-2126.73
 30
0.000000
  70
    32
  0
VERTEX
  8
01
  5
10B56
 10
-711.113
 20
-2126.73
 30
0.000000
  70
    32
  0
VERTEX
  8
01
  5
10B57
 10
-711.113
 20
-2126.74
 30
0.000000
  70
    32
  0
VERTEX
  8
01
  5
10B58
 10
-711.112
 20
-2126.75
 30
0.000000
  70
    32
  0
VERTEX
  8
01
  5
10B59
 10
-711.112
 20
-2126.75
 30
0.000000
  70
    32
  0
VERTEX
  8
01
  5
10B5A
 10
-711.112
 20
-2126.76
 30
0.000000
  70
    32
  0
VERTEX
  8
01
  5
10B5B
 10
-711.111
 20
-2126.76
 30
0.000000
  70
    32
  0
VERTEX
  8
01
  5
10B5C
 10
-711.111
 20
-2126.77
 30
0.000000
  70
    32
  0
VERTEX
  8
01
  5
10B5D
 10
-711.110
 20
-2126.78
 30
0.000000
  70
    32
  0
VERTEX
  8
01
  5
10B5E
 10
-711.109
 20
-2126.78
 30
0.000000
  70
    32
  0
VERTEX
  8
01
  5
10B5F
 10
-711.108
 20
-2126.79
 30
0.000000
  70
    32
  0
VERTEX
  8
01
  5
10B60
 10
-711.108
 20
-2126.79
 30
0.000000
  70
    32
  0
VERTEX
  8
01
  5
10B61
 10
-711.107
 20
-2126.80
 30
0.000000
  70
    32
  0
VERTEX
  8
01
  5
10B62
 10
-711.106
 20
-2126.81
 30
0.000000
  70
    32
  0
VERTEX
  8
01
  5
10B63
 10
-711.105
 20
-2126.81
 30
0.000000
  70
    32
  0
VERTEX
  8
01
  5
10B64
 10
-711.103
 20
-2126.82
 30
0.000000
  70
    32
  0
VERTEX
  8
01
  5
10B65
 10
-711.102
 20
-2126.82
 30
0.000000
  70
    32
  0
VERTEX
  8
01
  5
10B66
 10
-711.101
 20
-2126.83
 30
0.000000
  70
    32
  0
VERTEX
  8
01
  5
10B67
 10
-711.100
 20
-2126.84
 30
0.000000
  70
    32
  0
VERTEX
  8
01
  5
10B68
 10
-711.098
 20
-2126.84
 30
0.000000
  70
    32
  0
VERTEX
  8
01
  5
10B69
 10
-711.097
 20
-2126.85
 30
0.000000
  70
    32
  0
VERTEX
  8
01
  5
10B6A
 10
-711.095
 20
-2126.85
 30
0.000000
  70
    32
  0
VERTEX
  8
01
  5
10B6B
 10
-711.093
 20
-2126.86
 30
0.000000
  70
    32
  0
VERTEX
  8
01
  5
10B6C
 10
-711.092
 20
-2126.87
 30
0.000000
  70
    32
  0
VERTEX
  8
01
  5
10B6D
 10
-711.090
 20
-2126.87
 30
0.000000
  70
    32
  0
VERTEX
  8
01
  5
10B6E
 10
-711.088
 20
-2126.88
 30
0.000000
  70
    32
  0
VERTEX
  8
01
  5
10B6F
 10
-711.086
 20
-2126.88
 30
0.000000
  70
    32
  0
VERTEX
  8
01
  5
10B70
 10
-711.084
 20
-2126.89
 30
0.000000
  70
    32
  0
VERTEX
  8
01
  5
10B71
 10
-711.082
 20
-2126.90
 30
0.000000
  70
    32
  0
VERTEX
  8
01
  5
10B72
 10
-711.080
 20
-2126.90
 30
0.000000
  70
    32
  0
VERTEX
  8
01
  5
10B73
 10
-711.077
 20
-2126.91
 30
0.000000
  70
    32
  0
VERTEX
  8
01
  5
10B74
 10
-711.075
 20
-2126.91
 30
0.000000
  70
    32
  0
VERTEX
  8
01
  5
10B75
 10
-711.073
 20
-2126.92
 30
0.000000
  70
    32
  0
VERTEX
  8
01
  5
10B76
 10
-711.070
 20
-2126.92
 30
0.000000
  70
    32
  0
VERTEX
  8
01
  5
10B77
 10
-711.068
 20
-2126.93
 30
0.000000
  70
    32
  0
VERTEX
  8
01
  5
10B78
 10
-711.065
 20
-2126.93
 30
0.000000
  70
    32
  0
VERTEX
  8
01
  5
10B79
 10
-711.062
 20
-2126.94
 30
0.000000
  70
    32
  0
VERTEX
  8
01
  5
10B7A
 10
-711.060
 20
-2126.95
 30
0.000000
  70
    32
  0
VERTEX
  8
01
  5
10B7B
 10
-711.057
 20
-2126.95
 30
0.000000
  70
    32
  0
VERTEX
  8
01
  5
10B7C
 10
-711.054
 20
-2126.96
 30
0.000000
  70
    32
  0
VERTEX
  8
01
  5
10B7D
 10
-711.051
 20
-2126.96
 30
0.000000
  70
    32
  0
VERTEX
  8
01
  5
10B7E
 10
-711.048
 20
-2126.97
 30
0.000000
  70
    32
  0
VERTEX
  8
01
  5
10B7F
 10
-711.045
 20
-2126.97
 30
0.000000
  70
    32
  0
VERTEX
  8
01
  5
10B80
 10
-711.042
 20
-2126.98
 30
0.000000
  70
    32
  0
VERTEX
  8
01
  5
10B81
 10
-711.039
 20
-2126.98
 30
0.000000
  70
    32
  0
VERTEX
  8
01
  5
10B82
 10
-711.035
 20
-2126.99
 30
0.000000
  70
    32
  0
VERTEX
  8
01
  5
10B83
 10
-711.032
 20
-2126.99
 30
0.000000
  70
    32
  0
VERTEX
  8
01
  5
10B84
 10
-711.029
 20
-2127.00
 30
0.000000
  70
    32
  0
VERTEX
  8
01
  5
10B85
 10
-711.025
 20
-2127.00
 30
0.000000
  70
    32
  0
VERTEX
  8
01
  5
10B86
 10
-711.022
 20
-2127.01
 30
0.000000
  70
    32
  0
VERTEX
  8
01
  5
10B87
 10
-711.018
 20
-2127.01
 30
0.000000
  70
    32
  0
VERTEX
  8
01
  5
10B88
 10
-711.015
 20
-2127.02
 30
0.000000
  70
    32
  0
VERTEX
  8
01
  5
10B89
 10
-711.011
 20
-2127.02
 30
0.000000
  70
    32
  0
VERTEX
  8
01
  5
10B8A
 10
-711.007
 20
-2127.03
 30
0.000000
  70
    32
  0
VERTEX
  8
01
  5
10B8B
 10
-711.003
 20
-2127.03
 30
0.000000
  70
    32
  0
VERTEX
  8
01
  5
10B8C
 10
-711.000
 20
-2127.04
 30
0.000000
  70
    32
  0
VERTEX
  8
01
  5
10B8D
 10
-710.996
 20
-2127.04
 30
0.000000
  70
    32
  0
VERTEX
  8
01
  5
10B8E
 10
-710.992
 20
-2127.05
 30
0.000000
  70
    32
  0
VERTEX
  8
01
  5
10B8F
 10
-710.988
 20
-2127.05
 30
0.000000
  70
    32
  0
VERTEX
  8
01
  5
10B90
 10
-710.984
 20
-2127.06
 30
0.000000
  70
    32
  0
VERTEX
  8
01
  5
10B91
 10
-710.979
 20
-2127.06
 30
0.000000
  70
    32
  0
VERTEX
  8
01
  5
10B92
 10
-710.975
 20
-2127.07
 30
0.000000
  70
    32
  0
VERTEX
  8
01
  5
10B93
 10
-710.971
 20
-2127.07
 30
0.000000
  70
    32
  0
VERTEX
  8
01
  5
10B94
 10
-710.967
 20
-2127.07
 30
0.000000
  70
    32
  0
VERTEX
  8
01
  5
10B95
 10
-710.962
 20
-2127.08
 30
0.000000
  70
    32
  0
VERTEX
  8
01
  5
10B96
 10
-710.958
 20
-2127.08
 30
0.000000
  70
    32
  0
VERTEX
  8
01
  5
10B97
 10
-710.953
 20
-2127.09
 30
0.000000
  70
    32
  0
VERTEX
  8
01
  5
10B98
 10
-710.949
 20
-2127.09
 30
0.000000
  70
    32
  0
VERTEX
  8
01
  5
10B99
 10
-710.944
 20
-2127.10
 30
0.000000
  70
    32
  0
VERTEX
  8
01
  5
10B9A
 10
-710.940
 20
-2127.10
 30
0.000000
  70
    32
  0
VERTEX
  8
01
  5
10B9B
 10
-710.935
 20
-2127.10
 30
0.000000
  70
    32
  0
VERTEX
  8
01
  5
10B9C
 10
-710.930
 20
-2127.11
 30
0.000000
  70
    32
  0
VERTEX
  8
01
  5
10B9D
 10
-710.925
 20
-2127.11
 30
0.000000
  70
    32
  0
VERTEX
  8
01
  5
10B9E
 10
-710.921
 20
-2127.12
 30
0.000000
  70
    32
  0
VERTEX
  8
01
  5
10B9F
 10
-710.916
 20
-2127.12
 30
0.000000
  70
    32
  0
VERTEX
  8
01
  5
10BA0
 10
-710.911
 20
-2127.12
 30
0.000000
  70
    32
  0
VERTEX
  8
01
  5
10BA1
 10
-710.906
 20
-2127.13
 30
0.000000
  70
    32
  0
VERTEX
  8
01
  5
10BA2
 10
-710.901
 20
-2127.13
 30
0.000000
  70
    32
  0
VERTEX
  8
01
  5
10BA3
 10
-710.896
 20
-2127.13
 30
0.000000
  70
    32
  0
VERTEX
  8
01
  5
10BA4
 10
-710.891
 20
-2127.14
 30
0.000000
  70
    32
  0
VERTEX
  8
01
  5
10BA5
 10
-710.886
 20
-2127.14
 30
0.000000
  70
    32
  0
VERTEX
  8
01
  5
10BA6
 10
-710.881
 20
-2127.14
 30
0.000000
  70
    32
  0
VERTEX
  8
01
  5
10BA7
 10
-710.875
 20
-2127.15
 30
0.000000
  70
    32
  0
VERTEX
  8
01
  5
10BA8
 10
-710.870
 20
-2127.15
 30
0.000000
  70
    32
  0
VERTEX
  8
01
  5
10BA9
 10
-710.865
 20
-2127.15
 30
0.000000
  70
    32
  0
VERTEX
  8
01
  5
10BAA
 10
-710.859
 20
-2127.16
 30
0.000000
  70
    32
  0
VERTEX
  8
01
  5
10BAB
 10
-710.854
 20
-2127.16
 30
0.000000
  70
    32
  0
VERTEX
  8
01
  5
10BAC
 10
-710.849
 20
-2127.16
 30
0.000000
  70
    32
  0
VERTEX
  8
01
  5
10BAD
 10
-710.843
 20
-2127.16
 30
0.000000
  70
    32
  0
VERTEX
  8
01
  5
10BAE
 10
-710.838
 20
-2127.17
 30
0.000000
  70
    32
  0
VERTEX
  8
01
  5
10BAF
 10
-710.832
 20
-2127.17
 30
0.000000
  70
    32
  0
VERTEX
  8
01
  5
10BB0
 10
-710.827
 20
-2127.17
 30
0.000000
  70
    32
  0
VERTEX
  8
01
  5
10BB1
 10
-710.821
 20
-2127.18
 30
0.000000
  70
    32
  0
VERTEX
  8
01
  5
10BB2
 10
-710.816
 20
-2127.18
 30
0.000000
  70
    32
  0
VERTEX
  8
01
  5
10BB3
 10
-710.810
 20
-2127.18
 30
0.000000
  70
    32
  0
VERTEX
  8
01
  5
10BB4
 10
-710.804
 20
-2127.18
 30
0.000000
  70
    32
  0
VERTEX
  8
01
  5
10BB5
 10
-710.799
 20
-2127.19
 30
0.000000
  70
    32
  0
VERTEX
  8
01
  5
10BB6
 10
-710.793
 20
-2127.19
 30
0.000000
  70
    32
  0
VERTEX
  8
01
  5
10BB7
 10
-710.787
 20
-2127.19
 30
0.000000
  70
    32
  0
VERTEX
  8
01
  5
10BB8
 10
-710.781
 20
-2127.19
 30
0.000000
  70
    32
  0
VERTEX
  8
01
  5
10BB9
 10
-710.776
 20
-2127.19
 30
0.000000
  70
    32
  0
VERTEX
  8
01
  5
10BBA
 10
-710.770
 20
-2127.20
 30
0.000000
  70
    32
  0
VERTEX
  8
01
  5
10BBB
 10
-710.764
 20
-2127.20
 30
0.000000
  70
    32
  0
VERTEX
  8
01
  5
10BBC
 10
-710.758
 20
-2127.20
 30
0.000000
  70
    32
  0
VERTEX
  8
01
  5
10BBD
 10
-710.752
 20
-2127.20
 30
0.000000
  70
    32
  0
VERTEX
  8
01
  5
10BBE
 10
-710.746
 20
-2127.20
 30
0.000000
  70
    32
  0
VERTEX
  8
01
  5
10BBF
 10
-710.740
 20
-2127.20
 30
0.000000
  70
    32
  0
VERTEX
  8
01
  5
10BC0
 10
-710.735
 20
-2127.21
 30
0.000000
  70
    32
  0
VERTEX
  8
01
  5
10BC1
 10
-710.729
 20
-2127.21
 30
0.000000
  70
    32
  0
VERTEX
  8
01
  5
10BC2
 10
-710.723
 20
-2127.21
 30
0.000000
  70
    32
  0
VERTEX
  8
01
  5
10BC3
 10
-710.717
 20
-2127.21
 30
0.000000
  70
    32
  0
VERTEX
  8
01
  5
10BC4
 10
-710.711
 20
-2127.21
 30
0.000000
  70
    32
  0
VERTEX
  8
01
  5
10BC5
 10
-710.705
 20
-2127.21
 30
0.000000
  70
    32
  0
VERTEX
  8
01
  5
10BC6
 10
-710.699
 20
-2127.21
 30
0.000000
  70
    32
  0
VERTEX
  8
01
  5
10BC7
 10
-710.692
 20
-2127.21
 30
0.000000
  70
    32
  0
VERTEX
  8
01
  5
10BC8
 10
-710.686
 20
-2127.22
 30
0.000000
  70
    32
  0
VERTEX
  8
01
  5
10BC9
 10
-710.680
 20
-2127.22
 30
0.000000
  70
    32
  0
VERTEX
  8
01
  5
10BCA
 10
-710.674
 20
-2127.22
 30
0.000000
  70
    32
  0
VERTEX
  8
01
  5
10BCB
 10
-710.668
 20
-2127.22
 30
0.000000
  70
    32
  0
VERTEX
  8
01
  5
10BCC
 10
-710.662
 20
-2127.22
 30
0.000000
  70
    32
  0
VERTEX
  8
01
  5
10BCD
 10
-710.656
 20
-2127.22
 30
0.000000
  70
    32
  0
VERTEX
  8
01
  5
10BCE
 10
-710.650
 20
-2127.22
 30
0.000000
  70
    32
  0
VERTEX
  8
01
  5
10BCF
 10
-710.644
 20
-2127.22
 30
0.000000
  70
    32
  0
VERTEX
  8
01
  5
10BD0
 10
-710.638
 20
-2127.22
 30
0.000000
  70
    32
  0
VERTEX
  8
01
  5
10BD1
 10
-710.631
 20
-2127.22
 30
0.000000
  70
    32
  0
VERTEX
  8
01
  5
10BD2
 10
-710.625
 20
-2127.22
 30
0.000000
  70
    32
  0
VERTEX
  8
01
  5
10BD3
 10
-710.619
 20
-2127.22
 30
0.000000
  70
    32
  0
VERTEX
  8
01
  5
10BD4
 10
-710.613
 20
-2127.22
 30
0.000000
  70
    32
  0
SEQEND
  8
01
  5
10BD5
  0
LINE
  5
10978
  8
01
 10
-709.61303831494661
 20
-2127.72100663833
 30
0.0
 11
-709.61303831494638
 21
-2093.721040638331
 31
0.0
  0
LINE
  5
10979
  8
01
 10
-802.61303831494672
 20
-2141.7209926383298
 30
0.0
 11
-783.61303831494661
 21
-2141.7209926383298
 31
0.0
  0
LINE
  5
1097A
  8
01
 10
-802.61303831494672
 20
-2127.7210066383309
 30
0.0
 11
-783.61303831494627
 21
-2127.72100663833
 31
0.0
  0
LINE
  5
1097B
  8
01
 10
-802.61303831494672
 20
-2093.721040638331
 30
0.0
 11
-783.61303831494661
 21
-2093.721040638331
 31
0.0
  0
LINE
  5
1097C
  8
01
 10
-783.11303831494649
 20
-2126.7210076383321
 30
0.0
 11
-783.11303831494649
 21
-2141.2209931383309
 31
0.0
  0
LINE
  5
1097D
  8
01
 10
-803.11303831494661
 20
-2126.7210076383321
 30
0.0
 11
-803.11303831494661
 21
-2141.2209931383309
 31
0.0
  0
POLYLINE
  5
1097E
  8
01
 10
-727.11303831494649
 20
-2133.7210006383302
 30
0.0
 66
     1
 70
     8
  0
VERTEX
  8
01
  5
10BD6
 10
-727.113
 20
-2133.72
 30
0.000000
  70
    32
  0
VERTEX
  8
01
  5
10BD7
 10
-727.113
 20
-2133.75
 30
0.000000
  70
    32
  0
VERTEX
  8
01
  5
10BD8
 10
-727.112
 20
-2133.77
 30
0.000000
  70
    32
  0
VERTEX
  8
01
  5
10BD9
 10
-727.112
 20
-2133.79
 30
0.000000
  70
    32
  0
VERTEX
  8
01
  5
10BDA
 10
-727.111
 20
-2133.82
 30
0.000000
  70
    32
  0
VERTEX
  8
01
  5
10BDB
 10
-727.109
 20
-2133.84
 30
0.000000
  70
    32
  0
VERTEX
  8
01
  5
10BDC
 10
-727.108
 20
-2133.87
 30
0.000000
  70
    32
  0
VERTEX
  8
01
  5
10BDD
 10
-727.106
 20
-2133.89
 30
0.000000
  70
    32
  0
VERTEX
  8
01
  5
10BDE
 10
-727.103
 20
-2133.92
 30
0.000000
  70
    32
  0
VERTEX
  8
01
  5
10BDF
 10
-727.101
 20
-2133.94
 30
0.000000
  70
    32
  0
VERTEX
  8
01
  5
10BE0
 10
-727.098
 20
-2133.97
 30
0.000000
  70
    32
  0
VERTEX
  8
01
  5
10BE1
 10
-727.095
 20
-2133.99
 30
0.000000
  70
    32
  0
VERTEX
  8
01
  5
10BE2
 10
-727.091
 20
-2134.01
 30
0.000000
  70
    32
  0
VERTEX
  8
01
  5
10BE3
 10
-727.088
 20
-2134.04
 30
0.000000
  70
    32
  0
VERTEX
  8
01
  5
10BE4
 10
-727.084
 20
-2134.06
 30
0.000000
  70
    32
  0
VERTEX
  8
01
  5
10BE5
 10
-727.079
 20
-2134.09
 30
0.000000
  70
    32
  0
VERTEX
  8
01
  5
10BE6
 10
-727.075
 20
-2134.11
 30
0.000000
  70
    32
  0
VERTEX
  8
01
  5
10BE7
 10
-727.070
 20
-2134.14
 30
0.000000
  70
    32
  0
VERTEX
  8
01
  5
10BE8
 10
-727.064
 20
-2134.16
 30
0.000000
  70
    32
  0
VERTEX
  8
01
  5
10BE9
 10
-727.059
 20
-2134.18
 30
0.000000
  70
    32
  0
VERTEX
  8
01
  5
10BEA
 10
-727.053
 20
-2134.21
 30
0.000000
  70
    32
  0
VERTEX
  8
01
  5
10BEB
 10
-727.047
 20
-2134.23
 30
0.000000
  70
    32
  0
VERTEX
  8
01
  5
10BEC
 10
-727.041
 20
-2134.25
 30
0.000000
  70
    32
  0
VERTEX
  8
01
  5
10BED
 10
-727.034
 20
-2134.28
 30
0.000000
  70
    32
  0
VERTEX
  8
01
  5
10BEE
 10
-727.027
 20
-2134.30
 30
0.000000
  70
    32
  0
VERTEX
  8
01
  5
10BEF
 10
-727.020
 20
-2134.33
 30
0.000000
  70
    32
  0
VERTEX
  8
01
  5
10BF0
 10
-727.012
 20
-2134.35
 30
0.000000
  70
    32
  0
VERTEX
  8
01
  5
10BF1
 10
-727.004
 20
-2134.37
 30
0.000000
  70
    32
  0
VERTEX
  8
01
  5
10BF2
 10
-726.996
 20
-2134.39
 30
0.000000
  70
    32
  0
VERTEX
  8
01
  5
10BF3
 10
-726.988
 20
-2134.42
 30
0.000000
  70
    32
  0
VERTEX
  8
01
  5
10BF4
 10
-726.979
 20
-2134.44
 30
0.000000
  70
    32
  0
VERTEX
  8
01
  5
10BF5
 10
-726.970
 20
-2134.46
 30
0.000000
  70
    32
  0
VERTEX
  8
01
  5
10BF6
 10
-726.961
 20
-2134.49
 30
0.000000
  70
    32
  0
VERTEX
  8
01
  5
10BF7
 10
-726.951
 20
-2134.51
 30
0.000000
  70
    32
  0
VERTEX
  8
01
  5
10BF8
 10
-726.941
 20
-2134.53
 30
0.000000
  70
    32
  0
VERTEX
  8
01
  5
10BF9
 10
-726.931
 20
-2134.55
 30
0.000000
  70
    32
  0
VERTEX
  8
01
  5
10BFA
 10
-726.921
 20
-2134.58
 30
0.000000
  70
    32
  0
VERTEX
  8
01
  5
10BFB
 10
-726.910
 20
-2134.60
 30
0.000000
  70
    32
  0
VERTEX
  8
01
  5
10BFC
 10
-726.899
 20
-2134.62
 30
0.000000
  70
    32
  0
VERTEX
  8
01
  5
10BFD
 10
-726.888
 20
-2134.64
 30
0.000000
  70
    32
  0
VERTEX
  8
01
  5
10BFE
 10
-726.877
 20
-2134.66
 30
0.000000
  70
    32
  0
VERTEX
  8
01
  5
10BFF
 10
-726.865
 20
-2134.69
 30
0.000000
  70
    32
  0
VERTEX
  8
01
  5
10C00
 10
-726.853
 20
-2134.71
 30
0.000000
  70
    32
  0
VERTEX
  8
01
  5
10C01
 10
-726.841
 20
-2134.73
 30
0.000000
  70
    32
  0
VERTEX
  8
01
  5
10C02
 10
-726.828
 20
-2134.75
 30
0.000000
  70
    32
  0
VERTEX
  8
01
  5
10C03
 10
-726.816
 20
-2134.77
 30
0.000000
  70
    32
  0
VERTEX
  8
01
  5
10C04
 10
-726.803
 20
-2134.79
 30
0.000000
  70
    32
  0
VERTEX
  8
01
  5
10C05
 10
-726.789
 20
-2134.81
 30
0.000000
  70
    32
  0
VERTEX
  8
01
  5
10C06
 10
-726.776
 20
-2134.83
 30
0.000000
  70
    32
  0
VERTEX
  8
01
  5
10C07
 10
-726.762
 20
-2134.85
 30
0.000000
  70
    32
  0
VERTEX
  8
01
  5
10C08
 10
-726.748
 20
-2134.87
 30
0.000000
  70
    32
  0
VERTEX
  8
01
  5
10C09
 10
-726.734
 20
-2134.89
 30
0.000000
  70
    32
  0
VERTEX
  8
01
  5
10C0A
 10
-726.719
 20
-2134.91
 30
0.000000
  70
    32
  0
VERTEX
  8
01
  5
10C0B
 10
-726.705
 20
-2134.93
 30
0.000000
  70
    32
  0
VERTEX
  8
01
  5
10C0C
 10
-726.690
 20
-2134.95
 30
0.000000
  70
    32
  0
VERTEX
  8
01
  5
10C0D
 10
-726.675
 20
-2134.97
 30
0.000000
  70
    32
  0
VERTEX
  8
01
  5
10C0E
 10
-726.659
 20
-2134.99
 30
0.000000
  70
    32
  0
VERTEX
  8
01
  5
10C0F
 10
-726.643
 20
-2135.01
 30
0.000000
  70
    32
  0
VERTEX
  8
01
  5
10C10
 10
-726.627
 20
-2135.03
 30
0.000000
  70
    32
  0
VERTEX
  8
01
  5
10C11
 10
-726.611
 20
-2135.05
 30
0.000000
  70
    32
  0
VERTEX
  8
01
  5
10C12
 10
-726.595
 20
-2135.06
 30
0.000000
  70
    32
  0
VERTEX
  8
01
  5
10C13
 10
-726.578
 20
-2135.08
 30
0.000000
  70
    32
  0
VERTEX
  8
01
  5
10C14
 10
-726.562
 20
-2135.10
 30
0.000000
  70
    32
  0
VERTEX
  8
01
  5
10C15
 10
-726.544
 20
-2135.12
 30
0.000000
  70
    32
  0
VERTEX
  8
01
  5
10C16
 10
-726.527
 20
-2135.14
 30
0.000000
  70
    32
  0
VERTEX
  8
01
  5
10C17
 10
-726.510
 20
-2135.15
 30
0.000000
  70
    32
  0
VERTEX
  8
01
  5
10C18
 10
-726.492
 20
-2135.17
 30
0.000000
  70
    32
  0
VERTEX
  8
01
  5
10C19
 10
-726.474
 20
-2135.19
 30
0.000000
  70
    32
  0
VERTEX
  8
01
  5
10C1A
 10
-726.456
 20
-2135.20
 30
0.000000
  70
    32
  0
VERTEX
  8
01
  5
10C1B
 10
-726.438
 20
-2135.22
 30
0.000000
  70
    32
  0
VERTEX
  8
01
  5
10C1C
 10
-726.419
 20
-2135.24
 30
0.000000
  70
    32
  0
VERTEX
  8
01
  5
10C1D
 10
-726.401
 20
-2135.25
 30
0.000000
  70
    32
  0
VERTEX
  8
01
  5
10C1E
 10
-726.382
 20
-2135.27
 30
0.000000
  70
    32
  0
VERTEX
  8
01
  5
10C1F
 10
-726.363
 20
-2135.28
 30
0.000000
  70
    32
  0
VERTEX
  8
01
  5
10C20
 10
-726.344
 20
-2135.30
 30
0.000000
  70
    32
  0
VERTEX
  8
01
  5
10C21
 10
-726.324
 20
-2135.31
 30
0.000000
  70
    32
  0
VERTEX
  8
01
  5
10C22
 10
-726.304
 20
-2135.33
 30
0.000000
  70
    32
  0
VERTEX
  8
01
  5
10C23
 10
-726.285
 20
-2135.34
 30
0.000000
  70
    32
  0
VERTEX
  8
01
  5
10C24
 10
-726.265
 20
-2135.36
 30
0.000000
  70
    32
  0
VERTEX
  8
01
  5
10C25
 10
-726.245
 20
-2135.37
 30
0.000000
  70
    32
  0
VERTEX
  8
01
  5
10C26
 10
-726.224
 20
-2135.38
 30
0.000000
  70
    32
  0
VERTEX
  8
01
  5
10C27
 10
-726.204
 20
-2135.40
 30
0.000000
  70
    32
  0
VERTEX
  8
01
  5
10C28
 10
-726.183
 20
-2135.41
 30
0.000000
  70
    32
  0
VERTEX
  8
01
  5
10C29
 10
-726.162
 20
-2135.42
 30
0.000000
  70
    32
  0
VERTEX
  8
01
  5
10C2A
 10
-726.141
 20
-2135.44
 30
0.000000
  70
    32
  0
VERTEX
  8
01
  5
10C2B
 10
-726.120
 20
-2135.45
 30
0.000000
  70
    32
  0
VERTEX
  8
01
  5
10C2C
 10
-726.099
 20
-2135.46
 30
0.000000
  70
    32
  0
VERTEX
  8
01
  5
10C2D
 10
-726.077
 20
-2135.47
 30
0.000000
  70
    32
  0
VERTEX
  8
01
  5
10C2E
 10
-726.056
 20
-2135.48
 30
0.000000
  70
    32
  0
VERTEX
  8
01
  5
10C2F
 10
-726.034
 20
-2135.50
 30
0.000000
  70
    32
  0
VERTEX
  8
01
  5
10C30
 10
-726.012
 20
-2135.51
 30
0.000000
  70
    32
  0
VERTEX
  8
01
  5
10C31
 10
-725.990
 20
-2135.52
 30
0.000000
  70
    32
  0
VERTEX
  8
01
  5
10C32
 10
-725.968
 20
-2135.53
 30
0.000000
  70
    32
  0
VERTEX
  8
01
  5
10C33
 10
-725.946
 20
-2135.54
 30
0.000000
  70
    32
  0
VERTEX
  8
01
  5
10C34
 10
-725.924
 20
-2135.55
 30
0.000000
  70
    32
  0
VERTEX
  8
01
  5
10C35
 10
-725.901
 20
-2135.56
 30
0.000000
  70
    32
  0
VERTEX
  8
01
  5
10C36
 10
-725.878
 20
-2135.57
 30
0.000000
  70
    32
  0
VERTEX
  8
01
  5
10C37
 10
-725.856
 20
-2135.58
 30
0.000000
  70
    32
  0
VERTEX
  8
01
  5
10C38
 10
-725.833
 20
-2135.59
 30
0.000000
  70
    32
  0
VERTEX
  8
01
  5
10C39
 10
-725.810
 20
-2135.60
 30
0.000000
  70
    32
  0
VERTEX
  8
01
  5
10C3A
 10
-725.787
 20
-2135.60
 30
0.000000
  70
    32
  0
VERTEX
  8
01
  5
10C3B
 10
-725.764
 20
-2135.61
 30
0.000000
  70
    32
  0
VERTEX
  8
01
  5
10C3C
 10
-725.740
 20
-2135.62
 30
0.000000
  70
    32
  0
VERTEX
  8
01
  5
10C3D
 10
-725.717
 20
-2135.63
 30
0.000000
  70
    32
  0
VERTEX
  8
01
  5
10C3E
 10
-725.694
 20
-2135.63
 30
0.000000
  70
    32
  0
VERTEX
  8
01
  5
10C3F
 10
-725.670
 20
-2135.64
 30
0.000000
  70
    32
  0
VERTEX
  8
01
  5
10C40
 10
-725.646
 20
-2135.65
 30
0.000000
  70
    32
  0
VERTEX
  8
01
  5
10C41
 10
-725.623
 20
-2135.65
 30
0.000000
  70
    32
  0
VERTEX
  8
01
  5
10C42
 10
-725.599
 20
-2135.66
 30
0.000000
  70
    32
  0
VERTEX
  8
01
  5
10C43
 10
-725.575
 20
-2135.67
 30
0.000000
  70
    32
  0
VERTEX
  8
01
  5
10C44
 10
-725.551
 20
-2135.67
 30
0.000000
  70
    32
  0
VERTEX
  8
01
  5
10C45
 10
-725.527
 20
-2135.68
 30
0.000000
  70
    32
  0
VERTEX
  8
01
  5
10C46
 10
-725.503
 20
-2135.68
 30
0.000000
  70
    32
  0
VERTEX
  8
01
  5
10C47
 10
-725.479
 20
-2135.69
 30
0.000000
  70
    32
  0
VERTEX
  8
01
  5
10C48
 10
-725.455
 20
-2135.69
 30
0.000000
  70
    32
  0
VERTEX
  8
01
  5
10C49
 10
-725.431
 20
-2135.70
 30
0.000000
  70
    32
  0
VERTEX
  8
01
  5
10C4A
 10
-725.406
 20
-2135.70
 30
0.000000
  70
    32
  0
VERTEX
  8
01
  5
10C4B
 10
-725.382
 20
-2135.70
 30
0.000000
  70
    32
  0
VERTEX
  8
01
  5
10C4C
 10
-725.358
 20
-2135.71
 30
0.000000
  70
    32
  0
VERTEX
  8
01
  5
10C4D
 10
-725.333
 20
-2135.71
 30
0.000000
  70
    32
  0
VERTEX
  8
01
  5
10C4E
 10
-725.309
 20
-2135.71
 30
0.000000
  70
    32
  0
VERTEX
  8
01
  5
10C4F
 10
-725.285
 20
-2135.71
 30
0.000000
  70
    32
  0
VERTEX
  8
01
  5
10C50
 10
-725.260
 20
-2135.72
 30
0.000000
  70
    32
  0
VERTEX
  8
01
  5
10C51
 10
-725.236
 20
-2135.72
 30
0.000000
  70
    32
  0
VERTEX
  8
01
  5
10C52
 10
-725.211
 20
-2135.72
 30
0.000000
  70
    32
  0
VERTEX
  8
01
  5
10C53
 10
-725.187
 20
-2135.72
 30
0.000000
  70
    32
  0
VERTEX
  8
01
  5
10C54
 10
-725.162
 20
-2135.72
 30
0.000000
  70
    32
  0
VERTEX
  8
01
  5
10C55
 10
-725.138
 20
-2135.72
 30
0.000000
  70
    32
  0
VERTEX
  8
01
  5
10C56
 10
-725.113
 20
-2135.72
 30
0.000000
  70
    32
  0
SEQEND
  8
01
  5
10C57
  0
POLYLINE
  5
1097F
  8
01
 10
-713.11303831494672
 20
-2135.7209986383305
 30
0.0
 66
     1
 70
     8
  0
VERTEX
  8
01
  5
10C58
 10
-713.113
 20
-2135.72
 30
0.000000
  70
    32
  0
VERTEX
  8
01
  5
10C59
 10
-713.088
 20
-2135.72
 30
0.000000
  70
    32
  0
VERTEX
  8
01
  5
10C5A
 10
-713.064
 20
-2135.72
 30
0.000000
  70
    32
  0
VERTEX
  8
01
  5
10C5B
 10
-713.039
 20
-2135.72
 30
0.000000
  70
    32
  0
VERTEX
  8
01
  5
10C5C
 10
-713.015
 20
-2135.72
 30
0.000000
  70
    32
  0
VERTEX
  8
01
  5
10C5D
 10
-712.990
 20
-2135.72
 30
0.000000
  70
    32
  0
VERTEX
  8
01
  5
10C5E
 10
-712.966
 20
-2135.72
 30
0.000000
  70
    32
  0
VERTEX
  8
01
  5
10C5F
 10
-712.941
 20
-2135.71
 30
0.000000
  70
    32
  0
VERTEX
  8
01
  5
10C60
 10
-712.917
 20
-2135.71
 30
0.000000
  70
    32
  0
VERTEX
  8
01
  5
10C61
 10
-712.893
 20
-2135.71
 30
0.000000
  70
    32
  0
VERTEX
  8
01
  5
10C62
 10
-712.868
 20
-2135.71
 30
0.000000
  70
    32
  0
VERTEX
  8
01
  5
10C63
 10
-712.844
 20
-2135.70
 30
0.000000
  70
    32
  0
VERTEX
  8
01
  5
10C64
 10
-712.820
 20
-2135.70
 30
0.000000
  70
    32
  0
VERTEX
  8
01
  5
10C65
 10
-712.795
 20
-2135.70
 30
0.000000
  70
    32
  0
VERTEX
  8
01
  5
10C66
 10
-712.771
 20
-2135.69
 30
0.000000
  70
    32
  0
VERTEX
  8
01
  5
10C67
 10
-712.747
 20
-2135.69
 30
0.000000
  70
    32
  0
VERTEX
  8
01
  5
10C68
 10
-712.723
 20
-2135.68
 30
0.000000
  70
    32
  0
VERTEX
  8
01
  5
10C69
 10
-712.699
 20
-2135.68
 30
0.000000
  70
    32
  0
VERTEX
  8
01
  5
10C6A
 10
-712.675
 20
-2135.67
 30
0.000000
  70
    32
  0
VERTEX
  8
01
  5
10C6B
 10
-712.651
 20
-2135.67
 30
0.000000
  70
    32
  0
VERTEX
  8
01
  5
10C6C
 10
-712.627
 20
-2135.66
 30
0.000000
  70
    32
  0
VERTEX
  8
01
  5
10C6D
 10
-712.603
 20
-2135.65
 30
0.000000
  70
    32
  0
VERTEX
  8
01
  5
10C6E
 10
-712.580
 20
-2135.65
 30
0.000000
  70
    32
  0
VERTEX
  8
01
  5
10C6F
 10
-712.556
 20
-2135.64
 30
0.000000
  70
    32
  0
VERTEX
  8
01
  5
10C70
 10
-712.532
 20
-2135.63
 30
0.000000
  70
    32
  0
VERTEX
  8
01
  5
10C71
 10
-712.509
 20
-2135.63
 30
0.000000
  70
    32
  0
VERTEX
  8
01
  5
10C72
 10
-712.486
 20
-2135.62
 30
0.000000
  70
    32
  0
VERTEX
  8
01
  5
10C73
 10
-712.462
 20
-2135.61
 30
0.000000
  70
    32
  0
VERTEX
  8
01
  5
10C74
 10
-712.439
 20
-2135.60
 30
0.000000
  70
    32
  0
VERTEX
  8
01
  5
10C75
 10
-712.416
 20
-2135.60
 30
0.000000
  70
    32
  0
VERTEX
  8
01
  5
10C76
 10
-712.393
 20
-2135.59
 30
0.000000
  70
    32
  0
VERTEX
  8
01
  5
10C77
 10
-712.370
 20
-2135.58
 30
0.000000
  70
    32
  0
VERTEX
  8
01
  5
10C78
 10
-712.348
 20
-2135.57
 30
0.000000
  70
    32
  0
VERTEX
  8
01
  5
10C79
 10
-712.325
 20
-2135.56
 30
0.000000
  70
    32
  0
VERTEX
  8
01
  5
10C7A
 10
-712.303
 20
-2135.55
 30
0.000000
  70
    32
  0
VERTEX
  8
01
  5
10C7B
 10
-712.280
 20
-2135.54
 30
0.000000
  70
    32
  0
VERTEX
  8
01
  5
10C7C
 10
-712.258
 20
-2135.53
 30
0.000000
  70
    32
  0
VERTEX
  8
01
  5
10C7D
 10
-712.236
 20
-2135.52
 30
0.000000
  70
    32
  0
VERTEX
  8
01
  5
10C7E
 10
-712.214
 20
-2135.51
 30
0.000000
  70
    32
  0
VERTEX
  8
01
  5
10C7F
 10
-712.192
 20
-2135.50
 30
0.000000
  70
    32
  0
VERTEX
  8
01
  5
10C80
 10
-712.170
 20
-2135.48
 30
0.000000
  70
    32
  0
VERTEX
  8
01
  5
10C81
 10
-712.149
 20
-2135.47
 30
0.000000
  70
    32
  0
VERTEX
  8
01
  5
10C82
 10
-712.127
 20
-2135.46
 30
0.000000
  70
    32
  0
VERTEX
  8
01
  5
10C83
 10
-712.106
 20
-2135.45
 30
0.000000
  70
    32
  0
VERTEX
  8
01
  5
10C84
 10
-712.085
 20
-2135.44
 30
0.000000
  70
    32
  0
VERTEX
  8
01
  5
10C85
 10
-712.064
 20
-2135.42
 30
0.000000
  70
    32
  0
VERTEX
  8
01
  5
10C86
 10
-712.043
 20
-2135.41
 30
0.000000
  70
    32
  0
VERTEX
  8
01
  5
10C87
 10
-712.022
 20
-2135.40
 30
0.000000
  70
    32
  0
VERTEX
  8
01
  5
10C88
 10
-712.002
 20
-2135.38
 30
0.000000
  70
    32
  0
VERTEX
  8
01
  5
10C89
 10
-711.982
 20
-2135.37
 30
0.000000
  70
    32
  0
VERTEX
  8
01
  5
10C8A
 10
-711.961
 20
-2135.36
 30
0.000000
  70
    32
  0
VERTEX
  8
01
  5
10C8B
 10
-711.941
 20
-2135.34
 30
0.000000
  70
    32
  0
VERTEX
  8
01
  5
10C8C
 10
-711.922
 20
-2135.33
 30
0.000000
  70
    32
  0
VERTEX
  8
01
  5
10C8D
 10
-711.902
 20
-2135.31
 30
0.000000
  70
    32
  0
VERTEX
  8
01
  5
10C8E
 10
-711.883
 20
-2135.30
 30
0.000000
  70
    32
  0
VERTEX
  8
01
  5
10C8F
 10
-711.863
 20
-2135.28
 30
0.000000
  70
    32
  0
VERTEX
  8
01
  5
10C90
 10
-711.844
 20
-2135.27
 30
0.000000
  70
    32
  0
VERTEX
  8
01
  5
10C91
 10
-711.825
 20
-2135.25
 30
0.000000
  70
    32
  0
VERTEX
  8
01
  5
10C92
 10
-711.807
 20
-2135.24
 30
0.000000
  70
    32
  0
VERTEX
  8
01
  5
10C93
 10
-711.788
 20
-2135.22
 30
0.000000
  70
    32
  0
VERTEX
  8
01
  5
10C94
 10
-711.770
 20
-2135.20
 30
0.000000
  70
    32
  0
VERTEX
  8
01
  5
10C95
 10
-711.752
 20
-2135.19
 30
0.000000
  70
    32
  0
VERTEX
  8
01
  5
10C96
 10
-711.734
 20
-2135.17
 30
0.000000
  70
    32
  0
VERTEX
  8
01
  5
10C97
 10
-711.716
 20
-2135.15
 30
0.000000
  70
    32
  0
VERTEX
  8
01
  5
10C98
 10
-711.699
 20
-2135.14
 30
0.000000
  70
    32
  0
VERTEX
  8
01
  5
10C99
 10
-711.682
 20
-2135.12
 30
0.000000
  70
    32
  0
VERTEX
  8
01
  5
10C9A
 10
-711.665
 20
-2135.10
 30
0.000000
  70
    32
  0
VERTEX
  8
01
  5
10C9B
 10
-711.648
 20
-2135.08
 30
0.000000
  70
    32
  0
VERTEX
  8
01
  5
10C9C
 10
-711.631
 20
-2135.06
 30
0.000000
  70
    32
  0
VERTEX
  8
01
  5
10C9D
 10
-711.615
 20
-2135.05
 30
0.000000
  70
    32
  0
VERTEX
  8
01
  5
10C9E
 10
-711.599
 20
-2135.03
 30
0.000000
  70
    32
  0
VERTEX
  8
01
  5
10C9F
 10
-711.583
 20
-2135.01
 30
0.000000
  70
    32
  0
VERTEX
  8
01
  5
10CA0
 10
-711.567
 20
-2134.99
 30
0.000000
  70
    32
  0
VERTEX
  8
01
  5
10CA1
 10
-711.552
 20
-2134.97
 30
0.000000
  70
    32
  0
VERTEX
  8
01
  5
10CA2
 10
-711.536
 20
-2134.95
 30
0.000000
  70
    32
  0
VERTEX
  8
01
  5
10CA3
 10
-711.521
 20
-2134.93
 30
0.000000
  70
    32
  0
VERTEX
  8
01
  5
10CA4
 10
-711.507
 20
-2134.91
 30
0.000000
  70
    32
  0
VERTEX
  8
01
  5
10CA5
 10
-711.492
 20
-2134.89
 30
0.000000
  70
    32
  0
VERTEX
  8
01
  5
10CA6
 10
-711.478
 20
-2134.87
 30
0.000000
  70
    32
  0
VERTEX
  8
01
  5
10CA7
 10
-711.464
 20
-2134.85
 30
0.000000
  70
    32
  0
VERTEX
  8
01
  5
10CA8
 10
-711.450
 20
-2134.83
 30
0.000000
  70
    32
  0
VERTEX
  8
01
  5
10CA9
 10
-711.437
 20
-2134.81
 30
0.000000
  70
    32
  0
VERTEX
  8
01
  5
10CAA
 10
-711.423
 20
-2134.79
 30
0.000000
  70
    32
  0
VERTEX
  8
01
  5
10CAB
 10
-711.410
 20
-2134.77
 30
0.000000
  70
    32
  0
VERTEX
  8
01
  5
10CAC
 10
-711.398
 20
-2134.75
 30
0.000000
  70
    32
  0
VERTEX
  8
01
  5
10CAD
 10
-711.385
 20
-2134.73
 30
0.000000
  70
    32
  0
VERTEX
  8
01
  5
10CAE
 10
-711.373
 20
-2134.71
 30
0.000000
  70
    32
  0
VERTEX
  8
01
  5
10CAF
 10
-711.361
 20
-2134.69
 30
0.000000
  70
    32
  0
VERTEX
  8
01
  5
10CB0
 10
-711.349
 20
-2134.66
 30
0.000000
  70
    32
  0
VERTEX
  8
01
  5
10CB1
 10
-711.338
 20
-2134.64
 30
0.000000
  70
    32
  0
VERTEX
  8
01
  5
10CB2
 10
-711.327
 20
-2134.62
 30
0.000000
  70
    32
  0
VERTEX
  8
01
  5
10CB3
 10
-711.316
 20
-2134.60
 30
0.000000
  70
    32
  0
VERTEX
  8
01
  5
10CB4
 10
-711.305
 20
-2134.58
 30
0.000000
  70
    32
  0
VERTEX
  8
01
  5
10CB5
 10
-711.295
 20
-2134.55
 30
0.000000
  70
    32
  0
VERTEX
  8
01
  5
10CB6
 10
-711.285
 20
-2134.53
 30
0.000000
  70
    32
  0
VERTEX
  8
01
  5
10CB7
 10
-711.275
 20
-2134.51
 30
0.000000
  70
    32
  0
VERTEX
  8
01
  5
10CB8
 10
-711.265
 20
-2134.49
 30
0.000000
  70
    32
  0
VERTEX
  8
01
  5
10CB9
 10
-711.256
 20
-2134.46
 30
0.000000
  70
    32
  0
VERTEX
  8
01
  5
10CBA
 10
-711.247
 20
-2134.44
 30
0.000000
  70
    32
  0
VERTEX
  8
01
  5
10CBB
 10
-711.238
 20
-2134.42
 30
0.000000
  70
    32
  0
VERTEX
  8
01
  5
10CBC
 10
-711.230
 20
-2134.39
 30
0.000000
  70
    32
  0
VERTEX
  8
01
  5
10CBD
 10
-711.222
 20
-2134.37
 30
0.000000
  70
    32
  0
VERTEX
  8
01
  5
10CBE
 10
-711.214
 20
-2134.35
 30
0.000000
  70
    32
  0
VERTEX
  8
01
  5
10CBF
 10
-711.206
 20
-2134.33
 30
0.000000
  70
    32
  0
VERTEX
  8
01
  5
10CC0
 10
-711.199
 20
-2134.30
 30
0.000000
  70
    32
  0
VERTEX
  8
01
  5
10CC1
 10
-711.192
 20
-2134.28
 30
0.000000
  70
    32
  0
VERTEX
  8
01
  5
10CC2
 10
-711.185
 20
-2134.25
 30
0.000000
  70
    32
  0
VERTEX
  8
01
  5
10CC3
 10
-711.179
 20
-2134.23
 30
0.000000
  70
    32
  0
VERTEX
  8
01
  5
10CC4
 10
-711.173
 20
-2134.21
 30
0.000000
  70
    32
  0
VERTEX
  8
01
  5
10CC5
 10
-711.167
 20
-2134.18
 30
0.000000
  70
    32
  0
VERTEX
  8
01
  5
10CC6
 10
-711.162
 20
-2134.16
 30
0.000000
  70
    32
  0
VERTEX
  8
01
  5
10CC7
 10
-711.156
 20
-2134.14
 30
0.000000
  70
    32
  0
VERTEX
  8
01
  5
10CC8
 10
-711.151
 20
-2134.11
 30
0.000000
  70
    32
  0
VERTEX
  8
01
  5
10CC9
 10
-711.147
 20
-2134.09
 30
0.000000
  70
    32
  0
VERTEX
  8
01
  5
10CCA
 10
-711.142
 20
-2134.06
 30
0.000000
  70
    32
  0
VERTEX
  8
01
  5
10CCB
 10
-711.138
 20
-2134.04
 30
0.000000
  70
    32
  0
VERTEX
  8
01
  5
10CCC
 10
-711.135
 20
-2134.01
 30
0.000000
  70
    32
  0
VERTEX
  8
01
  5
10CCD
 10
-711.131
 20
-2133.99
 30
0.000000
  70
    32
  0
VERTEX
  8
01
  5
10CCE
 10
-711.128
 20
-2133.97
 30
0.000000
  70
    32
  0
VERTEX
  8
01
  5
10CCF
 10
-711.125
 20
-2133.94
 30
0.000000
  70
    32
  0
VERTEX
  8
01
  5
10CD0
 10
-711.123
 20
-2133.92
 30
0.000000
  70
    32
  0
VERTEX
  8
01
  5
10CD1
 10
-711.120
 20
-2133.89
 30
0.000000
  70
    32
  0
VERTEX
  8
01
  5
10CD2
 10
-711.118
 20
-2133.87
 30
0.000000
  70
    32
  0
VERTEX
  8
01
  5
10CD3
 10
-711.117
 20
-2133.84
 30
0.000000
  70
    32
  0
VERTEX
  8
01
  5
10CD4
 10
-711.115
 20
-2133.82
 30
0.000000
  70
    32
  0
VERTEX
  8
01
  5
10CD5
 10
-711.114
 20
-2133.79
 30
0.000000
  70
    32
  0
VERTEX
  8
01
  5
10CD6
 10
-711.114
 20
-2133.77
 30
0.000000
  70
    32
  0
VERTEX
  8
01
  5
10CD7
 10
-711.113
 20
-2133.75
 30
0.000000
  70
    32
  0
VERTEX
  8
01
  5
10CD8
 10
-711.113
 20
-2133.72
 30
0.000000
  70
    32
  0
SEQEND
  8
01
  5
10CD9
  0
LINE
  5
10980
  8
01
 10
-725.11303831494649
 20
-2135.7209986383309
 30
0.0
 11
-713.11303831494683
 21
-2135.7209986383309
 31
0.0
  0
LINE
  5
10981
  8
01
 10
-727.11303831494661
 20
-2128.2210061383298
 30
0.0
 11
-727.11303831494661
 21
-2133.7210006383302
 31
0.0
  0
LINE
  5
10982
  8
01
 10
-729.11303831494649
 20
-2141.7209926383298
 30
0.0
 11
-709.11303831494661
 21
-2141.7209926383298
 31
0.0
  0
LINE
  5
10983
  8
01
 10
-705.11303831494661
 20
-2093.721040638331
 30
0.0
 11
-705.11303831494661
 21
-2137.7209966383311
 31
0.0
  0
LINE
  5
10984
  8
01
 10
-709.61303831494661
 20
-2093.721040638331
 30
0.0
 11
-705.11303831494661
 21
-2093.721040638331
 31
0.0
  0
LINE
  5
10985
  8
01
 10
-732.61303831494649
 20
-2127.72100663833
 30
0.0
 11
-727.61303831494661
 21
-2127.72100663833
 31
0.0
  0
LINE
  5
10986
  8
01
 10
-733.11303831494649
 20
-2128.2210061383298
 30
0.0
 11
-733.11303831494649
 21
-2137.7209966383311
 31
0.0
  0
POLYLINE
  5
10987
  8
01
 10
-733.11303831494649
 20
-2137.7209966383311
 30
0.0
 66
     1
 70
     8
  0
VERTEX
  8
01
  5
10CDA
 10
-733.113
 20
-2137.72
 30
0.000000
  70
    32
  0
VERTEX
  8
01
  5
10CDB
 10
-733.113
 20
-2137.77
 30
0.000000
  70
    32
  0
VERTEX
  8
01
  5
10CDC
 10
-733.112
 20
-2137.82
 30
0.000000
  70
    32
  0
VERTEX
  8
01
  5
10CDD
 10
-733.110
 20
-2137.87
 30
0.000000
  70
    32
  0
VERTEX
  8
01
  5
10CDE
 10
-733.108
 20
-2137.92
 30
0.000000
  70
    32
  0
VERTEX
  8
01
  5
10CDF
 10
-733.106
 20
-2137.97
 30
0.000000
  70
    32
  0
VERTEX
  8
01
  5
10CE0
 10
-733.102
 20
-2138.02
 30
0.000000
  70
    32
  0
VERTEX
  8
01
  5
10CE1
 10
-733.098
 20
-2138.06
 30
0.000000
  70
    32
  0
VERTEX
  8
01
  5
10CE2
 10
-733.094
 20
-2138.11
 30
0.000000
  70
    32
  0
VERTEX
  8
01
  5
10CE3
 10
-733.089
 20
-2138.16
 30
0.000000
  70
    32
  0
VERTEX
  8
01
  5
10CE4
 10
-733.083
 20
-2138.21
 30
0.000000
  70
    32
  0
VERTEX
  8
01
  5
10CE5
 10
-733.077
 20
-2138.26
 30
0.000000
  70
    32
  0
VERTEX
  8
01
  5
10CE6
 10
-733.070
 20
-2138.31
 30
0.000000
  70
    32
  0
VERTEX
  8
01
  5
10CE7
 10
-733.062
 20
-2138.36
 30
0.000000
  70
    32
  0
VERTEX
  8
01
  5
10CE8
 10
-733.054
 20
-2138.40
 30
0.000000
  70
    32
  0
VERTEX
  8
01
  5
10CE9
 10
-733.045
 20
-2138.45
 30
0.000000
  70
    32
  0
VERTEX
  8
01
  5
10CEA
 10
-733.036
 20
-2138.50
 30
0.000000
  70
    32
  0
VERTEX
  8
01
  5
10CEB
 10
-733.026
 20
-2138.55
 30
0.000000
  70
    32
  0
VERTEX
  8
01
  5
10CEC
 10
-733.016
 20
-2138.60
 30
0.000000
  70
    32
  0
VERTEX
  8
01
  5
10CED
 10
-733.005
 20
-2138.65
 30
0.000000
  70
    32
  0
VERTEX
  8
01
  5
10CEE
 10
-732.993
 20
-2138.69
 30
0.000000
  70
    32
  0
VERTEX
  8
01
  5
10CEF
 10
-732.981
 20
-2138.74
 30
0.000000
  70
    32
  0
VERTEX
  8
01
  5
10CF0
 10
-732.968
 20
-2138.79
 30
0.000000
  70
    32
  0
VERTEX
  8
01
  5
10CF1
 10
-732.955
 20
-2138.84
 30
0.000000
  70
    32
  0
VERTEX
  8
01
  5
10CF2
 10
-732.941
 20
-2138.88
 30
0.000000
  70
    32
  0
VERTEX
  8
01
  5
10CF3
 10
-732.926
 20
-2138.93
 30
0.000000
  70
    32
  0
VERTEX
  8
01
  5
10CF4
 10
-732.911
 20
-2138.98
 30
0.000000
  70
    32
  0
VERTEX
  8
01
  5
10CF5
 10
-732.895
 20
-2139.02
 30
0.000000
  70
    32
  0
VERTEX
  8
01
  5
10CF6
 10
-732.879
 20
-2139.07
 30
0.000000
  70
    32
  0
VERTEX
  8
01
  5
10CF7
 10
-732.862
 20
-2139.11
 30
0.000000
  70
    32
  0
VERTEX
  8
01
  5
10CF8
 10
-732.845
 20
-2139.16
 30
0.000000
  70
    32
  0
VERTEX
  8
01
  5
10CF9
 10
-732.827
 20
-2139.21
 30
0.000000
  70
    32
  0
VERTEX
  8
01
  5
10CFA
 10
-732.809
 20
-2139.25
 30
0.000000
  70
    32
  0
VERTEX
  8
01
  5
10CFB
 10
-732.789
 20
-2139.30
 30
0.000000
  70
    32
  0
VERTEX
  8
01
  5
10CFC
 10
-732.770
 20
-2139.34
 30
0.000000
  70
    32
  0
VERTEX
  8
01
  5
10CFD
 10
-732.750
 20
-2139.39
 30
0.000000
  70
    32
  0
VERTEX
  8
01
  5
10CFE
 10
-732.729
 20
-2139.43
 30
0.000000
  70
    32
  0
VERTEX
  8
01
  5
10CFF
 10
-732.708
 20
-2139.48
 30
0.000000
  70
    32
  0
VERTEX
  8
01
  5
10D00
 10
-732.686
 20
-2139.52
 30
0.000000
  70
    32
  0
VERTEX
  8
01
  5
10D01
 10
-732.664
 20
-2139.56
 30
0.000000
  70
    32
  0
VERTEX
  8
01
  5
10D02
 10
-732.641
 20
-2139.61
 30
0.000000
  70
    32
  0
VERTEX
  8
01
  5
10D03
 10
-732.617
 20
-2139.65
 30
0.000000
  70
    32
  0
VERTEX
  8
01
  5
10D04
 10
-732.593
 20
-2139.69
 30
0.000000
  70
    32
  0
VERTEX
  8
01
  5
10D05
 10
-732.569
 20
-2139.74
 30
0.000000
  70
    32
  0
VERTEX
  8
01
  5
10D06
 10
-732.544
 20
-2139.78
 30
0.000000
  70
    32
  0
VERTEX
  8
01
  5
10D07
 10
-732.518
 20
-2139.82
 30
0.000000
  70
    32
  0
VERTEX
  8
01
  5
10D08
 10
-732.492
 20
-2139.86
 30
0.000000
  70
    32
  0
VERTEX
  8
01
  5
10D09
 10
-732.466
 20
-2139.90
 30
0.000000
  70
    32
  0
VERTEX
  8
01
  5
10D0A
 10
-732.439
 20
-2139.94
 30
0.000000
  70
    32
  0
VERTEX
  8
01
  5
10D0B
 10
-732.411
 20
-2139.98
 30
0.000000
  70
    32
  0
VERTEX
  8
01
  5
10D0C
 10
-732.383
 20
-2140.02
 30
0.000000
  70
    32
  0
VERTEX
  8
01
  5
10D0D
 10
-732.355
 20
-2140.06
 30
0.000000
  70
    32
  0
VERTEX
  8
01
  5
10D0E
 10
-732.326
 20
-2140.10
 30
0.000000
  70
    32
  0
VERTEX
  8
01
  5
10D0F
 10
-732.296
 20
-2140.14
 30
0.000000
  70
    32
  0
VERTEX
  8
01
  5
10D10
 10
-732.266
 20
-2140.18
 30
0.000000
  70
    32
  0
VERTEX
  8
01
  5
10D11
 10
-732.236
 20
-2140.22
 30
0.000000
  70
    32
  0
VERTEX
  8
01
  5
10D12
 10
-732.205
 20
-2140.26
 30
0.000000
  70
    32
  0
VERTEX
  8
01
  5
10D13
 10
-732.174
 20
-2140.30
 30
0.000000
  70
    32
  0
VERTEX
  8
01
  5
10D14
 10
-732.142
 20
-2140.33
 30
0.000000
  70
    32
  0
VERTEX
  8
01
  5
10D15
 10
-732.110
 20
-2140.37
 30
0.000000
  70
    32
  0
VERTEX
  8
01
  5
10D16
 10
-732.077
 20
-2140.41
 30
0.000000
  70
    32
  0
VERTEX
  8
01
  5
10D17
 10
-732.044
 20
-2140.44
 30
0.000000
  70
    32
  0
VERTEX
  8
01
  5
10D18
 10
-732.010
 20
-2140.48
 30
0.000000
  70
    32
  0
VERTEX
  8
01
  5
10D19
 10
-731.976
 20
-2140.51
 30
0.000000
  70
    32
  0
VERTEX
  8
01
  5
10D1A
 10
-731.941
 20
-2140.55
 30
0.000000
  70
    32
  0
VERTEX
  8
01
  5
10D1B
 10
-731.907
 20
-2140.58
 30
0.000000
  70
    32
  0
VERTEX
  8
01
  5
10D1C
 10
-731.871
 20
-2140.62
 30
0.000000
  70
    32
  0
VERTEX
  8
01
  5
10D1D
 10
-731.835
 20
-2140.65
 30
0.000000
  70
    32
  0
VERTEX
  8
01
  5
10D1E
 10
-731.799
 20
-2140.68
 30
0.000000
  70
    32
  0
VERTEX
  8
01
  5
10D1F
 10
-731.763
 20
-2140.72
 30
0.000000
  70
    32
  0
VERTEX
  8
01
  5
10D20
 10
-731.726
 20
-2140.75
 30
0.000000
  70
    32
  0
VERTEX
  8
01
  5
10D21
 10
-731.688
 20
-2140.78
 30
0.000000
  70
    32
  0
VERTEX
  8
01
  5
10D22
 10
-731.651
 20
-2140.81
 30
0.000000
  70
    32
  0
VERTEX
  8
01
  5
10D23
 10
-731.612
 20
-2140.84
 30
0.000000
  70
    32
  0
VERTEX
  8
01
  5
10D24
 10
-731.574
 20
-2140.87
 30
0.000000
  70
    32
  0
VERTEX
  8
01
  5
10D25
 10
-731.535
 20
-2140.90
 30
0.000000
  70
    32
  0
VERTEX
  8
01
  5
10D26
 10
-731.496
 20
-2140.93
 30
0.000000
  70
    32
  0
VERTEX
  8
01
  5
10D27
 10
-731.456
 20
-2140.96
 30
0.000000
  70
    32
  0
VERTEX
  8
01
  5
10D28
 10
-731.416
 20
-2140.99
 30
0.000000
  70
    32
  0
VERTEX
  8
01
  5
10D29
 10
-731.376
 20
-2141.02
 30
0.000000
  70
    32
  0
VERTEX
  8
01
  5
10D2A
 10
-731.335
 20
-2141.05
 30
0.000000
  70
    32
  0
VERTEX
  8
01
  5
10D2B
 10
-731.294
 20
-2141.07
 30
0.000000
  70
    32
  0
VERTEX
  8
01
  5
10D2C
 10
-731.253
 20
-2141.10
 30
0.000000
  70
    32
  0
VERTEX
  8
01
  5
10D2D
 10
-731.211
 20
-2141.13
 30
0.000000
  70
    32
  0
VERTEX
  8
01
  5
10D2E
 10
-731.169
 20
-2141.15
 30
0.000000
  70
    32
  0
VERTEX
  8
01
  5
10D2F
 10
-731.127
 20
-2141.18
 30
0.000000
  70
    32
  0
VERTEX
  8
01
  5
10D30
 10
-731.085
 20
-2141.20
 30
0.000000
  70
    32
  0
VERTEX
  8
01
  5
10D31
 10
-731.042
 20
-2141.23
 30
0.000000
  70
    32
  0
VERTEX
  8
01
  5
10D32
 10
-730.999
 20
-2141.25
 30
0.000000
  70
    32
  0
VERTEX
  8
01
  5
10D33
 10
-730.955
 20
-2141.27
 30
0.000000
  70
    32
  0
VERTEX
  8
01
  5
10D34
 10
-730.911
 20
-2141.29
 30
0.000000
  70
    32
  0
VERTEX
  8
01
  5
10D35
 10
-730.868
 20
-2141.32
 30
0.000000
  70
    32
  0
VERTEX
  8
01
  5
10D36
 10
-730.823
 20
-2141.34
 30
0.000000
  70
    32
  0
VERTEX
  8
01
  5
10D37
 10
-730.779
 20
-2141.36
 30
0.000000
  70
    32
  0
VERTEX
  8
01
  5
10D38
 10
-730.734
 20
-2141.38
 30
0.000000
  70
    32
  0
VERTEX
  8
01
  5
10D39
 10
-730.689
 20
-2141.40
 30
0.000000
  70
    32
  0
VERTEX
  8
01
  5
10D3A
 10
-730.644
 20
-2141.42
 30
0.000000
  70
    32
  0
VERTEX
  8
01
  5
10D3B
 10
-730.598
 20
-2141.44
 30
0.000000
  70
    32
  0
VERTEX
  8
01
  5
10D3C
 10
-730.553
 20
-2141.45
 30
0.000000
  70
    32
  0
VERTEX
  8
01
  5
10D3D
 10
-730.507
 20
-2141.47
 30
0.000000
  70
    32
  0
VERTEX
  8
01
  5
10D3E
 10
-730.461
 20
-2141.49
 30
0.000000
  70
    32
  0
VERTEX
  8
01
  5
10D3F
 10
-730.414
 20
-2141.50
 30
0.000000
  70
    32
  0
VERTEX
  8
01
  5
10D40
 10
-730.368
 20
-2141.52
 30
0.000000
  70
    32
  0
VERTEX
  8
01
  5
10D41
 10
-730.321
 20
-2141.53
 30
0.000000
  70
    32
  0
VERTEX
  8
01
  5
10D42
 10
-730.274
 20
-2141.55
 30
0.000000
  70
    32
  0
VERTEX
  8
01
  5
10D43
 10
-730.227
 20
-2141.56
 30
0.000000
  70
    32
  0
VERTEX
  8
01
  5
10D44
 10
-730.180
 20
-2141.58
 30
0.000000
  70
    32
  0
VERTEX
  8
01
  5
10D45
 10
-730.133
 20
-2141.59
 30
0.000000
  70
    32
  0
VERTEX
  8
01
  5
10D46
 10
-730.085
 20
-2141.60
 30
0.000000
  70
    32
  0
VERTEX
  8
01
  5
10D47
 10
-730.037
 20
-2141.61
 30
0.000000
  70
    32
  0
VERTEX
  8
01
  5
10D48
 10
-729.989
 20
-2141.62
 30
0.000000
  70
    32
  0
VERTEX
  8
01
  5
10D49
 10
-729.941
 20
-2141.63
 30
0.000000
  70
    32
  0
VERTEX
  8
01
  5
10D4A
 10
-729.893
 20
-2141.64
 30
0.000000
  70
    32
  0
VERTEX
  8
01
  5
10D4B
 10
-729.845
 20
-2141.65
 30
0.000000
  70
    32
  0
VERTEX
  8
01
  5
10D4C
 10
-729.797
 20
-2141.66
 30
0.000000
  70
    32
  0
VERTEX
  8
01
  5
10D4D
 10
-729.748
 20
-2141.67
 30
0.000000
  70
    32
  0
VERTEX
  8
01
  5
10D4E
 10
-729.700
 20
-2141.68
 30
0.000000
  70
    32
  0
VERTEX
  8
01
  5
10D4F
 10
-729.651
 20
-2141.68
 30
0.000000
  70
    32
  0
VERTEX
  8
01
  5
10D50
 10
-729.603
 20
-2141.69
 30
0.000000
  70
    32
  0
VERTEX
  8
01
  5
10D51
 10
-729.554
 20
-2141.70
 30
0.000000
  70
    32
  0
VERTEX
  8
01
  5
10D52
 10
-729.505
 20
-2141.70
 30
0.000000
  70
    32
  0
VERTEX
  8
01
  5
10D53
 10
-729.456
 20
-2141.71
 30
0.000000
  70
    32
  0
VERTEX
  8
01
  5
10D54
 10
-729.407
 20
-2141.71
 30
0.000000
  70
    32
  0
VERTEX
  8
01
  5
10D55
 10
-729.358
 20
-2141.71
 30
0.000000
  70
    32
  0
VERTEX
  8
01
  5
10D56
 10
-729.309
 20
-2141.72
 30
0.000000
  70
    32
  0
VERTEX
  8
01
  5
10D57
 10
-729.260
 20
-2141.72
 30
0.000000
  70
    32
  0
VERTEX
  8
01
  5
10D58
 10
-729.211
 20
-2141.72
 30
0.000000
  70
    32
  0
VERTEX
  8
01
  5
10D59
 10
-729.162
 20
-2141.72
 30
0.000000
  70
    32
  0
VERTEX
  8
01
  5
10D5A
 10
-729.113
 20
-2141.72
 30
0.000000
  70
    32
  0
SEQEND
  8
01
  5
10D5B
  0
POLYLINE
  5
10988
  8
01
 10
-709.11303831494661
 20
-2141.7209926383307
 30
0.0
 66
     1
 70
     8
  0
VERTEX
  8
01
  5
10D5C
 10
-709.113
 20
-2141.72
 30
0.000000
  70
    32
  0
VERTEX
  8
01
  5
10D5D
 10
-709.064
 20
-2141.72
 30
0.000000
  70
    32
  0
VERTEX
  8
01
  5
10D5E
 10
-709.015
 20
-2141.72
 30
0.000000
  70
    32
  0
VERTEX
  8
01
  5
10D5F
 10
-708.966
 20
-2141.72
 30
0.000000
  70
    32
  0
VERTEX
  8
01
  5
10D60
 10
-708.917
 20
-2141.72
 30
0.000000
  70
    32
  0
VERTEX
  8
01
  5
10D61
 10
-708.868
 20
-2141.71
 30
0.000000
  70
    32
  0
VERTEX
  8
01
  5
10D62
 10
-708.819
 20
-2141.71
 30
0.000000
  70
    32
  0
VERTEX
  8
01
  5
10D63
 10
-708.770
 20
-2141.71
 30
0.000000
  70
    32
  0
VERTEX
  8
01
  5
10D64
 10
-708.721
 20
-2141.70
 30
0.000000
  70
    32
  0
VERTEX
  8
01
  5
10D65
 10
-708.672
 20
-2141.70
 30
0.000000
  70
    32
  0
VERTEX
  8
01
  5
10D66
 10
-708.623
 20
-2141.69
 30
0.000000
  70
    32
  0
VERTEX
  8
01
  5
10D67
 10
-708.575
 20
-2141.68
 30
0.000000
  70
    32
  0
VERTEX
  8
01
  5
10D68
 10
-708.526
 20
-2141.68
 30
0.000000
  70
    32
  0
VERTEX
  8
01
  5
10D69
 10
-708.478
 20
-2141.67
 30
0.000000
  70
    32
  0
VERTEX
  8
01
  5
10D6A
 10
-708.429
 20
-2141.66
 30
0.000000
  70
    32
  0
VERTEX
  8
01
  5
10D6B
 10
-708.381
 20
-2141.65
 30
0.000000
  70
    32
  0
VERTEX
  8
01
  5
10D6C
 10
-708.333
 20
-2141.64
 30
0.000000
  70
    32
  0
VERTEX
  8
01
  5
10D6D
 10
-708.285
 20
-2141.63
 30
0.000000
  70
    32
  0
VERTEX
  8
01
  5
10D6E
 10
-708.237
 20
-2141.62
 30
0.000000
  70
    32
  0
VERTEX
  8
01
  5
10D6F
 10
-708.189
 20
-2141.61
 30
0.000000
  70
    32
  0
VERTEX
  8
01
  5
10D70
 10
-708.141
 20
-2141.60
 30
0.000000
  70
    32
  0
VERTEX
  8
01
  5
10D71
 10
-708.094
 20
-2141.59
 30
0.000000
  70
    32
  0
VERTEX
  8
01
  5
10D72
 10
-708.046
 20
-2141.58
 30
0.000000
  70
    32
  0
VERTEX
  8
01
  5
10D73
 10
-707.999
 20
-2141.56
 30
0.000000
  70
    32
  0
VERTEX
  8
01
  5
10D74
 10
-707.952
 20
-2141.55
 30
0.000000
  70
    32
  0
VERTEX
  8
01
  5
10D75
 10
-707.905
 20
-2141.53
 30
0.000000
  70
    32
  0
VERTEX
  8
01
  5
10D76
 10
-707.858
 20
-2141.52
 30
0.000000
  70
    32
  0
VERTEX
  8
01
  5
10D77
 10
-707.812
 20
-2141.50
 30
0.000000
  70
    32
  0
VERTEX
  8
01
  5
10D78
 10
-707.765
 20
-2141.49
 30
0.000000
  70
    32
  0
VERTEX
  8
01
  5
10D79
 10
-707.719
 20
-2141.47
 30
0.000000
  70
    32
  0
VERTEX
  8
01
  5
10D7A
 10
-707.673
 20
-2141.45
 30
0.000000
  70
    32
  0
VERTEX
  8
01
  5
10D7B
 10
-707.628
 20
-2141.44
 30
0.000000
  70
    32
  0
VERTEX
  8
01
  5
10D7C
 10
-707.582
 20
-2141.42
 30
0.000000
  70
    32
  0
VERTEX
  8
01
  5
10D7D
 10
-707.537
 20
-2141.40
 30
0.000000
  70
    32
  0
VERTEX
  8
01
  5
10D7E
 10
-707.492
 20
-2141.38
 30
0.000000
  70
    32
  0
VERTEX
  8
01
  5
10D7F
 10
-707.447
 20
-2141.36
 30
0.000000
  70
    32
  0
VERTEX
  8
01
  5
10D80
 10
-707.403
 20
-2141.34
 30
0.000000
  70
    32
  0
VERTEX
  8
01
  5
10D81
 10
-707.359
 20
-2141.32
 30
0.000000
  70
    32
  0
VERTEX
  8
01
  5
10D82
 10
-707.315
 20
-2141.29
 30
0.000000
  70
    32
  0
VERTEX
  8
01
  5
10D83
 10
-707.271
 20
-2141.27
 30
0.000000
  70
    32
  0
VERTEX
  8
01
  5
10D84
 10
-707.227
 20
-2141.25
 30
0.000000
  70
    32
  0
VERTEX
  8
01
  5
10D85
 10
-707.184
 20
-2141.23
 30
0.000000
  70
    32
  0
VERTEX
  8
01
  5
10D86
 10
-707.141
 20
-2141.20
 30
0.000000
  70
    32
  0
VERTEX
  8
01
  5
10D87
 10
-707.099
 20
-2141.18
 30
0.000000
  70
    32
  0
VERTEX
  8
01
  5
10D88
 10
-707.057
 20
-2141.15
 30
0.000000
  70
    32
  0
VERTEX
  8
01
  5
10D89
 10
-707.015
 20
-2141.13
 30
0.000000
  70
    32
  0
VERTEX
  8
01
  5
10D8A
 10
-706.973
 20
-2141.10
 30
0.000000
  70
    32
  0
VERTEX
  8
01
  5
10D8B
 10
-706.932
 20
-2141.07
 30
0.000000
  70
    32
  0
VERTEX
  8
01
  5
10D8C
 10
-706.891
 20
-2141.05
 30
0.000000
  70
    32
  0
VERTEX
  8
01
  5
10D8D
 10
-706.850
 20
-2141.02
 30
0.000000
  70
    32
  0
VERTEX
  8
01
  5
10D8E
 10
-706.810
 20
-2140.99
 30
0.000000
  70
    32
  0
VERTEX
  8
01
  5
10D8F
 10
-706.770
 20
-2140.96
 30
0.000000
  70
    32
  0
VERTEX
  8
01
  5
10D90
 10
-706.730
 20
-2140.93
 30
0.000000
  70
    32
  0
VERTEX
  8
01
  5
10D91
 10
-706.691
 20
-2140.90
 30
0.000000
  70
    32
  0
VERTEX
  8
01
  5
10D92
 10
-706.652
 20
-2140.87
 30
0.000000
  70
    32
  0
VERTEX
  8
01
  5
10D93
 10
-706.614
 20
-2140.84
 30
0.000000
  70
    32
  0
VERTEX
  8
01
  5
10D94
 10
-706.575
 20
-2140.81
 30
0.000000
  70
    32
  0
VERTEX
  8
01
  5
10D95
 10
-706.538
 20
-2140.78
 30
0.000000
  70
    32
  0
VERTEX
  8
01
  5
10D96
 10
-706.500
 20
-2140.75
 30
0.000000
  70
    32
  0
VERTEX
  8
01
  5
10D97
 10
-706.463
 20
-2140.72
 30
0.000000
  70
    32
  0
VERTEX
  8
01
  5
10D98
 10
-706.427
 20
-2140.68
 30
0.000000
  70
    32
  0
VERTEX
  8
01
  5
10D99
 10
-706.391
 20
-2140.65
 30
0.000000
  70
    32
  0
VERTEX
  8
01
  5
10D9A
 10
-706.355
 20
-2140.62
 30
0.000000
  70
    32
  0
VERTEX
  8
01
  5
10D9B
 10
-706.320
 20
-2140.58
 30
0.000000
  70
    32
  0
VERTEX
  8
01
  5
10D9C
 10
-706.285
 20
-2140.55
 30
0.000000
  70
    32
  0
VERTEX
  8
01
  5
10D9D
 10
-706.250
 20
-2140.51
 30
0.000000
  70
    32
  0
VERTEX
  8
01
  5
10D9E
 10
-706.216
 20
-2140.48
 30
0.000000
  70
    32
  0
VERTEX
  8
01
  5
10D9F
 10
-706.182
 20
-2140.44
 30
0.000000
  70
    32
  0
VERTEX
  8
01
  5
10DA0
 10
-706.149
 20
-2140.41
 30
0.000000
  70
    32
  0
VERTEX
  8
01
  5
10DA1
 10
-706.116
 20
-2140.37
 30
0.000000
  70
    32
  0
VERTEX
  8
01
  5
10DA2
 10
-706.084
 20
-2140.33
 30
0.000000
  70
    32
  0
VERTEX
  8
01
  5
10DA3
 10
-706.052
 20
-2140.30
 30
0.000000
  70
    32
  0
VERTEX
  8
01
  5
10DA4
 10
-706.021
 20
-2140.26
 30
0.000000
  70
    32
  0
VERTEX
  8
01
  5
10DA5
 10
-705.990
 20
-2140.22
 30
0.000000
  70
    32
  0
VERTEX
  8
01
  5
10DA6
 10
-705.960
 20
-2140.18
 30
0.000000
  70
    32
  0
VERTEX
  8
01
  5
10DA7
 10
-705.930
 20
-2140.14
 30
0.000000
  70
    32
  0
VERTEX
  8
01
  5
10DA8
 10
-705.900
 20
-2140.10
 30
0.000000
  70
    32
  0
VERTEX
  8
01
  5
10DA9
 10
-705.871
 20
-2140.06
 30
0.000000
  70
    32
  0
VERTEX
  8
01
  5
10DAA
 10
-705.843
 20
-2140.02
 30
0.000000
  70
    32
  0
VERTEX
  8
01
  5
10DAB
 10
-705.815
 20
-2139.98
 30
0.000000
  70
    32
  0
VERTEX
  8
01
  5
10DAC
 10
-705.787
 20
-2139.94
 30
0.000000
  70
    32
  0
VERTEX
  8
01
  5
10DAD
 10
-705.760
 20
-2139.90
 30
0.000000
  70
    32
  0
VERTEX
  8
01
  5
10DAE
 10
-705.734
 20
-2139.86
 30
0.000000
  70
    32
  0
VERTEX
  8
01
  5
10DAF
 10
-705.708
 20
-2139.82
 30
0.000000
  70
    32
  0
VERTEX
  8
01
  5
10DB0
 10
-705.682
 20
-2139.78
 30
0.000000
  70
    32
  0
VERTEX
  8
01
  5
10DB1
 10
-705.657
 20
-2139.74
 30
0.000000
  70
    32
  0
VERTEX
  8
01
  5
10DB2
 10
-705.633
 20
-2139.69
 30
0.000000
  70
    32
  0
VERTEX
  8
01
  5
10DB3
 10
-705.609
 20
-2139.65
 30
0.000000
  70
    32
  0
VERTEX
  8
01
  5
10DB4
 10
-705.585
 20
-2139.61
 30
0.000000
  70
    32
  0
VERTEX
  8
01
  5
10DB5
 10
-705.562
 20
-2139.56
 30
0.000000
  70
    32
  0
VERTEX
  8
01
  5
10DB6
 10
-705.540
 20
-2139.52
 30
0.000000
  70
    32
  0
VERTEX
  8
01
  5
10DB7
 10
-705.518
 20
-2139.48
 30
0.000000
  70
    32
  0
VERTEX
  8
01
  5
10DB8
 10
-705.497
 20
-2139.43
 30
0.000000
  70
    32
  0
VERTEX
  8
01
  5
10DB9
 10
-705.476
 20
-2139.39
 30
0.000000
  70
    32
  0
VERTEX
  8
01
  5
10DBA
 10
-705.456
 20
-2139.34
 30
0.000000
  70
    32
  0
VERTEX
  8
01
  5
10DBB
 10
-705.437
 20
-2139.30
 30
0.000000
  70
    32
  0
VERTEX
  8
01
  5
10DBC
 10
-705.418
 20
-2139.25
 30
0.000000
  70
    32
  0
VERTEX
  8
01
  5
10DBD
 10
-705.399
 20
-2139.21
 30
0.000000
  70
    32
  0
VERTEX
  8
01
  5
10DBE
 10
-705.381
 20
-2139.16
 30
0.000000
  70
    32
  0
VERTEX
  8
01
  5
10DBF
 10
-705.364
 20
-2139.11
 30
0.000000
  70
    32
  0
VERTEX
  8
01
  5
10DC0
 10
-705.347
 20
-2139.07
 30
0.000000
  70
    32
  0
VERTEX
  8
01
  5
10DC1
 10
-705.331
 20
-2139.02
 30
0.000000
  70
    32
  0
VERTEX
  8
01
  5
10DC2
 10
-705.315
 20
-2138.98
 30
0.000000
  70
    32
  0
VERTEX
  8
01
  5
10DC3
 10
-705.300
 20
-2138.93
 30
0.000000
  70
    32
  0
VERTEX
  8
01
  5
10DC4
 10
-705.285
 20
-2138.88
 30
0.000000
  70
    32
  0
VERTEX
  8
01
  5
10DC5
 10
-705.271
 20
-2138.84
 30
0.000000
  70
    32
  0
VERTEX
  8
01
  5
10DC6
 10
-705.258
 20
-2138.79
 30
0.000000
  70
    32
  0
VERTEX
  8
01
  5
10DC7
 10
-705.245
 20
-2138.74
 30
0.000000
  70
    32
  0
VERTEX
  8
01
  5
10DC8
 10
-705.233
 20
-2138.69
 30
0.000000
  70
    32
  0
VERTEX
  8
01
  5
10DC9
 10
-705.221
 20
-2138.65
 30
0.000000
  70
    32
  0
VERTEX
  8
01
  5
10DCA
 10
-705.210
 20
-2138.60
 30
0.000000
  70
    32
  0
VERTEX
  8
01
  5
10DCB
 10
-705.200
 20
-2138.55
 30
0.000000
  70
    32
  0
VERTEX
  8
01
  5
10DCC
 10
-705.190
 20
-2138.50
 30
0.000000
  70
    32
  0
VERTEX
  8
01
  5
10DCD
 10
-705.181
 20
-2138.45
 30
0.000000
  70
    32
  0
VERTEX
  8
01
  5
10DCE
 10
-705.172
 20
-2138.40
 30
0.000000
  70
    32
  0
VERTEX
  8
01
  5
10DCF
 10
-705.164
 20
-2138.36
 30
0.000000
  70
    32
  0
VERTEX
  8
01
  5
10DD0
 10
-705.156
 20
-2138.31
 30
0.000000
  70
    32
  0
VERTEX
  8
01
  5
10DD1
 10
-705.149
 20
-2138.26
 30
0.000000
  70
    32
  0
VERTEX
  8
01
  5
10DD2
 10
-705.143
 20
-2138.21
 30
0.000000
  70
    32
  0
VERTEX
  8
01
  5
10DD3
 10
-705.137
 20
-2138.16
 30
0.000000
  70
    32
  0
VERTEX
  8
01
  5
10DD4
 10
-705.132
 20
-2138.11
 30
0.000000
  70
    32
  0
VERTEX
  8
01
  5
10DD5
 10
-705.128
 20
-2138.06
 30
0.000000
  70
    32
  0
VERTEX
  8
01
  5
10DD6
 10
-705.124
 20
-2138.02
 30
0.000000
  70
    32
  0
VERTEX
  8
01
  5
10DD7
 10
-705.121
 20
-2137.97
 30
0.000000
  70
    32
  0
VERTEX
  8
01
  5
10DD8
 10
-705.118
 20
-2137.92
 30
0.000000
  70
    32
  0
VERTEX
  8
01
  5
10DD9
 10
-705.116
 20
-2137.87
 30
0.000000
  70
    32
  0
VERTEX
  8
01
  5
10DDA
 10
-705.114
 20
-2137.82
 30
0.000000
  70
    32
  0
VERTEX
  8
01
  5
10DDB
 10
-705.113
 20
-2137.77
 30
0.000000
  70
    32
  0
VERTEX
  8
01
  5
10DDC
 10
-705.113
 20
-2137.72
 30
0.000000
  70
    32
  0
SEQEND
  8
01
  5
10DDD
  0
LINE
  5
10989
  8
01
 10
-711.11303831494661
 20
-2127.72100663833
 30
0.0
 11
-711.11303831494683
 21
-2133.7210006383302
 31
0.0
  0
LINE
  5
1098A
  8
01
 10
-803.11303831494661
 20
-2045.72108863833
 30
0.0
 11
-803.11303831494581
 21
-2073.2210611383312
 31
0.0
  0
LINE
  5
1098B
  8
01
 10
-803.11303831494718
 20
-2045.72108863833
 30
0.0
 11
-783.11303831494649
 21
-2045.72108863833
 31
0.0
  0
LINE
  5
1098C
  8
01
 10
-783.11303831494649
 20
-2073.2210611383312
 30
0.0
 11
-783.11303831494649
 21
-2045.72108863833
 31
0.0
  0
POLYLINE
  5
1098D
  8
01
 10
-783.61303831494683
 20
-2051.7210826383312
 30
0.0
 66
     1
 70
     8
  0
VERTEX
  8
01
  5
10DDE
 10
-783.613
 20
-2051.72
 30
0.000000
  70
    32
  0
VERTEX
  8
01
  5
10DDF
 10
-783.607
 20
-2051.72
 30
0.000000
  70
    32
  0
VERTEX
  8
01
  5
10DE0
 10
-783.601
 20
-2051.72
 30
0.000000
  70
    32
  0
VERTEX
  8
01
  5
10DE1
 10
-783.595
 20
-2051.72
 30
0.000000
  70
    32
  0
VERTEX
  8
01
  5
10DE2
 10
-783.589
 20
-2051.72
 30
0.000000
  70
    32
  0
VERTEX
  8
01
  5
10DE3
 10
-783.582
 20
-2051.72
 30
0.000000
  70
    32
  0
VERTEX
  8
01
  5
10DE4
 10
-783.576
 20
-2051.72
 30
0.000000
  70
    32
  0
VERTEX
  8
01
  5
10DE5
 10
-783.570
 20
-2051.72
 30
0.000000
  70
    32
  0
VERTEX
  8
01
  5
10DE6
 10
-783.564
 20
-2051.72
 30
0.000000
  70
    32
  0
VERTEX
  8
01
  5
10DE7
 10
-783.558
 20
-2051.72
 30
0.000000
  70
    32
  0
VERTEX
  8
01
  5
10DE8
 10
-783.552
 20
-2051.72
 30
0.000000
  70
    32
  0
VERTEX
  8
01
  5
10DE9
 10
-783.546
 20
-2051.72
 30
0.000000
  70
    32
  0
VERTEX
  8
01
  5
10DEA
 10
-783.540
 20
-2051.72
 30
0.000000
  70
    32
  0
VERTEX
  8
01
  5
10DEB
 10
-783.534
 20
-2051.71
 30
0.000000
  70
    32
  0
VERTEX
  8
01
  5
10DEC
 10
-783.528
 20
-2051.71
 30
0.000000
  70
    32
  0
VERTEX
  8
01
  5
10DED
 10
-783.522
 20
-2051.71
 30
0.000000
  70
    32
  0
VERTEX
  8
01
  5
10DEE
 10
-783.515
 20
-2051.71
 30
0.000000
  70
    32
  0
VERTEX
  8
01
  5
10DEF
 10
-783.509
 20
-2051.71
 30
0.000000
  70
    32
  0
VERTEX
  8
01
  5
10DF0
 10
-783.503
 20
-2051.71
 30
0.000000
  70
    32
  0
VERTEX
  8
01
  5
10DF1
 10
-783.498
 20
-2051.71
 30
0.000000
  70
    32
  0
VERTEX
  8
01
  5
10DF2
 10
-783.492
 20
-2051.71
 30
0.000000
  70
    32
  0
VERTEX
  8
01
  5
10DF3
 10
-783.486
 20
-2051.70
 30
0.000000
  70
    32
  0
VERTEX
  8
01
  5
10DF4
 10
-783.480
 20
-2051.70
 30
0.000000
  70
    32
  0
VERTEX
  8
01
  5
10DF5
 10
-783.474
 20
-2051.70
 30
0.000000
  70
    32
  0
VERTEX
  8
01
  5
10DF6
 10
-783.468
 20
-2051.70
 30
0.000000
  70
    32
  0
VERTEX
  8
01
  5
10DF7
 10
-783.462
 20
-2051.70
 30
0.000000
  70
    32
  0
VERTEX
  8
01
  5
10DF8
 10
-783.456
 20
-2051.70
 30
0.000000
  70
    32
  0
VERTEX
  8
01
  5
10DF9
 10
-783.450
 20
-2051.69
 30
0.000000
  70
    32
  0
VERTEX
  8
01
  5
10DFA
 10
-783.445
 20
-2051.69
 30
0.000000
  70
    32
  0
VERTEX
  8
01
  5
10DFB
 10
-783.439
 20
-2051.69
 30
0.000000
  70
    32
  0
VERTEX
  8
01
  5
10DFC
 10
-783.433
 20
-2051.69
 30
0.000000
  70
    32
  0
VERTEX
  8
01
  5
10DFD
 10
-783.427
 20
-2051.69
 30
0.000000
  70
    32
  0
VERTEX
  8
01
  5
10DFE
 10
-783.422
 20
-2051.68
 30
0.000000
  70
    32
  0
VERTEX
  8
01
  5
10DFF
 10
-783.416
 20
-2051.68
 30
0.000000
  70
    32
  0
VERTEX
  8
01
  5
10E00
 10
-783.410
 20
-2051.68
 30
0.000000
  70
    32
  0
VERTEX
  8
01
  5
10E01
 10
-783.405
 20
-2051.68
 30
0.000000
  70
    32
  0
VERTEX
  8
01
  5
10E02
 10
-783.399
 20
-2051.67
 30
0.000000
  70
    32
  0
VERTEX
  8
01
  5
10E03
 10
-783.394
 20
-2051.67
 30
0.000000
  70
    32
  0
VERTEX
  8
01
  5
10E04
 10
-783.388
 20
-2051.67
 30
0.000000
  70
    32
  0
VERTEX
  8
01
  5
10E05
 10
-783.383
 20
-2051.66
 30
0.000000
  70
    32
  0
VERTEX
  8
01
  5
10E06
 10
-783.377
 20
-2051.66
 30
0.000000
  70
    32
  0
VERTEX
  8
01
  5
10E07
 10
-783.372
 20
-2051.66
 30
0.000000
  70
    32
  0
VERTEX
  8
01
  5
10E08
 10
-783.367
 20
-2051.66
 30
0.000000
  70
    32
  0
VERTEX
  8
01
  5
10E09
 10
-783.361
 20
-2051.65
 30
0.000000
  70
    32
  0
VERTEX
  8
01
  5
10E0A
 10
-783.356
 20
-2051.65
 30
0.000000
  70
    32
  0
VERTEX
  8
01
  5
10E0B
 10
-783.351
 20
-2051.65
 30
0.000000
  70
    32
  0
VERTEX
  8
01
  5
10E0C
 10
-783.346
 20
-2051.64
 30
0.000000
  70
    32
  0
VERTEX
  8
01
  5
10E0D
 10
-783.340
 20
-2051.64
 30
0.000000
  70
    32
  0
VERTEX
  8
01
  5
10E0E
 10
-783.335
 20
-2051.64
 30
0.000000
  70
    32
  0
VERTEX
  8
01
  5
10E0F
 10
-783.330
 20
-2051.63
 30
0.000000
  70
    32
  0
VERTEX
  8
01
  5
10E10
 10
-783.325
 20
-2051.63
 30
0.000000
  70
    32
  0
VERTEX
  8
01
  5
10E11
 10
-783.320
 20
-2051.63
 30
0.000000
  70
    32
  0
VERTEX
  8
01
  5
10E12
 10
-783.315
 20
-2051.62
 30
0.000000
  70
    32
  0
VERTEX
  8
01
  5
10E13
 10
-783.310
 20
-2051.62
 30
0.000000
  70
    32
  0
VERTEX
  8
01
  5
10E14
 10
-783.305
 20
-2051.62
 30
0.000000
  70
    32
  0
VERTEX
  8
01
  5
10E15
 10
-783.301
 20
-2051.61
 30
0.000000
  70
    32
  0
VERTEX
  8
01
  5
10E16
 10
-783.296
 20
-2051.61
 30
0.000000
  70
    32
  0
VERTEX
  8
01
  5
10E17
 10
-783.291
 20
-2051.60
 30
0.000000
  70
    32
  0
VERTEX
  8
01
  5
10E18
 10
-783.286
 20
-2051.60
 30
0.000000
  70
    32
  0
VERTEX
  8
01
  5
10E19
 10
-783.282
 20
-2051.60
 30
0.000000
  70
    32
  0
VERTEX
  8
01
  5
10E1A
 10
-783.277
 20
-2051.59
 30
0.000000
  70
    32
  0
VERTEX
  8
01
  5
10E1B
 10
-783.273
 20
-2051.59
 30
0.000000
  70
    32
  0
VERTEX
  8
01
  5
10E1C
 10
-783.268
 20
-2051.58
 30
0.000000
  70
    32
  0
VERTEX
  8
01
  5
10E1D
 10
-783.264
 20
-2051.58
 30
0.000000
  70
    32
  0
VERTEX
  8
01
  5
10E1E
 10
-783.259
 20
-2051.57
 30
0.000000
  70
    32
  0
VERTEX
  8
01
  5
10E1F
 10
-783.255
 20
-2051.57
 30
0.000000
  70
    32
  0
VERTEX
  8
01
  5
10E20
 10
-783.251
 20
-2051.57
 30
0.000000
  70
    32
  0
VERTEX
  8
01
  5
10E21
 10
-783.247
 20
-2051.56
 30
0.000000
  70
    32
  0
VERTEX
  8
01
  5
10E22
 10
-783.243
 20
-2051.56
 30
0.000000
  70
    32
  0
VERTEX
  8
01
  5
10E23
 10
-783.238
 20
-2051.55
 30
0.000000
  70
    32
  0
VERTEX
  8
01
  5
10E24
 10
-783.234
 20
-2051.55
 30
0.000000
  70
    32
  0
VERTEX
  8
01
  5
10E25
 10
-783.230
 20
-2051.54
 30
0.000000
  70
    32
  0
VERTEX
  8
01
  5
10E26
 10
-783.227
 20
-2051.54
 30
0.000000
  70
    32
  0
VERTEX
  8
01
  5
10E27
 10
-783.223
 20
-2051.53
 30
0.000000
  70
    32
  0
VERTEX
  8
01
  5
10E28
 10
-783.219
 20
-2051.53
 30
0.000000
  70
    32
  0
VERTEX
  8
01
  5
10E29
 10
-783.215
 20
-2051.52
 30
0.000000
  70
    32
  0
VERTEX
  8
01
  5
10E2A
 10
-783.211
 20
-2051.52
 30
0.000000
  70
    32
  0
VERTEX
  8
01
  5
10E2B
 10
-783.208
 20
-2051.51
 30
0.000000
  70
    32
  0
VERTEX
  8
01
  5
10E2C
 10
-783.204
 20
-2051.51
 30
0.000000
  70
    32
  0
VERTEX
  8
01
  5
10E2D
 10
-783.201
 20
-2051.50
 30
0.000000
  70
    32
  0
VERTEX
  8
01
  5
10E2E
 10
-783.197
 20
-2051.50
 30
0.000000
  70
    32
  0
VERTEX
  8
01
  5
10E2F
 10
-783.194
 20
-2051.49
 30
0.000000
  70
    32
  0
VERTEX
  8
01
  5
10E30
 10
-783.191
 20
-2051.49
 30
0.000000
  70
    32
  0
VERTEX
  8
01
  5
10E31
 10
-783.187
 20
-2051.48
 30
0.000000
  70
    32
  0
VERTEX
  8
01
  5
10E32
 10
-783.184
 20
-2051.48
 30
0.000000
  70
    32
  0
VERTEX
  8
01
  5
10E33
 10
-783.181
 20
-2051.47
 30
0.000000
  70
    32
  0
VERTEX
  8
01
  5
10E34
 10
-783.178
 20
-2051.47
 30
0.000000
  70
    32
  0
VERTEX
  8
01
  5
10E35
 10
-783.175
 20
-2051.46
 30
0.000000
  70
    32
  0
VERTEX
  8
01
  5
10E36
 10
-783.172
 20
-2051.46
 30
0.000000
  70
    32
  0
VERTEX
  8
01
  5
10E37
 10
-783.169
 20
-2051.45
 30
0.000000
  70
    32
  0
VERTEX
  8
01
  5
10E38
 10
-783.166
 20
-2051.45
 30
0.000000
  70
    32
  0
VERTEX
  8
01
  5
10E39
 10
-783.164
 20
-2051.44
 30
0.000000
  70
    32
  0
VERTEX
  8
01
  5
10E3A
 10
-783.161
 20
-2051.43
 30
0.000000
  70
    32
  0
VERTEX
  8
01
  5
10E3B
 10
-783.158
 20
-2051.43
 30
0.000000
  70
    32
  0
VERTEX
  8
01
  5
10E3C
 10
-783.156
 20
-2051.42
 30
0.000000
  70
    32
  0
VERTEX
  8
01
  5
10E3D
 10
-783.153
 20
-2051.42
 30
0.000000
  70
    32
  0
VERTEX
  8
01
  5
10E3E
 10
-783.151
 20
-2051.41
 30
0.000000
  70
    32
  0
VERTEX
  8
01
  5
10E3F
 10
-783.149
 20
-2051.41
 30
0.000000
  70
    32
  0
VERTEX
  8
01
  5
10E40
 10
-783.147
 20
-2051.40
 30
0.000000
  70
    32
  0
VERTEX
  8
01
  5
10E41
 10
-783.144
 20
-2051.40
 30
0.000000
  70
    32
  0
VERTEX
  8
01
  5
10E42
 10
-783.142
 20
-2051.39
 30
0.000000
  70
    32
  0
VERTEX
  8
01
  5
10E43
 10
-783.140
 20
-2051.38
 30
0.000000
  70
    32
  0
VERTEX
  8
01
  5
10E44
 10
-783.138
 20
-2051.38
 30
0.000000
  70
    32
  0
VERTEX
  8
01
  5
10E45
 10
-783.136
 20
-2051.37
 30
0.000000
  70
    32
  0
VERTEX
  8
01
  5
10E46
 10
-783.135
 20
-2051.37
 30
0.000000
  70
    32
  0
VERTEX
  8
01
  5
10E47
 10
-783.133
 20
-2051.36
 30
0.000000
  70
    32
  0
VERTEX
  8
01
  5
10E48
 10
-783.131
 20
-2051.35
 30
0.000000
  70
    32
  0
VERTEX
  8
01
  5
10E49
 10
-783.130
 20
-2051.35
 30
0.000000
  70
    32
  0
VERTEX
  8
01
  5
10E4A
 10
-783.128
 20
-2051.34
 30
0.000000
  70
    32
  0
VERTEX
  8
01
  5
10E4B
 10
-783.127
 20
-2051.34
 30
0.000000
  70
    32
  0
VERTEX
  8
01
  5
10E4C
 10
-783.125
 20
-2051.33
 30
0.000000
  70
    32
  0
VERTEX
  8
01
  5
10E4D
 10
-783.124
 20
-2051.32
 30
0.000000
  70
    32
  0
VERTEX
  8
01
  5
10E4E
 10
-783.123
 20
-2051.32
 30
0.000000
  70
    32
  0
VERTEX
  8
01
  5
10E4F
 10
-783.121
 20
-2051.31
 30
0.000000
  70
    32
  0
VERTEX
  8
01
  5
10E50
 10
-783.120
 20
-2051.31
 30
0.000000
  70
    32
  0
VERTEX
  8
01
  5
10E51
 10
-783.119
 20
-2051.30
 30
0.000000
  70
    32
  0
VERTEX
  8
01
  5
10E52
 10
-783.118
 20
-2051.29
 30
0.000000
  70
    32
  0
VERTEX
  8
01
  5
10E53
 10
-783.118
 20
-2051.29
 30
0.000000
  70
    32
  0
VERTEX
  8
01
  5
10E54
 10
-783.117
 20
-2051.28
 30
0.000000
  70
    32
  0
VERTEX
  8
01
  5
10E55
 10
-783.116
 20
-2051.28
 30
0.000000
  70
    32
  0
VERTEX
  8
01
  5
10E56
 10
-783.115
 20
-2051.27
 30
0.000000
  70
    32
  0
VERTEX
  8
01
  5
10E57
 10
-783.115
 20
-2051.26
 30
0.000000
  70
    32
  0
VERTEX
  8
01
  5
10E58
 10
-783.114
 20
-2051.26
 30
0.000000
  70
    32
  0
VERTEX
  8
01
  5
10E59
 10
-783.114
 20
-2051.25
 30
0.000000
  70
    32
  0
VERTEX
  8
01
  5
10E5A
 10
-783.114
 20
-2051.25
 30
0.000000
  70
    32
  0
VERTEX
  8
01
  5
10E5B
 10
-783.113
 20
-2051.24
 30
0.000000
  70
    32
  0
VERTEX
  8
01
  5
10E5C
 10
-783.113
 20
-2051.23
 30
0.000000
  70
    32
  0
VERTEX
  8
01
  5
10E5D
 10
-783.113
 20
-2051.23
 30
0.000000
  70
    32
  0
VERTEX
  8
01
  5
10E5E
 10
-783.113
 20
-2051.22
 30
0.000000
  70
    32
  0
SEQEND
  8
01
  5
10E5F
  0
POLYLINE
  5
1098E
  8
01
 10
-803.11303831494672
 20
-2051.2210831383309
 30
0.0
 66
     1
 70
     8
  0
VERTEX
  8
01
  5
10E60
 10
-803.113
 20
-2051.22
 30
0.000000
  70
    32
  0
VERTEX
  8
01
  5
10E61
 10
-803.113
 20
-2051.23
 30
0.000000
  70
    32
  0
VERTEX
  8
01
  5
10E62
 10
-803.113
 20
-2051.23
 30
0.000000
  70
    32
  0
VERTEX
  8
01
  5
10E63
 10
-803.113
 20
-2051.24
 30
0.000000
  70
    32
  0
VERTEX
  8
01
  5
10E64
 10
-803.112
 20
-2051.25
 30
0.000000
  70
    32
  0
VERTEX
  8
01
  5
10E65
 10
-803.112
 20
-2051.25
 30
0.000000
  70
    32
  0
VERTEX
  8
01
  5
10E66
 10
-803.112
 20
-2051.26
 30
0.000000
  70
    32
  0
VERTEX
  8
01
  5
10E67
 10
-803.111
 20
-2051.26
 30
0.000000
  70
    32
  0
VERTEX
  8
01
  5
10E68
 10
-803.111
 20
-2051.27
 30
0.000000
  70
    32
  0
VERTEX
  8
01
  5
10E69
 10
-803.110
 20
-2051.28
 30
0.000000
  70
    32
  0
VERTEX
  8
01
  5
10E6A
 10
-803.109
 20
-2051.28
 30
0.000000
  70
    32
  0
VERTEX
  8
01
  5
10E6B
 10
-803.108
 20
-2051.29
 30
0.000000
  70
    32
  0
VERTEX
  8
01
  5
10E6C
 10
-803.108
 20
-2051.29
 30
0.000000
  70
    32
  0
VERTEX
  8
01
  5
10E6D
 10
-803.107
 20
-2051.30
 30
0.000000
  70
    32
  0
VERTEX
  8
01
  5
10E6E
 10
-803.106
 20
-2051.31
 30
0.000000
  70
    32
  0
VERTEX
  8
01
  5
10E6F
 10
-803.105
 20
-2051.31
 30
0.000000
  70
    32
  0
VERTEX
  8
01
  5
10E70
 10
-803.103
 20
-2051.32
 30
0.000000
  70
    32
  0
VERTEX
  8
01
  5
10E71
 10
-803.102
 20
-2051.32
 30
0.000000
  70
    32
  0
VERTEX
  8
01
  5
10E72
 10
-803.101
 20
-2051.33
 30
0.000000
  70
    32
  0
VERTEX
  8
01
  5
10E73
 10
-803.100
 20
-2051.34
 30
0.000000
  70
    32
  0
VERTEX
  8
01
  5
10E74
 10
-803.098
 20
-2051.34
 30
0.000000
  70
    32
  0
VERTEX
  8
01
  5
10E75
 10
-803.097
 20
-2051.35
 30
0.000000
  70
    32
  0
VERTEX
  8
01
  5
10E76
 10
-803.095
 20
-2051.35
 30
0.000000
  70
    32
  0
VERTEX
  8
01
  5
10E77
 10
-803.093
 20
-2051.36
 30
0.000000
  70
    32
  0
VERTEX
  8
01
  5
10E78
 10
-803.092
 20
-2051.37
 30
0.000000
  70
    32
  0
VERTEX
  8
01
  5
10E79
 10
-803.090
 20
-2051.37
 30
0.000000
  70
    32
  0
VERTEX
  8
01
  5
10E7A
 10
-803.088
 20
-2051.38
 30
0.000000
  70
    32
  0
VERTEX
  8
01
  5
10E7B
 10
-803.086
 20
-2051.38
 30
0.000000
  70
    32
  0
VERTEX
  8
01
  5
10E7C
 10
-803.084
 20
-2051.39
 30
0.000000
  70
    32
  0
VERTEX
  8
01
  5
10E7D
 10
-803.082
 20
-2051.40
 30
0.000000
  70
    32
  0
VERTEX
  8
01
  5
10E7E
 10
-803.080
 20
-2051.40
 30
0.000000
  70
    32
  0
VERTEX
  8
01
  5
10E7F
 10
-803.077
 20
-2051.41
 30
0.000000
  70
    32
  0
VERTEX
  8
01
  5
10E80
 10
-803.075
 20
-2051.41
 30
0.000000
  70
    32
  0
VERTEX
  8
01
  5
10E81
 10
-803.073
 20
-2051.42
 30
0.000000
  70
    32
  0
VERTEX
  8
01
  5
10E82
 10
-803.070
 20
-2051.42
 30
0.000000
  70
    32
  0
VERTEX
  8
01
  5
10E83
 10
-803.068
 20
-2051.43
 30
0.000000
  70
    32
  0
VERTEX
  8
01
  5
10E84
 10
-803.065
 20
-2051.43
 30
0.000000
  70
    32
  0
VERTEX
  8
01
  5
10E85
 10
-803.062
 20
-2051.44
 30
0.000000
  70
    32
  0
VERTEX
  8
01
  5
10E86
 10
-803.060
 20
-2051.45
 30
0.000000
  70
    32
  0
VERTEX
  8
01
  5
10E87
 10
-803.057
 20
-2051.45
 30
0.000000
  70
    32
  0
VERTEX
  8
01
  5
10E88
 10
-803.054
 20
-2051.46
 30
0.000000
  70
    32
  0
VERTEX
  8
01
  5
10E89
 10
-803.051
 20
-2051.46
 30
0.000000
  70
    32
  0
VERTEX
  8
01
  5
10E8A
 10
-803.048
 20
-2051.47
 30
0.000000
  70
    32
  0
VERTEX
  8
01
  5
10E8B
 10
-803.045
 20
-2051.47
 30
0.000000
  70
    32
  0
VERTEX
  8
01
  5
10E8C
 10
-803.042
 20
-2051.48
 30
0.000000
  70
    32
  0
VERTEX
  8
01
  5
10E8D
 10
-803.039
 20
-2051.48
 30
0.000000
  70
    32
  0
VERTEX
  8
01
  5
10E8E
 10
-803.035
 20
-2051.49
 30
0.000000
  70
    32
  0
VERTEX
  8
01
  5
10E8F
 10
-803.032
 20
-2051.49
 30
0.000000
  70
    32
  0
VERTEX
  8
01
  5
10E90
 10
-803.029
 20
-2051.50
 30
0.000000
  70
    32
  0
VERTEX
  8
01
  5
10E91
 10
-803.025
 20
-2051.50
 30
0.000000
  70
    32
  0
VERTEX
  8
01
  5
10E92
 10
-803.022
 20
-2051.51
 30
0.000000
  70
    32
  0
VERTEX
  8
01
  5
10E93
 10
-803.018
 20
-2051.51
 30
0.000000
  70
    32
  0
VERTEX
  8
01
  5
10E94
 10
-803.015
 20
-2051.52
 30
0.000000
  70
    32
  0
VERTEX
  8
01
  5
10E95
 10
-803.011
 20
-2051.52
 30
0.000000
  70
    32
  0
VERTEX
  8
01
  5
10E96
 10
-803.007
 20
-2051.53
 30
0.000000
  70
    32
  0
VERTEX
  8
01
  5
10E97
 10
-803.003
 20
-2051.53
 30
0.000000
  70
    32
  0
VERTEX
  8
01
  5
10E98
 10
-803.000
 20
-2051.54
 30
0.000000
  70
    32
  0
VERTEX
  8
01
  5
10E99
 10
-802.996
 20
-2051.54
 30
0.000000
  70
    32
  0
VERTEX
  8
01
  5
10E9A
 10
-802.992
 20
-2051.55
 30
0.000000
  70
    32
  0
VERTEX
  8
01
  5
10E9B
 10
-802.988
 20
-2051.55
 30
0.000000
  70
    32
  0
VERTEX
  8
01
  5
10E9C
 10
-802.984
 20
-2051.56
 30
0.000000
  70
    32
  0
VERTEX
  8
01
  5
10E9D
 10
-802.979
 20
-2051.56
 30
0.000000
  70
    32
  0
VERTEX
  8
01
  5
10E9E
 10
-802.975
 20
-2051.57
 30
0.000000
  70
    32
  0
VERTEX
  8
01
  5
10E9F
 10
-802.971
 20
-2051.57
 30
0.000000
  70
    32
  0
VERTEX
  8
01
  5
10EA0
 10
-802.967
 20
-2051.57
 30
0.000000
  70
    32
  0
VERTEX
  8
01
  5
10EA1
 10
-802.962
 20
-2051.58
 30
0.000000
  70
    32
  0
VERTEX
  8
01
  5
10EA2
 10
-802.958
 20
-2051.58
 30
0.000000
  70
    32
  0
VERTEX
  8
01
  5
10EA3
 10
-802.953
 20
-2051.59
 30
0.000000
  70
    32
  0
VERTEX
  8
01
  5
10EA4
 10
-802.949
 20
-2051.59
 30
0.000000
  70
    32
  0
VERTEX
  8
01
  5
10EA5
 10
-802.944
 20
-2051.60
 30
0.000000
  70
    32
  0
VERTEX
  8
01
  5
10EA6
 10
-802.940
 20
-2051.60
 30
0.000000
  70
    32
  0
VERTEX
  8
01
  5
10EA7
 10
-802.935
 20
-2051.60
 30
0.000000
  70
    32
  0
VERTEX
  8
01
  5
10EA8
 10
-802.930
 20
-2051.61
 30
0.000000
  70
    32
  0
VERTEX
  8
01
  5
10EA9
 10
-802.925
 20
-2051.61
 30
0.000000
  70
    32
  0
VERTEX
  8
01
  5
10EAA
 10
-802.921
 20
-2051.62
 30
0.000000
  70
    32
  0
VERTEX
  8
01
  5
10EAB
 10
-802.916
 20
-2051.62
 30
0.000000
  70
    32
  0
VERTEX
  8
01
  5
10EAC
 10
-802.911
 20
-2051.62
 30
0.000000
  70
    32
  0
VERTEX
  8
01
  5
10EAD
 10
-802.906
 20
-2051.63
 30
0.000000
  70
    32
  0
VERTEX
  8
01
  5
10EAE
 10
-802.901
 20
-2051.63
 30
0.000000
  70
    32
  0
VERTEX
  8
01
  5
10EAF
 10
-802.896
 20
-2051.63
 30
0.000000
  70
    32
  0
VERTEX
  8
01
  5
10EB0
 10
-802.891
 20
-2051.64
 30
0.000000
  70
    32
  0
VERTEX
  8
01
  5
10EB1
 10
-802.886
 20
-2051.64
 30
0.000000
  70
    32
  0
VERTEX
  8
01
  5
10EB2
 10
-802.881
 20
-2051.64
 30
0.000000
  70
    32
  0
VERTEX
  8
01
  5
10EB3
 10
-802.875
 20
-2051.65
 30
0.000000
  70
    32
  0
VERTEX
  8
01
  5
10EB4
 10
-802.870
 20
-2051.65
 30
0.000000
  70
    32
  0
VERTEX
  8
01
  5
10EB5
 10
-802.865
 20
-2051.65
 30
0.000000
  70
    32
  0
VERTEX
  8
01
  5
10EB6
 10
-802.859
 20
-2051.66
 30
0.000000
  70
    32
  0
VERTEX
  8
01
  5
10EB7
 10
-802.854
 20
-2051.66
 30
0.000000
  70
    32
  0
VERTEX
  8
01
  5
10EB8
 10
-802.849
 20
-2051.66
 30
0.000000
  70
    32
  0
VERTEX
  8
01
  5
10EB9
 10
-802.843
 20
-2051.66
 30
0.000000
  70
    32
  0
VERTEX
  8
01
  5
10EBA
 10
-802.838
 20
-2051.67
 30
0.000000
  70
    32
  0
VERTEX
  8
01
  5
10EBB
 10
-802.832
 20
-2051.67
 30
0.000000
  70
    32
  0
VERTEX
  8
01
  5
10EBC
 10
-802.827
 20
-2051.67
 30
0.000000
  70
    32
  0
VERTEX
  8
01
  5
10EBD
 10
-802.821
 20
-2051.68
 30
0.000000
  70
    32
  0
VERTEX
  8
01
  5
10EBE
 10
-802.816
 20
-2051.68
 30
0.000000
  70
    32
  0
VERTEX
  8
01
  5
10EBF
 10
-802.810
 20
-2051.68
 30
0.000000
  70
    32
  0
VERTEX
  8
01
  5
10EC0
 10
-802.804
 20
-2051.68
 30
0.000000
  70
    32
  0
VERTEX
  8
01
  5
10EC1
 10
-802.799
 20
-2051.69
 30
0.000000
  70
    32
  0
VERTEX
  8
01
  5
10EC2
 10
-802.793
 20
-2051.69
 30
0.000000
  70
    32
  0
VERTEX
  8
01
  5
10EC3
 10
-802.787
 20
-2051.69
 30
0.000000
  70
    32
  0
VERTEX
  8
01
  5
10EC4
 10
-802.781
 20
-2051.69
 30
0.000000
  70
    32
  0
VERTEX
  8
01
  5
10EC5
 10
-802.776
 20
-2051.69
 30
0.000000
  70
    32
  0
VERTEX
  8
01
  5
10EC6
 10
-802.770
 20
-2051.70
 30
0.000000
  70
    32
  0
VERTEX
  8
01
  5
10EC7
 10
-802.764
 20
-2051.70
 30
0.000000
  70
    32
  0
VERTEX
  8
01
  5
10EC8
 10
-802.758
 20
-2051.70
 30
0.000000
  70
    32
  0
VERTEX
  8
01
  5
10EC9
 10
-802.752
 20
-2051.70
 30
0.000000
  70
    32
  0
VERTEX
  8
01
  5
10ECA
 10
-802.746
 20
-2051.70
 30
0.000000
  70
    32
  0
VERTEX
  8
01
  5
10ECB
 10
-802.740
 20
-2051.70
 30
0.000000
  70
    32
  0
VERTEX
  8
01
  5
10ECC
 10
-802.735
 20
-2051.71
 30
0.000000
  70
    32
  0
VERTEX
  8
01
  5
10ECD
 10
-802.729
 20
-2051.71
 30
0.000000
  70
    32
  0
VERTEX
  8
01
  5
10ECE
 10
-802.723
 20
-2051.71
 30
0.000000
  70
    32
  0
VERTEX
  8
01
  5
10ECF
 10
-802.717
 20
-2051.71
 30
0.000000
  70
    32
  0
VERTEX
  8
01
  5
10ED0
 10
-802.711
 20
-2051.71
 30
0.000000
  70
    32
  0
VERTEX
  8
01
  5
10ED1
 10
-802.705
 20
-2051.71
 30
0.000000
  70
    32
  0
VERTEX
  8
01
  5
10ED2
 10
-802.699
 20
-2051.71
 30
0.000000
  70
    32
  0
VERTEX
  8
01
  5
10ED3
 10
-802.692
 20
-2051.71
 30
0.000000
  70
    32
  0
VERTEX
  8
01
  5
10ED4
 10
-802.686
 20
-2051.72
 30
0.000000
  70
    32
  0
VERTEX
  8
01
  5
10ED5
 10
-802.680
 20
-2051.72
 30
0.000000
  70
    32
  0
VERTEX
  8
01
  5
10ED6
 10
-802.674
 20
-2051.72
 30
0.000000
  70
    32
  0
VERTEX
  8
01
  5
10ED7
 10
-802.668
 20
-2051.72
 30
0.000000
  70
    32
  0
VERTEX
  8
01
  5
10ED8
 10
-802.662
 20
-2051.72
 30
0.000000
  70
    32
  0
VERTEX
  8
01
  5
10ED9
 10
-802.656
 20
-2051.72
 30
0.000000
  70
    32
  0
VERTEX
  8
01
  5
10EDA
 10
-802.650
 20
-2051.72
 30
0.000000
  70
    32
  0
VERTEX
  8
01
  5
10EDB
 10
-802.644
 20
-2051.72
 30
0.000000
  70
    32
  0
VERTEX
  8
01
  5
10EDC
 10
-802.638
 20
-2051.72
 30
0.000000
  70
    32
  0
VERTEX
  8
01
  5
10EDD
 10
-802.631
 20
-2051.72
 30
0.000000
  70
    32
  0
VERTEX
  8
01
  5
10EDE
 10
-802.625
 20
-2051.72
 30
0.000000
  70
    32
  0
VERTEX
  8
01
  5
10EDF
 10
-802.619
 20
-2051.72
 30
0.000000
  70
    32
  0
VERTEX
  8
01
  5
10EE0
 10
-802.613
 20
-2051.72
 30
0.000000
  70
    32
  0
SEQEND
  8
01
  5
10EE1
  0
LINE
  5
1098F
  8
01
 10
-783.11303831494683
 20
-2051.2210831383309
 30
0.0
 11
-783.11303831494649
 21
-2050.2210841383298
 31
0.0
  0
LINE
  5
10990
  8
01
 10
-803.11303831494661
 20
-2051.2210831383309
 30
0.0
 11
-803.11303831494661
 21
-2050.2210841383312
 31
0.0
  0
LINE
  5
10991
  8
01
 10
-802.61303831494672
 20
-2051.7210826383321
 30
0.0
 11
-783.61303831494683
 21
-2051.7210826383321
 31
0.0
  0
LINE
  5
10992
  8
01
 10
-803.11303831494661
 20
-2050.2210841383298
 30
0.0
 11
-783.11303831494649
 21
-2050.2210841383298
 31
0.0
  0
LINE
  5
10993
  8
01
 10
-783.61303831494661
 20
-2094.0210403383321
 30
0.0
 11
-802.61303831494672
 21
-2094.0210403383312
 31
0.0
  0
POLYLINE
  5
10994
  8
01
 10
-803.11303831494672
 20
-2141.2209931383309
 30
0.0
 66
     1
 70
     8
  0
VERTEX
  8
01
  5
10EE2
 10
-803.113
 20
-2141.22
 30
0.000000
  70
    32
  0
VERTEX
  8
01
  5
10EE3
 10
-803.113
 20
-2141.23
 30
0.000000
  70
    32
  0
VERTEX
  8
01
  5
10EE4
 10
-803.113
 20
-2141.23
 30
0.000000
  70
    32
  0
VERTEX
  8
01
  5
10EE5
 10
-803.113
 20
-2141.24
 30
0.000000
  70
    32
  0
VERTEX
  8
01
  5
10EE6
 10
-803.112
 20
-2141.25
 30
0.000000
  70
    32
  0
VERTEX
  8
01
  5
10EE7
 10
-803.112
 20
-2141.25
 30
0.000000
  70
    32
  0
VERTEX
  8
01
  5
10EE8
 10
-803.112
 20
-2141.26
 30
0.000000
  70
    32
  0
VERTEX
  8
01
  5
10EE9
 10
-803.111
 20
-2141.26
 30
0.000000
  70
    32
  0
VERTEX
  8
01
  5
10EEA
 10
-803.111
 20
-2141.27
 30
0.000000
  70
    32
  0
VERTEX
  8
01
  5
10EEB
 10
-803.110
 20
-2141.28
 30
0.000000
  70
    32
  0
VERTEX
  8
01
  5
10EEC
 10
-803.109
 20
-2141.28
 30
0.000000
  70
    32
  0
VERTEX
  8
01
  5
10EED
 10
-803.108
 20
-2141.29
 30
0.000000
  70
    32
  0
VERTEX
  8
01
  5
10EEE
 10
-803.108
 20
-2141.29
 30
0.000000
  70
    32
  0
VERTEX
  8
01
  5
10EEF
 10
-803.107
 20
-2141.30
 30
0.000000
  70
    32
  0
VERTEX
  8
01
  5
10EF0
 10
-803.106
 20
-2141.31
 30
0.000000
  70
    32
  0
VERTEX
  8
01
  5
10EF1
 10
-803.105
 20
-2141.31
 30
0.000000
  70
    32
  0
VERTEX
  8
01
  5
10EF2
 10
-803.103
 20
-2141.32
 30
0.000000
  70
    32
  0
VERTEX
  8
01
  5
10EF3
 10
-803.102
 20
-2141.32
 30
0.000000
  70
    32
  0
VERTEX
  8
01
  5
10EF4
 10
-803.101
 20
-2141.33
 30
0.000000
  70
    32
  0
VERTEX
  8
01
  5
10EF5
 10
-803.100
 20
-2141.34
 30
0.000000
  70
    32
  0
VERTEX
  8
01
  5
10EF6
 10
-803.098
 20
-2141.34
 30
0.000000
  70
    32
  0
VERTEX
  8
01
  5
10EF7
 10
-803.097
 20
-2141.35
 30
0.000000
  70
    32
  0
VERTEX
  8
01
  5
10EF8
 10
-803.095
 20
-2141.35
 30
0.000000
  70
    32
  0
VERTEX
  8
01
  5
10EF9
 10
-803.093
 20
-2141.36
 30
0.000000
  70
    32
  0
VERTEX
  8
01
  5
10EFA
 10
-803.092
 20
-2141.37
 30
0.000000
  70
    32
  0
VERTEX
  8
01
  5
10EFB
 10
-803.090
 20
-2141.37
 30
0.000000
  70
    32
  0
VERTEX
  8
01
  5
10EFC
 10
-803.088
 20
-2141.38
 30
0.000000
  70
    32
  0
VERTEX
  8
01
  5
10EFD
 10
-803.086
 20
-2141.38
 30
0.000000
  70
    32
  0
VERTEX
  8
01
  5
10EFE
 10
-803.084
 20
-2141.39
 30
0.000000
  70
    32
  0
VERTEX
  8
01
  5
10EFF
 10
-803.082
 20
-2141.40
 30
0.000000
  70
    32
  0
VERTEX
  8
01
  5
10F00
 10
-803.080
 20
-2141.40
 30
0.000000
  70
    32
  0
VERTEX
  8
01
  5
10F01
 10
-803.077
 20
-2141.41
 30
0.000000
  70
    32
  0
VERTEX
  8
01
  5
10F02
 10
-803.075
 20
-2141.41
 30
0.000000
  70
    32
  0
VERTEX
  8
01
  5
10F03
 10
-803.073
 20
-2141.42
 30
0.000000
  70
    32
  0
VERTEX
  8
01
  5
10F04
 10
-803.070
 20
-2141.42
 30
0.000000
  70
    32
  0
VERTEX
  8
01
  5
10F05
 10
-803.068
 20
-2141.43
 30
0.000000
  70
    32
  0
VERTEX
  8
01
  5
10F06
 10
-803.065
 20
-2141.43
 30
0.000000
  70
    32
  0
VERTEX
  8
01
  5
10F07
 10
-803.062
 20
-2141.44
 30
0.000000
  70
    32
  0
VERTEX
  8
01
  5
10F08
 10
-803.060
 20
-2141.45
 30
0.000000
  70
    32
  0
VERTEX
  8
01
  5
10F09
 10
-803.057
 20
-2141.45
 30
0.000000
  70
    32
  0
VERTEX
  8
01
  5
10F0A
 10
-803.054
 20
-2141.46
 30
0.000000
  70
    32
  0
VERTEX
  8
01
  5
10F0B
 10
-803.051
 20
-2141.46
 30
0.000000
  70
    32
  0
VERTEX
  8
01
  5
10F0C
 10
-803.048
 20
-2141.47
 30
0.000000
  70
    32
  0
VERTEX
  8
01
  5
10F0D
 10
-803.045
 20
-2141.47
 30
0.000000
  70
    32
  0
VERTEX
  8
01
  5
10F0E
 10
-803.042
 20
-2141.48
 30
0.000000
  70
    32
  0
VERTEX
  8
01
  5
10F0F
 10
-803.039
 20
-2141.48
 30
0.000000
  70
    32
  0
VERTEX
  8
01
  5
10F10
 10
-803.035
 20
-2141.49
 30
0.000000
  70
    32
  0
VERTEX
  8
01
  5
10F11
 10
-803.032
 20
-2141.49
 30
0.000000
  70
    32
  0
VERTEX
  8
01
  5
10F12
 10
-803.029
 20
-2141.50
 30
0.000000
  70
    32
  0
VERTEX
  8
01
  5
10F13
 10
-803.025
 20
-2141.50
 30
0.000000
  70
    32
  0
VERTEX
  8
01
  5
10F14
 10
-803.022
 20
-2141.51
 30
0.000000
  70
    32
  0
VERTEX
  8
01
  5
10F15
 10
-803.018
 20
-2141.51
 30
0.000000
  70
    32
  0
VERTEX
  8
01
  5
10F16
 10
-803.015
 20
-2141.52
 30
0.000000
  70
    32
  0
VERTEX
  8
01
  5
10F17
 10
-803.011
 20
-2141.52
 30
0.000000
  70
    32
  0
VERTEX
  8
01
  5
10F18
 10
-803.007
 20
-2141.53
 30
0.000000
  70
    32
  0
VERTEX
  8
01
  5
10F19
 10
-803.003
 20
-2141.53
 30
0.000000
  70
    32
  0
VERTEX
  8
01
  5
10F1A
 10
-803.000
 20
-2141.54
 30
0.000000
  70
    32
  0
VERTEX
  8
01
  5
10F1B
 10
-802.996
 20
-2141.54
 30
0.000000
  70
    32
  0
VERTEX
  8
01
  5
10F1C
 10
-802.992
 20
-2141.55
 30
0.000000
  70
    32
  0
VERTEX
  8
01
  5
10F1D
 10
-802.988
 20
-2141.55
 30
0.000000
  70
    32
  0
VERTEX
  8
01
  5
10F1E
 10
-802.984
 20
-2141.56
 30
0.000000
  70
    32
  0
VERTEX
  8
01
  5
10F1F
 10
-802.979
 20
-2141.56
 30
0.000000
  70
    32
  0
VERTEX
  8
01
  5
10F20
 10
-802.975
 20
-2141.57
 30
0.000000
  70
    32
  0
VERTEX
  8
01
  5
10F21
 10
-802.971
 20
-2141.57
 30
0.000000
  70
    32
  0
VERTEX
  8
01
  5
10F22
 10
-802.967
 20
-2141.57
 30
0.000000
  70
    32
  0
VERTEX
  8
01
  5
10F23
 10
-802.962
 20
-2141.58
 30
0.000000
  70
    32
  0
VERTEX
  8
01
  5
10F24
 10
-802.958
 20
-2141.58
 30
0.000000
  70
    32
  0
VERTEX
  8
01
  5
10F25
 10
-802.953
 20
-2141.59
 30
0.000000
  70
    32
  0
VERTEX
  8
01
  5
10F26
 10
-802.949
 20
-2141.59
 30
0.000000
  70
    32
  0
VERTEX
  8
01
  5
10F27
 10
-802.944
 20
-2141.60
 30
0.000000
  70
    32
  0
VERTEX
  8
01
  5
10F28
 10
-802.940
 20
-2141.60
 30
0.000000
  70
    32
  0
VERTEX
  8
01
  5
10F29
 10
-802.935
 20
-2141.60
 30
0.000000
  70
    32
  0
VERTEX
  8
01
  5
10F2A
 10
-802.930
 20
-2141.61
 30
0.000000
  70
    32
  0
VERTEX
  8
01
  5
10F2B
 10
-802.925
 20
-2141.61
 30
0.000000
  70
    32
  0
VERTEX
  8
01
  5
10F2C
 10
-802.921
 20
-2141.62
 30
0.000000
  70
    32
  0
VERTEX
  8
01
  5
10F2D
 10
-802.916
 20
-2141.62
 30
0.000000
  70
    32
  0
VERTEX
  8
01
  5
10F2E
 10
-802.911
 20
-2141.62
 30
0.000000
  70
    32
  0
VERTEX
  8
01
  5
10F2F
 10
-802.906
 20
-2141.63
 30
0.000000
  70
    32
  0
VERTEX
  8
01
  5
10F30
 10
-802.901
 20
-2141.63
 30
0.000000
  70
    32
  0
VERTEX
  8
01
  5
10F31
 10
-802.896
 20
-2141.63
 30
0.000000
  70
    32
  0
VERTEX
  8
01
  5
10F32
 10
-802.891
 20
-2141.64
 30
0.000000
  70
    32
  0
VERTEX
  8
01
  5
10F33
 10
-802.886
 20
-2141.64
 30
0.000000
  70
    32
  0
VERTEX
  8
01
  5
10F34
 10
-802.881
 20
-2141.64
 30
0.000000
  70
    32
  0
VERTEX
  8
01
  5
10F35
 10
-802.875
 20
-2141.65
 30
0.000000
  70
    32
  0
VERTEX
  8
01
  5
10F36
 10
-802.870
 20
-2141.65
 30
0.000000
  70
    32
  0
VERTEX
  8
01
  5
10F37
 10
-802.865
 20
-2141.65
 30
0.000000
  70
    32
  0
VERTEX
  8
01
  5
10F38
 10
-802.859
 20
-2141.66
 30
0.000000
  70
    32
  0
VERTEX
  8
01
  5
10F39
 10
-802.854
 20
-2141.66
 30
0.000000
  70
    32
  0
VERTEX
  8
01
  5
10F3A
 10
-802.849
 20
-2141.66
 30
0.000000
  70
    32
  0
VERTEX
  8
01
  5
10F3B
 10
-802.843
 20
-2141.66
 30
0.000000
  70
    32
  0
VERTEX
  8
01
  5
10F3C
 10
-802.838
 20
-2141.67
 30
0.000000
  70
    32
  0
VERTEX
  8
01
  5
10F3D
 10
-802.832
 20
-2141.67
 30
0.000000
  70
    32
  0
VERTEX
  8
01
  5
10F3E
 10
-802.827
 20
-2141.67
 30
0.000000
  70
    32
  0
VERTEX
  8
01
  5
10F3F
 10
-802.821
 20
-2141.68
 30
0.000000
  70
    32
  0
VERTEX
  8
01
  5
10F40
 10
-802.816
 20
-2141.68
 30
0.000000
  70
    32
  0
VERTEX
  8
01
  5
10F41
 10
-802.810
 20
-2141.68
 30
0.000000
  70
    32
  0
VERTEX
  8
01
  5
10F42
 10
-802.804
 20
-2141.68
 30
0.000000
  70
    32
  0
VERTEX
  8
01
  5
10F43
 10
-802.799
 20
-2141.69
 30
0.000000
  70
    32
  0
VERTEX
  8
01
  5
10F44
 10
-802.793
 20
-2141.69
 30
0.000000
  70
    32
  0
VERTEX
  8
01
  5
10F45
 10
-802.787
 20
-2141.69
 30
0.000000
  70
    32
  0
VERTEX
  8
01
  5
10F46
 10
-802.781
 20
-2141.69
 30
0.000000
  70
    32
  0
VERTEX
  8
01
  5
10F47
 10
-802.776
 20
-2141.69
 30
0.000000
  70
    32
  0
VERTEX
  8
01
  5
10F48
 10
-802.770
 20
-2141.70
 30
0.000000
  70
    32
  0
VERTEX
  8
01
  5
10F49
 10
-802.764
 20
-2141.70
 30
0.000000
  70
    32
  0
VERTEX
  8
01
  5
10F4A
 10
-802.758
 20
-2141.70
 30
0.000000
  70
    32
  0
VERTEX
  8
01
  5
10F4B
 10
-802.752
 20
-2141.70
 30
0.000000
  70
    32
  0
VERTEX
  8
01
  5
10F4C
 10
-802.746
 20
-2141.70
 30
0.000000
  70
    32
  0
VERTEX
  8
01
  5
10F4D
 10
-802.740
 20
-2141.70
 30
0.000000
  70
    32
  0
VERTEX
  8
01
  5
10F4E
 10
-802.735
 20
-2141.71
 30
0.000000
  70
    32
  0
VERTEX
  8
01
  5
10F4F
 10
-802.729
 20
-2141.71
 30
0.000000
  70
    32
  0
VERTEX
  8
01
  5
10F50
 10
-802.723
 20
-2141.71
 30
0.000000
  70
    32
  0
VERTEX
  8
01
  5
10F51
 10
-802.717
 20
-2141.71
 30
0.000000
  70
    32
  0
VERTEX
  8
01
  5
10F52
 10
-802.711
 20
-2141.71
 30
0.000000
  70
    32
  0
VERTEX
  8
01
  5
10F53
 10
-802.705
 20
-2141.71
 30
0.000000
  70
    32
  0
VERTEX
  8
01
  5
10F54
 10
-802.699
 20
-2141.71
 30
0.000000
  70
    32
  0
VERTEX
  8
01
  5
10F55
 10
-802.692
 20
-2141.71
 30
0.000000
  70
    32
  0
VERTEX
  8
01
  5
10F56
 10
-802.686
 20
-2141.72
 30
0.000000
  70
    32
  0
VERTEX
  8
01
  5
10F57
 10
-802.680
 20
-2141.72
 30
0.000000
  70
    32
  0
VERTEX
  8
01
  5
10F58
 10
-802.674
 20
-2141.72
 30
0.000000
  70
    32
  0
VERTEX
  8
01
  5
10F59
 10
-802.668
 20
-2141.72
 30
0.000000
  70
    32
  0
VERTEX
  8
01
  5
10F5A
 10
-802.662
 20
-2141.72
 30
0.000000
  70
    32
  0
VERTEX
  8
01
  5
10F5B
 10
-802.656
 20
-2141.72
 30
0.000000
  70
    32
  0
VERTEX
  8
01
  5
10F5C
 10
-802.650
 20
-2141.72
 30
0.000000
  70
    32
  0
VERTEX
  8
01
  5
10F5D
 10
-802.644
 20
-2141.72
 30
0.000000
  70
    32
  0
VERTEX
  8
01
  5
10F5E
 10
-802.638
 20
-2141.72
 30
0.000000
  70
    32
  0
VERTEX
  8
01
  5
10F5F
 10
-802.631
 20
-2141.72
 30
0.000000
  70
    32
  0
VERTEX
  8
01
  5
10F60
 10
-802.625
 20
-2141.72
 30
0.000000
  70
    32
  0
VERTEX
  8
01
  5
10F61
 10
-802.619
 20
-2141.72
 30
0.000000
  70
    32
  0
VERTEX
  8
01
  5
10F62
 10
-802.613
 20
-2141.72
 30
0.000000
  70
    32
  0
SEQEND
  8
01
  5
10F63
  0
POLYLINE
  5
10995
  8
01
 10
-783.61303831494661
 20
-2141.7209926383307
 30
0.0
 66
     1
 70
     8
  0
VERTEX
  8
01
  5
10F64
 10
-783.613
 20
-2141.72
 30
0.000000
  70
    32
  0
VERTEX
  8
01
  5
10F65
 10
-783.607
 20
-2141.72
 30
0.000000
  70
    32
  0
VERTEX
  8
01
  5
10F66
 10
-783.601
 20
-2141.72
 30
0.000000
  70
    32
  0
VERTEX
  8
01
  5
10F67
 10
-783.595
 20
-2141.72
 30
0.000000
  70
    32
  0
VERTEX
  8
01
  5
10F68
 10
-783.589
 20
-2141.72
 30
0.000000
  70
    32
  0
VERTEX
  8
01
  5
10F69
 10
-783.582
 20
-2141.72
 30
0.000000
  70
    32
  0
VERTEX
  8
01
  5
10F6A
 10
-783.576
 20
-2141.72
 30
0.000000
  70
    32
  0
VERTEX
  8
01
  5
10F6B
 10
-783.570
 20
-2141.72
 30
0.000000
  70
    32
  0
VERTEX
  8
01
  5
10F6C
 10
-783.564
 20
-2141.72
 30
0.000000
  70
    32
  0
VERTEX
  8
01
  5
10F6D
 10
-783.558
 20
-2141.72
 30
0.000000
  70
    32
  0
VERTEX
  8
01
  5
10F6E
 10
-783.552
 20
-2141.72
 30
0.000000
  70
    32
  0
VERTEX
  8
01
  5
10F6F
 10
-783.546
 20
-2141.72
 30
0.000000
  70
    32
  0
VERTEX
  8
01
  5
10F70
 10
-783.540
 20
-2141.72
 30
0.000000
  70
    32
  0
VERTEX
  8
01
  5
10F71
 10
-783.534
 20
-2141.71
 30
0.000000
  70
    32
  0
VERTEX
  8
01
  5
10F72
 10
-783.528
 20
-2141.71
 30
0.000000
  70
    32
  0
VERTEX
  8
01
  5
10F73
 10
-783.522
 20
-2141.71
 30
0.000000
  70
    32
  0
VERTEX
  8
01
  5
10F74
 10
-783.515
 20
-2141.71
 30
0.000000
  70
    32
  0
VERTEX
  8
01
  5
10F75
 10
-783.509
 20
-2141.71
 30
0.000000
  70
    32
  0
VERTEX
  8
01
  5
10F76
 10
-783.503
 20
-2141.71
 30
0.000000
  70
    32
  0
VERTEX
  8
01
  5
10F77
 10
-783.498
 20
-2141.71
 30
0.000000
  70
    32
  0
VERTEX
  8
01
  5
10F78
 10
-783.492
 20
-2141.71
 30
0.000000
  70
    32
  0
VERTEX
  8
01
  5
10F79
 10
-783.486
 20
-2141.70
 30
0.000000
  70
    32
  0
VERTEX
  8
01
  5
10F7A
 10
-783.480
 20
-2141.70
 30
0.000000
  70
    32
  0
VERTEX
  8
01
  5
10F7B
 10
-783.474
 20
-2141.70
 30
0.000000
  70
    32
  0
VERTEX
  8
01
  5
10F7C
 10
-783.468
 20
-2141.70
 30
0.000000
  70
    32
  0
VERTEX
  8
01
  5
10F7D
 10
-783.462
 20
-2141.70
 30
0.000000
  70
    32
  0
VERTEX
  8
01
  5
10F7E
 10
-783.456
 20
-2141.70
 30
0.000000
  70
    32
  0
VERTEX
  8
01
  5
10F7F
 10
-783.450
 20
-2141.69
 30
0.000000
  70
    32
  0
VERTEX
  8
01
  5
10F80
 10
-783.445
 20
-2141.69
 30
0.000000
  70
    32
  0
VERTEX
  8
01
  5
10F81
 10
-783.439
 20
-2141.69
 30
0.000000
  70
    32
  0
VERTEX
  8
01
  5
10F82
 10
-783.433
 20
-2141.69
 30
0.000000
  70
    32
  0
VERTEX
  8
01
  5
10F83
 10
-783.427
 20
-2141.69
 30
0.000000
  70
    32
  0
VERTEX
  8
01
  5
10F84
 10
-783.422
 20
-2141.68
 30
0.000000
  70
    32
  0
VERTEX
  8
01
  5
10F85
 10
-783.416
 20
-2141.68
 30
0.000000
  70
    32
  0
VERTEX
  8
01
  5
10F86
 10
-783.410
 20
-2141.68
 30
0.000000
  70
    32
  0
VERTEX
  8
01
  5
10F87
 10
-783.405
 20
-2141.68
 30
0.000000
  70
    32
  0
VERTEX
  8
01
  5
10F88
 10
-783.399
 20
-2141.67
 30
0.000000
  70
    32
  0
VERTEX
  8
01
  5
10F89
 10
-783.394
 20
-2141.67
 30
0.000000
  70
    32
  0
VERTEX
  8
01
  5
10F8A
 10
-783.388
 20
-2141.67
 30
0.000000
  70
    32
  0
VERTEX
  8
01
  5
10F8B
 10
-783.383
 20
-2141.66
 30
0.000000
  70
    32
  0
VERTEX
  8
01
  5
10F8C
 10
-783.377
 20
-2141.66
 30
0.000000
  70
    32
  0
VERTEX
  8
01
  5
10F8D
 10
-783.372
 20
-2141.66
 30
0.000000
  70
    32
  0
VERTEX
  8
01
  5
10F8E
 10
-783.367
 20
-2141.66
 30
0.000000
  70
    32
  0
VERTEX
  8
01
  5
10F8F
 10
-783.361
 20
-2141.65
 30
0.000000
  70
    32
  0
VERTEX
  8
01
  5
10F90
 10
-783.356
 20
-2141.65
 30
0.000000
  70
    32
  0
VERTEX
  8
01
  5
10F91
 10
-783.351
 20
-2141.65
 30
0.000000
  70
    32
  0
VERTEX
  8
01
  5
10F92
 10
-783.346
 20
-2141.64
 30
0.000000
  70
    32
  0
VERTEX
  8
01
  5
10F93
 10
-783.340
 20
-2141.64
 30
0.000000
  70
    32
  0
VERTEX
  8
01
  5
10F94
 10
-783.335
 20
-2141.64
 30
0.000000
  70
    32
  0
VERTEX
  8
01
  5
10F95
 10
-783.330
 20
-2141.63
 30
0.000000
  70
    32
  0
VERTEX
  8
01
  5
10F96
 10
-783.325
 20
-2141.63
 30
0.000000
  70
    32
  0
VERTEX
  8
01
  5
10F97
 10
-783.320
 20
-2141.63
 30
0.000000
  70
    32
  0
VERTEX
  8
01
  5
10F98
 10
-783.315
 20
-2141.62
 30
0.000000
  70
    32
  0
VERTEX
  8
01
  5
10F99
 10
-783.310
 20
-2141.62
 30
0.000000
  70
    32
  0
VERTEX
  8
01
  5
10F9A
 10
-783.305
 20
-2141.62
 30
0.000000
  70
    32
  0
VERTEX
  8
01
  5
10F9B
 10
-783.301
 20
-2141.61
 30
0.000000
  70
    32
  0
VERTEX
  8
01
  5
10F9C
 10
-783.296
 20
-2141.61
 30
0.000000
  70
    32
  0
VERTEX
  8
01
  5
10F9D
 10
-783.291
 20
-2141.60
 30
0.000000
  70
    32
  0
VERTEX
  8
01
  5
10F9E
 10
-783.286
 20
-2141.60
 30
0.000000
  70
    32
  0
VERTEX
  8
01
  5
10F9F
 10
-783.282
 20
-2141.60
 30
0.000000
  70
    32
  0
VERTEX
  8
01
  5
10FA0
 10
-783.277
 20
-2141.59
 30
0.000000
  70
    32
  0
VERTEX
  8
01
  5
10FA1
 10
-783.273
 20
-2141.59
 30
0.000000
  70
    32
  0
VERTEX
  8
01
  5
10FA2
 10
-783.268
 20
-2141.58
 30
0.000000
  70
    32
  0
VERTEX
  8
01
  5
10FA3
 10
-783.264
 20
-2141.58
 30
0.000000
  70
    32
  0
VERTEX
  8
01
  5
10FA4
 10
-783.259
 20
-2141.57
 30
0.000000
  70
    32
  0
VERTEX
  8
01
  5
10FA5
 10
-783.255
 20
-2141.57
 30
0.000000
  70
    32
  0
VERTEX
  8
01
  5
10FA6
 10
-783.251
 20
-2141.57
 30
0.000000
  70
    32
  0
VERTEX
  8
01
  5
10FA7
 10
-783.247
 20
-2141.56
 30
0.000000
  70
    32
  0
VERTEX
  8
01
  5
10FA8
 10
-783.243
 20
-2141.56
 30
0.000000
  70
    32
  0
VERTEX
  8
01
  5
10FA9
 10
-783.238
 20
-2141.55
 30
0.000000
  70
    32
  0
VERTEX
  8
01
  5
10FAA
 10
-783.234
 20
-2141.55
 30
0.000000
  70
    32
  0
VERTEX
  8
01
  5
10FAB
 10
-783.230
 20
-2141.54
 30
0.000000
  70
    32
  0
VERTEX
  8
01
  5
10FAC
 10
-783.227
 20
-2141.54
 30
0.000000
  70
    32
  0
VERTEX
  8
01
  5
10FAD
 10
-783.223
 20
-2141.53
 30
0.000000
  70
    32
  0
VERTEX
  8
01
  5
10FAE
 10
-783.219
 20
-2141.53
 30
0.000000
  70
    32
  0
VERTEX
  8
01
  5
10FAF
 10
-783.215
 20
-2141.52
 30
0.000000
  70
    32
  0
VERTEX
  8
01
  5
10FB0
 10
-783.211
 20
-2141.52
 30
0.000000
  70
    32
  0
VERTEX
  8
01
  5
10FB1
 10
-783.208
 20
-2141.51
 30
0.000000
  70
    32
  0
VERTEX
  8
01
  5
10FB2
 10
-783.204
 20
-2141.51
 30
0.000000
  70
    32
  0
VERTEX
  8
01
  5
10FB3
 10
-783.201
 20
-2141.50
 30
0.000000
  70
    32
  0
VERTEX
  8
01
  5
10FB4
 10
-783.197
 20
-2141.50
 30
0.000000
  70
    32
  0
VERTEX
  8
01
  5
10FB5
 10
-783.194
 20
-2141.49
 30
0.000000
  70
    32
  0
VERTEX
  8
01
  5
10FB6
 10
-783.191
 20
-2141.49
 30
0.000000
  70
    32
  0
VERTEX
  8
01
  5
10FB7
 10
-783.187
 20
-2141.48
 30
0.000000
  70
    32
  0
VERTEX
  8
01
  5
10FB8
 10
-783.184
 20
-2141.48
 30
0.000000
  70
    32
  0
VERTEX
  8
01
  5
10FB9
 10
-783.181
 20
-2141.47
 30
0.000000
  70
    32
  0
VERTEX
  8
01
  5
10FBA
 10
-783.178
 20
-2141.47
 30
0.000000
  70
    32
  0
VERTEX
  8
01
  5
10FBB
 10
-783.175
 20
-2141.46
 30
0.000000
  70
    32
  0
VERTEX
  8
01
  5
10FBC
 10
-783.172
 20
-2141.46
 30
0.000000
  70
    32
  0
VERTEX
  8
01
  5
10FBD
 10
-783.169
 20
-2141.45
 30
0.000000
  70
    32
  0
VERTEX
  8
01
  5
10FBE
 10
-783.166
 20
-2141.45
 30
0.000000
  70
    32
  0
VERTEX
  8
01
  5
10FBF
 10
-783.164
 20
-2141.44
 30
0.000000
  70
    32
  0
VERTEX
  8
01
  5
10FC0
 10
-783.161
 20
-2141.43
 30
0.000000
  70
    32
  0
VERTEX
  8
01
  5
10FC1
 10
-783.158
 20
-2141.43
 30
0.000000
  70
    32
  0
VERTEX
  8
01
  5
10FC2
 10
-783.156
 20
-2141.42
 30
0.000000
  70
    32
  0
VERTEX
  8
01
  5
10FC3
 10
-783.153
 20
-2141.42
 30
0.000000
  70
    32
  0
VERTEX
  8
01
  5
10FC4
 10
-783.151
 20
-2141.41
 30
0.000000
  70
    32
  0
VERTEX
  8
01
  5
10FC5
 10
-783.149
 20
-2141.41
 30
0.000000
  70
    32
  0
VERTEX
  8
01
  5
10FC6
 10
-783.147
 20
-2141.40
 30
0.000000
  70
    32
  0
VERTEX
  8
01
  5
10FC7
 10
-783.144
 20
-2141.40
 30
0.000000
  70
    32
  0
VERTEX
  8
01
  5
10FC8
 10
-783.142
 20
-2141.39
 30
0.000000
  70
    32
  0
VERTEX
  8
01
  5
10FC9
 10
-783.140
 20
-2141.38
 30
0.000000
  70
    32
  0
VERTEX
  8
01
  5
10FCA
 10
-783.138
 20
-2141.38
 30
0.000000
  70
    32
  0
VERTEX
  8
01
  5
10FCB
 10
-783.136
 20
-2141.37
 30
0.000000
  70
    32
  0
VERTEX
  8
01
  5
10FCC
 10
-783.135
 20
-2141.37
 30
0.000000
  70
    32
  0
VERTEX
  8
01
  5
10FCD
 10
-783.133
 20
-2141.36
 30
0.000000
  70
    32
  0
VERTEX
  8
01
  5
10FCE
 10
-783.131
 20
-2141.35
 30
0.000000
  70
    32
  0
VERTEX
  8
01
  5
10FCF
 10
-783.130
 20
-2141.35
 30
0.000000
  70
    32
  0
VERTEX
  8
01
  5
10FD0
 10
-783.128
 20
-2141.34
 30
0.000000
  70
    32
  0
VERTEX
  8
01
  5
10FD1
 10
-783.127
 20
-2141.34
 30
0.000000
  70
    32
  0
VERTEX
  8
01
  5
10FD2
 10
-783.125
 20
-2141.33
 30
0.000000
  70
    32
  0
VERTEX
  8
01
  5
10FD3
 10
-783.124
 20
-2141.32
 30
0.000000
  70
    32
  0
VERTEX
  8
01
  5
10FD4
 10
-783.123
 20
-2141.32
 30
0.000000
  70
    32
  0
VERTEX
  8
01
  5
10FD5
 10
-783.121
 20
-2141.31
 30
0.000000
  70
    32
  0
VERTEX
  8
01
  5
10FD6
 10
-783.120
 20
-2141.31
 30
0.000000
  70
    32
  0
VERTEX
  8
01
  5
10FD7
 10
-783.119
 20
-2141.30
 30
0.000000
  70
    32
  0
VERTEX
  8
01
  5
10FD8
 10
-783.118
 20
-2141.29
 30
0.000000
  70
    32
  0
VERTEX
  8
01
  5
10FD9
 10
-783.118
 20
-2141.29
 30
0.000000
  70
    32
  0
VERTEX
  8
01
  5
10FDA
 10
-783.117
 20
-2141.28
 30
0.000000
  70
    32
  0
VERTEX
  8
01
  5
10FDB
 10
-783.116
 20
-2141.28
 30
0.000000
  70
    32
  0
VERTEX
  8
01
  5
10FDC
 10
-783.115
 20
-2141.27
 30
0.000000
  70
    32
  0
VERTEX
  8
01
  5
10FDD
 10
-783.115
 20
-2141.26
 30
0.000000
  70
    32
  0
VERTEX
  8
01
  5
10FDE
 10
-783.114
 20
-2141.26
 30
0.000000
  70
    32
  0
VERTEX
  8
01
  5
10FDF
 10
-783.114
 20
-2141.25
 30
0.000000
  70
    32
  0
VERTEX
  8
01
  5
10FE0
 10
-783.114
 20
-2141.25
 30
0.000000
  70
    32
  0
VERTEX
  8
01
  5
10FE1
 10
-783.113
 20
-2141.24
 30
0.000000
  70
    32
  0
VERTEX
  8
01
  5
10FE2
 10
-783.113
 20
-2141.23
 30
0.000000
  70
    32
  0
VERTEX
  8
01
  5
10FE3
 10
-783.113
 20
-2141.23
 30
0.000000
  70
    32
  0
VERTEX
  8
01
  5
10FE4
 10
-783.113
 20
-2141.22
 30
0.000000
  70
    32
  0
SEQEND
  8
01
  5
10FE5
  0
POLYLINE
  5
10996
  8
01
 10
-802.61303831494672
 20
-2093.7210406383301
 30
0.0
 66
     1
 70
     8
  0
VERTEX
  8
01
  5
10FE6
 10
-802.613
 20
-2093.72
 30
0.000000
  70
    32
  0
VERTEX
  8
01
  5
10FE7
 10
-802.619
 20
-2093.72
 30
0.000000
  70
    32
  0
VERTEX
  8
01
  5
10FE8
 10
-802.625
 20
-2093.72
 30
0.000000
  70
    32
  0
VERTEX
  8
01
  5
10FE9
 10
-802.631
 20
-2093.72
 30
0.000000
  70
    32
  0
VERTEX
  8
01
  5
10FEA
 10
-802.638
 20
-2093.72
 30
0.000000
  70
    32
  0
VERTEX
  8
01
  5
10FEB
 10
-802.644
 20
-2093.72
 30
0.000000
  70
    32
  0
VERTEX
  8
01
  5
10FEC
 10
-802.650
 20
-2093.72
 30
0.000000
  70
    32
  0
VERTEX
  8
01
  5
10FED
 10
-802.656
 20
-2093.72
 30
0.000000
  70
    32
  0
VERTEX
  8
01
  5
10FEE
 10
-802.662
 20
-2093.72
 30
0.000000
  70
    32
  0
VERTEX
  8
01
  5
10FEF
 10
-802.668
 20
-2093.72
 30
0.000000
  70
    32
  0
VERTEX
  8
01
  5
10FF0
 10
-802.674
 20
-2093.72
 30
0.000000
  70
    32
  0
VERTEX
  8
01
  5
10FF1
 10
-802.680
 20
-2093.73
 30
0.000000
  70
    32
  0
VERTEX
  8
01
  5
10FF2
 10
-802.686
 20
-2093.73
 30
0.000000
  70
    32
  0
VERTEX
  8
01
  5
10FF3
 10
-802.692
 20
-2093.73
 30
0.000000
  70
    32
  0
VERTEX
  8
01
  5
10FF4
 10
-802.699
 20
-2093.73
 30
0.000000
  70
    32
  0
VERTEX
  8
01
  5
10FF5
 10
-802.705
 20
-2093.73
 30
0.000000
  70
    32
  0
VERTEX
  8
01
  5
10FF6
 10
-802.711
 20
-2093.73
 30
0.000000
  70
    32
  0
VERTEX
  8
01
  5
10FF7
 10
-802.717
 20
-2093.73
 30
0.000000
  70
    32
  0
VERTEX
  8
01
  5
10FF8
 10
-802.723
 20
-2093.73
 30
0.000000
  70
    32
  0
VERTEX
  8
01
  5
10FF9
 10
-802.729
 20
-2093.73
 30
0.000000
  70
    32
  0
VERTEX
  8
01
  5
10FFA
 10
-802.735
 20
-2093.74
 30
0.000000
  70
    32
  0
VERTEX
  8
01
  5
10FFB
 10
-802.740
 20
-2093.74
 30
0.000000
  70
    32
  0
VERTEX
  8
01
  5
10FFC
 10
-802.746
 20
-2093.74
 30
0.000000
  70
    32
  0
VERTEX
  8
01
  5
10FFD
 10
-802.752
 20
-2093.74
 30
0.000000
  70
    32
  0
VERTEX
  8
01
  5
10FFE
 10
-802.758
 20
-2093.74
 30
0.000000
  70
    32
  0
VERTEX
  8
01
  5
10FFF
 10
-802.764
 20
-2093.74
 30
0.000000
  70
    32
  0
VERTEX
  8
01
  5
11000
 10
-802.770
 20
-2093.75
 30
0.000000
  70
    32
  0
VERTEX
  8
01
  5
11001
 10
-802.776
 20
-2093.75
 30
0.000000
  70
    32
  0
VERTEX
  8
01
  5
11002
 10
-802.781
 20
-2093.75
 30
0.000000
  70
    32
  0
VERTEX
  8
01
  5
11003
 10
-802.787
 20
-2093.75
 30
0.000000
  70
    32
  0
VERTEX
  8
01
  5
11004
 10
-802.793
 20
-2093.75
 30
0.000000
  70
    32
  0
VERTEX
  8
01
  5
11005
 10
-802.799
 20
-2093.76
 30
0.000000
  70
    32
  0
VERTEX
  8
01
  5
11006
 10
-802.804
 20
-2093.76
 30
0.000000
  70
    32
  0
VERTEX
  8
01
  5
11007
 10
-802.810
 20
-2093.76
 30
0.000000
  70
    32
  0
VERTEX
  8
01
  5
11008
 10
-802.816
 20
-2093.76
 30
0.000000
  70
    32
  0
VERTEX
  8
01
  5
11009
 10
-802.821
 20
-2093.77
 30
0.000000
  70
    32
  0
VERTEX
  8
01
  5
1100A
 10
-802.827
 20
-2093.77
 30
0.000000
  70
    32
  0
VERTEX
  8
01
  5
1100B
 10
-802.832
 20
-2093.77
 30
0.000000
  70
    32
  0
VERTEX
  8
01
  5
1100C
 10
-802.838
 20
-2093.77
 30
0.000000
  70
    32
  0
VERTEX
  8
01
  5
1100D
 10
-802.843
 20
-2093.78
 30
0.000000
  70
    32
  0
VERTEX
  8
01
  5
1100E
 10
-802.849
 20
-2093.78
 30
0.000000
  70
    32
  0
VERTEX
  8
01
  5
1100F
 10
-802.854
 20
-2093.78
 30
0.000000
  70
    32
  0
VERTEX
  8
01
  5
11010
 10
-802.859
 20
-2093.79
 30
0.000000
  70
    32
  0
VERTEX
  8
01
  5
11011
 10
-802.865
 20
-2093.79
 30
0.000000
  70
    32
  0
VERTEX
  8
01
  5
11012
 10
-802.870
 20
-2093.79
 30
0.000000
  70
    32
  0
VERTEX
  8
01
  5
11013
 10
-802.875
 20
-2093.80
 30
0.000000
  70
    32
  0
VERTEX
  8
01
  5
11014
 10
-802.881
 20
-2093.80
 30
0.000000
  70
    32
  0
VERTEX
  8
01
  5
11015
 10
-802.886
 20
-2093.80
 30
0.000000
  70
    32
  0
VERTEX
  8
01
  5
11016
 10
-802.891
 20
-2093.81
 30
0.000000
  70
    32
  0
VERTEX
  8
01
  5
11017
 10
-802.896
 20
-2093.81
 30
0.000000
  70
    32
  0
VERTEX
  8
01
  5
11018
 10
-802.901
 20
-2093.81
 30
0.000000
  70
    32
  0
VERTEX
  8
01
  5
11019
 10
-802.906
 20
-2093.82
 30
0.000000
  70
    32
  0
VERTEX
  8
01
  5
1101A
 10
-802.911
 20
-2093.82
 30
0.000000
  70
    32
  0
VERTEX
  8
01
  5
1101B
 10
-802.916
 20
-2093.82
 30
0.000000
  70
    32
  0
VERTEX
  8
01
  5
1101C
 10
-802.921
 20
-2093.83
 30
0.000000
  70
    32
  0
VERTEX
  8
01
  5
1101D
 10
-802.925
 20
-2093.83
 30
0.000000
  70
    32
  0
VERTEX
  8
01
  5
1101E
 10
-802.930
 20
-2093.83
 30
0.000000
  70
    32
  0
VERTEX
  8
01
  5
1101F
 10
-802.935
 20
-2093.84
 30
0.000000
  70
    32
  0
VERTEX
  8
01
  5
11020
 10
-802.940
 20
-2093.84
 30
0.000000
  70
    32
  0
VERTEX
  8
01
  5
11021
 10
-802.944
 20
-2093.85
 30
0.000000
  70
    32
  0
VERTEX
  8
01
  5
11022
 10
-802.949
 20
-2093.85
 30
0.000000
  70
    32
  0
VERTEX
  8
01
  5
11023
 10
-802.953
 20
-2093.85
 30
0.000000
  70
    32
  0
VERTEX
  8
01
  5
11024
 10
-802.958
 20
-2093.86
 30
0.000000
  70
    32
  0
VERTEX
  8
01
  5
11025
 10
-802.962
 20
-2093.86
 30
0.000000
  70
    32
  0
VERTEX
  8
01
  5
11026
 10
-802.967
 20
-2093.87
 30
0.000000
  70
    32
  0
VERTEX
  8
01
  5
11027
 10
-802.971
 20
-2093.87
 30
0.000000
  70
    32
  0
VERTEX
  8
01
  5
11028
 10
-802.975
 20
-2093.88
 30
0.000000
  70
    32
  0
VERTEX
  8
01
  5
11029
 10
-802.979
 20
-2093.88
 30
0.000000
  70
    32
  0
VERTEX
  8
01
  5
1102A
 10
-802.984
 20
-2093.89
 30
0.000000
  70
    32
  0
VERTEX
  8
01
  5
1102B
 10
-802.988
 20
-2093.89
 30
0.000000
  70
    32
  0
VERTEX
  8
01
  5
1102C
 10
-802.992
 20
-2093.89
 30
0.000000
  70
    32
  0
VERTEX
  8
01
  5
1102D
 10
-802.996
 20
-2093.90
 30
0.000000
  70
    32
  0
VERTEX
  8
01
  5
1102E
 10
-803.000
 20
-2093.90
 30
0.000000
  70
    32
  0
VERTEX
  8
01
  5
1102F
 10
-803.003
 20
-2093.91
 30
0.000000
  70
    32
  0
VERTEX
  8
01
  5
11030
 10
-803.007
 20
-2093.91
 30
0.000000
  70
    32
  0
VERTEX
  8
01
  5
11031
 10
-803.011
 20
-2093.92
 30
0.000000
  70
    32
  0
VERTEX
  8
01
  5
11032
 10
-803.015
 20
-2093.92
 30
0.000000
  70
    32
  0
VERTEX
  8
01
  5
11033
 10
-803.018
 20
-2093.93
 30
0.000000
  70
    32
  0
VERTEX
  8
01
  5
11034
 10
-803.022
 20
-2093.93
 30
0.000000
  70
    32
  0
VERTEX
  8
01
  5
11035
 10
-803.025
 20
-2093.94
 30
0.000000
  70
    32
  0
VERTEX
  8
01
  5
11036
 10
-803.029
 20
-2093.94
 30
0.000000
  70
    32
  0
VERTEX
  8
01
  5
11037
 10
-803.032
 20
-2093.95
 30
0.000000
  70
    32
  0
VERTEX
  8
01
  5
11038
 10
-803.035
 20
-2093.95
 30
0.000000
  70
    32
  0
VERTEX
  8
01
  5
11039
 10
-803.039
 20
-2093.96
 30
0.000000
  70
    32
  0
VERTEX
  8
01
  5
1103A
 10
-803.042
 20
-2093.96
 30
0.000000
  70
    32
  0
VERTEX
  8
01
  5
1103B
 10
-803.045
 20
-2093.97
 30
0.000000
  70
    32
  0
VERTEX
  8
01
  5
1103C
 10
-803.048
 20
-2093.97
 30
0.000000
  70
    32
  0
VERTEX
  8
01
  5
1103D
 10
-803.051
 20
-2093.98
 30
0.000000
  70
    32
  0
VERTEX
  8
01
  5
1103E
 10
-803.054
 20
-2093.99
 30
0.000000
  70
    32
  0
VERTEX
  8
01
  5
1103F
 10
-803.057
 20
-2093.99
 30
0.000000
  70
    32
  0
VERTEX
  8
01
  5
11040
 10
-803.060
 20
-2094.00
 30
0.000000
  70
    32
  0
VERTEX
  8
01
  5
11041
 10
-803.062
 20
-2094.00
 30
0.000000
  70
    32
  0
VERTEX
  8
01
  5
11042
 10
-803.065
 20
-2094.01
 30
0.000000
  70
    32
  0
VERTEX
  8
01
  5
11043
 10
-803.068
 20
-2094.01
 30
0.000000
  70
    32
  0
VERTEX
  8
01
  5
11044
 10
-803.070
 20
-2094.02
 30
0.000000
  70
    32
  0
VERTEX
  8
01
  5
11045
 10
-803.073
 20
-2094.02
 30
0.000000
  70
    32
  0
VERTEX
  8
01
  5
11046
 10
-803.075
 20
-2094.03
 30
0.000000
  70
    32
  0
VERTEX
  8
01
  5
11047
 10
-803.077
 20
-2094.04
 30
0.000000
  70
    32
  0
VERTEX
  8
01
  5
11048
 10
-803.080
 20
-2094.04
 30
0.000000
  70
    32
  0
VERTEX
  8
01
  5
11049
 10
-803.082
 20
-2094.05
 30
0.000000
  70
    32
  0
VERTEX
  8
01
  5
1104A
 10
-803.084
 20
-2094.05
 30
0.000000
  70
    32
  0
VERTEX
  8
01
  5
1104B
 10
-803.086
 20
-2094.06
 30
0.000000
  70
    32
  0
VERTEX
  8
01
  5
1104C
 10
-803.088
 20
-2094.06
 30
0.000000
  70
    32
  0
VERTEX
  8
01
  5
1104D
 10
-803.090
 20
-2094.07
 30
0.000000
  70
    32
  0
VERTEX
  8
01
  5
1104E
 10
-803.092
 20
-2094.08
 30
0.000000
  70
    32
  0
VERTEX
  8
01
  5
1104F
 10
-803.093
 20
-2094.08
 30
0.000000
  70
    32
  0
VERTEX
  8
01
  5
11050
 10
-803.095
 20
-2094.09
 30
0.000000
  70
    32
  0
VERTEX
  8
01
  5
11051
 10
-803.097
 20
-2094.09
 30
0.000000
  70
    32
  0
VERTEX
  8
01
  5
11052
 10
-803.098
 20
-2094.10
 30
0.000000
  70
    32
  0
VERTEX
  8
01
  5
11053
 10
-803.100
 20
-2094.11
 30
0.000000
  70
    32
  0
VERTEX
  8
01
  5
11054
 10
-803.101
 20
-2094.11
 30
0.000000
  70
    32
  0
VERTEX
  8
01
  5
11055
 10
-803.102
 20
-2094.12
 30
0.000000
  70
    32
  0
VERTEX
  8
01
  5
11056
 10
-803.103
 20
-2094.12
 30
0.000000
  70
    32
  0
VERTEX
  8
01
  5
11057
 10
-803.105
 20
-2094.13
 30
0.000000
  70
    32
  0
VERTEX
  8
01
  5
11058
 10
-803.106
 20
-2094.14
 30
0.000000
  70
    32
  0
VERTEX
  8
01
  5
11059
 10
-803.107
 20
-2094.14
 30
0.000000
  70
    32
  0
VERTEX
  8
01
  5
1105A
 10
-803.108
 20
-2094.15
 30
0.000000
  70
    32
  0
VERTEX
  8
01
  5
1105B
 10
-803.108
 20
-2094.15
 30
0.000000
  70
    32
  0
VERTEX
  8
01
  5
1105C
 10
-803.109
 20
-2094.16
 30
0.000000
  70
    32
  0
VERTEX
  8
01
  5
1105D
 10
-803.110
 20
-2094.17
 30
0.000000
  70
    32
  0
VERTEX
  8
01
  5
1105E
 10
-803.111
 20
-2094.17
 30
0.000000
  70
    32
  0
VERTEX
  8
01
  5
1105F
 10
-803.111
 20
-2094.18
 30
0.000000
  70
    32
  0
VERTEX
  8
01
  5
11060
 10
-803.112
 20
-2094.18
 30
0.000000
  70
    32
  0
VERTEX
  8
01
  5
11061
 10
-803.112
 20
-2094.19
 30
0.000000
  70
    32
  0
VERTEX
  8
01
  5
11062
 10
-803.112
 20
-2094.20
 30
0.000000
  70
    32
  0
VERTEX
  8
01
  5
11063
 10
-803.113
 20
-2094.20
 30
0.000000
  70
    32
  0
VERTEX
  8
01
  5
11064
 10
-803.113
 20
-2094.21
 30
0.000000
  70
    32
  0
VERTEX
  8
01
  5
11065
 10
-803.113
 20
-2094.21
 30
0.000000
  70
    32
  0
VERTEX
  8
01
  5
11066
 10
-803.113
 20
-2094.22
 30
0.000000
  70
    32
  0
SEQEND
  8
01
  5
11067
  0
POLYLINE
  5
10997
  8
01
 10
-783.11303831494661
 20
-2094.22104013833
 30
0.0
 66
     1
 70
     8
  0
VERTEX
  8
01
  5
11068
 10
-783.113
 20
-2094.22
 30
0.000000
  70
    32
  0
VERTEX
  8
01
  5
11069
 10
-783.113
 20
-2094.21
 30
0.000000
  70
    32
  0
VERTEX
  8
01
  5
1106A
 10
-783.113
 20
-2094.21
 30
0.000000
  70
    32
  0
VERTEX
  8
01
  5
1106B
 10
-783.113
 20
-2094.20
 30
0.000000
  70
    32
  0
VERTEX
  8
01
  5
1106C
 10
-783.114
 20
-2094.20
 30
0.000000
  70
    32
  0
VERTEX
  8
01
  5
1106D
 10
-783.114
 20
-2094.19
 30
0.000000
  70
    32
  0
VERTEX
  8
01
  5
1106E
 10
-783.114
 20
-2094.18
 30
0.000000
  70
    32
  0
VERTEX
  8
01
  5
1106F
 10
-783.115
 20
-2094.18
 30
0.000000
  70
    32
  0
VERTEX
  8
01
  5
11070
 10
-783.115
 20
-2094.17
 30
0.000000
  70
    32
  0
VERTEX
  8
01
  5
11071
 10
-783.116
 20
-2094.17
 30
0.000000
  70
    32
  0
VERTEX
  8
01
  5
11072
 10
-783.117
 20
-2094.16
 30
0.000000
  70
    32
  0
VERTEX
  8
01
  5
11073
 10
-783.118
 20
-2094.15
 30
0.000000
  70
    32
  0
VERTEX
  8
01
  5
11074
 10
-783.118
 20
-2094.15
 30
0.000000
  70
    32
  0
VERTEX
  8
01
  5
11075
 10
-783.119
 20
-2094.14
 30
0.000000
  70
    32
  0
VERTEX
  8
01
  5
11076
 10
-783.120
 20
-2094.14
 30
0.000000
  70
    32
  0
VERTEX
  8
01
  5
11077
 10
-783.121
 20
-2094.13
 30
0.000000
  70
    32
  0
VERTEX
  8
01
  5
11078
 10
-783.123
 20
-2094.12
 30
0.000000
  70
    32
  0
VERTEX
  8
01
  5
11079
 10
-783.124
 20
-2094.12
 30
0.000000
  70
    32
  0
VERTEX
  8
01
  5
1107A
 10
-783.125
 20
-2094.11
 30
0.000000
  70
    32
  0
VERTEX
  8
01
  5
1107B
 10
-783.127
 20
-2094.11
 30
0.000000
  70
    32
  0
VERTEX
  8
01
  5
1107C
 10
-783.128
 20
-2094.10
 30
0.000000
  70
    32
  0
VERTEX
  8
01
  5
1107D
 10
-783.130
 20
-2094.09
 30
0.000000
  70
    32
  0
VERTEX
  8
01
  5
1107E
 10
-783.131
 20
-2094.09
 30
0.000000
  70
    32
  0
VERTEX
  8
01
  5
1107F
 10
-783.133
 20
-2094.08
 30
0.000000
  70
    32
  0
VERTEX
  8
01
  5
11080
 10
-783.135
 20
-2094.08
 30
0.000000
  70
    32
  0
VERTEX
  8
01
  5
11081
 10
-783.136
 20
-2094.07
 30
0.000000
  70
    32
  0
VERTEX
  8
01
  5
11082
 10
-783.138
 20
-2094.06
 30
0.000000
  70
    32
  0
VERTEX
  8
01
  5
11083
 10
-783.140
 20
-2094.06
 30
0.000000
  70
    32
  0
VERTEX
  8
01
  5
11084
 10
-783.142
 20
-2094.05
 30
0.000000
  70
    32
  0
VERTEX
  8
01
  5
11085
 10
-783.144
 20
-2094.05
 30
0.000000
  70
    32
  0
VERTEX
  8
01
  5
11086
 10
-783.147
 20
-2094.04
 30
0.000000
  70
    32
  0
VERTEX
  8
01
  5
11087
 10
-783.149
 20
-2094.04
 30
0.000000
  70
    32
  0
VERTEX
  8
01
  5
11088
 10
-783.151
 20
-2094.03
 30
0.000000
  70
    32
  0
VERTEX
  8
01
  5
11089
 10
-783.153
 20
-2094.02
 30
0.000000
  70
    32
  0
VERTEX
  8
01
  5
1108A
 10
-783.156
 20
-2094.02
 30
0.000000
  70
    32
  0
VERTEX
  8
01
  5
1108B
 10
-783.158
 20
-2094.01
 30
0.000000
  70
    32
  0
VERTEX
  8
01
  5
1108C
 10
-783.161
 20
-2094.01
 30
0.000000
  70
    32
  0
VERTEX
  8
01
  5
1108D
 10
-783.164
 20
-2094.00
 30
0.000000
  70
    32
  0
VERTEX
  8
01
  5
1108E
 10
-783.166
 20
-2094.00
 30
0.000000
  70
    32
  0
VERTEX
  8
01
  5
1108F
 10
-783.169
 20
-2093.99
 30
0.000000
  70
    32
  0
VERTEX
  8
01
  5
11090
 10
-783.172
 20
-2093.99
 30
0.000000
  70
    32
  0
VERTEX
  8
01
  5
11091
 10
-783.175
 20
-2093.98
 30
0.000000
  70
    32
  0
VERTEX
  8
01
  5
11092
 10
-783.178
 20
-2093.97
 30
0.000000
  70
    32
  0
VERTEX
  8
01
  5
11093
 10
-783.181
 20
-2093.97
 30
0.000000
  70
    32
  0
VERTEX
  8
01
  5
11094
 10
-783.184
 20
-2093.96
 30
0.000000
  70
    32
  0
VERTEX
  8
01
  5
11095
 10
-783.187
 20
-2093.96
 30
0.000000
  70
    32
  0
VERTEX
  8
01
  5
11096
 10
-783.191
 20
-2093.95
 30
0.000000
  70
    32
  0
VERTEX
  8
01
  5
11097
 10
-783.194
 20
-2093.95
 30
0.000000
  70
    32
  0
VERTEX
  8
01
  5
11098
 10
-783.197
 20
-2093.94
 30
0.000000
  70
    32
  0
VERTEX
  8
01
  5
11099
 10
-783.201
 20
-2093.94
 30
0.000000
  70
    32
  0
VERTEX
  8
01
  5
1109A
 10
-783.204
 20
-2093.93
 30
0.000000
  70
    32
  0
VERTEX
  8
01
  5
1109B
 10
-783.208
 20
-2093.93
 30
0.000000
  70
    32
  0
VERTEX
  8
01
  5
1109C
 10
-783.211
 20
-2093.92
 30
0.000000
  70
    32
  0
VERTEX
  8
01
  5
1109D
 10
-783.215
 20
-2093.92
 30
0.000000
  70
    32
  0
VERTEX
  8
01
  5
1109E
 10
-783.219
 20
-2093.91
 30
0.000000
  70
    32
  0
VERTEX
  8
01
  5
1109F
 10
-783.223
 20
-2093.91
 30
0.000000
  70
    32
  0
VERTEX
  8
01
  5
110A0
 10
-783.227
 20
-2093.90
 30
0.000000
  70
    32
  0
VERTEX
  8
01
  5
110A1
 10
-783.230
 20
-2093.90
 30
0.000000
  70
    32
  0
VERTEX
  8
01
  5
110A2
 10
-783.234
 20
-2093.89
 30
0.000000
  70
    32
  0
VERTEX
  8
01
  5
110A3
 10
-783.238
 20
-2093.89
 30
0.000000
  70
    32
  0
VERTEX
  8
01
  5
110A4
 10
-783.243
 20
-2093.89
 30
0.000000
  70
    32
  0
VERTEX
  8
01
  5
110A5
 10
-783.247
 20
-2093.88
 30
0.000000
  70
    32
  0
VERTEX
  8
01
  5
110A6
 10
-783.251
 20
-2093.88
 30
0.000000
  70
    32
  0
VERTEX
  8
01
  5
110A7
 10
-783.255
 20
-2093.87
 30
0.000000
  70
    32
  0
VERTEX
  8
01
  5
110A8
 10
-783.259
 20
-2093.87
 30
0.000000
  70
    32
  0
VERTEX
  8
01
  5
110A9
 10
-783.264
 20
-2093.86
 30
0.000000
  70
    32
  0
VERTEX
  8
01
  5
110AA
 10
-783.268
 20
-2093.86
 30
0.000000
  70
    32
  0
VERTEX
  8
01
  5
110AB
 10
-783.273
 20
-2093.85
 30
0.000000
  70
    32
  0
VERTEX
  8
01
  5
110AC
 10
-783.277
 20
-2093.85
 30
0.000000
  70
    32
  0
VERTEX
  8
01
  5
110AD
 10
-783.282
 20
-2093.85
 30
0.000000
  70
    32
  0
VERTEX
  8
01
  5
110AE
 10
-783.286
 20
-2093.84
 30
0.000000
  70
    32
  0
VERTEX
  8
01
  5
110AF
 10
-783.291
 20
-2093.84
 30
0.000000
  70
    32
  0
VERTEX
  8
01
  5
110B0
 10
-783.296
 20
-2093.83
 30
0.000000
  70
    32
  0
VERTEX
  8
01
  5
110B1
 10
-783.301
 20
-2093.83
 30
0.000000
  70
    32
  0
VERTEX
  8
01
  5
110B2
 10
-783.305
 20
-2093.83
 30
0.000000
  70
    32
  0
VERTEX
  8
01
  5
110B3
 10
-783.310
 20
-2093.82
 30
0.000000
  70
    32
  0
VERTEX
  8
01
  5
110B4
 10
-783.315
 20
-2093.82
 30
0.000000
  70
    32
  0
VERTEX
  8
01
  5
110B5
 10
-783.320
 20
-2093.82
 30
0.000000
  70
    32
  0
VERTEX
  8
01
  5
110B6
 10
-783.325
 20
-2093.81
 30
0.000000
  70
    32
  0
VERTEX
  8
01
  5
110B7
 10
-783.330
 20
-2093.81
 30
0.000000
  70
    32
  0
VERTEX
  8
01
  5
110B8
 10
-783.335
 20
-2093.81
 30
0.000000
  70
    32
  0
VERTEX
  8
01
  5
110B9
 10
-783.340
 20
-2093.80
 30
0.000000
  70
    32
  0
VERTEX
  8
01
  5
110BA
 10
-783.346
 20
-2093.80
 30
0.000000
  70
    32
  0
VERTEX
  8
01
  5
110BB
 10
-783.351
 20
-2093.80
 30
0.000000
  70
    32
  0
VERTEX
  8
01
  5
110BC
 10
-783.356
 20
-2093.79
 30
0.000000
  70
    32
  0
VERTEX
  8
01
  5
110BD
 10
-783.361
 20
-2093.79
 30
0.000000
  70
    32
  0
VERTEX
  8
01
  5
110BE
 10
-783.367
 20
-2093.79
 30
0.000000
  70
    32
  0
VERTEX
  8
01
  5
110BF
 10
-783.372
 20
-2093.78
 30
0.000000
  70
    32
  0
VERTEX
  8
01
  5
110C0
 10
-783.377
 20
-2093.78
 30
0.000000
  70
    32
  0
VERTEX
  8
01
  5
110C1
 10
-783.383
 20
-2093.78
 30
0.000000
  70
    32
  0
VERTEX
  8
01
  5
110C2
 10
-783.388
 20
-2093.77
 30
0.000000
  70
    32
  0
VERTEX
  8
01
  5
110C3
 10
-783.394
 20
-2093.77
 30
0.000000
  70
    32
  0
VERTEX
  8
01
  5
110C4
 10
-783.399
 20
-2093.77
 30
0.000000
  70
    32
  0
VERTEX
  8
01
  5
110C5
 10
-783.405
 20
-2093.77
 30
0.000000
  70
    32
  0
VERTEX
  8
01
  5
110C6
 10
-783.410
 20
-2093.76
 30
0.000000
  70
    32
  0
VERTEX
  8
01
  5
110C7
 10
-783.416
 20
-2093.76
 30
0.000000
  70
    32
  0
VERTEX
  8
01
  5
110C8
 10
-783.422
 20
-2093.76
 30
0.000000
  70
    32
  0
VERTEX
  8
01
  5
110C9
 10
-783.427
 20
-2093.76
 30
0.000000
  70
    32
  0
VERTEX
  8
01
  5
110CA
 10
-783.433
 20
-2093.75
 30
0.000000
  70
    32
  0
VERTEX
  8
01
  5
110CB
 10
-783.439
 20
-2093.75
 30
0.000000
  70
    32
  0
VERTEX
  8
01
  5
110CC
 10
-783.445
 20
-2093.75
 30
0.000000
  70
    32
  0
VERTEX
  8
01
  5
110CD
 10
-783.450
 20
-2093.75
 30
0.000000
  70
    32
  0
VERTEX
  8
01
  5
110CE
 10
-783.456
 20
-2093.75
 30
0.000000
  70
    32
  0
VERTEX
  8
01
  5
110CF
 10
-783.462
 20
-2093.74
 30
0.000000
  70
    32
  0
VERTEX
  8
01
  5
110D0
 10
-783.468
 20
-2093.74
 30
0.000000
  70
    32
  0
VERTEX
  8
01
  5
110D1
 10
-783.474
 20
-2093.74
 30
0.000000
  70
    32
  0
VERTEX
  8
01
  5
110D2
 10
-783.480
 20
-2093.74
 30
0.000000
  70
    32
  0
VERTEX
  8
01
  5
110D3
 10
-783.486
 20
-2093.74
 30
0.000000
  70
    32
  0
VERTEX
  8
01
  5
110D4
 10
-783.492
 20
-2093.74
 30
0.000000
  70
    32
  0
VERTEX
  8
01
  5
110D5
 10
-783.498
 20
-2093.73
 30
0.000000
  70
    32
  0
VERTEX
  8
01
  5
110D6
 10
-783.503
 20
-2093.73
 30
0.000000
  70
    32
  0
VERTEX
  8
01
  5
110D7
 10
-783.509
 20
-2093.73
 30
0.000000
  70
    32
  0
VERTEX
  8
01
  5
110D8
 10
-783.515
 20
-2093.73
 30
0.000000
  70
    32
  0
VERTEX
  8
01
  5
110D9
 10
-783.522
 20
-2093.73
 30
0.000000
  70
    32
  0
VERTEX
  8
01
  5
110DA
 10
-783.528
 20
-2093.73
 30
0.000000
  70
    32
  0
VERTEX
  8
01
  5
110DB
 10
-783.534
 20
-2093.73
 30
0.000000
  70
    32
  0
VERTEX
  8
01
  5
110DC
 10
-783.540
 20
-2093.73
 30
0.000000
  70
    32
  0
VERTEX
  8
01
  5
110DD
 10
-783.546
 20
-2093.73
 30
0.000000
  70
    32
  0
VERTEX
  8
01
  5
110DE
 10
-783.552
 20
-2093.72
 30
0.000000
  70
    32
  0
VERTEX
  8
01
  5
110DF
 10
-783.558
 20
-2093.72
 30
0.000000
  70
    32
  0
VERTEX
  8
01
  5
110E0
 10
-783.564
 20
-2093.72
 30
0.000000
  70
    32
  0
VERTEX
  8
01
  5
110E1
 10
-783.570
 20
-2093.72
 30
0.000000
  70
    32
  0
VERTEX
  8
01
  5
110E2
 10
-783.576
 20
-2093.72
 30
0.000000
  70
    32
  0
VERTEX
  8
01
  5
110E3
 10
-783.582
 20
-2093.72
 30
0.000000
  70
    32
  0
VERTEX
  8
01
  5
110E4
 10
-783.589
 20
-2093.72
 30
0.000000
  70
    32
  0
VERTEX
  8
01
  5
110E5
 10
-783.595
 20
-2093.72
 30
0.000000
  70
    32
  0
VERTEX
  8
01
  5
110E6
 10
-783.601
 20
-2093.72
 30
0.000000
  70
    32
  0
VERTEX
  8
01
  5
110E7
 10
-783.607
 20
-2093.72
 30
0.000000
  70
    32
  0
VERTEX
  8
01
  5
110E8
 10
-783.613
 20
-2093.72
 30
0.000000
  70
    32
  0
SEQEND
  8
01
  5
110E9
  0
POLYLINE
  5
10998
  8
01
 10
-802.61303831494672
 20
-2127.7210066383318
 30
0.0
 66
     1
 70
     8
  0
VERTEX
  8
01
  5
110EA
 10
-802.613
 20
-2127.72
 30
0.000000
  70
    32
  0
VERTEX
  8
01
  5
110EB
 10
-802.619
 20
-2127.72
 30
0.000000
  70
    32
  0
VERTEX
  8
01
  5
110EC
 10
-802.625
 20
-2127.72
 30
0.000000
  70
    32
  0
VERTEX
  8
01
  5
110ED
 10
-802.631
 20
-2127.72
 30
0.000000
  70
    32
  0
VERTEX
  8
01
  5
110EE
 10
-802.638
 20
-2127.72
 30
0.000000
  70
    32
  0
VERTEX
  8
01
  5
110EF
 10
-802.644
 20
-2127.72
 30
0.000000
  70
    32
  0
VERTEX
  8
01
  5
110F0
 10
-802.650
 20
-2127.72
 30
0.000000
  70
    32
  0
VERTEX
  8
01
  5
110F1
 10
-802.656
 20
-2127.72
 30
0.000000
  70
    32
  0
VERTEX
  8
01
  5
110F2
 10
-802.662
 20
-2127.72
 30
0.000000
  70
    32
  0
VERTEX
  8
01
  5
110F3
 10
-802.668
 20
-2127.72
 30
0.000000
  70
    32
  0
VERTEX
  8
01
  5
110F4
 10
-802.674
 20
-2127.72
 30
0.000000
  70
    32
  0
VERTEX
  8
01
  5
110F5
 10
-802.680
 20
-2127.73
 30
0.000000
  70
    32
  0
VERTEX
  8
01
  5
110F6
 10
-802.686
 20
-2127.73
 30
0.000000
  70
    32
  0
VERTEX
  8
01
  5
110F7
 10
-802.692
 20
-2127.73
 30
0.000000
  70
    32
  0
VERTEX
  8
01
  5
110F8
 10
-802.699
 20
-2127.73
 30
0.000000
  70
    32
  0
VERTEX
  8
01
  5
110F9
 10
-802.705
 20
-2127.73
 30
0.000000
  70
    32
  0
VERTEX
  8
01
  5
110FA
 10
-802.711
 20
-2127.73
 30
0.000000
  70
    32
  0
VERTEX
  8
01
  5
110FB
 10
-802.717
 20
-2127.73
 30
0.000000
  70
    32
  0
VERTEX
  8
01
  5
110FC
 10
-802.723
 20
-2127.73
 30
0.000000
  70
    32
  0
VERTEX
  8
01
  5
110FD
 10
-802.729
 20
-2127.73
 30
0.000000
  70
    32
  0
VERTEX
  8
01
  5
110FE
 10
-802.735
 20
-2127.74
 30
0.000000
  70
    32
  0
VERTEX
  8
01
  5
110FF
 10
-802.740
 20
-2127.74
 30
0.000000
  70
    32
  0
VERTEX
  8
01
  5
11100
 10
-802.746
 20
-2127.74
 30
0.000000
  70
    32
  0
VERTEX
  8
01
  5
11101
 10
-802.752
 20
-2127.74
 30
0.000000
  70
    32
  0
VERTEX
  8
01
  5
11102
 10
-802.758
 20
-2127.74
 30
0.000000
  70
    32
  0
VERTEX
  8
01
  5
11103
 10
-802.764
 20
-2127.74
 30
0.000000
  70
    32
  0
VERTEX
  8
01
  5
11104
 10
-802.770
 20
-2127.75
 30
0.000000
  70
    32
  0
VERTEX
  8
01
  5
11105
 10
-802.776
 20
-2127.75
 30
0.000000
  70
    32
  0
VERTEX
  8
01
  5
11106
 10
-802.781
 20
-2127.75
 30
0.000000
  70
    32
  0
VERTEX
  8
01
  5
11107
 10
-802.787
 20
-2127.75
 30
0.000000
  70
    32
  0
VERTEX
  8
01
  5
11108
 10
-802.793
 20
-2127.75
 30
0.000000
  70
    32
  0
VERTEX
  8
01
  5
11109
 10
-802.799
 20
-2127.76
 30
0.000000
  70
    32
  0
VERTEX
  8
01
  5
1110A
 10
-802.804
 20
-2127.76
 30
0.000000
  70
    32
  0
VERTEX
  8
01
  5
1110B
 10
-802.810
 20
-2127.76
 30
0.000000
  70
    32
  0
VERTEX
  8
01
  5
1110C
 10
-802.816
 20
-2127.76
 30
0.000000
  70
    32
  0
VERTEX
  8
01
  5
1110D
 10
-802.821
 20
-2127.77
 30
0.000000
  70
    32
  0
VERTEX
  8
01
  5
1110E
 10
-802.827
 20
-2127.77
 30
0.000000
  70
    32
  0
VERTEX
  8
01
  5
1110F
 10
-802.832
 20
-2127.77
 30
0.000000
  70
    32
  0
VERTEX
  8
01
  5
11110
 10
-802.838
 20
-2127.77
 30
0.000000
  70
    32
  0
VERTEX
  8
01
  5
11111
 10
-802.843
 20
-2127.78
 30
0.000000
  70
    32
  0
VERTEX
  8
01
  5
11112
 10
-802.849
 20
-2127.78
 30
0.000000
  70
    32
  0
VERTEX
  8
01
  5
11113
 10
-802.854
 20
-2127.78
 30
0.000000
  70
    32
  0
VERTEX
  8
01
  5
11114
 10
-802.859
 20
-2127.79
 30
0.000000
  70
    32
  0
VERTEX
  8
01
  5
11115
 10
-802.865
 20
-2127.79
 30
0.000000
  70
    32
  0
VERTEX
  8
01
  5
11116
 10
-802.870
 20
-2127.79
 30
0.000000
  70
    32
  0
VERTEX
  8
01
  5
11117
 10
-802.875
 20
-2127.80
 30
0.000000
  70
    32
  0
VERTEX
  8
01
  5
11118
 10
-802.881
 20
-2127.80
 30
0.000000
  70
    32
  0
VERTEX
  8
01
  5
11119
 10
-802.886
 20
-2127.80
 30
0.000000
  70
    32
  0
VERTEX
  8
01
  5
1111A
 10
-802.891
 20
-2127.81
 30
0.000000
  70
    32
  0
VERTEX
  8
01
  5
1111B
 10
-802.896
 20
-2127.81
 30
0.000000
  70
    32
  0
VERTEX
  8
01
  5
1111C
 10
-802.901
 20
-2127.81
 30
0.000000
  70
    32
  0
VERTEX
  8
01
  5
1111D
 10
-802.906
 20
-2127.82
 30
0.000000
  70
    32
  0
VERTEX
  8
01
  5
1111E
 10
-802.911
 20
-2127.82
 30
0.000000
  70
    32
  0
VERTEX
  8
01
  5
1111F
 10
-802.916
 20
-2127.82
 30
0.000000
  70
    32
  0
VERTEX
  8
01
  5
11120
 10
-802.921
 20
-2127.83
 30
0.000000
  70
    32
  0
VERTEX
  8
01
  5
11121
 10
-802.925
 20
-2127.83
 30
0.000000
  70
    32
  0
VERTEX
  8
01
  5
11122
 10
-802.930
 20
-2127.83
 30
0.000000
  70
    32
  0
VERTEX
  8
01
  5
11123
 10
-802.935
 20
-2127.84
 30
0.000000
  70
    32
  0
VERTEX
  8
01
  5
11124
 10
-802.940
 20
-2127.84
 30
0.000000
  70
    32
  0
VERTEX
  8
01
  5
11125
 10
-802.944
 20
-2127.85
 30
0.000000
  70
    32
  0
VERTEX
  8
01
  5
11126
 10
-802.949
 20
-2127.85
 30
0.000000
  70
    32
  0
VERTEX
  8
01
  5
11127
 10
-802.953
 20
-2127.85
 30
0.000000
  70
    32
  0
VERTEX
  8
01
  5
11128
 10
-802.958
 20
-2127.86
 30
0.000000
  70
    32
  0
VERTEX
  8
01
  5
11129
 10
-802.962
 20
-2127.86
 30
0.000000
  70
    32
  0
VERTEX
  8
01
  5
1112A
 10
-802.967
 20
-2127.87
 30
0.000000
  70
    32
  0
VERTEX
  8
01
  5
1112B
 10
-802.971
 20
-2127.87
 30
0.000000
  70
    32
  0
VERTEX
  8
01
  5
1112C
 10
-802.975
 20
-2127.88
 30
0.000000
  70
    32
  0
VERTEX
  8
01
  5
1112D
 10
-802.979
 20
-2127.88
 30
0.000000
  70
    32
  0
VERTEX
  8
01
  5
1112E
 10
-802.984
 20
-2127.89
 30
0.000000
  70
    32
  0
VERTEX
  8
01
  5
1112F
 10
-802.988
 20
-2127.89
 30
0.000000
  70
    32
  0
VERTEX
  8
01
  5
11130
 10
-802.992
 20
-2127.89
 30
0.000000
  70
    32
  0
VERTEX
  8
01
  5
11131
 10
-802.996
 20
-2127.90
 30
0.000000
  70
    32
  0
VERTEX
  8
01
  5
11132
 10
-803.000
 20
-2127.90
 30
0.000000
  70
    32
  0
VERTEX
  8
01
  5
11133
 10
-803.003
 20
-2127.91
 30
0.000000
  70
    32
  0
VERTEX
  8
01
  5
11134
 10
-803.007
 20
-2127.91
 30
0.000000
  70
    32
  0
VERTEX
  8
01
  5
11135
 10
-803.011
 20
-2127.92
 30
0.000000
  70
    32
  0
VERTEX
  8
01
  5
11136
 10
-803.015
 20
-2127.92
 30
0.000000
  70
    32
  0
VERTEX
  8
01
  5
11137
 10
-803.018
 20
-2127.93
 30
0.000000
  70
    32
  0
VERTEX
  8
01
  5
11138
 10
-803.022
 20
-2127.93
 30
0.000000
  70
    32
  0
VERTEX
  8
01
  5
11139
 10
-803.025
 20
-2127.94
 30
0.000000
  70
    32
  0
VERTEX
  8
01
  5
1113A
 10
-803.029
 20
-2127.94
 30
0.000000
  70
    32
  0
VERTEX
  8
01
  5
1113B
 10
-803.032
 20
-2127.95
 30
0.000000
  70
    32
  0
VERTEX
  8
01
  5
1113C
 10
-803.035
 20
-2127.95
 30
0.000000
  70
    32
  0
VERTEX
  8
01
  5
1113D
 10
-803.039
 20
-2127.96
 30
0.000000
  70
    32
  0
VERTEX
  8
01
  5
1113E
 10
-803.042
 20
-2127.96
 30
0.000000
  70
    32
  0
VERTEX
  8
01
  5
1113F
 10
-803.045
 20
-2127.97
 30
0.000000
  70
    32
  0
VERTEX
  8
01
  5
11140
 10
-803.048
 20
-2127.97
 30
0.000000
  70
    32
  0
VERTEX
  8
01
  5
11141
 10
-803.051
 20
-2127.98
 30
0.000000
  70
    32
  0
VERTEX
  8
01
  5
11142
 10
-803.054
 20
-2127.99
 30
0.000000
  70
    32
  0
VERTEX
  8
01
  5
11143
 10
-803.057
 20
-2127.99
 30
0.000000
  70
    32
  0
VERTEX
  8
01
  5
11144
 10
-803.060
 20
-2128.00
 30
0.000000
  70
    32
  0
VERTEX
  8
01
  5
11145
 10
-803.062
 20
-2128.00
 30
0.000000
  70
    32
  0
VERTEX
  8
01
  5
11146
 10
-803.065
 20
-2128.01
 30
0.000000
  70
    32
  0
VERTEX
  8
01
  5
11147
 10
-803.068
 20
-2128.01
 30
0.000000
  70
    32
  0
VERTEX
  8
01
  5
11148
 10
-803.070
 20
-2128.02
 30
0.000000
  70
    32
  0
VERTEX
  8
01
  5
11149
 10
-803.073
 20
-2128.02
 30
0.000000
  70
    32
  0
VERTEX
  8
01
  5
1114A
 10
-803.075
 20
-2128.03
 30
0.000000
  70
    32
  0
VERTEX
  8
01
  5
1114B
 10
-803.077
 20
-2128.04
 30
0.000000
  70
    32
  0
VERTEX
  8
01
  5
1114C
 10
-803.080
 20
-2128.04
 30
0.000000
  70
    32
  0
VERTEX
  8
01
  5
1114D
 10
-803.082
 20
-2128.05
 30
0.000000
  70
    32
  0
VERTEX
  8
01
  5
1114E
 10
-803.084
 20
-2128.05
 30
0.000000
  70
    32
  0
VERTEX
  8
01
  5
1114F
 10
-803.086
 20
-2128.06
 30
0.000000
  70
    32
  0
VERTEX
  8
01
  5
11150
 10
-803.088
 20
-2128.06
 30
0.000000
  70
    32
  0
VERTEX
  8
01
  5
11151
 10
-803.090
 20
-2128.07
 30
0.000000
  70
    32
  0
VERTEX
  8
01
  5
11152
 10
-803.092
 20
-2128.08
 30
0.000000
  70
    32
  0
VERTEX
  8
01
  5
11153
 10
-803.093
 20
-2128.08
 30
0.000000
  70
    32
  0
VERTEX
  8
01
  5
11154
 10
-803.095
 20
-2128.09
 30
0.000000
  70
    32
  0
VERTEX
  8
01
  5
11155
 10
-803.097
 20
-2128.09
 30
0.000000
  70
    32
  0
VERTEX
  8
01
  5
11156
 10
-803.098
 20
-2128.10
 30
0.000000
  70
    32
  0
VERTEX
  8
01
  5
11157
 10
-803.100
 20
-2128.11
 30
0.000000
  70
    32
  0
VERTEX
  8
01
  5
11158
 10
-803.101
 20
-2128.11
 30
0.000000
  70
    32
  0
VERTEX
  8
01
  5
11159
 10
-803.102
 20
-2128.12
 30
0.000000
  70
    32
  0
VERTEX
  8
01
  5
1115A
 10
-803.103
 20
-2128.12
 30
0.000000
  70
    32
  0
VERTEX
  8
01
  5
1115B
 10
-803.105
 20
-2128.13
 30
0.000000
  70
    32
  0
VERTEX
  8
01
  5
1115C
 10
-803.106
 20
-2128.14
 30
0.000000
  70
    32
  0
VERTEX
  8
01
  5
1115D
 10
-803.107
 20
-2128.14
 30
0.000000
  70
    32
  0
VERTEX
  8
01
  5
1115E
 10
-803.108
 20
-2128.15
 30
0.000000
  70
    32
  0
VERTEX
  8
01
  5
1115F
 10
-803.108
 20
-2128.15
 30
0.000000
  70
    32
  0
VERTEX
  8
01
  5
11160
 10
-803.109
 20
-2128.16
 30
0.000000
  70
    32
  0
VERTEX
  8
01
  5
11161
 10
-803.110
 20
-2128.17
 30
0.000000
  70
    32
  0
VERTEX
  8
01
  5
11162
 10
-803.111
 20
-2128.17
 30
0.000000
  70
    32
  0
VERTEX
  8
01
  5
11163
 10
-803.111
 20
-2128.18
 30
0.000000
  70
    32
  0
VERTEX
  8
01
  5
11164
 10
-803.112
 20
-2128.18
 30
0.000000
  70
    32
  0
VERTEX
  8
01
  5
11165
 10
-803.112
 20
-2128.19
 30
0.000000
  70
    32
  0
VERTEX
  8
01
  5
11166
 10
-803.112
 20
-2128.20
 30
0.000000
  70
    32
  0
VERTEX
  8
01
  5
11167
 10
-803.113
 20
-2128.20
 30
0.000000
  70
    32
  0
VERTEX
  8
01
  5
11168
 10
-803.113
 20
-2128.21
 30
0.000000
  70
    32
  0
VERTEX
  8
01
  5
11169
 10
-803.113
 20
-2128.21
 30
0.000000
  70
    32
  0
VERTEX
  8
01
  5
1116A
 10
-803.113
 20
-2128.22
 30
0.000000
  70
    32
  0
SEQEND
  8
01
  5
1116B
  0
POLYLINE
  5
10999
  8
01
 10
-783.11303831494627
 20
-2128.2210061383298
 30
0.0
 66
     1
 70
     8
  0
VERTEX
  8
01
  5
1116C
 10
-783.113
 20
-2128.22
 30
0.000000
  70
    32
  0
VERTEX
  8
01
  5
1116D
 10
-783.113
 20
-2128.21
 30
0.000000
  70
    32
  0
VERTEX
  8
01
  5
1116E
 10
-783.113
 20
-2128.21
 30
0.000000
  70
    32
  0
VERTEX
  8
01
  5
1116F
 10
-783.113
 20
-2128.20
 30
0.000000
  70
    32
  0
VERTEX
  8
01
  5
11170
 10
-783.114
 20
-2128.20
 30
0.000000
  70
    32
  0
VERTEX
  8
01
  5
11171
 10
-783.114
 20
-2128.19
 30
0.000000
  70
    32
  0
VERTEX
  8
01
  5
11172
 10
-783.114
 20
-2128.18
 30
0.000000
  70
    32
  0
VERTEX
  8
01
  5
11173
 10
-783.115
 20
-2128.18
 30
0.000000
  70
    32
  0
VERTEX
  8
01
  5
11174
 10
-783.115
 20
-2128.17
 30
0.000000
  70
    32
  0
VERTEX
  8
01
  5
11175
 10
-783.116
 20
-2128.17
 30
0.000000
  70
    32
  0
VERTEX
  8
01
  5
11176
 10
-783.117
 20
-2128.16
 30
0.000000
  70
    32
  0
VERTEX
  8
01
  5
11177
 10
-783.118
 20
-2128.15
 30
0.000000
  70
    32
  0
VERTEX
  8
01
  5
11178
 10
-783.118
 20
-2128.15
 30
0.000000
  70
    32
  0
VERTEX
  8
01
  5
11179
 10
-783.119
 20
-2128.14
 30
0.000000
  70
    32
  0
VERTEX
  8
01
  5
1117A
 10
-783.120
 20
-2128.14
 30
0.000000
  70
    32
  0
VERTEX
  8
01
  5
1117B
 10
-783.121
 20
-2128.13
 30
0.000000
  70
    32
  0
VERTEX
  8
01
  5
1117C
 10
-783.123
 20
-2128.12
 30
0.000000
  70
    32
  0
VERTEX
  8
01
  5
1117D
 10
-783.124
 20
-2128.12
 30
0.000000
  70
    32
  0
VERTEX
  8
01
  5
1117E
 10
-783.125
 20
-2128.11
 30
0.000000
  70
    32
  0
VERTEX
  8
01
  5
1117F
 10
-783.127
 20
-2128.11
 30
0.000000
  70
    32
  0
VERTEX
  8
01
  5
11180
 10
-783.128
 20
-2128.10
 30
0.000000
  70
    32
  0
VERTEX
  8
01
  5
11181
 10
-783.130
 20
-2128.09
 30
0.000000
  70
    32
  0
VERTEX
  8
01
  5
11182
 10
-783.131
 20
-2128.09
 30
0.000000
  70
    32
  0
VERTEX
  8
01
  5
11183
 10
-783.133
 20
-2128.08
 30
0.000000
  70
    32
  0
VERTEX
  8
01
  5
11184
 10
-783.135
 20
-2128.08
 30
0.000000
  70
    32
  0
VERTEX
  8
01
  5
11185
 10
-783.136
 20
-2128.07
 30
0.000000
  70
    32
  0
VERTEX
  8
01
  5
11186
 10
-783.138
 20
-2128.06
 30
0.000000
  70
    32
  0
VERTEX
  8
01
  5
11187
 10
-783.140
 20
-2128.06
 30
0.000000
  70
    32
  0
VERTEX
  8
01
  5
11188
 10
-783.142
 20
-2128.05
 30
0.000000
  70
    32
  0
VERTEX
  8
01
  5
11189
 10
-783.144
 20
-2128.05
 30
0.000000
  70
    32
  0
VERTEX
  8
01
  5
1118A
 10
-783.147
 20
-2128.04
 30
0.000000
  70
    32
  0
VERTEX
  8
01
  5
1118B
 10
-783.149
 20
-2128.04
 30
0.000000
  70
    32
  0
VERTEX
  8
01
  5
1118C
 10
-783.151
 20
-2128.03
 30
0.000000
  70
    32
  0
VERTEX
  8
01
  5
1118D
 10
-783.153
 20
-2128.02
 30
0.000000
  70
    32
  0
VERTEX
  8
01
  5
1118E
 10
-783.156
 20
-2128.02
 30
0.000000
  70
    32
  0
VERTEX
  8
01
  5
1118F
 10
-783.158
 20
-2128.01
 30
0.000000
  70
    32
  0
VERTEX
  8
01
  5
11190
 10
-783.161
 20
-2128.01
 30
0.000000
  70
    32
  0
VERTEX
  8
01
  5
11191
 10
-783.164
 20
-2128.00
 30
0.000000
  70
    32
  0
VERTEX
  8
01
  5
11192
 10
-783.166
 20
-2128.00
 30
0.000000
  70
    32
  0
VERTEX
  8
01
  5
11193
 10
-783.169
 20
-2127.99
 30
0.000000
  70
    32
  0
VERTEX
  8
01
  5
11194
 10
-783.172
 20
-2127.99
 30
0.000000
  70
    32
  0
VERTEX
  8
01
  5
11195
 10
-783.175
 20
-2127.98
 30
0.000000
  70
    32
  0
VERTEX
  8
01
  5
11196
 10
-783.178
 20
-2127.97
 30
0.000000
  70
    32
  0
VERTEX
  8
01
  5
11197
 10
-783.181
 20
-2127.97
 30
0.000000
  70
    32
  0
VERTEX
  8
01
  5
11198
 10
-783.184
 20
-2127.96
 30
0.000000
  70
    32
  0
VERTEX
  8
01
  5
11199
 10
-783.187
 20
-2127.96
 30
0.000000
  70
    32
  0
VERTEX
  8
01
  5
1119A
 10
-783.191
 20
-2127.95
 30
0.000000
  70
    32
  0
VERTEX
  8
01
  5
1119B
 10
-783.194
 20
-2127.95
 30
0.000000
  70
    32
  0
VERTEX
  8
01
  5
1119C
 10
-783.197
 20
-2127.94
 30
0.000000
  70
    32
  0
VERTEX
  8
01
  5
1119D
 10
-783.201
 20
-2127.94
 30
0.000000
  70
    32
  0
VERTEX
  8
01
  5
1119E
 10
-783.204
 20
-2127.93
 30
0.000000
  70
    32
  0
VERTEX
  8
01
  5
1119F
 10
-783.208
 20
-2127.93
 30
0.000000
  70
    32
  0
VERTEX
  8
01
  5
111A0
 10
-783.211
 20
-2127.92
 30
0.000000
  70
    32
  0
VERTEX
  8
01
  5
111A1
 10
-783.215
 20
-2127.92
 30
0.000000
  70
    32
  0
VERTEX
  8
01
  5
111A2
 10
-783.219
 20
-2127.91
 30
0.000000
  70
    32
  0
VERTEX
  8
01
  5
111A3
 10
-783.223
 20
-2127.91
 30
0.000000
  70
    32
  0
VERTEX
  8
01
  5
111A4
 10
-783.227
 20
-2127.90
 30
0.000000
  70
    32
  0
VERTEX
  8
01
  5
111A5
 10
-783.230
 20
-2127.90
 30
0.000000
  70
    32
  0
VERTEX
  8
01
  5
111A6
 10
-783.234
 20
-2127.89
 30
0.000000
  70
    32
  0
VERTEX
  8
01
  5
111A7
 10
-783.238
 20
-2127.89
 30
0.000000
  70
    32
  0
VERTEX
  8
01
  5
111A8
 10
-783.243
 20
-2127.89
 30
0.000000
  70
    32
  0
VERTEX
  8
01
  5
111A9
 10
-783.247
 20
-2127.88
 30
0.000000
  70
    32
  0
VERTEX
  8
01
  5
111AA
 10
-783.251
 20
-2127.88
 30
0.000000
  70
    32
  0
VERTEX
  8
01
  5
111AB
 10
-783.255
 20
-2127.87
 30
0.000000
  70
    32
  0
VERTEX
  8
01
  5
111AC
 10
-783.259
 20
-2127.87
 30
0.000000
  70
    32
  0
VERTEX
  8
01
  5
111AD
 10
-783.264
 20
-2127.86
 30
0.000000
  70
    32
  0
VERTEX
  8
01
  5
111AE
 10
-783.268
 20
-2127.86
 30
0.000000
  70
    32
  0
VERTEX
  8
01
  5
111AF
 10
-783.273
 20
-2127.85
 30
0.000000
  70
    32
  0
VERTEX
  8
01
  5
111B0
 10
-783.277
 20
-2127.85
 30
0.000000
  70
    32
  0
VERTEX
  8
01
  5
111B1
 10
-783.282
 20
-2127.85
 30
0.000000
  70
    32
  0
VERTEX
  8
01
  5
111B2
 10
-783.286
 20
-2127.84
 30
0.000000
  70
    32
  0
VERTEX
  8
01
  5
111B3
 10
-783.291
 20
-2127.84
 30
0.000000
  70
    32
  0
VERTEX
  8
01
  5
111B4
 10
-783.296
 20
-2127.83
 30
0.000000
  70
    32
  0
VERTEX
  8
01
  5
111B5
 10
-783.301
 20
-2127.83
 30
0.000000
  70
    32
  0
VERTEX
  8
01
  5
111B6
 10
-783.305
 20
-2127.83
 30
0.000000
  70
    32
  0
VERTEX
  8
01
  5
111B7
 10
-783.310
 20
-2127.82
 30
0.000000
  70
    32
  0
VERTEX
  8
01
  5
111B8
 10
-783.315
 20
-2127.82
 30
0.000000
  70
    32
  0
VERTEX
  8
01
  5
111B9
 10
-783.320
 20
-2127.82
 30
0.000000
  70
    32
  0
VERTEX
  8
01
  5
111BA
 10
-783.325
 20
-2127.81
 30
0.000000
  70
    32
  0
VERTEX
  8
01
  5
111BB
 10
-783.330
 20
-2127.81
 30
0.000000
  70
    32
  0
VERTEX
  8
01
  5
111BC
 10
-783.335
 20
-2127.81
 30
0.000000
  70
    32
  0
VERTEX
  8
01
  5
111BD
 10
-783.340
 20
-2127.80
 30
0.000000
  70
    32
  0
VERTEX
  8
01
  5
111BE
 10
-783.346
 20
-2127.80
 30
0.000000
  70
    32
  0
VERTEX
  8
01
  5
111BF
 10
-783.351
 20
-2127.80
 30
0.000000
  70
    32
  0
VERTEX
  8
01
  5
111C0
 10
-783.356
 20
-2127.79
 30
0.000000
  70
    32
  0
VERTEX
  8
01
  5
111C1
 10
-783.361
 20
-2127.79
 30
0.000000
  70
    32
  0
VERTEX
  8
01
  5
111C2
 10
-783.367
 20
-2127.79
 30
0.000000
  70
    32
  0
VERTEX
  8
01
  5
111C3
 10
-783.372
 20
-2127.78
 30
0.000000
  70
    32
  0
VERTEX
  8
01
  5
111C4
 10
-783.377
 20
-2127.78
 30
0.000000
  70
    32
  0
VERTEX
  8
01
  5
111C5
 10
-783.383
 20
-2127.78
 30
0.000000
  70
    32
  0
VERTEX
  8
01
  5
111C6
 10
-783.388
 20
-2127.77
 30
0.000000
  70
    32
  0
VERTEX
  8
01
  5
111C7
 10
-783.394
 20
-2127.77
 30
0.000000
  70
    32
  0
VERTEX
  8
01
  5
111C8
 10
-783.399
 20
-2127.77
 30
0.000000
  70
    32
  0
VERTEX
  8
01
  5
111C9
 10
-783.405
 20
-2127.77
 30
0.000000
  70
    32
  0
VERTEX
  8
01
  5
111CA
 10
-783.410
 20
-2127.76
 30
0.000000
  70
    32
  0
VERTEX
  8
01
  5
111CB
 10
-783.416
 20
-2127.76
 30
0.000000
  70
    32
  0
VERTEX
  8
01
  5
111CC
 10
-783.422
 20
-2127.76
 30
0.000000
  70
    32
  0
VERTEX
  8
01
  5
111CD
 10
-783.427
 20
-2127.76
 30
0.000000
  70
    32
  0
VERTEX
  8
01
  5
111CE
 10
-783.433
 20
-2127.75
 30
0.000000
  70
    32
  0
VERTEX
  8
01
  5
111CF
 10
-783.439
 20
-2127.75
 30
0.000000
  70
    32
  0
VERTEX
  8
01
  5
111D0
 10
-783.445
 20
-2127.75
 30
0.000000
  70
    32
  0
VERTEX
  8
01
  5
111D1
 10
-783.450
 20
-2127.75
 30
0.000000
  70
    32
  0
VERTEX
  8
01
  5
111D2
 10
-783.456
 20
-2127.75
 30
0.000000
  70
    32
  0
VERTEX
  8
01
  5
111D3
 10
-783.462
 20
-2127.74
 30
0.000000
  70
    32
  0
VERTEX
  8
01
  5
111D4
 10
-783.468
 20
-2127.74
 30
0.000000
  70
    32
  0
VERTEX
  8
01
  5
111D5
 10
-783.474
 20
-2127.74
 30
0.000000
  70
    32
  0
VERTEX
  8
01
  5
111D6
 10
-783.480
 20
-2127.74
 30
0.000000
  70
    32
  0
VERTEX
  8
01
  5
111D7
 10
-783.486
 20
-2127.74
 30
0.000000
  70
    32
  0
VERTEX
  8
01
  5
111D8
 10
-783.492
 20
-2127.74
 30
0.000000
  70
    32
  0
VERTEX
  8
01
  5
111D9
 10
-783.498
 20
-2127.73
 30
0.000000
  70
    32
  0
VERTEX
  8
01
  5
111DA
 10
-783.503
 20
-2127.73
 30
0.000000
  70
    32
  0
VERTEX
  8
01
  5
111DB
 10
-783.509
 20
-2127.73
 30
0.000000
  70
    32
  0
VERTEX
  8
01
  5
111DC
 10
-783.515
 20
-2127.73
 30
0.000000
  70
    32
  0
VERTEX
  8
01
  5
111DD
 10
-783.522
 20
-2127.73
 30
0.000000
  70
    32
  0
VERTEX
  8
01
  5
111DE
 10
-783.528
 20
-2127.73
 30
0.000000
  70
    32
  0
VERTEX
  8
01
  5
111DF
 10
-783.534
 20
-2127.73
 30
0.000000
  70
    32
  0
VERTEX
  8
01
  5
111E0
 10
-783.540
 20
-2127.73
 30
0.000000
  70
    32
  0
VERTEX
  8
01
  5
111E1
 10
-783.546
 20
-2127.73
 30
0.000000
  70
    32
  0
VERTEX
  8
01
  5
111E2
 10
-783.552
 20
-2127.72
 30
0.000000
  70
    32
  0
VERTEX
  8
01
  5
111E3
 10
-783.558
 20
-2127.72
 30
0.000000
  70
    32
  0
VERTEX
  8
01
  5
111E4
 10
-783.564
 20
-2127.72
 30
0.000000
  70
    32
  0
VERTEX
  8
01
  5
111E5
 10
-783.570
 20
-2127.72
 30
0.000000
  70
    32
  0
VERTEX
  8
01
  5
111E6
 10
-783.576
 20
-2127.72
 30
0.000000
  70
    32
  0
VERTEX
  8
01
  5
111E7
 10
-783.582
 20
-2127.72
 30
0.000000
  70
    32
  0
VERTEX
  8
01
  5
111E8
 10
-783.589
 20
-2127.72
 30
0.000000
  70
    32
  0
VERTEX
  8
01
  5
111E9
 10
-783.595
 20
-2127.72
 30
0.000000
  70
    32
  0
VERTEX
  8
01
  5
111EA
 10
-783.601
 20
-2127.72
 30
0.000000
  70
    32
  0
VERTEX
  8
01
  5
111EB
 10
-783.607
 20
-2127.72
 30
0.000000
  70
    32
  0
VERTEX
  8
01
  5
111EC
 10
-783.613
 20
-2127.72
 30
0.000000
  70
    32
  0
SEQEND
  8
01
  5
111ED
  0
POLYLINE
  5
1099A
  8
01
 10
-732.61303831494649
 20
-2127.72100663833
 30
0.0
 66
     1
 70
     8
  0
VERTEX
  8
01
  5
111EE
 10
-732.613
 20
-2127.72
 30
0.000000
  70
    32
  0
VERTEX
  8
01
  5
111EF
 10
-732.619
 20
-2127.72
 30
0.000000
  70
    32
  0
VERTEX
  8
01
  5
111F0
 10
-732.625
 20
-2127.72
 30
0.000000
  70
    32
  0
VERTEX
  8
01
  5
111F1
 10
-732.631
 20
-2127.72
 30
0.000000
  70
    32
  0
VERTEX
  8
01
  5
111F2
 10
-732.638
 20
-2127.72
 30
0.000000
  70
    32
  0
VERTEX
  8
01
  5
111F3
 10
-732.644
 20
-2127.72
 30
0.000000
  70
    32
  0
VERTEX
  8
01
  5
111F4
 10
-732.650
 20
-2127.72
 30
0.000000
  70
    32
  0
VERTEX
  8
01
  5
111F5
 10
-732.656
 20
-2127.72
 30
0.000000
  70
    32
  0
VERTEX
  8
01
  5
111F6
 10
-732.662
 20
-2127.72
 30
0.000000
  70
    32
  0
VERTEX
  8
01
  5
111F7
 10
-732.668
 20
-2127.72
 30
0.000000
  70
    32
  0
VERTEX
  8
01
  5
111F8
 10
-732.674
 20
-2127.72
 30
0.000000
  70
    32
  0
VERTEX
  8
01
  5
111F9
 10
-732.680
 20
-2127.73
 30
0.000000
  70
    32
  0
VERTEX
  8
01
  5
111FA
 10
-732.686
 20
-2127.73
 30
0.000000
  70
    32
  0
VERTEX
  8
01
  5
111FB
 10
-732.692
 20
-2127.73
 30
0.000000
  70
    32
  0
VERTEX
  8
01
  5
111FC
 10
-732.699
 20
-2127.73
 30
0.000000
  70
    32
  0
VERTEX
  8
01
  5
111FD
 10
-732.705
 20
-2127.73
 30
0.000000
  70
    32
  0
VERTEX
  8
01
  5
111FE
 10
-732.711
 20
-2127.73
 30
0.000000
  70
    32
  0
VERTEX
  8
01
  5
111FF
 10
-732.717
 20
-2127.73
 30
0.000000
  70
    32
  0
VERTEX
  8
01
  5
11200
 10
-732.723
 20
-2127.73
 30
0.000000
  70
    32
  0
VERTEX
  8
01
  5
11201
 10
-732.729
 20
-2127.73
 30
0.000000
  70
    32
  0
VERTEX
  8
01
  5
11202
 10
-732.735
 20
-2127.74
 30
0.000000
  70
    32
  0
VERTEX
  8
01
  5
11203
 10
-732.740
 20
-2127.74
 30
0.000000
  70
    32
  0
VERTEX
  8
01
  5
11204
 10
-732.746
 20
-2127.74
 30
0.000000
  70
    32
  0
VERTEX
  8
01
  5
11205
 10
-732.752
 20
-2127.74
 30
0.000000
  70
    32
  0
VERTEX
  8
01
  5
11206
 10
-732.758
 20
-2127.74
 30
0.000000
  70
    32
  0
VERTEX
  8
01
  5
11207
 10
-732.764
 20
-2127.74
 30
0.000000
  70
    32
  0
VERTEX
  8
01
  5
11208
 10
-732.770
 20
-2127.75
 30
0.000000
  70
    32
  0
VERTEX
  8
01
  5
11209
 10
-732.776
 20
-2127.75
 30
0.000000
  70
    32
  0
VERTEX
  8
01
  5
1120A
 10
-732.781
 20
-2127.75
 30
0.000000
  70
    32
  0
VERTEX
  8
01
  5
1120B
 10
-732.787
 20
-2127.75
 30
0.000000
  70
    32
  0
VERTEX
  8
01
  5
1120C
 10
-732.793
 20
-2127.75
 30
0.000000
  70
    32
  0
VERTEX
  8
01
  5
1120D
 10
-732.799
 20
-2127.76
 30
0.000000
  70
    32
  0
VERTEX
  8
01
  5
1120E
 10
-732.804
 20
-2127.76
 30
0.000000
  70
    32
  0
VERTEX
  8
01
  5
1120F
 10
-732.810
 20
-2127.76
 30
0.000000
  70
    32
  0
VERTEX
  8
01
  5
11210
 10
-732.816
 20
-2127.76
 30
0.000000
  70
    32
  0
VERTEX
  8
01
  5
11211
 10
-732.821
 20
-2127.77
 30
0.000000
  70
    32
  0
VERTEX
  8
01
  5
11212
 10
-732.827
 20
-2127.77
 30
0.000000
  70
    32
  0
VERTEX
  8
01
  5
11213
 10
-732.832
 20
-2127.77
 30
0.000000
  70
    32
  0
VERTEX
  8
01
  5
11214
 10
-732.838
 20
-2127.77
 30
0.000000
  70
    32
  0
VERTEX
  8
01
  5
11215
 10
-732.843
 20
-2127.78
 30
0.000000
  70
    32
  0
VERTEX
  8
01
  5
11216
 10
-732.849
 20
-2127.78
 30
0.000000
  70
    32
  0
VERTEX
  8
01
  5
11217
 10
-732.854
 20
-2127.78
 30
0.000000
  70
    32
  0
VERTEX
  8
01
  5
11218
 10
-732.859
 20
-2127.79
 30
0.000000
  70
    32
  0
VERTEX
  8
01
  5
11219
 10
-732.865
 20
-2127.79
 30
0.000000
  70
    32
  0
VERTEX
  8
01
  5
1121A
 10
-732.870
 20
-2127.79
 30
0.000000
  70
    32
  0
VERTEX
  8
01
  5
1121B
 10
-732.875
 20
-2127.80
 30
0.000000
  70
    32
  0
VERTEX
  8
01
  5
1121C
 10
-732.881
 20
-2127.80
 30
0.000000
  70
    32
  0
VERTEX
  8
01
  5
1121D
 10
-732.886
 20
-2127.80
 30
0.000000
  70
    32
  0
VERTEX
  8
01
  5
1121E
 10
-732.891
 20
-2127.81
 30
0.000000
  70
    32
  0
VERTEX
  8
01
  5
1121F
 10
-732.896
 20
-2127.81
 30
0.000000
  70
    32
  0
VERTEX
  8
01
  5
11220
 10
-732.901
 20
-2127.81
 30
0.000000
  70
    32
  0
VERTEX
  8
01
  5
11221
 10
-732.906
 20
-2127.82
 30
0.000000
  70
    32
  0
VERTEX
  8
01
  5
11222
 10
-732.911
 20
-2127.82
 30
0.000000
  70
    32
  0
VERTEX
  8
01
  5
11223
 10
-732.916
 20
-2127.82
 30
0.000000
  70
    32
  0
VERTEX
  8
01
  5
11224
 10
-732.921
 20
-2127.83
 30
0.000000
  70
    32
  0
VERTEX
  8
01
  5
11225
 10
-732.925
 20
-2127.83
 30
0.000000
  70
    32
  0
VERTEX
  8
01
  5
11226
 10
-732.930
 20
-2127.83
 30
0.000000
  70
    32
  0
VERTEX
  8
01
  5
11227
 10
-732.935
 20
-2127.84
 30
0.000000
  70
    32
  0
VERTEX
  8
01
  5
11228
 10
-732.940
 20
-2127.84
 30
0.000000
  70
    32
  0
VERTEX
  8
01
  5
11229
 10
-732.944
 20
-2127.85
 30
0.000000
  70
    32
  0
VERTEX
  8
01
  5
1122A
 10
-732.949
 20
-2127.85
 30
0.000000
  70
    32
  0
VERTEX
  8
01
  5
1122B
 10
-732.953
 20
-2127.85
 30
0.000000
  70
    32
  0
VERTEX
  8
01
  5
1122C
 10
-732.958
 20
-2127.86
 30
0.000000
  70
    32
  0
VERTEX
  8
01
  5
1122D
 10
-732.962
 20
-2127.86
 30
0.000000
  70
    32
  0
VERTEX
  8
01
  5
1122E
 10
-732.967
 20
-2127.87
 30
0.000000
  70
    32
  0
VERTEX
  8
01
  5
1122F
 10
-732.971
 20
-2127.87
 30
0.000000
  70
    32
  0
VERTEX
  8
01
  5
11230
 10
-732.975
 20
-2127.88
 30
0.000000
  70
    32
  0
VERTEX
  8
01
  5
11231
 10
-732.979
 20
-2127.88
 30
0.000000
  70
    32
  0
VERTEX
  8
01
  5
11232
 10
-732.984
 20
-2127.89
 30
0.000000
  70
    32
  0
VERTEX
  8
01
  5
11233
 10
-732.988
 20
-2127.89
 30
0.000000
  70
    32
  0
VERTEX
  8
01
  5
11234
 10
-732.992
 20
-2127.89
 30
0.000000
  70
    32
  0
VERTEX
  8
01
  5
11235
 10
-732.996
 20
-2127.90
 30
0.000000
  70
    32
  0
VERTEX
  8
01
  5
11236
 10
-733.000
 20
-2127.90
 30
0.000000
  70
    32
  0
VERTEX
  8
01
  5
11237
 10
-733.003
 20
-2127.91
 30
0.000000
  70
    32
  0
VERTEX
  8
01
  5
11238
 10
-733.007
 20
-2127.91
 30
0.000000
  70
    32
  0
VERTEX
  8
01
  5
11239
 10
-733.011
 20
-2127.92
 30
0.000000
  70
    32
  0
VERTEX
  8
01
  5
1123A
 10
-733.015
 20
-2127.92
 30
0.000000
  70
    32
  0
VERTEX
  8
01
  5
1123B
 10
-733.018
 20
-2127.93
 30
0.000000
  70
    32
  0
VERTEX
  8
01
  5
1123C
 10
-733.022
 20
-2127.93
 30
0.000000
  70
    32
  0
VERTEX
  8
01
  5
1123D
 10
-733.025
 20
-2127.94
 30
0.000000
  70
    32
  0
VERTEX
  8
01
  5
1123E
 10
-733.029
 20
-2127.94
 30
0.000000
  70
    32
  0
VERTEX
  8
01
  5
1123F
 10
-733.032
 20
-2127.95
 30
0.000000
  70
    32
  0
VERTEX
  8
01
  5
11240
 10
-733.035
 20
-2127.95
 30
0.000000
  70
    32
  0
VERTEX
  8
01
  5
11241
 10
-733.039
 20
-2127.96
 30
0.000000
  70
    32
  0
VERTEX
  8
01
  5
11242
 10
-733.042
 20
-2127.96
 30
0.000000
  70
    32
  0
VERTEX
  8
01
  5
11243
 10
-733.045
 20
-2127.97
 30
0.000000
  70
    32
  0
VERTEX
  8
01
  5
11244
 10
-733.048
 20
-2127.97
 30
0.000000
  70
    32
  0
VERTEX
  8
01
  5
11245
 10
-733.051
 20
-2127.98
 30
0.000000
  70
    32
  0
VERTEX
  8
01
  5
11246
 10
-733.054
 20
-2127.99
 30
0.000000
  70
    32
  0
VERTEX
  8
01
  5
11247
 10
-733.057
 20
-2127.99
 30
0.000000
  70
    32
  0
VERTEX
  8
01
  5
11248
 10
-733.060
 20
-2128.00
 30
0.000000
  70
    32
  0
VERTEX
  8
01
  5
11249
 10
-733.062
 20
-2128.00
 30
0.000000
  70
    32
  0
VERTEX
  8
01
  5
1124A
 10
-733.065
 20
-2128.01
 30
0.000000
  70
    32
  0
VERTEX
  8
01
  5
1124B
 10
-733.068
 20
-2128.01
 30
0.000000
  70
    32
  0
VERTEX
  8
01
  5
1124C
 10
-733.070
 20
-2128.02
 30
0.000000
  70
    32
  0
VERTEX
  8
01
  5
1124D
 10
-733.073
 20
-2128.02
 30
0.000000
  70
    32
  0
VERTEX
  8
01
  5
1124E
 10
-733.075
 20
-2128.03
 30
0.000000
  70
    32
  0
VERTEX
  8
01
  5
1124F
 10
-733.077
 20
-2128.04
 30
0.000000
  70
    32
  0
VERTEX
  8
01
  5
11250
 10
-733.080
 20
-2128.04
 30
0.000000
  70
    32
  0
VERTEX
  8
01
  5
11251
 10
-733.082
 20
-2128.05
 30
0.000000
  70
    32
  0
VERTEX
  8
01
  5
11252
 10
-733.084
 20
-2128.05
 30
0.000000
  70
    32
  0
VERTEX
  8
01
  5
11253
 10
-733.086
 20
-2128.06
 30
0.000000
  70
    32
  0
VERTEX
  8
01
  5
11254
 10
-733.088
 20
-2128.06
 30
0.000000
  70
    32
  0
VERTEX
  8
01
  5
11255
 10
-733.090
 20
-2128.07
 30
0.000000
  70
    32
  0
VERTEX
  8
01
  5
11256
 10
-733.092
 20
-2128.08
 30
0.000000
  70
    32
  0
VERTEX
  8
01
  5
11257
 10
-733.093
 20
-2128.08
 30
0.000000
  70
    32
  0
VERTEX
  8
01
  5
11258
 10
-733.095
 20
-2128.09
 30
0.000000
  70
    32
  0
VERTEX
  8
01
  5
11259
 10
-733.097
 20
-2128.09
 30
0.000000
  70
    32
  0
VERTEX
  8
01
  5
1125A
 10
-733.098
 20
-2128.10
 30
0.000000
  70
    32
  0
VERTEX
  8
01
  5
1125B
 10
-733.100
 20
-2128.11
 30
0.000000
  70
    32
  0
VERTEX
  8
01
  5
1125C
 10
-733.101
 20
-2128.11
 30
0.000000
  70
    32
  0
VERTEX
  8
01
  5
1125D
 10
-733.102
 20
-2128.12
 30
0.000000
  70
    32
  0
VERTEX
  8
01
  5
1125E
 10
-733.103
 20
-2128.12
 30
0.000000
  70
    32
  0
VERTEX
  8
01
  5
1125F
 10
-733.105
 20
-2128.13
 30
0.000000
  70
    32
  0
VERTEX
  8
01
  5
11260
 10
-733.106
 20
-2128.14
 30
0.000000
  70
    32
  0
VERTEX
  8
01
  5
11261
 10
-733.107
 20
-2128.14
 30
0.000000
  70
    32
  0
VERTEX
  8
01
  5
11262
 10
-733.108
 20
-2128.15
 30
0.000000
  70
    32
  0
VERTEX
  8
01
  5
11263
 10
-733.108
 20
-2128.15
 30
0.000000
  70
    32
  0
VERTEX
  8
01
  5
11264
 10
-733.109
 20
-2128.16
 30
0.000000
  70
    32
  0
VERTEX
  8
01
  5
11265
 10
-733.110
 20
-2128.17
 30
0.000000
  70
    32
  0
VERTEX
  8
01
  5
11266
 10
-733.111
 20
-2128.17
 30
0.000000
  70
    32
  0
VERTEX
  8
01
  5
11267
 10
-733.111
 20
-2128.18
 30
0.000000
  70
    32
  0
VERTEX
  8
01
  5
11268
 10
-733.112
 20
-2128.18
 30
0.000000
  70
    32
  0
VERTEX
  8
01
  5
11269
 10
-733.112
 20
-2128.19
 30
0.000000
  70
    32
  0
VERTEX
  8
01
  5
1126A
 10
-733.112
 20
-2128.20
 30
0.000000
  70
    32
  0
VERTEX
  8
01
  5
1126B
 10
-733.113
 20
-2128.20
 30
0.000000
  70
    32
  0
VERTEX
  8
01
  5
1126C
 10
-733.113
 20
-2128.21
 30
0.000000
  70
    32
  0
VERTEX
  8
01
  5
1126D
 10
-733.113
 20
-2128.21
 30
0.000000
  70
    32
  0
VERTEX
  8
01
  5
1126E
 10
-733.113
 20
-2128.22
 30
0.000000
  70
    32
  0
SEQEND
  8
01
  5
1126F
  0
POLYLINE
  5
1099B
  8
01
 10
-727.11303831494661
 20
-2128.2210061383298
 30
0.0
 66
     1
 70
     8
  0
VERTEX
  8
01
  5
11270
 10
-727.113
 20
-2128.22
 30
0.000000
  70
    32
  0
VERTEX
  8
01
  5
11271
 10
-727.113
 20
-2128.21
 30
0.000000
  70
    32
  0
VERTEX
  8
01
  5
11272
 10
-727.113
 20
-2128.21
 30
0.000000
  70
    32
  0
VERTEX
  8
01
  5
11273
 10
-727.113
 20
-2128.20
 30
0.000000
  70
    32
  0
VERTEX
  8
01
  5
11274
 10
-727.114
 20
-2128.20
 30
0.000000
  70
    32
  0
VERTEX
  8
01
  5
11275
 10
-727.114
 20
-2128.19
 30
0.000000
  70
    32
  0
VERTEX
  8
01
  5
11276
 10
-727.114
 20
-2128.18
 30
0.000000
  70
    32
  0
VERTEX
  8
01
  5
11277
 10
-727.115
 20
-2128.18
 30
0.000000
  70
    32
  0
VERTEX
  8
01
  5
11278
 10
-727.115
 20
-2128.17
 30
0.000000
  70
    32
  0
VERTEX
  8
01
  5
11279
 10
-727.116
 20
-2128.17
 30
0.000000
  70
    32
  0
VERTEX
  8
01
  5
1127A
 10
-727.117
 20
-2128.16
 30
0.000000
  70
    32
  0
VERTEX
  8
01
  5
1127B
 10
-727.118
 20
-2128.15
 30
0.000000
  70
    32
  0
VERTEX
  8
01
  5
1127C
 10
-727.118
 20
-2128.15
 30
0.000000
  70
    32
  0
VERTEX
  8
01
  5
1127D
 10
-727.119
 20
-2128.14
 30
0.000000
  70
    32
  0
VERTEX
  8
01
  5
1127E
 10
-727.120
 20
-2128.14
 30
0.000000
  70
    32
  0
VERTEX
  8
01
  5
1127F
 10
-727.121
 20
-2128.13
 30
0.000000
  70
    32
  0
VERTEX
  8
01
  5
11280
 10
-727.123
 20
-2128.12
 30
0.000000
  70
    32
  0
VERTEX
  8
01
  5
11281
 10
-727.124
 20
-2128.12
 30
0.000000
  70
    32
  0
VERTEX
  8
01
  5
11282
 10
-727.125
 20
-2128.11
 30
0.000000
  70
    32
  0
VERTEX
  8
01
  5
11283
 10
-727.127
 20
-2128.11
 30
0.000000
  70
    32
  0
VERTEX
  8
01
  5
11284
 10
-727.128
 20
-2128.10
 30
0.000000
  70
    32
  0
VERTEX
  8
01
  5
11285
 10
-727.130
 20
-2128.09
 30
0.000000
  70
    32
  0
VERTEX
  8
01
  5
11286
 10
-727.131
 20
-2128.09
 30
0.000000
  70
    32
  0
VERTEX
  8
01
  5
11287
 10
-727.133
 20
-2128.08
 30
0.000000
  70
    32
  0
VERTEX
  8
01
  5
11288
 10
-727.135
 20
-2128.08
 30
0.000000
  70
    32
  0
VERTEX
  8
01
  5
11289
 10
-727.136
 20
-2128.07
 30
0.000000
  70
    32
  0
VERTEX
  8
01
  5
1128A
 10
-727.138
 20
-2128.06
 30
0.000000
  70
    32
  0
VERTEX
  8
01
  5
1128B
 10
-727.140
 20
-2128.06
 30
0.000000
  70
    32
  0
VERTEX
  8
01
  5
1128C
 10
-727.142
 20
-2128.05
 30
0.000000
  70
    32
  0
VERTEX
  8
01
  5
1128D
 10
-727.144
 20
-2128.05
 30
0.000000
  70
    32
  0
VERTEX
  8
01
  5
1128E
 10
-727.147
 20
-2128.04
 30
0.000000
  70
    32
  0
VERTEX
  8
01
  5
1128F
 10
-727.149
 20
-2128.04
 30
0.000000
  70
    32
  0
VERTEX
  8
01
  5
11290
 10
-727.151
 20
-2128.03
 30
0.000000
  70
    32
  0
VERTEX
  8
01
  5
11291
 10
-727.153
 20
-2128.02
 30
0.000000
  70
    32
  0
VERTEX
  8
01
  5
11292
 10
-727.156
 20
-2128.02
 30
0.000000
  70
    32
  0
VERTEX
  8
01
  5
11293
 10
-727.158
 20
-2128.01
 30
0.000000
  70
    32
  0
VERTEX
  8
01
  5
11294
 10
-727.161
 20
-2128.01
 30
0.000000
  70
    32
  0
VERTEX
  8
01
  5
11295
 10
-727.164
 20
-2128.00
 30
0.000000
  70
    32
  0
VERTEX
  8
01
  5
11296
 10
-727.166
 20
-2128.00
 30
0.000000
  70
    32
  0
VERTEX
  8
01
  5
11297
 10
-727.169
 20
-2127.99
 30
0.000000
  70
    32
  0
VERTEX
  8
01
  5
11298
 10
-727.172
 20
-2127.99
 30
0.000000
  70
    32
  0
VERTEX
  8
01
  5
11299
 10
-727.175
 20
-2127.98
 30
0.000000
  70
    32
  0
VERTEX
  8
01
  5
1129A
 10
-727.178
 20
-2127.97
 30
0.000000
  70
    32
  0
VERTEX
  8
01
  5
1129B
 10
-727.181
 20
-2127.97
 30
0.000000
  70
    32
  0
VERTEX
  8
01
  5
1129C
 10
-727.184
 20
-2127.96
 30
0.000000
  70
    32
  0
VERTEX
  8
01
  5
1129D
 10
-727.187
 20
-2127.96
 30
0.000000
  70
    32
  0
VERTEX
  8
01
  5
1129E
 10
-727.191
 20
-2127.95
 30
0.000000
  70
    32
  0
VERTEX
  8
01
  5
1129F
 10
-727.194
 20
-2127.95
 30
0.000000
  70
    32
  0
VERTEX
  8
01
  5
112A0
 10
-727.197
 20
-2127.94
 30
0.000000
  70
    32
  0
VERTEX
  8
01
  5
112A1
 10
-727.201
 20
-2127.94
 30
0.000000
  70
    32
  0
VERTEX
  8
01
  5
112A2
 10
-727.204
 20
-2127.93
 30
0.000000
  70
    32
  0
VERTEX
  8
01
  5
112A3
 10
-727.208
 20
-2127.93
 30
0.000000
  70
    32
  0
VERTEX
  8
01
  5
112A4
 10
-727.211
 20
-2127.92
 30
0.000000
  70
    32
  0
VERTEX
  8
01
  5
112A5
 10
-727.215
 20
-2127.92
 30
0.000000
  70
    32
  0
VERTEX
  8
01
  5
112A6
 10
-727.219
 20
-2127.91
 30
0.000000
  70
    32
  0
VERTEX
  8
01
  5
112A7
 10
-727.223
 20
-2127.91
 30
0.000000
  70
    32
  0
VERTEX
  8
01
  5
112A8
 10
-727.227
 20
-2127.90
 30
0.000000
  70
    32
  0
VERTEX
  8
01
  5
112A9
 10
-727.230
 20
-2127.90
 30
0.000000
  70
    32
  0
VERTEX
  8
01
  5
112AA
 10
-727.234
 20
-2127.89
 30
0.000000
  70
    32
  0
VERTEX
  8
01
  5
112AB
 10
-727.238
 20
-2127.89
 30
0.000000
  70
    32
  0
VERTEX
  8
01
  5
112AC
 10
-727.243
 20
-2127.89
 30
0.000000
  70
    32
  0
VERTEX
  8
01
  5
112AD
 10
-727.247
 20
-2127.88
 30
0.000000
  70
    32
  0
VERTEX
  8
01
  5
112AE
 10
-727.251
 20
-2127.88
 30
0.000000
  70
    32
  0
VERTEX
  8
01
  5
112AF
 10
-727.255
 20
-2127.87
 30
0.000000
  70
    32
  0
VERTEX
  8
01
  5
112B0
 10
-727.259
 20
-2127.87
 30
0.000000
  70
    32
  0
VERTEX
  8
01
  5
112B1
 10
-727.264
 20
-2127.86
 30
0.000000
  70
    32
  0
VERTEX
  8
01
  5
112B2
 10
-727.268
 20
-2127.86
 30
0.000000
  70
    32
  0
VERTEX
  8
01
  5
112B3
 10
-727.273
 20
-2127.85
 30
0.000000
  70
    32
  0
VERTEX
  8
01
  5
112B4
 10
-727.277
 20
-2127.85
 30
0.000000
  70
    32
  0
VERTEX
  8
01
  5
112B5
 10
-727.282
 20
-2127.85
 30
0.000000
  70
    32
  0
VERTEX
  8
01
  5
112B6
 10
-727.286
 20
-2127.84
 30
0.000000
  70
    32
  0
VERTEX
  8
01
  5
112B7
 10
-727.291
 20
-2127.84
 30
0.000000
  70
    32
  0
VERTEX
  8
01
  5
112B8
 10
-727.296
 20
-2127.83
 30
0.000000
  70
    32
  0
VERTEX
  8
01
  5
112B9
 10
-727.301
 20
-2127.83
 30
0.000000
  70
    32
  0
VERTEX
  8
01
  5
112BA
 10
-727.305
 20
-2127.83
 30
0.000000
  70
    32
  0
VERTEX
  8
01
  5
112BB
 10
-727.310
 20
-2127.82
 30
0.000000
  70
    32
  0
VERTEX
  8
01
  5
112BC
 10
-727.315
 20
-2127.82
 30
0.000000
  70
    32
  0
VERTEX
  8
01
  5
112BD
 10
-727.320
 20
-2127.82
 30
0.000000
  70
    32
  0
VERTEX
  8
01
  5
112BE
 10
-727.325
 20
-2127.81
 30
0.000000
  70
    32
  0
VERTEX
  8
01
  5
112BF
 10
-727.330
 20
-2127.81
 30
0.000000
  70
    32
  0
VERTEX
  8
01
  5
112C0
 10
-727.335
 20
-2127.81
 30
0.000000
  70
    32
  0
VERTEX
  8
01
  5
112C1
 10
-727.340
 20
-2127.80
 30
0.000000
  70
    32
  0
VERTEX
  8
01
  5
112C2
 10
-727.346
 20
-2127.80
 30
0.000000
  70
    32
  0
VERTEX
  8
01
  5
112C3
 10
-727.351
 20
-2127.80
 30
0.000000
  70
    32
  0
VERTEX
  8
01
  5
112C4
 10
-727.356
 20
-2127.79
 30
0.000000
  70
    32
  0
VERTEX
  8
01
  5
112C5
 10
-727.361
 20
-2127.79
 30
0.000000
  70
    32
  0
VERTEX
  8
01
  5
112C6
 10
-727.367
 20
-2127.79
 30
0.000000
  70
    32
  0
VERTEX
  8
01
  5
112C7
 10
-727.372
 20
-2127.78
 30
0.000000
  70
    32
  0
VERTEX
  8
01
  5
112C8
 10
-727.377
 20
-2127.78
 30
0.000000
  70
    32
  0
VERTEX
  8
01
  5
112C9
 10
-727.383
 20
-2127.78
 30
0.000000
  70
    32
  0
VERTEX
  8
01
  5
112CA
 10
-727.388
 20
-2127.77
 30
0.000000
  70
    32
  0
VERTEX
  8
01
  5
112CB
 10
-727.394
 20
-2127.77
 30
0.000000
  70
    32
  0
VERTEX
  8
01
  5
112CC
 10
-727.399
 20
-2127.77
 30
0.000000
  70
    32
  0
VERTEX
  8
01
  5
112CD
 10
-727.405
 20
-2127.77
 30
0.000000
  70
    32
  0
VERTEX
  8
01
  5
112CE
 10
-727.410
 20
-2127.76
 30
0.000000
  70
    32
  0
VERTEX
  8
01
  5
112CF
 10
-727.416
 20
-2127.76
 30
0.000000
  70
    32
  0
VERTEX
  8
01
  5
112D0
 10
-727.422
 20
-2127.76
 30
0.000000
  70
    32
  0
VERTEX
  8
01
  5
112D1
 10
-727.427
 20
-2127.76
 30
0.000000
  70
    32
  0
VERTEX
  8
01
  5
112D2
 10
-727.433
 20
-2127.75
 30
0.000000
  70
    32
  0
VERTEX
  8
01
  5
112D3
 10
-727.439
 20
-2127.75
 30
0.000000
  70
    32
  0
VERTEX
  8
01
  5
112D4
 10
-727.445
 20
-2127.75
 30
0.000000
  70
    32
  0
VERTEX
  8
01
  5
112D5
 10
-727.450
 20
-2127.75
 30
0.000000
  70
    32
  0
VERTEX
  8
01
  5
112D6
 10
-727.456
 20
-2127.75
 30
0.000000
  70
    32
  0
VERTEX
  8
01
  5
112D7
 10
-727.462
 20
-2127.74
 30
0.000000
  70
    32
  0
VERTEX
  8
01
  5
112D8
 10
-727.468
 20
-2127.74
 30
0.000000
  70
    32
  0
VERTEX
  8
01
  5
112D9
 10
-727.474
 20
-2127.74
 30
0.000000
  70
    32
  0
VERTEX
  8
01
  5
112DA
 10
-727.480
 20
-2127.74
 30
0.000000
  70
    32
  0
VERTEX
  8
01
  5
112DB
 10
-727.486
 20
-2127.74
 30
0.000000
  70
    32
  0
VERTEX
  8
01
  5
112DC
 10
-727.492
 20
-2127.74
 30
0.000000
  70
    32
  0
VERTEX
  8
01
  5
112DD
 10
-727.498
 20
-2127.73
 30
0.000000
  70
    32
  0
VERTEX
  8
01
  5
112DE
 10
-727.503
 20
-2127.73
 30
0.000000
  70
    32
  0
VERTEX
  8
01
  5
112DF
 10
-727.509
 20
-2127.73
 30
0.000000
  70
    32
  0
VERTEX
  8
01
  5
112E0
 10
-727.515
 20
-2127.73
 30
0.000000
  70
    32
  0
VERTEX
  8
01
  5
112E1
 10
-727.522
 20
-2127.73
 30
0.000000
  70
    32
  0
VERTEX
  8
01
  5
112E2
 10
-727.528
 20
-2127.73
 30
0.000000
  70
    32
  0
VERTEX
  8
01
  5
112E3
 10
-727.534
 20
-2127.73
 30
0.000000
  70
    32
  0
VERTEX
  8
01
  5
112E4
 10
-727.540
 20
-2127.73
 30
0.000000
  70
    32
  0
VERTEX
  8
01
  5
112E5
 10
-727.546
 20
-2127.73
 30
0.000000
  70
    32
  0
VERTEX
  8
01
  5
112E6
 10
-727.552
 20
-2127.72
 30
0.000000
  70
    32
  0
VERTEX
  8
01
  5
112E7
 10
-727.558
 20
-2127.72
 30
0.000000
  70
    32
  0
VERTEX
  8
01
  5
112E8
 10
-727.564
 20
-2127.72
 30
0.000000
  70
    32
  0
VERTEX
  8
01
  5
112E9
 10
-727.570
 20
-2127.72
 30
0.000000
  70
    32
  0
VERTEX
  8
01
  5
112EA
 10
-727.576
 20
-2127.72
 30
0.000000
  70
    32
  0
VERTEX
  8
01
  5
112EB
 10
-727.582
 20
-2127.72
 30
0.000000
  70
    32
  0
VERTEX
  8
01
  5
112EC
 10
-727.589
 20
-2127.72
 30
0.000000
  70
    32
  0
VERTEX
  8
01
  5
112ED
 10
-727.595
 20
-2127.72
 30
0.000000
  70
    32
  0
VERTEX
  8
01
  5
112EE
 10
-727.601
 20
-2127.72
 30
0.000000
  70
    32
  0
VERTEX
  8
01
  5
112EF
 10
-727.607
 20
-2127.72
 30
0.000000
  70
    32
  0
VERTEX
  8
01
  5
112F0
 10
-727.613
 20
-2127.72
 30
0.000000
  70
    32
  0
SEQEND
  8
01
  5
112F1
  0
LINE
  5
1099C
  8
01
 10
-783.61303831494627
 20
-2127.221007138332
 30
0.0
 11
-802.61303831494672
 21
-2127.221007138332
 31
0.0
  0
POLYLINE
  5
1099D
  8
01
 10
-802.61303831494672
 20
-2094.0210403383312
 30
0.0
 66
     1
 70
     8
  0
VERTEX
  8
01
  5
112F2
 10
-802.613
 20
-2094.02
 30
0.000000
  70
    32
  0
VERTEX
  8
01
  5
112F3
 10
-802.619
 20
-2094.02
 30
0.000000
  70
    32
  0
VERTEX
  8
01
  5
112F4
 10
-802.625
 20
-2094.02
 30
0.000000
  70
    32
  0
VERTEX
  8
01
  5
112F5
 10
-802.631
 20
-2094.02
 30
0.000000
  70
    32
  0
VERTEX
  8
01
  5
112F6
 10
-802.638
 20
-2094.02
 30
0.000000
  70
    32
  0
VERTEX
  8
01
  5
112F7
 10
-802.644
 20
-2094.02
 30
0.000000
  70
    32
  0
VERTEX
  8
01
  5
112F8
 10
-802.650
 20
-2094.02
 30
0.000000
  70
    32
  0
VERTEX
  8
01
  5
112F9
 10
-802.656
 20
-2094.02
 30
0.000000
  70
    32
  0
VERTEX
  8
01
  5
112FA
 10
-802.662
 20
-2094.02
 30
0.000000
  70
    32
  0
VERTEX
  8
01
  5
112FB
 10
-802.668
 20
-2094.02
 30
0.000000
  70
    32
  0
VERTEX
  8
01
  5
112FC
 10
-802.674
 20
-2094.02
 30
0.000000
  70
    32
  0
VERTEX
  8
01
  5
112FD
 10
-802.680
 20
-2094.03
 30
0.000000
  70
    32
  0
VERTEX
  8
01
  5
112FE
 10
-802.686
 20
-2094.03
 30
0.000000
  70
    32
  0
VERTEX
  8
01
  5
112FF
 10
-802.692
 20
-2094.03
 30
0.000000
  70
    32
  0
VERTEX
  8
01
  5
11300
 10
-802.699
 20
-2094.03
 30
0.000000
  70
    32
  0
VERTEX
  8
01
  5
11301
 10
-802.705
 20
-2094.03
 30
0.000000
  70
    32
  0
VERTEX
  8
01
  5
11302
 10
-802.711
 20
-2094.03
 30
0.000000
  70
    32
  0
VERTEX
  8
01
  5
11303
 10
-802.717
 20
-2094.03
 30
0.000000
  70
    32
  0
VERTEX
  8
01
  5
11304
 10
-802.723
 20
-2094.03
 30
0.000000
  70
    32
  0
VERTEX
  8
01
  5
11305
 10
-802.729
 20
-2094.03
 30
0.000000
  70
    32
  0
VERTEX
  8
01
  5
11306
 10
-802.735
 20
-2094.04
 30
0.000000
  70
    32
  0
VERTEX
  8
01
  5
11307
 10
-802.740
 20
-2094.04
 30
0.000000
  70
    32
  0
VERTEX
  8
01
  5
11308
 10
-802.746
 20
-2094.04
 30
0.000000
  70
    32
  0
VERTEX
  8
01
  5
11309
 10
-802.752
 20
-2094.04
 30
0.000000
  70
    32
  0
VERTEX
  8
01
  5
1130A
 10
-802.758
 20
-2094.04
 30
0.000000
  70
    32
  0
VERTEX
  8
01
  5
1130B
 10
-802.764
 20
-2094.04
 30
0.000000
  70
    32
  0
VERTEX
  8
01
  5
1130C
 10
-802.770
 20
-2094.05
 30
0.000000
  70
    32
  0
VERTEX
  8
01
  5
1130D
 10
-802.776
 20
-2094.05
 30
0.000000
  70
    32
  0
VERTEX
  8
01
  5
1130E
 10
-802.781
 20
-2094.05
 30
0.000000
  70
    32
  0
VERTEX
  8
01
  5
1130F
 10
-802.787
 20
-2094.05
 30
0.000000
  70
    32
  0
VERTEX
  8
01
  5
11310
 10
-802.793
 20
-2094.05
 30
0.000000
  70
    32
  0
VERTEX
  8
01
  5
11311
 10
-802.799
 20
-2094.06
 30
0.000000
  70
    32
  0
VERTEX
  8
01
  5
11312
 10
-802.804
 20
-2094.06
 30
0.000000
  70
    32
  0
VERTEX
  8
01
  5
11313
 10
-802.810
 20
-2094.06
 30
0.000000
  70
    32
  0
VERTEX
  8
01
  5
11314
 10
-802.816
 20
-2094.06
 30
0.000000
  70
    32
  0
VERTEX
  8
01
  5
11315
 10
-802.821
 20
-2094.07
 30
0.000000
  70
    32
  0
VERTEX
  8
01
  5
11316
 10
-802.827
 20
-2094.07
 30
0.000000
  70
    32
  0
VERTEX
  8
01
  5
11317
 10
-802.832
 20
-2094.07
 30
0.000000
  70
    32
  0
VERTEX
  8
01
  5
11318
 10
-802.838
 20
-2094.07
 30
0.000000
  70
    32
  0
VERTEX
  8
01
  5
11319
 10
-802.843
 20
-2094.08
 30
0.000000
  70
    32
  0
VERTEX
  8
01
  5
1131A
 10
-802.849
 20
-2094.08
 30
0.000000
  70
    32
  0
VERTEX
  8
01
  5
1131B
 10
-802.854
 20
-2094.08
 30
0.000000
  70
    32
  0
VERTEX
  8
01
  5
1131C
 10
-802.859
 20
-2094.09
 30
0.000000
  70
    32
  0
VERTEX
  8
01
  5
1131D
 10
-802.865
 20
-2094.09
 30
0.000000
  70
    32
  0
VERTEX
  8
01
  5
1131E
 10
-802.870
 20
-2094.09
 30
0.000000
  70
    32
  0
VERTEX
  8
01
  5
1131F
 10
-802.875
 20
-2094.10
 30
0.000000
  70
    32
  0
VERTEX
  8
01
  5
11320
 10
-802.881
 20
-2094.10
 30
0.000000
  70
    32
  0
VERTEX
  8
01
  5
11321
 10
-802.886
 20
-2094.10
 30
0.000000
  70
    32
  0
VERTEX
  8
01
  5
11322
 10
-802.891
 20
-2094.11
 30
0.000000
  70
    32
  0
VERTEX
  8
01
  5
11323
 10
-802.896
 20
-2094.11
 30
0.000000
  70
    32
  0
VERTEX
  8
01
  5
11324
 10
-802.901
 20
-2094.11
 30
0.000000
  70
    32
  0
VERTEX
  8
01
  5
11325
 10
-802.906
 20
-2094.12
 30
0.000000
  70
    32
  0
VERTEX
  8
01
  5
11326
 10
-802.911
 20
-2094.12
 30
0.000000
  70
    32
  0
VERTEX
  8
01
  5
11327
 10
-802.916
 20
-2094.12
 30
0.000000
  70
    32
  0
VERTEX
  8
01
  5
11328
 10
-802.921
 20
-2094.13
 30
0.000000
  70
    32
  0
VERTEX
  8
01
  5
11329
 10
-802.925
 20
-2094.13
 30
0.000000
  70
    32
  0
VERTEX
  8
01
  5
1132A
 10
-802.930
 20
-2094.13
 30
0.000000
  70
    32
  0
VERTEX
  8
01
  5
1132B
 10
-802.935
 20
-2094.14
 30
0.000000
  70
    32
  0
VERTEX
  8
01
  5
1132C
 10
-802.940
 20
-2094.14
 30
0.000000
  70
    32
  0
VERTEX
  8
01
  5
1132D
 10
-802.944
 20
-2094.15
 30
0.000000
  70
    32
  0
VERTEX
  8
01
  5
1132E
 10
-802.949
 20
-2094.15
 30
0.000000
  70
    32
  0
VERTEX
  8
01
  5
1132F
 10
-802.953
 20
-2094.15
 30
0.000000
  70
    32
  0
VERTEX
  8
01
  5
11330
 10
-802.958
 20
-2094.16
 30
0.000000
  70
    32
  0
VERTEX
  8
01
  5
11331
 10
-802.962
 20
-2094.16
 30
0.000000
  70
    32
  0
VERTEX
  8
01
  5
11332
 10
-802.967
 20
-2094.17
 30
0.000000
  70
    32
  0
VERTEX
  8
01
  5
11333
 10
-802.971
 20
-2094.17
 30
0.000000
  70
    32
  0
VERTEX
  8
01
  5
11334
 10
-802.975
 20
-2094.18
 30
0.000000
  70
    32
  0
VERTEX
  8
01
  5
11335
 10
-802.979
 20
-2094.18
 30
0.000000
  70
    32
  0
VERTEX
  8
01
  5
11336
 10
-802.984
 20
-2094.19
 30
0.000000
  70
    32
  0
VERTEX
  8
01
  5
11337
 10
-802.988
 20
-2094.19
 30
0.000000
  70
    32
  0
VERTEX
  8
01
  5
11338
 10
-802.992
 20
-2094.19
 30
0.000000
  70
    32
  0
VERTEX
  8
01
  5
11339
 10
-802.996
 20
-2094.20
 30
0.000000
  70
    32
  0
VERTEX
  8
01
  5
1133A
 10
-803.000
 20
-2094.20
 30
0.000000
  70
    32
  0
VERTEX
  8
01
  5
1133B
 10
-803.003
 20
-2094.21
 30
0.000000
  70
    32
  0
VERTEX
  8
01
  5
1133C
 10
-803.007
 20
-2094.21
 30
0.000000
  70
    32
  0
VERTEX
  8
01
  5
1133D
 10
-803.011
 20
-2094.22
 30
0.000000
  70
    32
  0
VERTEX
  8
01
  5
1133E
 10
-803.015
 20
-2094.22
 30
0.000000
  70
    32
  0
VERTEX
  8
01
  5
1133F
 10
-803.018
 20
-2094.23
 30
0.000000
  70
    32
  0
VERTEX
  8
01
  5
11340
 10
-803.022
 20
-2094.23
 30
0.000000
  70
    32
  0
VERTEX
  8
01
  5
11341
 10
-803.025
 20
-2094.24
 30
0.000000
  70
    32
  0
VERTEX
  8
01
  5
11342
 10
-803.029
 20
-2094.24
 30
0.000000
  70
    32
  0
VERTEX
  8
01
  5
11343
 10
-803.032
 20
-2094.25
 30
0.000000
  70
    32
  0
VERTEX
  8
01
  5
11344
 10
-803.035
 20
-2094.25
 30
0.000000
  70
    32
  0
VERTEX
  8
01
  5
11345
 10
-803.039
 20
-2094.26
 30
0.000000
  70
    32
  0
VERTEX
  8
01
  5
11346
 10
-803.042
 20
-2094.26
 30
0.000000
  70
    32
  0
VERTEX
  8
01
  5
11347
 10
-803.045
 20
-2094.27
 30
0.000000
  70
    32
  0
VERTEX
  8
01
  5
11348
 10
-803.048
 20
-2094.27
 30
0.000000
  70
    32
  0
VERTEX
  8
01
  5
11349
 10
-803.051
 20
-2094.28
 30
0.000000
  70
    32
  0
VERTEX
  8
01
  5
1134A
 10
-803.054
 20
-2094.29
 30
0.000000
  70
    32
  0
VERTEX
  8
01
  5
1134B
 10
-803.057
 20
-2094.29
 30
0.000000
  70
    32
  0
VERTEX
  8
01
  5
1134C
 10
-803.060
 20
-2094.30
 30
0.000000
  70
    32
  0
VERTEX
  8
01
  5
1134D
 10
-803.062
 20
-2094.30
 30
0.000000
  70
    32
  0
VERTEX
  8
01
  5
1134E
 10
-803.065
 20
-2094.31
 30
0.000000
  70
    32
  0
VERTEX
  8
01
  5
1134F
 10
-803.068
 20
-2094.31
 30
0.000000
  70
    32
  0
VERTEX
  8
01
  5
11350
 10
-803.070
 20
-2094.32
 30
0.000000
  70
    32
  0
VERTEX
  8
01
  5
11351
 10
-803.073
 20
-2094.32
 30
0.000000
  70
    32
  0
VERTEX
  8
01
  5
11352
 10
-803.075
 20
-2094.33
 30
0.000000
  70
    32
  0
VERTEX
  8
01
  5
11353
 10
-803.077
 20
-2094.34
 30
0.000000
  70
    32
  0
VERTEX
  8
01
  5
11354
 10
-803.080
 20
-2094.34
 30
0.000000
  70
    32
  0
VERTEX
  8
01
  5
11355
 10
-803.082
 20
-2094.35
 30
0.000000
  70
    32
  0
VERTEX
  8
01
  5
11356
 10
-803.084
 20
-2094.35
 30
0.000000
  70
    32
  0
VERTEX
  8
01
  5
11357
 10
-803.086
 20
-2094.36
 30
0.000000
  70
    32
  0
VERTEX
  8
01
  5
11358
 10
-803.088
 20
-2094.36
 30
0.000000
  70
    32
  0
VERTEX
  8
01
  5
11359
 10
-803.090
 20
-2094.37
 30
0.000000
  70
    32
  0
VERTEX
  8
01
  5
1135A
 10
-803.092
 20
-2094.38
 30
0.000000
  70
    32
  0
VERTEX
  8
01
  5
1135B
 10
-803.093
 20
-2094.38
 30
0.000000
  70
    32
  0
VERTEX
  8
01
  5
1135C
 10
-803.095
 20
-2094.39
 30
0.000000
  70
    32
  0
VERTEX
  8
01
  5
1135D
 10
-803.097
 20
-2094.39
 30
0.000000
  70
    32
  0
VERTEX
  8
01
  5
1135E
 10
-803.098
 20
-2094.40
 30
0.000000
  70
    32
  0
VERTEX
  8
01
  5
1135F
 10
-803.100
 20
-2094.41
 30
0.000000
  70
    32
  0
VERTEX
  8
01
  5
11360
 10
-803.101
 20
-2094.41
 30
0.000000
  70
    32
  0
VERTEX
  8
01
  5
11361
 10
-803.102
 20
-2094.42
 30
0.000000
  70
    32
  0
VERTEX
  8
01
  5
11362
 10
-803.103
 20
-2094.42
 30
0.000000
  70
    32
  0
VERTEX
  8
01
  5
11363
 10
-803.105
 20
-2094.43
 30
0.000000
  70
    32
  0
VERTEX
  8
01
  5
11364
 10
-803.106
 20
-2094.44
 30
0.000000
  70
    32
  0
VERTEX
  8
01
  5
11365
 10
-803.107
 20
-2094.44
 30
0.000000
  70
    32
  0
VERTEX
  8
01
  5
11366
 10
-803.108
 20
-2094.45
 30
0.000000
  70
    32
  0
VERTEX
  8
01
  5
11367
 10
-803.108
 20
-2094.45
 30
0.000000
  70
    32
  0
VERTEX
  8
01
  5
11368
 10
-803.109
 20
-2094.46
 30
0.000000
  70
    32
  0
VERTEX
  8
01
  5
11369
 10
-803.110
 20
-2094.47
 30
0.000000
  70
    32
  0
VERTEX
  8
01
  5
1136A
 10
-803.111
 20
-2094.47
 30
0.000000
  70
    32
  0
VERTEX
  8
01
  5
1136B
 10
-803.111
 20
-2094.48
 30
0.000000
  70
    32
  0
VERTEX
  8
01
  5
1136C
 10
-803.112
 20
-2094.48
 30
0.000000
  70
    32
  0
VERTEX
  8
01
  5
1136D
 10
-803.112
 20
-2094.49
 30
0.000000
  70
    32
  0
VERTEX
  8
01
  5
1136E
 10
-803.112
 20
-2094.50
 30
0.000000
  70
    32
  0
VERTEX
  8
01
  5
1136F
 10
-803.113
 20
-2094.50
 30
0.000000
  70
    32
  0
VERTEX
  8
01
  5
11370
 10
-803.113
 20
-2094.51
 30
0.000000
  70
    32
  0
VERTEX
  8
01
  5
11371
 10
-803.113
 20
-2094.51
 30
0.000000
  70
    32
  0
VERTEX
  8
01
  5
11372
 10
-803.113
 20
-2094.52
 30
0.000000
  70
    32
  0
SEQEND
  8
01
  5
11373
  0
POLYLINE
  5
1099E
  8
01
 10
-783.11303831494661
 20
-2094.521039838331
 30
0.0
 66
     1
 70
     8
  0
VERTEX
  8
01
  5
11374
 10
-783.113
 20
-2094.52
 30
0.000000
  70
    32
  0
VERTEX
  8
01
  5
11375
 10
-783.113
 20
-2094.51
 30
0.000000
  70
    32
  0
VERTEX
  8
01
  5
11376
 10
-783.113
 20
-2094.51
 30
0.000000
  70
    32
  0
VERTEX
  8
01
  5
11377
 10
-783.113
 20
-2094.50
 30
0.000000
  70
    32
  0
VERTEX
  8
01
  5
11378
 10
-783.114
 20
-2094.50
 30
0.000000
  70
    32
  0
VERTEX
  8
01
  5
11379
 10
-783.114
 20
-2094.49
 30
0.000000
  70
    32
  0
VERTEX
  8
01
  5
1137A
 10
-783.114
 20
-2094.48
 30
0.000000
  70
    32
  0
VERTEX
  8
01
  5
1137B
 10
-783.115
 20
-2094.48
 30
0.000000
  70
    32
  0
VERTEX
  8
01
  5
1137C
 10
-783.115
 20
-2094.47
 30
0.000000
  70
    32
  0
VERTEX
  8
01
  5
1137D
 10
-783.116
 20
-2094.47
 30
0.000000
  70
    32
  0
VERTEX
  8
01
  5
1137E
 10
-783.117
 20
-2094.46
 30
0.000000
  70
    32
  0
VERTEX
  8
01
  5
1137F
 10
-783.118
 20
-2094.45
 30
0.000000
  70
    32
  0
VERTEX
  8
01
  5
11380
 10
-783.118
 20
-2094.45
 30
0.000000
  70
    32
  0
VERTEX
  8
01
  5
11381
 10
-783.119
 20
-2094.44
 30
0.000000
  70
    32
  0
VERTEX
  8
01
  5
11382
 10
-783.120
 20
-2094.44
 30
0.000000
  70
    32
  0
VERTEX
  8
01
  5
11383
 10
-783.121
 20
-2094.43
 30
0.000000
  70
    32
  0
VERTEX
  8
01
  5
11384
 10
-783.123
 20
-2094.42
 30
0.000000
  70
    32
  0
VERTEX
  8
01
  5
11385
 10
-783.124
 20
-2094.42
 30
0.000000
  70
    32
  0
VERTEX
  8
01
  5
11386
 10
-783.125
 20
-2094.41
 30
0.000000
  70
    32
  0
VERTEX
  8
01
  5
11387
 10
-783.127
 20
-2094.41
 30
0.000000
  70
    32
  0
VERTEX
  8
01
  5
11388
 10
-783.128
 20
-2094.40
 30
0.000000
  70
    32
  0
VERTEX
  8
01
  5
11389
 10
-783.130
 20
-2094.39
 30
0.000000
  70
    32
  0
VERTEX
  8
01
  5
1138A
 10
-783.131
 20
-2094.39
 30
0.000000
  70
    32
  0
VERTEX
  8
01
  5
1138B
 10
-783.133
 20
-2094.38
 30
0.000000
  70
    32
  0
VERTEX
  8
01
  5
1138C
 10
-783.135
 20
-2094.38
 30
0.000000
  70
    32
  0
VERTEX
  8
01
  5
1138D
 10
-783.136
 20
-2094.37
 30
0.000000
  70
    32
  0
VERTEX
  8
01
  5
1138E
 10
-783.138
 20
-2094.36
 30
0.000000
  70
    32
  0
VERTEX
  8
01
  5
1138F
 10
-783.140
 20
-2094.36
 30
0.000000
  70
    32
  0
VERTEX
  8
01
  5
11390
 10
-783.142
 20
-2094.35
 30
0.000000
  70
    32
  0
VERTEX
  8
01
  5
11391
 10
-783.144
 20
-2094.35
 30
0.000000
  70
    32
  0
VERTEX
  8
01
  5
11392
 10
-783.147
 20
-2094.34
 30
0.000000
  70
    32
  0
VERTEX
  8
01
  5
11393
 10
-783.149
 20
-2094.34
 30
0.000000
  70
    32
  0
VERTEX
  8
01
  5
11394
 10
-783.151
 20
-2094.33
 30
0.000000
  70
    32
  0
VERTEX
  8
01
  5
11395
 10
-783.153
 20
-2094.32
 30
0.000000
  70
    32
  0
VERTEX
  8
01
  5
11396
 10
-783.156
 20
-2094.32
 30
0.000000
  70
    32
  0
VERTEX
  8
01
  5
11397
 10
-783.158
 20
-2094.31
 30
0.000000
  70
    32
  0
VERTEX
  8
01
  5
11398
 10
-783.161
 20
-2094.31
 30
0.000000
  70
    32
  0
VERTEX
  8
01
  5
11399
 10
-783.164
 20
-2094.30
 30
0.000000
  70
    32
  0
VERTEX
  8
01
  5
1139A
 10
-783.166
 20
-2094.30
 30
0.000000
  70
    32
  0
VERTEX
  8
01
  5
1139B
 10
-783.169
 20
-2094.29
 30
0.000000
  70
    32
  0
VERTEX
  8
01
  5
1139C
 10
-783.172
 20
-2094.29
 30
0.000000
  70
    32
  0
VERTEX
  8
01
  5
1139D
 10
-783.175
 20
-2094.28
 30
0.000000
  70
    32
  0
VERTEX
  8
01
  5
1139E
 10
-783.178
 20
-2094.27
 30
0.000000
  70
    32
  0
VERTEX
  8
01
  5
1139F
 10
-783.181
 20
-2094.27
 30
0.000000
  70
    32
  0
VERTEX
  8
01
  5
113A0
 10
-783.184
 20
-2094.26
 30
0.000000
  70
    32
  0
VERTEX
  8
01
  5
113A1
 10
-783.187
 20
-2094.26
 30
0.000000
  70
    32
  0
VERTEX
  8
01
  5
113A2
 10
-783.191
 20
-2094.25
 30
0.000000
  70
    32
  0
VERTEX
  8
01
  5
113A3
 10
-783.194
 20
-2094.25
 30
0.000000
  70
    32
  0
VERTEX
  8
01
  5
113A4
 10
-783.197
 20
-2094.24
 30
0.000000
  70
    32
  0
VERTEX
  8
01
  5
113A5
 10
-783.201
 20
-2094.24
 30
0.000000
  70
    32
  0
VERTEX
  8
01
  5
113A6
 10
-783.204
 20
-2094.23
 30
0.000000
  70
    32
  0
VERTEX
  8
01
  5
113A7
 10
-783.208
 20
-2094.23
 30
0.000000
  70
    32
  0
VERTEX
  8
01
  5
113A8
 10
-783.211
 20
-2094.22
 30
0.000000
  70
    32
  0
VERTEX
  8
01
  5
113A9
 10
-783.215
 20
-2094.22
 30
0.000000
  70
    32
  0
VERTEX
  8
01
  5
113AA
 10
-783.219
 20
-2094.21
 30
0.000000
  70
    32
  0
VERTEX
  8
01
  5
113AB
 10
-783.223
 20
-2094.21
 30
0.000000
  70
    32
  0
VERTEX
  8
01
  5
113AC
 10
-783.227
 20
-2094.20
 30
0.000000
  70
    32
  0
VERTEX
  8
01
  5
113AD
 10
-783.230
 20
-2094.20
 30
0.000000
  70
    32
  0
VERTEX
  8
01
  5
113AE
 10
-783.234
 20
-2094.19
 30
0.000000
  70
    32
  0
VERTEX
  8
01
  5
113AF
 10
-783.238
 20
-2094.19
 30
0.000000
  70
    32
  0
VERTEX
  8
01
  5
113B0
 10
-783.243
 20
-2094.19
 30
0.000000
  70
    32
  0
VERTEX
  8
01
  5
113B1
 10
-783.247
 20
-2094.18
 30
0.000000
  70
    32
  0
VERTEX
  8
01
  5
113B2
 10
-783.251
 20
-2094.18
 30
0.000000
  70
    32
  0
VERTEX
  8
01
  5
113B3
 10
-783.255
 20
-2094.17
 30
0.000000
  70
    32
  0
VERTEX
  8
01
  5
113B4
 10
-783.259
 20
-2094.17
 30
0.000000
  70
    32
  0
VERTEX
  8
01
  5
113B5
 10
-783.264
 20
-2094.16
 30
0.000000
  70
    32
  0
VERTEX
  8
01
  5
113B6
 10
-783.268
 20
-2094.16
 30
0.000000
  70
    32
  0
VERTEX
  8
01
  5
113B7
 10
-783.273
 20
-2094.15
 30
0.000000
  70
    32
  0
VERTEX
  8
01
  5
113B8
 10
-783.277
 20
-2094.15
 30
0.000000
  70
    32
  0
VERTEX
  8
01
  5
113B9
 10
-783.282
 20
-2094.15
 30
0.000000
  70
    32
  0
VERTEX
  8
01
  5
113BA
 10
-783.286
 20
-2094.14
 30
0.000000
  70
    32
  0
VERTEX
  8
01
  5
113BB
 10
-783.291
 20
-2094.14
 30
0.000000
  70
    32
  0
VERTEX
  8
01
  5
113BC
 10
-783.296
 20
-2094.13
 30
0.000000
  70
    32
  0
VERTEX
  8
01
  5
113BD
 10
-783.301
 20
-2094.13
 30
0.000000
  70
    32
  0
VERTEX
  8
01
  5
113BE
 10
-783.305
 20
-2094.13
 30
0.000000
  70
    32
  0
VERTEX
  8
01
  5
113BF
 10
-783.310
 20
-2094.12
 30
0.000000
  70
    32
  0
VERTEX
  8
01
  5
113C0
 10
-783.315
 20
-2094.12
 30
0.000000
  70
    32
  0
VERTEX
  8
01
  5
113C1
 10
-783.320
 20
-2094.12
 30
0.000000
  70
    32
  0
VERTEX
  8
01
  5
113C2
 10
-783.325
 20
-2094.11
 30
0.000000
  70
    32
  0
VERTEX
  8
01
  5
113C3
 10
-783.330
 20
-2094.11
 30
0.000000
  70
    32
  0
VERTEX
  8
01
  5
113C4
 10
-783.335
 20
-2094.11
 30
0.000000
  70
    32
  0
VERTEX
  8
01
  5
113C5
 10
-783.340
 20
-2094.10
 30
0.000000
  70
    32
  0
VERTEX
  8
01
  5
113C6
 10
-783.346
 20
-2094.10
 30
0.000000
  70
    32
  0
VERTEX
  8
01
  5
113C7
 10
-783.351
 20
-2094.10
 30
0.000000
  70
    32
  0
VERTEX
  8
01
  5
113C8
 10
-783.356
 20
-2094.09
 30
0.000000
  70
    32
  0
VERTEX
  8
01
  5
113C9
 10
-783.361
 20
-2094.09
 30
0.000000
  70
    32
  0
VERTEX
  8
01
  5
113CA
 10
-783.367
 20
-2094.09
 30
0.000000
  70
    32
  0
VERTEX
  8
01
  5
113CB
 10
-783.372
 20
-2094.08
 30
0.000000
  70
    32
  0
VERTEX
  8
01
  5
113CC
 10
-783.377
 20
-2094.08
 30
0.000000
  70
    32
  0
VERTEX
  8
01
  5
113CD
 10
-783.383
 20
-2094.08
 30
0.000000
  70
    32
  0
VERTEX
  8
01
  5
113CE
 10
-783.388
 20
-2094.07
 30
0.000000
  70
    32
  0
VERTEX
  8
01
  5
113CF
 10
-783.394
 20
-2094.07
 30
0.000000
  70
    32
  0
VERTEX
  8
01
  5
113D0
 10
-783.399
 20
-2094.07
 30
0.000000
  70
    32
  0
VERTEX
  8
01
  5
113D1
 10
-783.405
 20
-2094.07
 30
0.000000
  70
    32
  0
VERTEX
  8
01
  5
113D2
 10
-783.410
 20
-2094.06
 30
0.000000
  70
    32
  0
VERTEX
  8
01
  5
113D3
 10
-783.416
 20
-2094.06
 30
0.000000
  70
    32
  0
VERTEX
  8
01
  5
113D4
 10
-783.422
 20
-2094.06
 30
0.000000
  70
    32
  0
VERTEX
  8
01
  5
113D5
 10
-783.427
 20
-2094.06
 30
0.000000
  70
    32
  0
VERTEX
  8
01
  5
113D6
 10
-783.433
 20
-2094.05
 30
0.000000
  70
    32
  0
VERTEX
  8
01
  5
113D7
 10
-783.439
 20
-2094.05
 30
0.000000
  70
    32
  0
VERTEX
  8
01
  5
113D8
 10
-783.445
 20
-2094.05
 30
0.000000
  70
    32
  0
VERTEX
  8
01
  5
113D9
 10
-783.450
 20
-2094.05
 30
0.000000
  70
    32
  0
VERTEX
  8
01
  5
113DA
 10
-783.456
 20
-2094.05
 30
0.000000
  70
    32
  0
VERTEX
  8
01
  5
113DB
 10
-783.462
 20
-2094.04
 30
0.000000
  70
    32
  0
VERTEX
  8
01
  5
113DC
 10
-783.468
 20
-2094.04
 30
0.000000
  70
    32
  0
VERTEX
  8
01
  5
113DD
 10
-783.474
 20
-2094.04
 30
0.000000
  70
    32
  0
VERTEX
  8
01
  5
113DE
 10
-783.480
 20
-2094.04
 30
0.000000
  70
    32
  0
VERTEX
  8
01
  5
113DF
 10
-783.486
 20
-2094.04
 30
0.000000
  70
    32
  0
VERTEX
  8
01
  5
113E0
 10
-783.492
 20
-2094.04
 30
0.000000
  70
    32
  0
VERTEX
  8
01
  5
113E1
 10
-783.498
 20
-2094.03
 30
0.000000
  70
    32
  0
VERTEX
  8
01
  5
113E2
 10
-783.503
 20
-2094.03
 30
0.000000
  70
    32
  0
VERTEX
  8
01
  5
113E3
 10
-783.509
 20
-2094.03
 30
0.000000
  70
    32
  0
VERTEX
  8
01
  5
113E4
 10
-783.515
 20
-2094.03
 30
0.000000
  70
    32
  0
VERTEX
  8
01
  5
113E5
 10
-783.522
 20
-2094.03
 30
0.000000
  70
    32
  0
VERTEX
  8
01
  5
113E6
 10
-783.528
 20
-2094.03
 30
0.000000
  70
    32
  0
VERTEX
  8
01
  5
113E7
 10
-783.534
 20
-2094.03
 30
0.000000
  70
    32
  0
VERTEX
  8
01
  5
113E8
 10
-783.540
 20
-2094.03
 30
0.000000
  70
    32
  0
VERTEX
  8
01
  5
113E9
 10
-783.546
 20
-2094.03
 30
0.000000
  70
    32
  0
VERTEX
  8
01
  5
113EA
 10
-783.552
 20
-2094.02
 30
0.000000
  70
    32
  0
VERTEX
  8
01
  5
113EB
 10
-783.558
 20
-2094.02
 30
0.000000
  70
    32
  0
VERTEX
  8
01
  5
113EC
 10
-783.564
 20
-2094.02
 30
0.000000
  70
    32
  0
VERTEX
  8
01
  5
113ED
 10
-783.570
 20
-2094.02
 30
0.000000
  70
    32
  0
VERTEX
  8
01
  5
113EE
 10
-783.576
 20
-2094.02
 30
0.000000
  70
    32
  0
VERTEX
  8
01
  5
113EF
 10
-783.582
 20
-2094.02
 30
0.000000
  70
    32
  0
VERTEX
  8
01
  5
113F0
 10
-783.589
 20
-2094.02
 30
0.000000
  70
    32
  0
VERTEX
  8
01
  5
113F1
 10
-783.595
 20
-2094.02
 30
0.000000
  70
    32
  0
VERTEX
  8
01
  5
113F2
 10
-783.601
 20
-2094.02
 30
0.000000
  70
    32
  0
VERTEX
  8
01
  5
113F3
 10
-783.607
 20
-2094.02
 30
0.000000
  70
    32
  0
VERTEX
  8
01
  5
113F4
 10
-783.613
 20
-2094.02
 30
0.000000
  70
    32
  0
SEQEND
  8
01
  5
113F5
  0
POLYLINE
  5
1099F
  8
01
 10
-803.11303831494672
 20
-2126.7210076383321
 30
0.0
 66
     1
 70
     8
  0
VERTEX
  8
01
  5
113F6
 10
-803.113
 20
-2126.72
 30
0.000000
  70
    32
  0
VERTEX
  8
01
  5
113F7
 10
-803.113
 20
-2126.73
 30
0.000000
  70
    32
  0
VERTEX
  8
01
  5
113F8
 10
-803.113
 20
-2126.73
 30
0.000000
  70
    32
  0
VERTEX
  8
01
  5
113F9
 10
-803.113
 20
-2126.74
 30
0.000000
  70
    32
  0
VERTEX
  8
01
  5
113FA
 10
-803.112
 20
-2126.75
 30
0.000000
  70
    32
  0
VERTEX
  8
01
  5
113FB
 10
-803.112
 20
-2126.75
 30
0.000000
  70
    32
  0
VERTEX
  8
01
  5
113FC
 10
-803.112
 20
-2126.76
 30
0.000000
  70
    32
  0
VERTEX
  8
01
  5
113FD
 10
-803.111
 20
-2126.76
 30
0.000000
  70
    32
  0
VERTEX
  8
01
  5
113FE
 10
-803.111
 20
-2126.77
 30
0.000000
  70
    32
  0
VERTEX
  8
01
  5
113FF
 10
-803.110
 20
-2126.78
 30
0.000000
  70
    32
  0
VERTEX
  8
01
  5
11400
 10
-803.109
 20
-2126.78
 30
0.000000
  70
    32
  0
VERTEX
  8
01
  5
11401
 10
-803.108
 20
-2126.79
 30
0.000000
  70
    32
  0
VERTEX
  8
01
  5
11402
 10
-803.108
 20
-2126.79
 30
0.000000
  70
    32
  0
VERTEX
  8
01
  5
11403
 10
-803.107
 20
-2126.80
 30
0.000000
  70
    32
  0
VERTEX
  8
01
  5
11404
 10
-803.106
 20
-2126.81
 30
0.000000
  70
    32
  0
VERTEX
  8
01
  5
11405
 10
-803.105
 20
-2126.81
 30
0.000000
  70
    32
  0
VERTEX
  8
01
  5
11406
 10
-803.103
 20
-2126.82
 30
0.000000
  70
    32
  0
VERTEX
  8
01
  5
11407
 10
-803.102
 20
-2126.82
 30
0.000000
  70
    32
  0
VERTEX
  8
01
  5
11408
 10
-803.101
 20
-2126.83
 30
0.000000
  70
    32
  0
VERTEX
  8
01
  5
11409
 10
-803.100
 20
-2126.84
 30
0.000000
  70
    32
  0
VERTEX
  8
01
  5
1140A
 10
-803.098
 20
-2126.84
 30
0.000000
  70
    32
  0
VERTEX
  8
01
  5
1140B
 10
-803.097
 20
-2126.85
 30
0.000000
  70
    32
  0
VERTEX
  8
01
  5
1140C
 10
-803.095
 20
-2126.85
 30
0.000000
  70
    32
  0
VERTEX
  8
01
  5
1140D
 10
-803.093
 20
-2126.86
 30
0.000000
  70
    32
  0
VERTEX
  8
01
  5
1140E
 10
-803.092
 20
-2126.87
 30
0.000000
  70
    32
  0
VERTEX
  8
01
  5
1140F
 10
-803.090
 20
-2126.87
 30
0.000000
  70
    32
  0
VERTEX
  8
01
  5
11410
 10
-803.088
 20
-2126.88
 30
0.000000
  70
    32
  0
VERTEX
  8
01
  5
11411
 10
-803.086
 20
-2126.88
 30
0.000000
  70
    32
  0
VERTEX
  8
01
  5
11412
 10
-803.084
 20
-2126.89
 30
0.000000
  70
    32
  0
VERTEX
  8
01
  5
11413
 10
-803.082
 20
-2126.90
 30
0.000000
  70
    32
  0
VERTEX
  8
01
  5
11414
 10
-803.080
 20
-2126.90
 30
0.000000
  70
    32
  0
VERTEX
  8
01
  5
11415
 10
-803.077
 20
-2126.91
 30
0.000000
  70
    32
  0
VERTEX
  8
01
  5
11416
 10
-803.075
 20
-2126.91
 30
0.000000
  70
    32
  0
VERTEX
  8
01
  5
11417
 10
-803.073
 20
-2126.92
 30
0.000000
  70
    32
  0
VERTEX
  8
01
  5
11418
 10
-803.070
 20
-2126.92
 30
0.000000
  70
    32
  0
VERTEX
  8
01
  5
11419
 10
-803.068
 20
-2126.93
 30
0.000000
  70
    32
  0
VERTEX
  8
01
  5
1141A
 10
-803.065
 20
-2126.93
 30
0.000000
  70
    32
  0
VERTEX
  8
01
  5
1141B
 10
-803.062
 20
-2126.94
 30
0.000000
  70
    32
  0
VERTEX
  8
01
  5
1141C
 10
-803.060
 20
-2126.95
 30
0.000000
  70
    32
  0
VERTEX
  8
01
  5
1141D
 10
-803.057
 20
-2126.95
 30
0.000000
  70
    32
  0
VERTEX
  8
01
  5
1141E
 10
-803.054
 20
-2126.96
 30
0.000000
  70
    32
  0
VERTEX
  8
01
  5
1141F
 10
-803.051
 20
-2126.96
 30
0.000000
  70
    32
  0
VERTEX
  8
01
  5
11420
 10
-803.048
 20
-2126.97
 30
0.000000
  70
    32
  0
VERTEX
  8
01
  5
11421
 10
-803.045
 20
-2126.97
 30
0.000000
  70
    32
  0
VERTEX
  8
01
  5
11422
 10
-803.042
 20
-2126.98
 30
0.000000
  70
    32
  0
VERTEX
  8
01
  5
11423
 10
-803.039
 20
-2126.98
 30
0.000000
  70
    32
  0
VERTEX
  8
01
  5
11424
 10
-803.035
 20
-2126.99
 30
0.000000
  70
    32
  0
VERTEX
  8
01
  5
11425
 10
-803.032
 20
-2126.99
 30
0.000000
  70
    32
  0
VERTEX
  8
01
  5
11426
 10
-803.029
 20
-2127.00
 30
0.000000
  70
    32
  0
VERTEX
  8
01
  5
11427
 10
-803.025
 20
-2127.00
 30
0.000000
  70
    32
  0
VERTEX
  8
01
  5
11428
 10
-803.022
 20
-2127.01
 30
0.000000
  70
    32
  0
VERTEX
  8
01
  5
11429
 10
-803.018
 20
-2127.01
 30
0.000000
  70
    32
  0
VERTEX
  8
01
  5
1142A
 10
-803.015
 20
-2127.02
 30
0.000000
  70
    32
  0
VERTEX
  8
01
  5
1142B
 10
-803.011
 20
-2127.02
 30
0.000000
  70
    32
  0
VERTEX
  8
01
  5
1142C
 10
-803.007
 20
-2127.03
 30
0.000000
  70
    32
  0
VERTEX
  8
01
  5
1142D
 10
-803.003
 20
-2127.03
 30
0.000000
  70
    32
  0
VERTEX
  8
01
  5
1142E
 10
-803.000
 20
-2127.04
 30
0.000000
  70
    32
  0
VERTEX
  8
01
  5
1142F
 10
-802.996
 20
-2127.04
 30
0.000000
  70
    32
  0
VERTEX
  8
01
  5
11430
 10
-802.992
 20
-2127.05
 30
0.000000
  70
    32
  0
VERTEX
  8
01
  5
11431
 10
-802.988
 20
-2127.05
 30
0.000000
  70
    32
  0
VERTEX
  8
01
  5
11432
 10
-802.984
 20
-2127.06
 30
0.000000
  70
    32
  0
VERTEX
  8
01
  5
11433
 10
-802.979
 20
-2127.06
 30
0.000000
  70
    32
  0
VERTEX
  8
01
  5
11434
 10
-802.975
 20
-2127.07
 30
0.000000
  70
    32
  0
VERTEX
  8
01
  5
11435
 10
-802.971
 20
-2127.07
 30
0.000000
  70
    32
  0
VERTEX
  8
01
  5
11436
 10
-802.967
 20
-2127.07
 30
0.000000
  70
    32
  0
VERTEX
  8
01
  5
11437
 10
-802.962
 20
-2127.08
 30
0.000000
  70
    32
  0
VERTEX
  8
01
  5
11438
 10
-802.958
 20
-2127.08
 30
0.000000
  70
    32
  0
VERTEX
  8
01
  5
11439
 10
-802.953
 20
-2127.09
 30
0.000000
  70
    32
  0
VERTEX
  8
01
  5
1143A
 10
-802.949
 20
-2127.09
 30
0.000000
  70
    32
  0
VERTEX
  8
01
  5
1143B
 10
-802.944
 20
-2127.10
 30
0.000000
  70
    32
  0
VERTEX
  8
01
  5
1143C
 10
-802.940
 20
-2127.10
 30
0.000000
  70
    32
  0
VERTEX
  8
01
  5
1143D
 10
-802.935
 20
-2127.10
 30
0.000000
  70
    32
  0
VERTEX
  8
01
  5
1143E
 10
-802.930
 20
-2127.11
 30
0.000000
  70
    32
  0
VERTEX
  8
01
  5
1143F
 10
-802.925
 20
-2127.11
 30
0.000000
  70
    32
  0
VERTEX
  8
01
  5
11440
 10
-802.921
 20
-2127.12
 30
0.000000
  70
    32
  0
VERTEX
  8
01
  5
11441
 10
-802.916
 20
-2127.12
 30
0.000000
  70
    32
  0
VERTEX
  8
01
  5
11442
 10
-802.911
 20
-2127.12
 30
0.000000
  70
    32
  0
VERTEX
  8
01
  5
11443
 10
-802.906
 20
-2127.13
 30
0.000000
  70
    32
  0
VERTEX
  8
01
  5
11444
 10
-802.901
 20
-2127.13
 30
0.000000
  70
    32
  0
VERTEX
  8
01
  5
11445
 10
-802.896
 20
-2127.13
 30
0.000000
  70
    32
  0
VERTEX
  8
01
  5
11446
 10
-802.891
 20
-2127.14
 30
0.000000
  70
    32
  0
VERTEX
  8
01
  5
11447
 10
-802.886
 20
-2127.14
 30
0.000000
  70
    32
  0
VERTEX
  8
01
  5
11448
 10
-802.881
 20
-2127.14
 30
0.000000
  70
    32
  0
VERTEX
  8
01
  5
11449
 10
-802.875
 20
-2127.15
 30
0.000000
  70
    32
  0
VERTEX
  8
01
  5
1144A
 10
-802.870
 20
-2127.15
 30
0.000000
  70
    32
  0
VERTEX
  8
01
  5
1144B
 10
-802.865
 20
-2127.15
 30
0.000000
  70
    32
  0
VERTEX
  8
01
  5
1144C
 10
-802.859
 20
-2127.16
 30
0.000000
  70
    32
  0
VERTEX
  8
01
  5
1144D
 10
-802.854
 20
-2127.16
 30
0.000000
  70
    32
  0
VERTEX
  8
01
  5
1144E
 10
-802.849
 20
-2127.16
 30
0.000000
  70
    32
  0
VERTEX
  8
01
  5
1144F
 10
-802.843
 20
-2127.16
 30
0.000000
  70
    32
  0
VERTEX
  8
01
  5
11450
 10
-802.838
 20
-2127.17
 30
0.000000
  70
    32
  0
VERTEX
  8
01
  5
11451
 10
-802.832
 20
-2127.17
 30
0.000000
  70
    32
  0
VERTEX
  8
01
  5
11452
 10
-802.827
 20
-2127.17
 30
0.000000
  70
    32
  0
VERTEX
  8
01
  5
11453
 10
-802.821
 20
-2127.18
 30
0.000000
  70
    32
  0
VERTEX
  8
01
  5
11454
 10
-802.816
 20
-2127.18
 30
0.000000
  70
    32
  0
VERTEX
  8
01
  5
11455
 10
-802.810
 20
-2127.18
 30
0.000000
  70
    32
  0
VERTEX
  8
01
  5
11456
 10
-802.804
 20
-2127.18
 30
0.000000
  70
    32
  0
VERTEX
  8
01
  5
11457
 10
-802.799
 20
-2127.19
 30
0.000000
  70
    32
  0
VERTEX
  8
01
  5
11458
 10
-802.793
 20
-2127.19
 30
0.000000
  70
    32
  0
VERTEX
  8
01
  5
11459
 10
-802.787
 20
-2127.19
 30
0.000000
  70
    32
  0
VERTEX
  8
01
  5
1145A
 10
-802.781
 20
-2127.19
 30
0.000000
  70
    32
  0
VERTEX
  8
01
  5
1145B
 10
-802.776
 20
-2127.19
 30
0.000000
  70
    32
  0
VERTEX
  8
01
  5
1145C
 10
-802.770
 20
-2127.20
 30
0.000000
  70
    32
  0
VERTEX
  8
01
  5
1145D
 10
-802.764
 20
-2127.20
 30
0.000000
  70
    32
  0
VERTEX
  8
01
  5
1145E
 10
-802.758
 20
-2127.20
 30
0.000000
  70
    32
  0
VERTEX
  8
01
  5
1145F
 10
-802.752
 20
-2127.20
 30
0.000000
  70
    32
  0
VERTEX
  8
01
  5
11460
 10
-802.746
 20
-2127.20
 30
0.000000
  70
    32
  0
VERTEX
  8
01
  5
11461
 10
-802.740
 20
-2127.20
 30
0.000000
  70
    32
  0
VERTEX
  8
01
  5
11462
 10
-802.735
 20
-2127.21
 30
0.000000
  70
    32
  0
VERTEX
  8
01
  5
11463
 10
-802.729
 20
-2127.21
 30
0.000000
  70
    32
  0
VERTEX
  8
01
  5
11464
 10
-802.723
 20
-2127.21
 30
0.000000
  70
    32
  0
VERTEX
  8
01
  5
11465
 10
-802.717
 20
-2127.21
 30
0.000000
  70
    32
  0
VERTEX
  8
01
  5
11466
 10
-802.711
 20
-2127.21
 30
0.000000
  70
    32
  0
VERTEX
  8
01
  5
11467
 10
-802.705
 20
-2127.21
 30
0.000000
  70
    32
  0
VERTEX
  8
01
  5
11468
 10
-802.699
 20
-2127.21
 30
0.000000
  70
    32
  0
VERTEX
  8
01
  5
11469
 10
-802.692
 20
-2127.21
 30
0.000000
  70
    32
  0
VERTEX
  8
01
  5
1146A
 10
-802.686
 20
-2127.22
 30
0.000000
  70
    32
  0
VERTEX
  8
01
  5
1146B
 10
-802.680
 20
-2127.22
 30
0.000000
  70
    32
  0
VERTEX
  8
01
  5
1146C
 10
-802.674
 20
-2127.22
 30
0.000000
  70
    32
  0
VERTEX
  8
01
  5
1146D
 10
-802.668
 20
-2127.22
 30
0.000000
  70
    32
  0
VERTEX
  8
01
  5
1146E
 10
-802.662
 20
-2127.22
 30
0.000000
  70
    32
  0
VERTEX
  8
01
  5
1146F
 10
-802.656
 20
-2127.22
 30
0.000000
  70
    32
  0
VERTEX
  8
01
  5
11470
 10
-802.650
 20
-2127.22
 30
0.000000
  70
    32
  0
VERTEX
  8
01
  5
11471
 10
-802.644
 20
-2127.22
 30
0.000000
  70
    32
  0
VERTEX
  8
01
  5
11472
 10
-802.638
 20
-2127.22
 30
0.000000
  70
    32
  0
VERTEX
  8
01
  5
11473
 10
-802.631
 20
-2127.22
 30
0.000000
  70
    32
  0
VERTEX
  8
01
  5
11474
 10
-802.625
 20
-2127.22
 30
0.000000
  70
    32
  0
VERTEX
  8
01
  5
11475
 10
-802.619
 20
-2127.22
 30
0.000000
  70
    32
  0
VERTEX
  8
01
  5
11476
 10
-802.613
 20
-2127.22
 30
0.000000
  70
    32
  0
SEQEND
  8
01
  5
11477
  0
POLYLINE
  5
109A0
  8
01
 10
-783.61303831494627
 20
-2127.2210071383324
 30
0.0
 66
     1
 70
     8
  0
VERTEX
  8
01
  5
11478
 10
-783.613
 20
-2127.22
 30
0.000000
  70
    32
  0
VERTEX
  8
01
  5
11479
 10
-783.607
 20
-2127.22
 30
0.000000
  70
    32
  0
VERTEX
  8
01
  5
1147A
 10
-783.601
 20
-2127.22
 30
0.000000
  70
    32
  0
VERTEX
  8
01
  5
1147B
 10
-783.595
 20
-2127.22
 30
0.000000
  70
    32
  0
VERTEX
  8
01
  5
1147C
 10
-783.589
 20
-2127.22
 30
0.000000
  70
    32
  0
VERTEX
  8
01
  5
1147D
 10
-783.582
 20
-2127.22
 30
0.000000
  70
    32
  0
VERTEX
  8
01
  5
1147E
 10
-783.576
 20
-2127.22
 30
0.000000
  70
    32
  0
VERTEX
  8
01
  5
1147F
 10
-783.570
 20
-2127.22
 30
0.000000
  70
    32
  0
VERTEX
  8
01
  5
11480
 10
-783.564
 20
-2127.22
 30
0.000000
  70
    32
  0
VERTEX
  8
01
  5
11481
 10
-783.558
 20
-2127.22
 30
0.000000
  70
    32
  0
VERTEX
  8
01
  5
11482
 10
-783.552
 20
-2127.22
 30
0.000000
  70
    32
  0
VERTEX
  8
01
  5
11483
 10
-783.546
 20
-2127.22
 30
0.000000
  70
    32
  0
VERTEX
  8
01
  5
11484
 10
-783.540
 20
-2127.22
 30
0.000000
  70
    32
  0
VERTEX
  8
01
  5
11485
 10
-783.534
 20
-2127.21
 30
0.000000
  70
    32
  0
VERTEX
  8
01
  5
11486
 10
-783.528
 20
-2127.21
 30
0.000000
  70
    32
  0
VERTEX
  8
01
  5
11487
 10
-783.522
 20
-2127.21
 30
0.000000
  70
    32
  0
VERTEX
  8
01
  5
11488
 10
-783.515
 20
-2127.21
 30
0.000000
  70
    32
  0
VERTEX
  8
01
  5
11489
 10
-783.509
 20
-2127.21
 30
0.000000
  70
    32
  0
VERTEX
  8
01
  5
1148A
 10
-783.503
 20
-2127.21
 30
0.000000
  70
    32
  0
VERTEX
  8
01
  5
1148B
 10
-783.498
 20
-2127.21
 30
0.000000
  70
    32
  0
VERTEX
  8
01
  5
1148C
 10
-783.492
 20
-2127.21
 30
0.000000
  70
    32
  0
VERTEX
  8
01
  5
1148D
 10
-783.486
 20
-2127.20
 30
0.000000
  70
    32
  0
VERTEX
  8
01
  5
1148E
 10
-783.480
 20
-2127.20
 30
0.000000
  70
    32
  0
VERTEX
  8
01
  5
1148F
 10
-783.474
 20
-2127.20
 30
0.000000
  70
    32
  0
VERTEX
  8
01
  5
11490
 10
-783.468
 20
-2127.20
 30
0.000000
  70
    32
  0
VERTEX
  8
01
  5
11491
 10
-783.462
 20
-2127.20
 30
0.000000
  70
    32
  0
VERTEX
  8
01
  5
11492
 10
-783.456
 20
-2127.20
 30
0.000000
  70
    32
  0
VERTEX
  8
01
  5
11493
 10
-783.450
 20
-2127.19
 30
0.000000
  70
    32
  0
VERTEX
  8
01
  5
11494
 10
-783.445
 20
-2127.19
 30
0.000000
  70
    32
  0
VERTEX
  8
01
  5
11495
 10
-783.439
 20
-2127.19
 30
0.000000
  70
    32
  0
VERTEX
  8
01
  5
11496
 10
-783.433
 20
-2127.19
 30
0.000000
  70
    32
  0
VERTEX
  8
01
  5
11497
 10
-783.427
 20
-2127.19
 30
0.000000
  70
    32
  0
VERTEX
  8
01
  5
11498
 10
-783.422
 20
-2127.18
 30
0.000000
  70
    32
  0
VERTEX
  8
01
  5
11499
 10
-783.416
 20
-2127.18
 30
0.000000
  70
    32
  0
VERTEX
  8
01
  5
1149A
 10
-783.410
 20
-2127.18
 30
0.000000
  70
    32
  0
VERTEX
  8
01
  5
1149B
 10
-783.405
 20
-2127.18
 30
0.000000
  70
    32
  0
VERTEX
  8
01
  5
1149C
 10
-783.399
 20
-2127.17
 30
0.000000
  70
    32
  0
VERTEX
  8
01
  5
1149D
 10
-783.394
 20
-2127.17
 30
0.000000
  70
    32
  0
VERTEX
  8
01
  5
1149E
 10
-783.388
 20
-2127.17
 30
0.000000
  70
    32
  0
VERTEX
  8
01
  5
1149F
 10
-783.383
 20
-2127.16
 30
0.000000
  70
    32
  0
VERTEX
  8
01
  5
114A0
 10
-783.377
 20
-2127.16
 30
0.000000
  70
    32
  0
VERTEX
  8
01
  5
114A1
 10
-783.372
 20
-2127.16
 30
0.000000
  70
    32
  0
VERTEX
  8
01
  5
114A2
 10
-783.367
 20
-2127.16
 30
0.000000
  70
    32
  0
VERTEX
  8
01
  5
114A3
 10
-783.361
 20
-2127.15
 30
0.000000
  70
    32
  0
VERTEX
  8
01
  5
114A4
 10
-783.356
 20
-2127.15
 30
0.000000
  70
    32
  0
VERTEX
  8
01
  5
114A5
 10
-783.351
 20
-2127.15
 30
0.000000
  70
    32
  0
VERTEX
  8
01
  5
114A6
 10
-783.346
 20
-2127.14
 30
0.000000
  70
    32
  0
VERTEX
  8
01
  5
114A7
 10
-783.340
 20
-2127.14
 30
0.000000
  70
    32
  0
VERTEX
  8
01
  5
114A8
 10
-783.335
 20
-2127.14
 30
0.000000
  70
    32
  0
VERTEX
  8
01
  5
114A9
 10
-783.330
 20
-2127.13
 30
0.000000
  70
    32
  0
VERTEX
  8
01
  5
114AA
 10
-783.325
 20
-2127.13
 30
0.000000
  70
    32
  0
VERTEX
  8
01
  5
114AB
 10
-783.320
 20
-2127.13
 30
0.000000
  70
    32
  0
VERTEX
  8
01
  5
114AC
 10
-783.315
 20
-2127.12
 30
0.000000
  70
    32
  0
VERTEX
  8
01
  5
114AD
 10
-783.310
 20
-2127.12
 30
0.000000
  70
    32
  0
VERTEX
  8
01
  5
114AE
 10
-783.305
 20
-2127.12
 30
0.000000
  70
    32
  0
VERTEX
  8
01
  5
114AF
 10
-783.301
 20
-2127.11
 30
0.000000
  70
    32
  0
VERTEX
  8
01
  5
114B0
 10
-783.296
 20
-2127.11
 30
0.000000
  70
    32
  0
VERTEX
  8
01
  5
114B1
 10
-783.291
 20
-2127.10
 30
0.000000
  70
    32
  0
VERTEX
  8
01
  5
114B2
 10
-783.286
 20
-2127.10
 30
0.000000
  70
    32
  0
VERTEX
  8
01
  5
114B3
 10
-783.282
 20
-2127.10
 30
0.000000
  70
    32
  0
VERTEX
  8
01
  5
114B4
 10
-783.277
 20
-2127.09
 30
0.000000
  70
    32
  0
VERTEX
  8
01
  5
114B5
 10
-783.273
 20
-2127.09
 30
0.000000
  70
    32
  0
VERTEX
  8
01
  5
114B6
 10
-783.268
 20
-2127.08
 30
0.000000
  70
    32
  0
VERTEX
  8
01
  5
114B7
 10
-783.264
 20
-2127.08
 30
0.000000
  70
    32
  0
VERTEX
  8
01
  5
114B8
 10
-783.259
 20
-2127.07
 30
0.000000
  70
    32
  0
VERTEX
  8
01
  5
114B9
 10
-783.255
 20
-2127.07
 30
0.000000
  70
    32
  0
VERTEX
  8
01
  5
114BA
 10
-783.251
 20
-2127.07
 30
0.000000
  70
    32
  0
VERTEX
  8
01
  5
114BB
 10
-783.247
 20
-2127.06
 30
0.000000
  70
    32
  0
VERTEX
  8
01
  5
114BC
 10
-783.243
 20
-2127.06
 30
0.000000
  70
    32
  0
VERTEX
  8
01
  5
114BD
 10
-783.238
 20
-2127.05
 30
0.000000
  70
    32
  0
VERTEX
  8
01
  5
114BE
 10
-783.234
 20
-2127.05
 30
0.000000
  70
    32
  0
VERTEX
  8
01
  5
114BF
 10
-783.230
 20
-2127.04
 30
0.000000
  70
    32
  0
VERTEX
  8
01
  5
114C0
 10
-783.227
 20
-2127.04
 30
0.000000
  70
    32
  0
VERTEX
  8
01
  5
114C1
 10
-783.223
 20
-2127.03
 30
0.000000
  70
    32
  0
VERTEX
  8
01
  5
114C2
 10
-783.219
 20
-2127.03
 30
0.000000
  70
    32
  0
VERTEX
  8
01
  5
114C3
 10
-783.215
 20
-2127.02
 30
0.000000
  70
    32
  0
VERTEX
  8
01
  5
114C4
 10
-783.211
 20
-2127.02
 30
0.000000
  70
    32
  0
VERTEX
  8
01
  5
114C5
 10
-783.208
 20
-2127.01
 30
0.000000
  70
    32
  0
VERTEX
  8
01
  5
114C6
 10
-783.204
 20
-2127.01
 30
0.000000
  70
    32
  0
VERTEX
  8
01
  5
114C7
 10
-783.201
 20
-2127.00
 30
0.000000
  70
    32
  0
VERTEX
  8
01
  5
114C8
 10
-783.197
 20
-2127.00
 30
0.000000
  70
    32
  0
VERTEX
  8
01
  5
114C9
 10
-783.194
 20
-2126.99
 30
0.000000
  70
    32
  0
VERTEX
  8
01
  5
114CA
 10
-783.191
 20
-2126.99
 30
0.000000
  70
    32
  0
VERTEX
  8
01
  5
114CB
 10
-783.187
 20
-2126.98
 30
0.000000
  70
    32
  0
VERTEX
  8
01
  5
114CC
 10
-783.184
 20
-2126.98
 30
0.000000
  70
    32
  0
VERTEX
  8
01
  5
114CD
 10
-783.181
 20
-2126.97
 30
0.000000
  70
    32
  0
VERTEX
  8
01
  5
114CE
 10
-783.178
 20
-2126.97
 30
0.000000
  70
    32
  0
VERTEX
  8
01
  5
114CF
 10
-783.175
 20
-2126.96
 30
0.000000
  70
    32
  0
VERTEX
  8
01
  5
114D0
 10
-783.172
 20
-2126.96
 30
0.000000
  70
    32
  0
VERTEX
  8
01
  5
114D1
 10
-783.169
 20
-2126.95
 30
0.000000
  70
    32
  0
VERTEX
  8
01
  5
114D2
 10
-783.166
 20
-2126.95
 30
0.000000
  70
    32
  0
VERTEX
  8
01
  5
114D3
 10
-783.164
 20
-2126.94
 30
0.000000
  70
    32
  0
VERTEX
  8
01
  5
114D4
 10
-783.161
 20
-2126.93
 30
0.000000
  70
    32
  0
VERTEX
  8
01
  5
114D5
 10
-783.158
 20
-2126.93
 30
0.000000
  70
    32
  0
VERTEX
  8
01
  5
114D6
 10
-783.156
 20
-2126.92
 30
0.000000
  70
    32
  0
VERTEX
  8
01
  5
114D7
 10
-783.153
 20
-2126.92
 30
0.000000
  70
    32
  0
VERTEX
  8
01
  5
114D8
 10
-783.151
 20
-2126.91
 30
0.000000
  70
    32
  0
VERTEX
  8
01
  5
114D9
 10
-783.149
 20
-2126.91
 30
0.000000
  70
    32
  0
VERTEX
  8
01
  5
114DA
 10
-783.147
 20
-2126.90
 30
0.000000
  70
    32
  0
VERTEX
  8
01
  5
114DB
 10
-783.144
 20
-2126.90
 30
0.000000
  70
    32
  0
VERTEX
  8
01
  5
114DC
 10
-783.142
 20
-2126.89
 30
0.000000
  70
    32
  0
VERTEX
  8
01
  5
114DD
 10
-783.140
 20
-2126.88
 30
0.000000
  70
    32
  0
VERTEX
  8
01
  5
114DE
 10
-783.138
 20
-2126.88
 30
0.000000
  70
    32
  0
VERTEX
  8
01
  5
114DF
 10
-783.136
 20
-2126.87
 30
0.000000
  70
    32
  0
VERTEX
  8
01
  5
114E0
 10
-783.135
 20
-2126.87
 30
0.000000
  70
    32
  0
VERTEX
  8
01
  5
114E1
 10
-783.133
 20
-2126.86
 30
0.000000
  70
    32
  0
VERTEX
  8
01
  5
114E2
 10
-783.131
 20
-2126.85
 30
0.000000
  70
    32
  0
VERTEX
  8
01
  5
114E3
 10
-783.130
 20
-2126.85
 30
0.000000
  70
    32
  0
VERTEX
  8
01
  5
114E4
 10
-783.128
 20
-2126.84
 30
0.000000
  70
    32
  0
VERTEX
  8
01
  5
114E5
 10
-783.127
 20
-2126.84
 30
0.000000
  70
    32
  0
VERTEX
  8
01
  5
114E6
 10
-783.125
 20
-2126.83
 30
0.000000
  70
    32
  0
VERTEX
  8
01
  5
114E7
 10
-783.124
 20
-2126.82
 30
0.000000
  70
    32
  0
VERTEX
  8
01
  5
114E8
 10
-783.123
 20
-2126.82
 30
0.000000
  70
    32
  0
VERTEX
  8
01
  5
114E9
 10
-783.121
 20
-2126.81
 30
0.000000
  70
    32
  0
VERTEX
  8
01
  5
114EA
 10
-783.120
 20
-2126.81
 30
0.000000
  70
    32
  0
VERTEX
  8
01
  5
114EB
 10
-783.119
 20
-2126.80
 30
0.000000
  70
    32
  0
VERTEX
  8
01
  5
114EC
 10
-783.118
 20
-2126.79
 30
0.000000
  70
    32
  0
VERTEX
  8
01
  5
114ED
 10
-783.118
 20
-2126.79
 30
0.000000
  70
    32
  0
VERTEX
  8
01
  5
114EE
 10
-783.117
 20
-2126.78
 30
0.000000
  70
    32
  0
VERTEX
  8
01
  5
114EF
 10
-783.116
 20
-2126.78
 30
0.000000
  70
    32
  0
VERTEX
  8
01
  5
114F0
 10
-783.115
 20
-2126.77
 30
0.000000
  70
    32
  0
VERTEX
  8
01
  5
114F1
 10
-783.115
 20
-2126.76
 30
0.000000
  70
    32
  0
VERTEX
  8
01
  5
114F2
 10
-783.114
 20
-2126.76
 30
0.000000
  70
    32
  0
VERTEX
  8
01
  5
114F3
 10
-783.114
 20
-2126.75
 30
0.000000
  70
    32
  0
VERTEX
  8
01
  5
114F4
 10
-783.114
 20
-2126.75
 30
0.000000
  70
    32
  0
VERTEX
  8
01
  5
114F5
 10
-783.113
 20
-2126.74
 30
0.000000
  70
    32
  0
VERTEX
  8
01
  5
114F6
 10
-783.113
 20
-2126.73
 30
0.000000
  70
    32
  0
VERTEX
  8
01
  5
114F7
 10
-783.113
 20
-2126.73
 30
0.000000
  70
    32
  0
VERTEX
  8
01
  5
114F8
 10
-783.113
 20
-2126.72
 30
0.000000
  70
    32
  0
SEQEND
  8
01
  5
114F9
  0
LINE
  5
109A1
  8
01
 10
-802.61303831494592
 20
-2073.721060638331
 30
0.0
 11
-783.61303831494661
 21
-2073.721060638331
 31
0.0
  0
LINE
  5
109A2
  8
01
 10
-802.61303831494592
 20
-2067.7210666383298
 30
0.0
 11
-783.61303831494661
 21
-2067.7210666383298
 31
0.0
  0
POLYLINE
  5
109A3
  8
01
 10
-783.11303831494661
 20
-2068.221066138331
 30
0.0
 66
     1
 70
     8
  0
VERTEX
  8
01
  5
114FA
 10
-783.113
 20
-2068.22
 30
0.000000
  70
    32
  0
VERTEX
  8
01
  5
114FB
 10
-783.113
 20
-2068.21
 30
0.000000
  70
    32
  0
VERTEX
  8
01
  5
114FC
 10
-783.113
 20
-2068.21
 30
0.000000
  70
    32
  0
VERTEX
  8
01
  5
114FD
 10
-783.113
 20
-2068.20
 30
0.000000
  70
    32
  0
VERTEX
  8
01
  5
114FE
 10
-783.114
 20
-2068.20
 30
0.000000
  70
    32
  0
VERTEX
  8
01
  5
114FF
 10
-783.114
 20
-2068.19
 30
0.000000
  70
    32
  0
VERTEX
  8
01
  5
11500
 10
-783.114
 20
-2068.18
 30
0.000000
  70
    32
  0
VERTEX
  8
01
  5
11501
 10
-783.115
 20
-2068.18
 30
0.000000
  70
    32
  0
VERTEX
  8
01
  5
11502
 10
-783.115
 20
-2068.17
 30
0.000000
  70
    32
  0
VERTEX
  8
01
  5
11503
 10
-783.116
 20
-2068.17
 30
0.000000
  70
    32
  0
VERTEX
  8
01
  5
11504
 10
-783.117
 20
-2068.16
 30
0.000000
  70
    32
  0
VERTEX
  8
01
  5
11505
 10
-783.118
 20
-2068.15
 30
0.000000
  70
    32
  0
VERTEX
  8
01
  5
11506
 10
-783.118
 20
-2068.15
 30
0.000000
  70
    32
  0
VERTEX
  8
01
  5
11507
 10
-783.119
 20
-2068.14
 30
0.000000
  70
    32
  0
VERTEX
  8
01
  5
11508
 10
-783.120
 20
-2068.14
 30
0.000000
  70
    32
  0
VERTEX
  8
01
  5
11509
 10
-783.121
 20
-2068.13
 30
0.000000
  70
    32
  0
VERTEX
  8
01
  5
1150A
 10
-783.123
 20
-2068.12
 30
0.000000
  70
    32
  0
VERTEX
  8
01
  5
1150B
 10
-783.124
 20
-2068.12
 30
0.000000
  70
    32
  0
VERTEX
  8
01
  5
1150C
 10
-783.125
 20
-2068.11
 30
0.000000
  70
    32
  0
VERTEX
  8
01
  5
1150D
 10
-783.127
 20
-2068.11
 30
0.000000
  70
    32
  0
VERTEX
  8
01
  5
1150E
 10
-783.128
 20
-2068.10
 30
0.000000
  70
    32
  0
VERTEX
  8
01
  5
1150F
 10
-783.130
 20
-2068.09
 30
0.000000
  70
    32
  0
VERTEX
  8
01
  5
11510
 10
-783.131
 20
-2068.09
 30
0.000000
  70
    32
  0
VERTEX
  8
01
  5
11511
 10
-783.133
 20
-2068.08
 30
0.000000
  70
    32
  0
VERTEX
  8
01
  5
11512
 10
-783.135
 20
-2068.08
 30
0.000000
  70
    32
  0
VERTEX
  8
01
  5
11513
 10
-783.136
 20
-2068.07
 30
0.000000
  70
    32
  0
VERTEX
  8
01
  5
11514
 10
-783.138
 20
-2068.06
 30
0.000000
  70
    32
  0
VERTEX
  8
01
  5
11515
 10
-783.140
 20
-2068.06
 30
0.000000
  70
    32
  0
VERTEX
  8
01
  5
11516
 10
-783.142
 20
-2068.05
 30
0.000000
  70
    32
  0
VERTEX
  8
01
  5
11517
 10
-783.144
 20
-2068.05
 30
0.000000
  70
    32
  0
VERTEX
  8
01
  5
11518
 10
-783.147
 20
-2068.04
 30
0.000000
  70
    32
  0
VERTEX
  8
01
  5
11519
 10
-783.149
 20
-2068.04
 30
0.000000
  70
    32
  0
VERTEX
  8
01
  5
1151A
 10
-783.151
 20
-2068.03
 30
0.000000
  70
    32
  0
VERTEX
  8
01
  5
1151B
 10
-783.153
 20
-2068.02
 30
0.000000
  70
    32
  0
VERTEX
  8
01
  5
1151C
 10
-783.156
 20
-2068.02
 30
0.000000
  70
    32
  0
VERTEX
  8
01
  5
1151D
 10
-783.158
 20
-2068.01
 30
0.000000
  70
    32
  0
VERTEX
  8
01
  5
1151E
 10
-783.161
 20
-2068.01
 30
0.000000
  70
    32
  0
VERTEX
  8
01
  5
1151F
 10
-783.164
 20
-2068.00
 30
0.000000
  70
    32
  0
VERTEX
  8
01
  5
11520
 10
-783.166
 20
-2068.00
 30
0.000000
  70
    32
  0
VERTEX
  8
01
  5
11521
 10
-783.169
 20
-2067.99
 30
0.000000
  70
    32
  0
VERTEX
  8
01
  5
11522
 10
-783.172
 20
-2067.99
 30
0.000000
  70
    32
  0
VERTEX
  8
01
  5
11523
 10
-783.175
 20
-2067.98
 30
0.000000
  70
    32
  0
VERTEX
  8
01
  5
11524
 10
-783.178
 20
-2067.97
 30
0.000000
  70
    32
  0
VERTEX
  8
01
  5
11525
 10
-783.181
 20
-2067.97
 30
0.000000
  70
    32
  0
VERTEX
  8
01
  5
11526
 10
-783.184
 20
-2067.96
 30
0.000000
  70
    32
  0
VERTEX
  8
01
  5
11527
 10
-783.187
 20
-2067.96
 30
0.000000
  70
    32
  0
VERTEX
  8
01
  5
11528
 10
-783.191
 20
-2067.95
 30
0.000000
  70
    32
  0
VERTEX
  8
01
  5
11529
 10
-783.194
 20
-2067.95
 30
0.000000
  70
    32
  0
VERTEX
  8
01
  5
1152A
 10
-783.197
 20
-2067.94
 30
0.000000
  70
    32
  0
VERTEX
  8
01
  5
1152B
 10
-783.201
 20
-2067.94
 30
0.000000
  70
    32
  0
VERTEX
  8
01
  5
1152C
 10
-783.204
 20
-2067.93
 30
0.000000
  70
    32
  0
VERTEX
  8
01
  5
1152D
 10
-783.208
 20
-2067.93
 30
0.000000
  70
    32
  0
VERTEX
  8
01
  5
1152E
 10
-783.211
 20
-2067.92
 30
0.000000
  70
    32
  0
VERTEX
  8
01
  5
1152F
 10
-783.215
 20
-2067.92
 30
0.000000
  70
    32
  0
VERTEX
  8
01
  5
11530
 10
-783.219
 20
-2067.91
 30
0.000000
  70
    32
  0
VERTEX
  8
01
  5
11531
 10
-783.223
 20
-2067.91
 30
0.000000
  70
    32
  0
VERTEX
  8
01
  5
11532
 10
-783.227
 20
-2067.90
 30
0.000000
  70
    32
  0
VERTEX
  8
01
  5
11533
 10
-783.230
 20
-2067.90
 30
0.000000
  70
    32
  0
VERTEX
  8
01
  5
11534
 10
-783.234
 20
-2067.89
 30
0.000000
  70
    32
  0
VERTEX
  8
01
  5
11535
 10
-783.238
 20
-2067.89
 30
0.000000
  70
    32
  0
VERTEX
  8
01
  5
11536
 10
-783.243
 20
-2067.89
 30
0.000000
  70
    32
  0
VERTEX
  8
01
  5
11537
 10
-783.247
 20
-2067.88
 30
0.000000
  70
    32
  0
VERTEX
  8
01
  5
11538
 10
-783.251
 20
-2067.88
 30
0.000000
  70
    32
  0
VERTEX
  8
01
  5
11539
 10
-783.255
 20
-2067.87
 30
0.000000
  70
    32
  0
VERTEX
  8
01
  5
1153A
 10
-783.259
 20
-2067.87
 30
0.000000
  70
    32
  0
VERTEX
  8
01
  5
1153B
 10
-783.264
 20
-2067.86
 30
0.000000
  70
    32
  0
VERTEX
  8
01
  5
1153C
 10
-783.268
 20
-2067.86
 30
0.000000
  70
    32
  0
VERTEX
  8
01
  5
1153D
 10
-783.273
 20
-2067.85
 30
0.000000
  70
    32
  0
VERTEX
  8
01
  5
1153E
 10
-783.277
 20
-2067.85
 30
0.000000
  70
    32
  0
VERTEX
  8
01
  5
1153F
 10
-783.282
 20
-2067.85
 30
0.000000
  70
    32
  0
VERTEX
  8
01
  5
11540
 10
-783.286
 20
-2067.84
 30
0.000000
  70
    32
  0
VERTEX
  8
01
  5
11541
 10
-783.291
 20
-2067.84
 30
0.000000
  70
    32
  0
VERTEX
  8
01
  5
11542
 10
-783.296
 20
-2067.83
 30
0.000000
  70
    32
  0
VERTEX
  8
01
  5
11543
 10
-783.301
 20
-2067.83
 30
0.000000
  70
    32
  0
VERTEX
  8
01
  5
11544
 10
-783.305
 20
-2067.83
 30
0.000000
  70
    32
  0
VERTEX
  8
01
  5
11545
 10
-783.310
 20
-2067.82
 30
0.000000
  70
    32
  0
VERTEX
  8
01
  5
11546
 10
-783.315
 20
-2067.82
 30
0.000000
  70
    32
  0
VERTEX
  8
01
  5
11547
 10
-783.320
 20
-2067.82
 30
0.000000
  70
    32
  0
VERTEX
  8
01
  5
11548
 10
-783.325
 20
-2067.81
 30
0.000000
  70
    32
  0
VERTEX
  8
01
  5
11549
 10
-783.330
 20
-2067.81
 30
0.000000
  70
    32
  0
VERTEX
  8
01
  5
1154A
 10
-783.335
 20
-2067.81
 30
0.000000
  70
    32
  0
VERTEX
  8
01
  5
1154B
 10
-783.340
 20
-2067.80
 30
0.000000
  70
    32
  0
VERTEX
  8
01
  5
1154C
 10
-783.346
 20
-2067.80
 30
0.000000
  70
    32
  0
VERTEX
  8
01
  5
1154D
 10
-783.351
 20
-2067.80
 30
0.000000
  70
    32
  0
VERTEX
  8
01
  5
1154E
 10
-783.356
 20
-2067.79
 30
0.000000
  70
    32
  0
VERTEX
  8
01
  5
1154F
 10
-783.361
 20
-2067.79
 30
0.000000
  70
    32
  0
VERTEX
  8
01
  5
11550
 10
-783.367
 20
-2067.79
 30
0.000000
  70
    32
  0
VERTEX
  8
01
  5
11551
 10
-783.372
 20
-2067.78
 30
0.000000
  70
    32
  0
VERTEX
  8
01
  5
11552
 10
-783.377
 20
-2067.78
 30
0.000000
  70
    32
  0
VERTEX
  8
01
  5
11553
 10
-783.383
 20
-2067.78
 30
0.000000
  70
    32
  0
VERTEX
  8
01
  5
11554
 10
-783.388
 20
-2067.77
 30
0.000000
  70
    32
  0
VERTEX
  8
01
  5
11555
 10
-783.394
 20
-2067.77
 30
0.000000
  70
    32
  0
VERTEX
  8
01
  5
11556
 10
-783.399
 20
-2067.77
 30
0.000000
  70
    32
  0
VERTEX
  8
01
  5
11557
 10
-783.405
 20
-2067.77
 30
0.000000
  70
    32
  0
VERTEX
  8
01
  5
11558
 10
-783.410
 20
-2067.76
 30
0.000000
  70
    32
  0
VERTEX
  8
01
  5
11559
 10
-783.416
 20
-2067.76
 30
0.000000
  70
    32
  0
VERTEX
  8
01
  5
1155A
 10
-783.422
 20
-2067.76
 30
0.000000
  70
    32
  0
VERTEX
  8
01
  5
1155B
 10
-783.427
 20
-2067.76
 30
0.000000
  70
    32
  0
VERTEX
  8
01
  5
1155C
 10
-783.433
 20
-2067.75
 30
0.000000
  70
    32
  0
VERTEX
  8
01
  5
1155D
 10
-783.439
 20
-2067.75
 30
0.000000
  70
    32
  0
VERTEX
  8
01
  5
1155E
 10
-783.445
 20
-2067.75
 30
0.000000
  70
    32
  0
VERTEX
  8
01
  5
1155F
 10
-783.450
 20
-2067.75
 30
0.000000
  70
    32
  0
VERTEX
  8
01
  5
11560
 10
-783.456
 20
-2067.75
 30
0.000000
  70
    32
  0
VERTEX
  8
01
  5
11561
 10
-783.462
 20
-2067.74
 30
0.000000
  70
    32
  0
VERTEX
  8
01
  5
11562
 10
-783.468
 20
-2067.74
 30
0.000000
  70
    32
  0
VERTEX
  8
01
  5
11563
 10
-783.474
 20
-2067.74
 30
0.000000
  70
    32
  0
VERTEX
  8
01
  5
11564
 10
-783.480
 20
-2067.74
 30
0.000000
  70
    32
  0
VERTEX
  8
01
  5
11565
 10
-783.486
 20
-2067.74
 30
0.000000
  70
    32
  0
VERTEX
  8
01
  5
11566
 10
-783.492
 20
-2067.74
 30
0.000000
  70
    32
  0
VERTEX
  8
01
  5
11567
 10
-783.498
 20
-2067.73
 30
0.000000
  70
    32
  0
VERTEX
  8
01
  5
11568
 10
-783.503
 20
-2067.73
 30
0.000000
  70
    32
  0
VERTEX
  8
01
  5
11569
 10
-783.509
 20
-2067.73
 30
0.000000
  70
    32
  0
VERTEX
  8
01
  5
1156A
 10
-783.515
 20
-2067.73
 30
0.000000
  70
    32
  0
VERTEX
  8
01
  5
1156B
 10
-783.522
 20
-2067.73
 30
0.000000
  70
    32
  0
VERTEX
  8
01
  5
1156C
 10
-783.528
 20
-2067.73
 30
0.000000
  70
    32
  0
VERTEX
  8
01
  5
1156D
 10
-783.534
 20
-2067.73
 30
0.000000
  70
    32
  0
VERTEX
  8
01
  5
1156E
 10
-783.540
 20
-2067.73
 30
0.000000
  70
    32
  0
VERTEX
  8
01
  5
1156F
 10
-783.546
 20
-2067.73
 30
0.000000
  70
    32
  0
VERTEX
  8
01
  5
11570
 10
-783.552
 20
-2067.72
 30
0.000000
  70
    32
  0
VERTEX
  8
01
  5
11571
 10
-783.558
 20
-2067.72
 30
0.000000
  70
    32
  0
VERTEX
  8
01
  5
11572
 10
-783.564
 20
-2067.72
 30
0.000000
  70
    32
  0
VERTEX
  8
01
  5
11573
 10
-783.570
 20
-2067.72
 30
0.000000
  70
    32
  0
VERTEX
  8
01
  5
11574
 10
-783.576
 20
-2067.72
 30
0.000000
  70
    32
  0
VERTEX
  8
01
  5
11575
 10
-783.582
 20
-2067.72
 30
0.000000
  70
    32
  0
VERTEX
  8
01
  5
11576
 10
-783.589
 20
-2067.72
 30
0.000000
  70
    32
  0
VERTEX
  8
01
  5
11577
 10
-783.595
 20
-2067.72
 30
0.000000
  70
    32
  0
VERTEX
  8
01
  5
11578
 10
-783.601
 20
-2067.72
 30
0.000000
  70
    32
  0
VERTEX
  8
01
  5
11579
 10
-783.607
 20
-2067.72
 30
0.000000
  70
    32
  0
VERTEX
  8
01
  5
1157A
 10
-783.613
 20
-2067.72
 30
0.000000
  70
    32
  0
SEQEND
  8
01
  5
1157B
  0
POLYLINE
  5
109A4
  8
01
 10
-802.61303831494592
 20
-2067.7210666383307
 30
0.0
 66
     1
 70
     8
  0
VERTEX
  8
01
  5
1157C
 10
-802.613
 20
-2067.72
 30
0.000000
  70
    32
  0
VERTEX
  8
01
  5
1157D
 10
-802.619
 20
-2067.72
 30
0.000000
  70
    32
  0
VERTEX
  8
01
  5
1157E
 10
-802.625
 20
-2067.72
 30
0.000000
  70
    32
  0
VERTEX
  8
01
  5
1157F
 10
-802.631
 20
-2067.72
 30
0.000000
  70
    32
  0
VERTEX
  8
01
  5
11580
 10
-802.638
 20
-2067.72
 30
0.000000
  70
    32
  0
VERTEX
  8
01
  5
11581
 10
-802.644
 20
-2067.72
 30
0.000000
  70
    32
  0
VERTEX
  8
01
  5
11582
 10
-802.650
 20
-2067.72
 30
0.000000
  70
    32
  0
VERTEX
  8
01
  5
11583
 10
-802.656
 20
-2067.72
 30
0.000000
  70
    32
  0
VERTEX
  8
01
  5
11584
 10
-802.662
 20
-2067.72
 30
0.000000
  70
    32
  0
VERTEX
  8
01
  5
11585
 10
-802.668
 20
-2067.72
 30
0.000000
  70
    32
  0
VERTEX
  8
01
  5
11586
 10
-802.674
 20
-2067.72
 30
0.000000
  70
    32
  0
VERTEX
  8
01
  5
11587
 10
-802.680
 20
-2067.73
 30
0.000000
  70
    32
  0
VERTEX
  8
01
  5
11588
 10
-802.686
 20
-2067.73
 30
0.000000
  70
    32
  0
VERTEX
  8
01
  5
11589
 10
-802.692
 20
-2067.73
 30
0.000000
  70
    32
  0
VERTEX
  8
01
  5
1158A
 10
-802.699
 20
-2067.73
 30
0.000000
  70
    32
  0
VERTEX
  8
01
  5
1158B
 10
-802.705
 20
-2067.73
 30
0.000000
  70
    32
  0
VERTEX
  8
01
  5
1158C
 10
-802.711
 20
-2067.73
 30
0.000000
  70
    32
  0
VERTEX
  8
01
  5
1158D
 10
-802.717
 20
-2067.73
 30
0.000000
  70
    32
  0
VERTEX
  8
01
  5
1158E
 10
-802.723
 20
-2067.73
 30
0.000000
  70
    32
  0
VERTEX
  8
01
  5
1158F
 10
-802.729
 20
-2067.73
 30
0.000000
  70
    32
  0
VERTEX
  8
01
  5
11590
 10
-802.735
 20
-2067.74
 30
0.000000
  70
    32
  0
VERTEX
  8
01
  5
11591
 10
-802.740
 20
-2067.74
 30
0.000000
  70
    32
  0
VERTEX
  8
01
  5
11592
 10
-802.746
 20
-2067.74
 30
0.000000
  70
    32
  0
VERTEX
  8
01
  5
11593
 10
-802.752
 20
-2067.74
 30
0.000000
  70
    32
  0
VERTEX
  8
01
  5
11594
 10
-802.758
 20
-2067.74
 30
0.000000
  70
    32
  0
VERTEX
  8
01
  5
11595
 10
-802.764
 20
-2067.74
 30
0.000000
  70
    32
  0
VERTEX
  8
01
  5
11596
 10
-802.770
 20
-2067.75
 30
0.000000
  70
    32
  0
VERTEX
  8
01
  5
11597
 10
-802.776
 20
-2067.75
 30
0.000000
  70
    32
  0
VERTEX
  8
01
  5
11598
 10
-802.781
 20
-2067.75
 30
0.000000
  70
    32
  0
VERTEX
  8
01
  5
11599
 10
-802.787
 20
-2067.75
 30
0.000000
  70
    32
  0
VERTEX
  8
01
  5
1159A
 10
-802.793
 20
-2067.75
 30
0.000000
  70
    32
  0
VERTEX
  8
01
  5
1159B
 10
-802.799
 20
-2067.76
 30
0.000000
  70
    32
  0
VERTEX
  8
01
  5
1159C
 10
-802.804
 20
-2067.76
 30
0.000000
  70
    32
  0
VERTEX
  8
01
  5
1159D
 10
-802.810
 20
-2067.76
 30
0.000000
  70
    32
  0
VERTEX
  8
01
  5
1159E
 10
-802.816
 20
-2067.76
 30
0.000000
  70
    32
  0
VERTEX
  8
01
  5
1159F
 10
-802.821
 20
-2067.77
 30
0.000000
  70
    32
  0
VERTEX
  8
01
  5
115A0
 10
-802.827
 20
-2067.77
 30
0.000000
  70
    32
  0
VERTEX
  8
01
  5
115A1
 10
-802.832
 20
-2067.77
 30
0.000000
  70
    32
  0
VERTEX
  8
01
  5
115A2
 10
-802.838
 20
-2067.77
 30
0.000000
  70
    32
  0
VERTEX
  8
01
  5
115A3
 10
-802.843
 20
-2067.78
 30
0.000000
  70
    32
  0
VERTEX
  8
01
  5
115A4
 10
-802.849
 20
-2067.78
 30
0.000000
  70
    32
  0
VERTEX
  8
01
  5
115A5
 10
-802.854
 20
-2067.78
 30
0.000000
  70
    32
  0
VERTEX
  8
01
  5
115A6
 10
-802.859
 20
-2067.79
 30
0.000000
  70
    32
  0
VERTEX
  8
01
  5
115A7
 10
-802.865
 20
-2067.79
 30
0.000000
  70
    32
  0
VERTEX
  8
01
  5
115A8
 10
-802.870
 20
-2067.79
 30
0.000000
  70
    32
  0
VERTEX
  8
01
  5
115A9
 10
-802.875
 20
-2067.80
 30
0.000000
  70
    32
  0
VERTEX
  8
01
  5
115AA
 10
-802.881
 20
-2067.80
 30
0.000000
  70
    32
  0
VERTEX
  8
01
  5
115AB
 10
-802.886
 20
-2067.80
 30
0.000000
  70
    32
  0
VERTEX
  8
01
  5
115AC
 10
-802.891
 20
-2067.81
 30
0.000000
  70
    32
  0
VERTEX
  8
01
  5
115AD
 10
-802.896
 20
-2067.81
 30
0.000000
  70
    32
  0
VERTEX
  8
01
  5
115AE
 10
-802.901
 20
-2067.81
 30
0.000000
  70
    32
  0
VERTEX
  8
01
  5
115AF
 10
-802.906
 20
-2067.82
 30
0.000000
  70
    32
  0
VERTEX
  8
01
  5
115B0
 10
-802.911
 20
-2067.82
 30
0.000000
  70
    32
  0
VERTEX
  8
01
  5
115B1
 10
-802.916
 20
-2067.82
 30
0.000000
  70
    32
  0
VERTEX
  8
01
  5
115B2
 10
-802.921
 20
-2067.83
 30
0.000000
  70
    32
  0
VERTEX
  8
01
  5
115B3
 10
-802.925
 20
-2067.83
 30
0.000000
  70
    32
  0
VERTEX
  8
01
  5
115B4
 10
-802.930
 20
-2067.83
 30
0.000000
  70
    32
  0
VERTEX
  8
01
  5
115B5
 10
-802.935
 20
-2067.84
 30
0.000000
  70
    32
  0
VERTEX
  8
01
  5
115B6
 10
-802.940
 20
-2067.84
 30
0.000000
  70
    32
  0
VERTEX
  8
01
  5
115B7
 10
-802.944
 20
-2067.85
 30
0.000000
  70
    32
  0
VERTEX
  8
01
  5
115B8
 10
-802.949
 20
-2067.85
 30
0.000000
  70
    32
  0
VERTEX
  8
01
  5
115B9
 10
-802.953
 20
-2067.85
 30
0.000000
  70
    32
  0
VERTEX
  8
01
  5
115BA
 10
-802.958
 20
-2067.86
 30
0.000000
  70
    32
  0
VERTEX
  8
01
  5
115BB
 10
-802.962
 20
-2067.86
 30
0.000000
  70
    32
  0
VERTEX
  8
01
  5
115BC
 10
-802.967
 20
-2067.87
 30
0.000000
  70
    32
  0
VERTEX
  8
01
  5
115BD
 10
-802.971
 20
-2067.87
 30
0.000000
  70
    32
  0
VERTEX
  8
01
  5
115BE
 10
-802.975
 20
-2067.88
 30
0.000000
  70
    32
  0
VERTEX
  8
01
  5
115BF
 10
-802.979
 20
-2067.88
 30
0.000000
  70
    32
  0
VERTEX
  8
01
  5
115C0
 10
-802.984
 20
-2067.89
 30
0.000000
  70
    32
  0
VERTEX
  8
01
  5
115C1
 10
-802.988
 20
-2067.89
 30
0.000000
  70
    32
  0
VERTEX
  8
01
  5
115C2
 10
-802.992
 20
-2067.89
 30
0.000000
  70
    32
  0
VERTEX
  8
01
  5
115C3
 10
-802.996
 20
-2067.90
 30
0.000000
  70
    32
  0
VERTEX
  8
01
  5
115C4
 10
-803.000
 20
-2067.90
 30
0.000000
  70
    32
  0
VERTEX
  8
01
  5
115C5
 10
-803.003
 20
-2067.91
 30
0.000000
  70
    32
  0
VERTEX
  8
01
  5
115C6
 10
-803.007
 20
-2067.91
 30
0.000000
  70
    32
  0
VERTEX
  8
01
  5
115C7
 10
-803.011
 20
-2067.92
 30
0.000000
  70
    32
  0
VERTEX
  8
01
  5
115C8
 10
-803.015
 20
-2067.92
 30
0.000000
  70
    32
  0
VERTEX
  8
01
  5
115C9
 10
-803.018
 20
-2067.93
 30
0.000000
  70
    32
  0
VERTEX
  8
01
  5
115CA
 10
-803.022
 20
-2067.93
 30
0.000000
  70
    32
  0
VERTEX
  8
01
  5
115CB
 10
-803.025
 20
-2067.94
 30
0.000000
  70
    32
  0
VERTEX
  8
01
  5
115CC
 10
-803.029
 20
-2067.94
 30
0.000000
  70
    32
  0
VERTEX
  8
01
  5
115CD
 10
-803.032
 20
-2067.95
 30
0.000000
  70
    32
  0
VERTEX
  8
01
  5
115CE
 10
-803.035
 20
-2067.95
 30
0.000000
  70
    32
  0
VERTEX
  8
01
  5
115CF
 10
-803.039
 20
-2067.96
 30
0.000000
  70
    32
  0
VERTEX
  8
01
  5
115D0
 10
-803.042
 20
-2067.96
 30
0.000000
  70
    32
  0
VERTEX
  8
01
  5
115D1
 10
-803.045
 20
-2067.97
 30
0.000000
  70
    32
  0
VERTEX
  8
01
  5
115D2
 10
-803.048
 20
-2067.97
 30
0.000000
  70
    32
  0
VERTEX
  8
01
  5
115D3
 10
-803.051
 20
-2067.98
 30
0.000000
  70
    32
  0
VERTEX
  8
01
  5
115D4
 10
-803.054
 20
-2067.99
 30
0.000000
  70
    32
  0
VERTEX
  8
01
  5
115D5
 10
-803.057
 20
-2067.99
 30
0.000000
  70
    32
  0
VERTEX
  8
01
  5
115D6
 10
-803.060
 20
-2068.00
 30
0.000000
  70
    32
  0
VERTEX
  8
01
  5
115D7
 10
-803.062
 20
-2068.00
 30
0.000000
  70
    32
  0
VERTEX
  8
01
  5
115D8
 10
-803.065
 20
-2068.01
 30
0.000000
  70
    32
  0
VERTEX
  8
01
  5
115D9
 10
-803.068
 20
-2068.01
 30
0.000000
  70
    32
  0
VERTEX
  8
01
  5
115DA
 10
-803.070
 20
-2068.02
 30
0.000000
  70
    32
  0
VERTEX
  8
01
  5
115DB
 10
-803.073
 20
-2068.02
 30
0.000000
  70
    32
  0
VERTEX
  8
01
  5
115DC
 10
-803.075
 20
-2068.03
 30
0.000000
  70
    32
  0
VERTEX
  8
01
  5
115DD
 10
-803.077
 20
-2068.04
 30
0.000000
  70
    32
  0
VERTEX
  8
01
  5
115DE
 10
-803.080
 20
-2068.04
 30
0.000000
  70
    32
  0
VERTEX
  8
01
  5
115DF
 10
-803.082
 20
-2068.05
 30
0.000000
  70
    32
  0
VERTEX
  8
01
  5
115E0
 10
-803.084
 20
-2068.05
 30
0.000000
  70
    32
  0
VERTEX
  8
01
  5
115E1
 10
-803.086
 20
-2068.06
 30
0.000000
  70
    32
  0
VERTEX
  8
01
  5
115E2
 10
-803.088
 20
-2068.06
 30
0.000000
  70
    32
  0
VERTEX
  8
01
  5
115E3
 10
-803.090
 20
-2068.07
 30
0.000000
  70
    32
  0
VERTEX
  8
01
  5
115E4
 10
-803.092
 20
-2068.08
 30
0.000000
  70
    32
  0
VERTEX
  8
01
  5
115E5
 10
-803.093
 20
-2068.08
 30
0.000000
  70
    32
  0
VERTEX
  8
01
  5
115E6
 10
-803.095
 20
-2068.09
 30
0.000000
  70
    32
  0
VERTEX
  8
01
  5
115E7
 10
-803.097
 20
-2068.09
 30
0.000000
  70
    32
  0
VERTEX
  8
01
  5
115E8
 10
-803.098
 20
-2068.10
 30
0.000000
  70
    32
  0
VERTEX
  8
01
  5
115E9
 10
-803.100
 20
-2068.11
 30
0.000000
  70
    32
  0
VERTEX
  8
01
  5
115EA
 10
-803.101
 20
-2068.11
 30
0.000000
  70
    32
  0
VERTEX
  8
01
  5
115EB
 10
-803.102
 20
-2068.12
 30
0.000000
  70
    32
  0
VERTEX
  8
01
  5
115EC
 10
-803.103
 20
-2068.12
 30
0.000000
  70
    32
  0
VERTEX
  8
01
  5
115ED
 10
-803.105
 20
-2068.13
 30
0.000000
  70
    32
  0
VERTEX
  8
01
  5
115EE
 10
-803.106
 20
-2068.14
 30
0.000000
  70
    32
  0
VERTEX
  8
01
  5
115EF
 10
-803.107
 20
-2068.14
 30
0.000000
  70
    32
  0
VERTEX
  8
01
  5
115F0
 10
-803.108
 20
-2068.15
 30
0.000000
  70
    32
  0
VERTEX
  8
01
  5
115F1
 10
-803.108
 20
-2068.15
 30
0.000000
  70
    32
  0
VERTEX
  8
01
  5
115F2
 10
-803.109
 20
-2068.16
 30
0.000000
  70
    32
  0
VERTEX
  8
01
  5
115F3
 10
-803.110
 20
-2068.17
 30
0.000000
  70
    32
  0
VERTEX
  8
01
  5
115F4
 10
-803.111
 20
-2068.17
 30
0.000000
  70
    32
  0
VERTEX
  8
01
  5
115F5
 10
-803.111
 20
-2068.18
 30
0.000000
  70
    32
  0
VERTEX
  8
01
  5
115F6
 10
-803.112
 20
-2068.18
 30
0.000000
  70
    32
  0
VERTEX
  8
01
  5
115F7
 10
-803.112
 20
-2068.19
 30
0.000000
  70
    32
  0
VERTEX
  8
01
  5
115F8
 10
-803.112
 20
-2068.20
 30
0.000000
  70
    32
  0
VERTEX
  8
01
  5
115F9
 10
-803.113
 20
-2068.20
 30
0.000000
  70
    32
  0
VERTEX
  8
01
  5
115FA
 10
-803.113
 20
-2068.21
 30
0.000000
  70
    32
  0
VERTEX
  8
01
  5
115FB
 10
-803.113
 20
-2068.21
 30
0.000000
  70
    32
  0
VERTEX
  8
01
  5
115FC
 10
-803.113
 20
-2068.22
 30
0.000000
  70
    32
  0
SEQEND
  8
01
  5
115FD
  0
POLYLINE
  5
109A5
  8
01
 10
-803.11303831494592
 20
-2073.2210611383312
 30
0.0
 66
     1
 70
     8
  0
VERTEX
  8
01
  5
115FE
 10
-803.113
 20
-2073.22
 30
0.000000
  70
    32
  0
VERTEX
  8
01
  5
115FF
 10
-803.113
 20
-2073.23
 30
0.000000
  70
    32
  0
VERTEX
  8
01
  5
11600
 10
-803.113
 20
-2073.23
 30
0.000000
  70
    32
  0
VERTEX
  8
01
  5
11601
 10
-803.113
 20
-2073.24
 30
0.000000
  70
    32
  0
VERTEX
  8
01
  5
11602
 10
-803.112
 20
-2073.25
 30
0.000000
  70
    32
  0
VERTEX
  8
01
  5
11603
 10
-803.112
 20
-2073.25
 30
0.000000
  70
    32
  0
VERTEX
  8
01
  5
11604
 10
-803.112
 20
-2073.26
 30
0.000000
  70
    32
  0
VERTEX
  8
01
  5
11605
 10
-803.111
 20
-2073.26
 30
0.000000
  70
    32
  0
VERTEX
  8
01
  5
11606
 10
-803.111
 20
-2073.27
 30
0.000000
  70
    32
  0
VERTEX
  8
01
  5
11607
 10
-803.110
 20
-2073.28
 30
0.000000
  70
    32
  0
VERTEX
  8
01
  5
11608
 10
-803.109
 20
-2073.28
 30
0.000000
  70
    32
  0
VERTEX
  8
01
  5
11609
 10
-803.108
 20
-2073.29
 30
0.000000
  70
    32
  0
VERTEX
  8
01
  5
1160A
 10
-803.108
 20
-2073.29
 30
0.000000
  70
    32
  0
VERTEX
  8
01
  5
1160B
 10
-803.107
 20
-2073.30
 30
0.000000
  70
    32
  0
VERTEX
  8
01
  5
1160C
 10
-803.106
 20
-2073.31
 30
0.000000
  70
    32
  0
VERTEX
  8
01
  5
1160D
 10
-803.105
 20
-2073.31
 30
0.000000
  70
    32
  0
VERTEX
  8
01
  5
1160E
 10
-803.103
 20
-2073.32
 30
0.000000
  70
    32
  0
VERTEX
  8
01
  5
1160F
 10
-803.102
 20
-2073.32
 30
0.000000
  70
    32
  0
VERTEX
  8
01
  5
11610
 10
-803.101
 20
-2073.33
 30
0.000000
  70
    32
  0
VERTEX
  8
01
  5
11611
 10
-803.100
 20
-2073.34
 30
0.000000
  70
    32
  0
VERTEX
  8
01
  5
11612
 10
-803.098
 20
-2073.34
 30
0.000000
  70
    32
  0
VERTEX
  8
01
  5
11613
 10
-803.097
 20
-2073.35
 30
0.000000
  70
    32
  0
VERTEX
  8
01
  5
11614
 10
-803.095
 20
-2073.35
 30
0.000000
  70
    32
  0
VERTEX
  8
01
  5
11615
 10
-803.093
 20
-2073.36
 30
0.000000
  70
    32
  0
VERTEX
  8
01
  5
11616
 10
-803.092
 20
-2073.37
 30
0.000000
  70
    32
  0
VERTEX
  8
01
  5
11617
 10
-803.090
 20
-2073.37
 30
0.000000
  70
    32
  0
VERTEX
  8
01
  5
11618
 10
-803.088
 20
-2073.38
 30
0.000000
  70
    32
  0
VERTEX
  8
01
  5
11619
 10
-803.086
 20
-2073.38
 30
0.000000
  70
    32
  0
VERTEX
  8
01
  5
1161A
 10
-803.084
 20
-2073.39
 30
0.000000
  70
    32
  0
VERTEX
  8
01
  5
1161B
 10
-803.082
 20
-2073.40
 30
0.000000
  70
    32
  0
VERTEX
  8
01
  5
1161C
 10
-803.080
 20
-2073.40
 30
0.000000
  70
    32
  0
VERTEX
  8
01
  5
1161D
 10
-803.077
 20
-2073.41
 30
0.000000
  70
    32
  0
VERTEX
  8
01
  5
1161E
 10
-803.075
 20
-2073.41
 30
0.000000
  70
    32
  0
VERTEX
  8
01
  5
1161F
 10
-803.073
 20
-2073.42
 30
0.000000
  70
    32
  0
VERTEX
  8
01
  5
11620
 10
-803.070
 20
-2073.42
 30
0.000000
  70
    32
  0
VERTEX
  8
01
  5
11621
 10
-803.068
 20
-2073.43
 30
0.000000
  70
    32
  0
VERTEX
  8
01
  5
11622
 10
-803.065
 20
-2073.43
 30
0.000000
  70
    32
  0
VERTEX
  8
01
  5
11623
 10
-803.062
 20
-2073.44
 30
0.000000
  70
    32
  0
VERTEX
  8
01
  5
11624
 10
-803.060
 20
-2073.45
 30
0.000000
  70
    32
  0
VERTEX
  8
01
  5
11625
 10
-803.057
 20
-2073.45
 30
0.000000
  70
    32
  0
VERTEX
  8
01
  5
11626
 10
-803.054
 20
-2073.46
 30
0.000000
  70
    32
  0
VERTEX
  8
01
  5
11627
 10
-803.051
 20
-2073.46
 30
0.000000
  70
    32
  0
VERTEX
  8
01
  5
11628
 10
-803.048
 20
-2073.47
 30
0.000000
  70
    32
  0
VERTEX
  8
01
  5
11629
 10
-803.045
 20
-2073.47
 30
0.000000
  70
    32
  0
VERTEX
  8
01
  5
1162A
 10
-803.042
 20
-2073.48
 30
0.000000
  70
    32
  0
VERTEX
  8
01
  5
1162B
 10
-803.039
 20
-2073.48
 30
0.000000
  70
    32
  0
VERTEX
  8
01
  5
1162C
 10
-803.035
 20
-2073.49
 30
0.000000
  70
    32
  0
VERTEX
  8
01
  5
1162D
 10
-803.032
 20
-2073.49
 30
0.000000
  70
    32
  0
VERTEX
  8
01
  5
1162E
 10
-803.029
 20
-2073.50
 30
0.000000
  70
    32
  0
VERTEX
  8
01
  5
1162F
 10
-803.025
 20
-2073.50
 30
0.000000
  70
    32
  0
VERTEX
  8
01
  5
11630
 10
-803.022
 20
-2073.51
 30
0.000000
  70
    32
  0
VERTEX
  8
01
  5
11631
 10
-803.018
 20
-2073.51
 30
0.000000
  70
    32
  0
VERTEX
  8
01
  5
11632
 10
-803.015
 20
-2073.52
 30
0.000000
  70
    32
  0
VERTEX
  8
01
  5
11633
 10
-803.011
 20
-2073.52
 30
0.000000
  70
    32
  0
VERTEX
  8
01
  5
11634
 10
-803.007
 20
-2073.53
 30
0.000000
  70
    32
  0
VERTEX
  8
01
  5
11635
 10
-803.003
 20
-2073.53
 30
0.000000
  70
    32
  0
VERTEX
  8
01
  5
11636
 10
-803.000
 20
-2073.54
 30
0.000000
  70
    32
  0
VERTEX
  8
01
  5
11637
 10
-802.996
 20
-2073.54
 30
0.000000
  70
    32
  0
VERTEX
  8
01
  5
11638
 10
-802.992
 20
-2073.55
 30
0.000000
  70
    32
  0
VERTEX
  8
01
  5
11639
 10
-802.988
 20
-2073.55
 30
0.000000
  70
    32
  0
VERTEX
  8
01
  5
1163A
 10
-802.984
 20
-2073.56
 30
0.000000
  70
    32
  0
VERTEX
  8
01
  5
1163B
 10
-802.979
 20
-2073.56
 30
0.000000
  70
    32
  0
VERTEX
  8
01
  5
1163C
 10
-802.975
 20
-2073.57
 30
0.000000
  70
    32
  0
VERTEX
  8
01
  5
1163D
 10
-802.971
 20
-2073.57
 30
0.000000
  70
    32
  0
VERTEX
  8
01
  5
1163E
 10
-802.967
 20
-2073.57
 30
0.000000
  70
    32
  0
VERTEX
  8
01
  5
1163F
 10
-802.962
 20
-2073.58
 30
0.000000
  70
    32
  0
VERTEX
  8
01
  5
11640
 10
-802.958
 20
-2073.58
 30
0.000000
  70
    32
  0
VERTEX
  8
01
  5
11641
 10
-802.953
 20
-2073.59
 30
0.000000
  70
    32
  0
VERTEX
  8
01
  5
11642
 10
-802.949
 20
-2073.59
 30
0.000000
  70
    32
  0
VERTEX
  8
01
  5
11643
 10
-802.944
 20
-2073.60
 30
0.000000
  70
    32
  0
VERTEX
  8
01
  5
11644
 10
-802.940
 20
-2073.60
 30
0.000000
  70
    32
  0
VERTEX
  8
01
  5
11645
 10
-802.935
 20
-2073.60
 30
0.000000
  70
    32
  0
VERTEX
  8
01
  5
11646
 10
-802.930
 20
-2073.61
 30
0.000000
  70
    32
  0
VERTEX
  8
01
  5
11647
 10
-802.925
 20
-2073.61
 30
0.000000
  70
    32
  0
VERTEX
  8
01
  5
11648
 10
-802.921
 20
-2073.62
 30
0.000000
  70
    32
  0
VERTEX
  8
01
  5
11649
 10
-802.916
 20
-2073.62
 30
0.000000
  70
    32
  0
VERTEX
  8
01
  5
1164A
 10
-802.911
 20
-2073.62
 30
0.000000
  70
    32
  0
VERTEX
  8
01
  5
1164B
 10
-802.906
 20
-2073.63
 30
0.000000
  70
    32
  0
VERTEX
  8
01
  5
1164C
 10
-802.901
 20
-2073.63
 30
0.000000
  70
    32
  0
VERTEX
  8
01
  5
1164D
 10
-802.896
 20
-2073.63
 30
0.000000
  70
    32
  0
VERTEX
  8
01
  5
1164E
 10
-802.891
 20
-2073.64
 30
0.000000
  70
    32
  0
VERTEX
  8
01
  5
1164F
 10
-802.886
 20
-2073.64
 30
0.000000
  70
    32
  0
VERTEX
  8
01
  5
11650
 10
-802.881
 20
-2073.64
 30
0.000000
  70
    32
  0
VERTEX
  8
01
  5
11651
 10
-802.875
 20
-2073.65
 30
0.000000
  70
    32
  0
VERTEX
  8
01
  5
11652
 10
-802.870
 20
-2073.65
 30
0.000000
  70
    32
  0
VERTEX
  8
01
  5
11653
 10
-802.865
 20
-2073.65
 30
0.000000
  70
    32
  0
VERTEX
  8
01
  5
11654
 10
-802.859
 20
-2073.66
 30
0.000000
  70
    32
  0
VERTEX
  8
01
  5
11655
 10
-802.854
 20
-2073.66
 30
0.000000
  70
    32
  0
VERTEX
  8
01
  5
11656
 10
-802.849
 20
-2073.66
 30
0.000000
  70
    32
  0
VERTEX
  8
01
  5
11657
 10
-802.843
 20
-2073.66
 30
0.000000
  70
    32
  0
VERTEX
  8
01
  5
11658
 10
-802.838
 20
-2073.67
 30
0.000000
  70
    32
  0
VERTEX
  8
01
  5
11659
 10
-802.832
 20
-2073.67
 30
0.000000
  70
    32
  0
VERTEX
  8
01
  5
1165A
 10
-802.827
 20
-2073.67
 30
0.000000
  70
    32
  0
VERTEX
  8
01
  5
1165B
 10
-802.821
 20
-2073.68
 30
0.000000
  70
    32
  0
VERTEX
  8
01
  5
1165C
 10
-802.816
 20
-2073.68
 30
0.000000
  70
    32
  0
VERTEX
  8
01
  5
1165D
 10
-802.810
 20
-2073.68
 30
0.000000
  70
    32
  0
VERTEX
  8
01
  5
1165E
 10
-802.804
 20
-2073.68
 30
0.000000
  70
    32
  0
VERTEX
  8
01
  5
1165F
 10
-802.799
 20
-2073.69
 30
0.000000
  70
    32
  0
VERTEX
  8
01
  5
11660
 10
-802.793
 20
-2073.69
 30
0.000000
  70
    32
  0
VERTEX
  8
01
  5
11661
 10
-802.787
 20
-2073.69
 30
0.000000
  70
    32
  0
VERTEX
  8
01
  5
11662
 10
-802.781
 20
-2073.69
 30
0.000000
  70
    32
  0
VERTEX
  8
01
  5
11663
 10
-802.776
 20
-2073.69
 30
0.000000
  70
    32
  0
VERTEX
  8
01
  5
11664
 10
-802.770
 20
-2073.70
 30
0.000000
  70
    32
  0
VERTEX
  8
01
  5
11665
 10
-802.764
 20
-2073.70
 30
0.000000
  70
    32
  0
VERTEX
  8
01
  5
11666
 10
-802.758
 20
-2073.70
 30
0.000000
  70
    32
  0
VERTEX
  8
01
  5
11667
 10
-802.752
 20
-2073.70
 30
0.000000
  70
    32
  0
VERTEX
  8
01
  5
11668
 10
-802.746
 20
-2073.70
 30
0.000000
  70
    32
  0
VERTEX
  8
01
  5
11669
 10
-802.740
 20
-2073.70
 30
0.000000
  70
    32
  0
VERTEX
  8
01
  5
1166A
 10
-802.735
 20
-2073.71
 30
0.000000
  70
    32
  0
VERTEX
  8
01
  5
1166B
 10
-802.729
 20
-2073.71
 30
0.000000
  70
    32
  0
VERTEX
  8
01
  5
1166C
 10
-802.723
 20
-2073.71
 30
0.000000
  70
    32
  0
VERTEX
  8
01
  5
1166D
 10
-802.717
 20
-2073.71
 30
0.000000
  70
    32
  0
VERTEX
  8
01
  5
1166E
 10
-802.711
 20
-2073.71
 30
0.000000
  70
    32
  0
VERTEX
  8
01
  5
1166F
 10
-802.705
 20
-2073.71
 30
0.000000
  70
    32
  0
VERTEX
  8
01
  5
11670
 10
-802.699
 20
-2073.71
 30
0.000000
  70
    32
  0
VERTEX
  8
01
  5
11671
 10
-802.692
 20
-2073.71
 30
0.000000
  70
    32
  0
VERTEX
  8
01
  5
11672
 10
-802.686
 20
-2073.72
 30
0.000000
  70
    32
  0
VERTEX
  8
01
  5
11673
 10
-802.680
 20
-2073.72
 30
0.000000
  70
    32
  0
VERTEX
  8
01
  5
11674
 10
-802.674
 20
-2073.72
 30
0.000000
  70
    32
  0
VERTEX
  8
01
  5
11675
 10
-802.668
 20
-2073.72
 30
0.000000
  70
    32
  0
VERTEX
  8
01
  5
11676
 10
-802.662
 20
-2073.72
 30
0.000000
  70
    32
  0
VERTEX
  8
01
  5
11677
 10
-802.656
 20
-2073.72
 30
0.000000
  70
    32
  0
VERTEX
  8
01
  5
11678
 10
-802.650
 20
-2073.72
 30
0.000000
  70
    32
  0
VERTEX
  8
01
  5
11679
 10
-802.644
 20
-2073.72
 30
0.000000
  70
    32
  0
VERTEX
  8
01
  5
1167A
 10
-802.638
 20
-2073.72
 30
0.000000
  70
    32
  0
VERTEX
  8
01
  5
1167B
 10
-802.631
 20
-2073.72
 30
0.000000
  70
    32
  0
VERTEX
  8
01
  5
1167C
 10
-802.625
 20
-2073.72
 30
0.000000
  70
    32
  0
VERTEX
  8
01
  5
1167D
 10
-802.619
 20
-2073.72
 30
0.000000
  70
    32
  0
VERTEX
  8
01
  5
1167E
 10
-802.613
 20
-2073.72
 30
0.000000
  70
    32
  0
SEQEND
  8
01
  5
1167F
  0
POLYLINE
  5
109A6
  8
01
 10
-783.61303831494661
 20
-2073.721060638331
 30
0.0
 66
     1
 70
     8
  0
VERTEX
  8
01
  5
11680
 10
-783.613
 20
-2073.72
 30
0.000000
  70
    32
  0
VERTEX
  8
01
  5
11681
 10
-783.607
 20
-2073.72
 30
0.000000
  70
    32
  0
VERTEX
  8
01
  5
11682
 10
-783.601
 20
-2073.72
 30
0.000000
  70
    32
  0
VERTEX
  8
01
  5
11683
 10
-783.595
 20
-2073.72
 30
0.000000
  70
    32
  0
VERTEX
  8
01
  5
11684
 10
-783.589
 20
-2073.72
 30
0.000000
  70
    32
  0
VERTEX
  8
01
  5
11685
 10
-783.582
 20
-2073.72
 30
0.000000
  70
    32
  0
VERTEX
  8
01
  5
11686
 10
-783.576
 20
-2073.72
 30
0.000000
  70
    32
  0
VERTEX
  8
01
  5
11687
 10
-783.570
 20
-2073.72
 30
0.000000
  70
    32
  0
VERTEX
  8
01
  5
11688
 10
-783.564
 20
-2073.72
 30
0.000000
  70
    32
  0
VERTEX
  8
01
  5
11689
 10
-783.558
 20
-2073.72
 30
0.000000
  70
    32
  0
VERTEX
  8
01
  5
1168A
 10
-783.552
 20
-2073.72
 30
0.000000
  70
    32
  0
VERTEX
  8
01
  5
1168B
 10
-783.546
 20
-2073.72
 30
0.000000
  70
    32
  0
VERTEX
  8
01
  5
1168C
 10
-783.540
 20
-2073.72
 30
0.000000
  70
    32
  0
VERTEX
  8
01
  5
1168D
 10
-783.534
 20
-2073.71
 30
0.000000
  70
    32
  0
VERTEX
  8
01
  5
1168E
 10
-783.528
 20
-2073.71
 30
0.000000
  70
    32
  0
VERTEX
  8
01
  5
1168F
 10
-783.522
 20
-2073.71
 30
0.000000
  70
    32
  0
VERTEX
  8
01
  5
11690
 10
-783.515
 20
-2073.71
 30
0.000000
  70
    32
  0
VERTEX
  8
01
  5
11691
 10
-783.509
 20
-2073.71
 30
0.000000
  70
    32
  0
VERTEX
  8
01
  5
11692
 10
-783.503
 20
-2073.71
 30
0.000000
  70
    32
  0
VERTEX
  8
01
  5
11693
 10
-783.498
 20
-2073.71
 30
0.000000
  70
    32
  0
VERTEX
  8
01
  5
11694
 10
-783.492
 20
-2073.71
 30
0.000000
  70
    32
  0
VERTEX
  8
01
  5
11695
 10
-783.486
 20
-2073.70
 30
0.000000
  70
    32
  0
VERTEX
  8
01
  5
11696
 10
-783.480
 20
-2073.70
 30
0.000000
  70
    32
  0
VERTEX
  8
01
  5
11697
 10
-783.474
 20
-2073.70
 30
0.000000
  70
    32
  0
VERTEX
  8
01
  5
11698
 10
-783.468
 20
-2073.70
 30
0.000000
  70
    32
  0
VERTEX
  8
01
  5
11699
 10
-783.462
 20
-2073.70
 30
0.000000
  70
    32
  0
VERTEX
  8
01
  5
1169A
 10
-783.456
 20
-2073.70
 30
0.000000
  70
    32
  0
VERTEX
  8
01
  5
1169B
 10
-783.450
 20
-2073.69
 30
0.000000
  70
    32
  0
VERTEX
  8
01
  5
1169C
 10
-783.445
 20
-2073.69
 30
0.000000
  70
    32
  0
VERTEX
  8
01
  5
1169D
 10
-783.439
 20
-2073.69
 30
0.000000
  70
    32
  0
VERTEX
  8
01
  5
1169E
 10
-783.433
 20
-2073.69
 30
0.000000
  70
    32
  0
VERTEX
  8
01
  5
1169F
 10
-783.427
 20
-2073.69
 30
0.000000
  70
    32
  0
VERTEX
  8
01
  5
116A0
 10
-783.422
 20
-2073.68
 30
0.000000
  70
    32
  0
VERTEX
  8
01
  5
116A1
 10
-783.416
 20
-2073.68
 30
0.000000
  70
    32
  0
VERTEX
  8
01
  5
116A2
 10
-783.410
 20
-2073.68
 30
0.000000
  70
    32
  0
VERTEX
  8
01
  5
116A3
 10
-783.405
 20
-2073.68
 30
0.000000
  70
    32
  0
VERTEX
  8
01
  5
116A4
 10
-783.399
 20
-2073.67
 30
0.000000
  70
    32
  0
VERTEX
  8
01
  5
116A5
 10
-783.394
 20
-2073.67
 30
0.000000
  70
    32
  0
VERTEX
  8
01
  5
116A6
 10
-783.388
 20
-2073.67
 30
0.000000
  70
    32
  0
VERTEX
  8
01
  5
116A7
 10
-783.383
 20
-2073.66
 30
0.000000
  70
    32
  0
VERTEX
  8
01
  5
116A8
 10
-783.377
 20
-2073.66
 30
0.000000
  70
    32
  0
VERTEX
  8
01
  5
116A9
 10
-783.372
 20
-2073.66
 30
0.000000
  70
    32
  0
VERTEX
  8
01
  5
116AA
 10
-783.367
 20
-2073.66
 30
0.000000
  70
    32
  0
VERTEX
  8
01
  5
116AB
 10
-783.361
 20
-2073.65
 30
0.000000
  70
    32
  0
VERTEX
  8
01
  5
116AC
 10
-783.356
 20
-2073.65
 30
0.000000
  70
    32
  0
VERTEX
  8
01
  5
116AD
 10
-783.351
 20
-2073.65
 30
0.000000
  70
    32
  0
VERTEX
  8
01
  5
116AE
 10
-783.346
 20
-2073.64
 30
0.000000
  70
    32
  0
VERTEX
  8
01
  5
116AF
 10
-783.340
 20
-2073.64
 30
0.000000
  70
    32
  0
VERTEX
  8
01
  5
116B0
 10
-783.335
 20
-2073.64
 30
0.000000
  70
    32
  0
VERTEX
  8
01
  5
116B1
 10
-783.330
 20
-2073.63
 30
0.000000
  70
    32
  0
VERTEX
  8
01
  5
116B2
 10
-783.325
 20
-2073.63
 30
0.000000
  70
    32
  0
VERTEX
  8
01
  5
116B3
 10
-783.320
 20
-2073.63
 30
0.000000
  70
    32
  0
VERTEX
  8
01
  5
116B4
 10
-783.315
 20
-2073.62
 30
0.000000
  70
    32
  0
VERTEX
  8
01
  5
116B5
 10
-783.310
 20
-2073.62
 30
0.000000
  70
    32
  0
VERTEX
  8
01
  5
116B6
 10
-783.305
 20
-2073.62
 30
0.000000
  70
    32
  0
VERTEX
  8
01
  5
116B7
 10
-783.301
 20
-2073.61
 30
0.000000
  70
    32
  0
VERTEX
  8
01
  5
116B8
 10
-783.296
 20
-2073.61
 30
0.000000
  70
    32
  0
VERTEX
  8
01
  5
116B9
 10
-783.291
 20
-2073.60
 30
0.000000
  70
    32
  0
VERTEX
  8
01
  5
116BA
 10
-783.286
 20
-2073.60
 30
0.000000
  70
    32
  0
VERTEX
  8
01
  5
116BB
 10
-783.282
 20
-2073.60
 30
0.000000
  70
    32
  0
VERTEX
  8
01
  5
116BC
 10
-783.277
 20
-2073.59
 30
0.000000
  70
    32
  0
VERTEX
  8
01
  5
116BD
 10
-783.273
 20
-2073.59
 30
0.000000
  70
    32
  0
VERTEX
  8
01
  5
116BE
 10
-783.268
 20
-2073.58
 30
0.000000
  70
    32
  0
VERTEX
  8
01
  5
116BF
 10
-783.264
 20
-2073.58
 30
0.000000
  70
    32
  0
VERTEX
  8
01
  5
116C0
 10
-783.259
 20
-2073.57
 30
0.000000
  70
    32
  0
VERTEX
  8
01
  5
116C1
 10
-783.255
 20
-2073.57
 30
0.000000
  70
    32
  0
VERTEX
  8
01
  5
116C2
 10
-783.251
 20
-2073.57
 30
0.000000
  70
    32
  0
VERTEX
  8
01
  5
116C3
 10
-783.247
 20
-2073.56
 30
0.000000
  70
    32
  0
VERTEX
  8
01
  5
116C4
 10
-783.243
 20
-2073.56
 30
0.000000
  70
    32
  0
VERTEX
  8
01
  5
116C5
 10
-783.238
 20
-2073.55
 30
0.000000
  70
    32
  0
VERTEX
  8
01
  5
116C6
 10
-783.234
 20
-2073.55
 30
0.000000
  70
    32
  0
VERTEX
  8
01
  5
116C7
 10
-783.230
 20
-2073.54
 30
0.000000
  70
    32
  0
VERTEX
  8
01
  5
116C8
 10
-783.227
 20
-2073.54
 30
0.000000
  70
    32
  0
VERTEX
  8
01
  5
116C9
 10
-783.223
 20
-2073.53
 30
0.000000
  70
    32
  0
VERTEX
  8
01
  5
116CA
 10
-783.219
 20
-2073.53
 30
0.000000
  70
    32
  0
VERTEX
  8
01
  5
116CB
 10
-783.215
 20
-2073.52
 30
0.000000
  70
    32
  0
VERTEX
  8
01
  5
116CC
 10
-783.211
 20
-2073.52
 30
0.000000
  70
    32
  0
VERTEX
  8
01
  5
116CD
 10
-783.208
 20
-2073.51
 30
0.000000
  70
    32
  0
VERTEX
  8
01
  5
116CE
 10
-783.204
 20
-2073.51
 30
0.000000
  70
    32
  0
VERTEX
  8
01
  5
116CF
 10
-783.201
 20
-2073.50
 30
0.000000
  70
    32
  0
VERTEX
  8
01
  5
116D0
 10
-783.197
 20
-2073.50
 30
0.000000
  70
    32
  0
VERTEX
  8
01
  5
116D1
 10
-783.194
 20
-2073.49
 30
0.000000
  70
    32
  0
VERTEX
  8
01
  5
116D2
 10
-783.191
 20
-2073.49
 30
0.000000
  70
    32
  0
VERTEX
  8
01
  5
116D3
 10
-783.187
 20
-2073.48
 30
0.000000
  70
    32
  0
VERTEX
  8
01
  5
116D4
 10
-783.184
 20
-2073.48
 30
0.000000
  70
    32
  0
VERTEX
  8
01
  5
116D5
 10
-783.181
 20
-2073.47
 30
0.000000
  70
    32
  0
VERTEX
  8
01
  5
116D6
 10
-783.178
 20
-2073.47
 30
0.000000
  70
    32
  0
VERTEX
  8
01
  5
116D7
 10
-783.175
 20
-2073.46
 30
0.000000
  70
    32
  0
VERTEX
  8
01
  5
116D8
 10
-783.172
 20
-2073.46
 30
0.000000
  70
    32
  0
VERTEX
  8
01
  5
116D9
 10
-783.169
 20
-2073.45
 30
0.000000
  70
    32
  0
VERTEX
  8
01
  5
116DA
 10
-783.166
 20
-2073.45
 30
0.000000
  70
    32
  0
VERTEX
  8
01
  5
116DB
 10
-783.164
 20
-2073.44
 30
0.000000
  70
    32
  0
VERTEX
  8
01
  5
116DC
 10
-783.161
 20
-2073.43
 30
0.000000
  70
    32
  0
VERTEX
  8
01
  5
116DD
 10
-783.158
 20
-2073.43
 30
0.000000
  70
    32
  0
VERTEX
  8
01
  5
116DE
 10
-783.156
 20
-2073.42
 30
0.000000
  70
    32
  0
VERTEX
  8
01
  5
116DF
 10
-783.153
 20
-2073.42
 30
0.000000
  70
    32
  0
VERTEX
  8
01
  5
116E0
 10
-783.151
 20
-2073.41
 30
0.000000
  70
    32
  0
VERTEX
  8
01
  5
116E1
 10
-783.149
 20
-2073.41
 30
0.000000
  70
    32
  0
VERTEX
  8
01
  5
116E2
 10
-783.147
 20
-2073.40
 30
0.000000
  70
    32
  0
VERTEX
  8
01
  5
116E3
 10
-783.144
 20
-2073.40
 30
0.000000
  70
    32
  0
VERTEX
  8
01
  5
116E4
 10
-783.142
 20
-2073.39
 30
0.000000
  70
    32
  0
VERTEX
  8
01
  5
116E5
 10
-783.140
 20
-2073.38
 30
0.000000
  70
    32
  0
VERTEX
  8
01
  5
116E6
 10
-783.138
 20
-2073.38
 30
0.000000
  70
    32
  0
VERTEX
  8
01
  5
116E7
 10
-783.136
 20
-2073.37
 30
0.000000
  70
    32
  0
VERTEX
  8
01
  5
116E8
 10
-783.135
 20
-2073.37
 30
0.000000
  70
    32
  0
VERTEX
  8
01
  5
116E9
 10
-783.133
 20
-2073.36
 30
0.000000
  70
    32
  0
VERTEX
  8
01
  5
116EA
 10
-783.131
 20
-2073.35
 30
0.000000
  70
    32
  0
VERTEX
  8
01
  5
116EB
 10
-783.130
 20
-2073.35
 30
0.000000
  70
    32
  0
VERTEX
  8
01
  5
116EC
 10
-783.128
 20
-2073.34
 30
0.000000
  70
    32
  0
VERTEX
  8
01
  5
116ED
 10
-783.127
 20
-2073.34
 30
0.000000
  70
    32
  0
VERTEX
  8
01
  5
116EE
 10
-783.125
 20
-2073.33
 30
0.000000
  70
    32
  0
VERTEX
  8
01
  5
116EF
 10
-783.124
 20
-2073.32
 30
0.000000
  70
    32
  0
VERTEX
  8
01
  5
116F0
 10
-783.123
 20
-2073.32
 30
0.000000
  70
    32
  0
VERTEX
  8
01
  5
116F1
 10
-783.121
 20
-2073.31
 30
0.000000
  70
    32
  0
VERTEX
  8
01
  5
116F2
 10
-783.120
 20
-2073.31
 30
0.000000
  70
    32
  0
VERTEX
  8
01
  5
116F3
 10
-783.119
 20
-2073.30
 30
0.000000
  70
    32
  0
VERTEX
  8
01
  5
116F4
 10
-783.118
 20
-2073.29
 30
0.000000
  70
    32
  0
VERTEX
  8
01
  5
116F5
 10
-783.118
 20
-2073.29
 30
0.000000
  70
    32
  0
VERTEX
  8
01
  5
116F6
 10
-783.117
 20
-2073.28
 30
0.000000
  70
    32
  0
VERTEX
  8
01
  5
116F7
 10
-783.116
 20
-2073.28
 30
0.000000
  70
    32
  0
VERTEX
  8
01
  5
116F8
 10
-783.115
 20
-2073.27
 30
0.000000
  70
    32
  0
VERTEX
  8
01
  5
116F9
 10
-783.115
 20
-2073.26
 30
0.000000
  70
    32
  0
VERTEX
  8
01
  5
116FA
 10
-783.114
 20
-2073.26
 30
0.000000
  70
    32
  0
VERTEX
  8
01
  5
116FB
 10
-783.114
 20
-2073.25
 30
0.000000
  70
    32
  0
VERTEX
  8
01
  5
116FC
 10
-783.114
 20
-2073.25
 30
0.000000
  70
    32
  0
VERTEX
  8
01
  5
116FD
 10
-783.113
 20
-2073.24
 30
0.000000
  70
    32
  0
VERTEX
  8
01
  5
116FE
 10
-783.113
 20
-2073.23
 30
0.000000
  70
    32
  0
VERTEX
  8
01
  5
116FF
 10
-783.113
 20
-2073.23
 30
0.000000
  70
    32
  0
VERTEX
  8
01
  5
11700
 10
-783.113
 20
-2073.22
 30
0.000000
  70
    32
  0
SEQEND
  8
01
  5
11701
  0
LINE
  5
109A7
  8
01
 10
-797.9130383149469
 20
-2127.221007138332
 30
0.0
 11
-797.9130383149469
 21
-2127.7210066383309
 31
0.0
  0
LINE
  5
109A8
  8
01
 10
-788.31303831495052
 20
-2127.2210071383329
 30
0.0
 11
-788.31303831495052
 21
-2127.7210066383309
 31
0.0
  0
LINE
  5
109A9
  8
0
 10
-677.2130348249699
 20
-2119.121085047665
 30
0.0
 11
-704.11299992309375
 21
-2119.121085047665
 31
0.0
  0
LINE
  5
109AA
  8
0
 10
-706.61302900776582
 20
-2116.6210410118128
 30
0.0
 11
-704.11299992309375
 21
-2119.121085047665
 31
0.0
  0
LINE
  5
109AB
  8
0
 10
-671.91303831510891
 20
-2120.621083547665
 30
0.0
 11
-677.2130348249699
 21
-2119.121085047665
 31
0.0
  0
LINE
  5
109AC
  8
0
 10
-706.61302900776582
 20
-2116.6210410118128
 30
0.0
 11
-706.9130290077668
 21
-2116.6210410118128
 31
0.0
  0
LINE
  5
109AD
  8
0
 10
-671.91303831510891
 20
-2120.621083547665
 30
0.0
 11
-677.21304180535424
 21
-2122.1210820476649
 31
0.0
  0
LINE
  5
109AE
  8
0
 10
-706.9130290077668
 20
-2116.6210410118128
 30
0.0
 11
-706.9130476221261
 21
-2124.6210330118138
 31
0.0
  0
LINE
  5
109AF
  8
0
 10
-677.21304180535424
 20
-2122.1210820476649
 30
0.0
 11
-704.11306507345887
 21
-2122.1210820476649
 31
0.0
  0
LINE
  5
109B0
  8
0
 10
-706.61304762212501
 20
-2124.6210330118138
 30
0.0
 11
-706.9130476221261
 21
-2124.6210330118138
 31
0.0
  0
LINE
  5
109B1
  8
0
 10
-706.61304762212501
 20
-2124.6210330118138
 30
0.0
 11
-704.11306507345887
 21
-2122.1210820476649
 31
0.0
  0
LINE
  5
109B2
  8
1CENTER
 10
-670.45854212430845
 20
-2120.6210370118129
 30
0.0
 11
-708.2916751716831
 21
-2120.6210370118129
 31
0.0
  0
LINE
  5
109B3
  8
0
 10
-679.11303482496919
 20
-2119.121085047665
 30
0.0
 11
-679.01303366157197
 21
-2118.6210855476652
 31
0.0
  0
LINE
  5
109B4
  8
0
 10
-679.01303366157197
 20
-2118.6210855476652
 30
0.0
 11
-678.21304296874939
 21
-2122.6210815476652
 31
0.0
  0
LINE
  5
109B5
  8
0
 10
-678.21304296874939
 20
-2122.6210815476652
 30
0.0
 11
-678.1130418053524
 21
-2122.1210820476649
 31
0.0
  0
LINE
  5
109B6
  8
0
 10
-680.71303482496921
 20
-2119.121085047665
 30
0.0
 11
-680.61303366157222
 21
-2118.6210855476652
 31
0.0
  0
LINE
  5
109B7
  8
0
 10
-679.81304296874964
 20
-2122.6210815476652
 30
0.0
 11
-679.71304180535253
 21
-2122.1210820476649
 31
0.0
  0
LINE
  5
109B8
  8
0
 10
-680.61303366157222
 20
-2118.6210855476652
 30
0.0
 11
-679.81304296874964
 21
-2122.6210815476652
 31
0.0
  0
LINE
  5
109B9
  8
0
 10
-682.31303482496924
 20
-2119.121085047665
 30
0.0
 11
-682.21303366157213
 21
-2118.6210855476652
 31
0.0
  0
LINE
  5
109BA
  8
0
 10
-682.21303366157213
 20
-2118.6210855476652
 30
0.0
 11
-681.41304296874955
 21
-2122.6210815476652
 31
0.0
  0
LINE
  5
109BB
  8
0
 10
-681.41304296874955
 20
-2122.6210815476652
 30
0.0
 11
-681.31304180535244
 21
-2122.1210820476649
 31
0.0
  0
LINE
  5
109BC
  8
0
 10
-690.31303482496935
 20
-2119.121085047665
 30
0.0
 11
-690.21303366157235
 21
-2118.6210855476652
 31
0.0
  0
LINE
  5
109BD
  8
0
 10
-689.41304296874966
 20
-2122.6210815476652
 30
0.0
 11
-689.31304180535244
 21
-2122.1210820476649
 31
0.0
  0
LINE
  5
109BE
  8
0
 10
-687.81304296874964
 20
-2122.6210815476652
 30
0.0
 11
-687.71304180535253
 21
-2122.1210820476649
 31
0.0
  0
LINE
  5
109BF
  8
0
 10
-688.71303482496933
 20
-2119.121085047665
 30
0.0
 11
-688.61303366157222
 21
-2118.6210855476652
 31
0.0
  0
LINE
  5
109C0
  8
0
 10
-687.1130348249693
 20
-2119.121085047665
 30
0.0
 11
-687.01303366157231
 21
-2118.6210855476652
 31
0.0
  0
LINE
  5
109C1
  8
0
 10
-688.61303366157222
 20
-2118.6210855476652
 30
0.0
 11
-687.81304296874964
 21
-2122.6210815476652
 31
0.0
  0
LINE
  5
109C2
  8
0
 10
-690.21303366157235
 20
-2118.6210855476652
 30
0.0
 11
-689.41304296874966
 21
-2122.6210815476652
 31
0.0
  0
LINE
  5
109C3
  8
0
 10
-685.5130348249694
 20
-2119.121085047665
 30
0.0
 11
-685.41303366157206
 21
-2118.6210855476652
 31
0.0
  0
LINE
  5
109C4
  8
0
 10
-677.31303482496935
 20
-2119.121085047665
 30
0.0
 11
-677.21303366157235
 21
-2118.6210855476652
 31
0.0
  0
LINE
  5
109C5
  8
0
 10
-677.21303366157235
 20
-2118.6210855476652
 30
0.0
 11
-676.41304244194691
 21
-2122.3946747218679
 31
0.0
  0
LINE
  5
109C6
  8
0
 10
-676.41304244194691
 20
-2122.3946747218679
 30
0.0
 11
-676.28377174431705
 21
-2121.8580815231908
 31
0.0
  0
LINE
  5
109C7
  8
0
 10
-684.61304296874948
 20
-2122.6210815476652
 30
0.0
 11
-684.51304180535271
 21
-2122.1210820476649
 31
0.0
  0
LINE
  5
109C8
  8
0
 10
-683.01304296874957
 20
-2122.6210815476652
 30
0.0
 11
-682.91304180535258
 21
-2122.1210820476649
 31
0.0
  0
LINE
  5
109C9
  8
0
 10
-683.91303482496926
 20
-2119.121085047665
 30
0.0
 11
-683.81303366157215
 21
-2118.6210855476652
 31
0.0
  0
LINE
  5
109CA
  8
0
 10
-683.81303366157215
 20
-2118.6210855476652
 30
0.0
 11
-683.01304296874957
 21
-2122.6210815476652
 31
0.0
  0
LINE
  5
109CB
  8
0
 10
-685.41303366157206
 20
-2118.6210855476652
 30
0.0
 11
-684.61304296874948
 21
-2122.6210815476652
 31
0.0
  0
LINE
  5
109CC
  8
0
 10
-675.61303471518249
 20
-2119.0739012369072
 30
0.0
 11
-674.81304138834139
 21
-2121.9418610702751
 31
0.0
  0
LINE
  5
109CD
  8
0
 10
-674.01303576878672
 20
-2119.5267142921421
 30
0.0
 11
-673.21304033473575
 21
-2121.4890474186818
 31
0.0
  0
LINE
  5
109CE
  8
0
 10
-674.81304138834139
 20
-2121.9418610702751
 30
0.0
 11
-674.63027724571327
 21
-2121.3901121582212
 31
0.0
  0
LINE
  5
109CF
  8
0
 10
-674.16447156522713
 20
-2119.983885675601
 30
0.0
 11
-674.01303576878672
 21
-2119.5267142921421
 31
0.0
  0
LINE
  5
109D0
  8
0
 10
-673.21304033473575
 20
-2121.4890474186818
 30
0.0
 11
-672.90127047848364
 21
-2120.9007714319168
 31
0.0
  0
LINE
  5
109D1
  8
0
 10
-675.72580422753254
 20
-2119.541999223959
 30
0.0
 11
-675.61303471518249
 21
-2119.0739012369072
 31
0.0
  0
LINE
  5
109D2
  8
0
 10
-686.21304296874973
 20
-2122.6210815476652
 30
0.0
 11
-686.1130418053524
 21
-2122.1210820476649
 31
0.0
  0
LINE
  5
109D3
  8
0
 10
-687.01303366157231
 20
-2118.6210855476652
 30
0.0
 11
-686.21304296874973
 21
-2122.6210815476652
 31
0.0
  0
LINE
  5
109D4
  8
0
 10
-703.91304180536929
 20
-2122.1210820476649
 30
0.0
 11
-703.81304296876715
 21
-2122.6210815476652
 31
0.0
  0
LINE
  5
109D5
  8
0
 10
-703.01303366158095
 20
-2118.6210855476652
 30
0.0
 11
-702.21304296876269
 21
-2122.6210815476652
 31
0.0
  0
LINE
  5
109D6
  8
0
 10
-699.81303366158079
 20
-2118.6210855476652
 30
0.0
 11
-699.01304296876265
 21
-2122.6210815476652
 31
0.0
  0
LINE
  5
109D7
  8
0
 10
-699.01304296876265
 20
-2122.6210815476652
 30
0.0
 11
-698.91304180536497
 21
-2122.1210820476649
 31
0.0
  0
LINE
  5
109D8
  8
0
 10
-702.21304296876269
 20
-2122.6210815476652
 30
0.0
 11
-702.11304180536513
 21
-2122.1210820476649
 31
0.0
  0
LINE
  5
109D9
  8
0
 10
-701.51303482497883
 20
-2119.121085047665
 30
0.0
 11
-701.41303366158104
 21
-2118.6210855476652
 31
0.0
  0
LINE
  5
109DA
  8
0
 10
-700.61304296876278
 20
-2122.6210815476652
 30
0.0
 11
-700.51304180536522
 21
-2122.1210820476649
 31
0.0
  0
LINE
  5
109DB
  8
0
 10
-701.41303366158104
 20
-2118.6210855476652
 30
0.0
 11
-700.61304296876278
 21
-2122.6210815476652
 31
0.0
  0
LINE
  5
109DC
  8
0
 10
-699.91303482497869
 20
-2119.121085047665
 30
0.0
 11
-699.81303366158079
 21
-2118.6210855476652
 31
0.0
  0
LINE
  5
109DD
  8
0
 10
-703.81304296876715
 20
-2122.6210815476652
 30
0.0
 11
-703.71304180536924
 21
-2122.1210820476649
 31
0.0
  0
LINE
  5
109DE
  8
0
 10
-703.11303482497874
 20
-2119.121085047665
 30
0.0
 11
-703.01303366158095
 21
-2118.6210855476652
 31
0.0
  0
LINE
  5
109DF
  8
0
 10
-706.61302900776582
 20
-2116.6210410118128
 30
0.0
 11
-706.61304762212501
 21
-2124.6210330118138
 31
0.0
  0
LINE
  5
109E0
  8
0
 10
-698.31303482497424
 20
-2119.121085047665
 30
0.0
 11
-698.21303366157656
 21
-2118.6210855476652
 31
0.0
  0
LINE
  5
109E1
  8
0
 10
-696.71303482497001
 20
-2119.121085047665
 30
0.0
 11
-696.61303366157222
 21
-2118.6210855476652
 31
0.0
  0
LINE
  5
109E2
  8
0
 10
-697.4130429687583
 20
-2122.6210815476652
 30
0.0
 11
-697.31304180536063
 21
-2122.1210820476649
 31
0.0
  0
LINE
  5
109E3
  8
0
 10
-693.51303482496996
 20
-2119.121085047665
 30
0.0
 11
-693.41303366157206
 21
-2118.6210855476652
 31
0.0
  0
LINE
  5
109E4
  8
0
 10
-695.01303366157231
 20
-2118.6210855476652
 30
0.0
 11
-694.21304296875405
 21
-2122.6210815476652
 31
0.0
  0
LINE
  5
109E5
  8
0
 10
-694.21304296875405
 20
-2122.6210815476652
 30
0.0
 11
-694.11304180535649
 21
-2122.1210820476649
 31
0.0
  0
LINE
  5
109E6
  8
0
 10
-695.1130348249701
 20
-2119.121085047665
 30
0.0
 11
-695.01303366157231
 21
-2118.6210855476652
 31
0.0
  0
LINE
  5
109E7
  8
0
 10
-695.81304296875385
 20
-2122.6210815476652
 30
0.0
 11
-695.7130418053564
 21
-2122.1210820476649
 31
0.0
  0
LINE
  5
109E8
  8
0
 10
-691.01304296874957
 20
-2122.6210815476652
 30
0.0
 11
-690.91304180535258
 21
-2122.1210820476649
 31
0.0
  0
LINE
  5
109E9
  8
0
 10
-692.61304296875392
 20
-2122.6210815476652
 30
0.0
 11
-692.51304180535635
 21
-2122.1210820476649
 31
0.0
  0
LINE
  5
109EA
  8
0
 10
-691.91303482497005
 20
-2119.121085047665
 30
0.0
 11
-691.81303366157215
 21
-2118.6210855476652
 31
0.0
  0
LINE
  5
109EB
  8
0
 10
-691.81303366157215
 20
-2118.6210855476652
 30
0.0
 11
-691.01304296874957
 21
-2122.6210815476652
 31
0.0
  0
LINE
  5
109EC
  8
0
 10
-693.41303366157206
 20
-2118.6210855476652
 30
0.0
 11
-692.61304296875392
 21
-2122.6210815476652
 31
0.0
  0
LINE
  5
109ED
  8
0
 10
-696.61303366157222
 20
-2118.6210855476652
 30
0.0
 11
-695.81304296875385
 21
-2122.6210815476652
 31
0.0
  0
LINE
  5
109EE
  8
0
 10
-698.21303366157656
 20
-2118.6210855476652
 30
0.0
 11
-697.4130429687583
 21
-2122.6210815476652
 31
0.0
  0
LINE
  5
109EF
  8
0
 10
-677.21303482497069
 20
-2099.121081774183
 30
0.0
 11
-704.11299992309455
 21
-2099.121081774183
 31
0.0
  0
LINE
  5
109F0
  8
0
 10
-706.61302900776661
 20
-2096.6210377383309
 30
0.0
 11
-704.11299992309455
 21
-2099.121081774183
 31
0.0
  0
LINE
  5
109F1
  8
0
 10
-671.9130383151097
 20
-2100.621080274183
 30
0.0
 11
-677.21303482497069
 21
-2099.121081774183
 31
0.0
  0
LINE
  5
109F2
  8
0
 10
-706.61302900776661
 20
-2096.6210377383309
 30
0.0
 11
-706.91302900776759
 21
-2096.6210377383309
 31
0.0
  0
LINE
  5
109F3
  8
0
 10
-671.9130383151097
 20
-2100.621080274183
 30
0.0
 11
-677.21304180535503
 21
-2102.1210787741829
 31
0.0
  0
LINE
  5
109F4
  8
0
 10
-706.91302900776759
 20
-2096.6210377383309
 30
0.0
 11
-706.91304762212678
 21
-2104.6210297383309
 31
0.0
  0
LINE
  5
109F5
  8
0
 10
-677.21304180535503
 20
-2102.1210787741829
 30
0.0
 11
-704.11306507345967
 21
-2102.1210787741829
 31
0.0
  0
LINE
  5
109F6
  8
0
 10
-706.6130476221258
 20
-2104.6210297383309
 30
0.0
 11
-706.91304762212678
 21
-2104.6210297383309
 31
0.0
  0
LINE
  5
109F7
  8
0
 10
-706.6130476221258
 20
-2104.6210297383309
 30
0.0
 11
-704.11306507345967
 21
-2102.1210787741829
 31
0.0
  0
LINE
  5
109F8
  8
1CENTER
 10
-670.45854212430925
 20
-2100.6210337383309
 30
0.0
 11
-708.29167517168389
 21
-2100.6210337383309
 31
0.0
  0
LINE
  5
109F9
  8
0
 10
-679.11303482496999
 20
-2099.121081774183
 30
0.0
 11
-679.01303366157299
 21
-2098.6210822741832
 31
0.0
  0
LINE
  5
109FA
  8
0
 10
-679.01303366157299
 20
-2098.6210822741832
 30
0.0
 11
-678.21304296875041
 21
-2102.6210782741832
 31
0.0
  0
LINE
  5
109FB
  8
0
 10
-678.21304296875041
 20
-2102.6210782741832
 30
0.0
 11
-678.1130418053533
 21
-2102.1210787741829
 31
0.0
  0
LINE
  5
109FC
  8
0
 10
-680.71303482497001
 20
-2099.121081774183
 30
0.0
 11
-680.6130336615729
 21
-2098.6210822741832
 31
0.0
  0
LINE
  5
109FD
  8
0
 10
-679.81304296875032
 20
-2102.6210782741832
 30
0.0
 11
-679.71304180535321
 21
-2102.1210787741829
 31
0.0
  0
LINE
  5
109FE
  8
0
 10
-680.6130336615729
 20
-2098.6210822741832
 30
0.0
 11
-679.81304296875032
 21
-2102.6210782741832
 31
0.0
  0
LINE
  5
109FF
  8
0
 10
-682.31303482497015
 20
-2099.121081774183
 30
0.0
 11
-682.21303366157304
 21
-2098.6210822741832
 31
0.0
  0
LINE
  5
10A00
  8
0
 10
-682.21303366157304
 20
-2098.6210822741832
 30
0.0
 11
-681.41304296875035
 21
-2102.6210782741832
 31
0.0
  0
LINE
  5
10A01
  8
0
 10
-681.41304296875035
 20
-2102.6210782741832
 30
0.0
 11
-681.31304180535335
 21
-2102.1210787741829
 31
0.0
  0
LINE
  5
10A02
  8
0
 10
-690.31303482497015
 20
-2099.121081774183
 30
0.0
 11
-690.21303366157304
 21
-2098.6210822741832
 31
0.0
  0
LINE
  5
10A03
  8
0
 10
-689.41304296875035
 20
-2102.6210782741832
 30
0.0
 11
-689.31304180535335
 21
-2102.1210787741829
 31
0.0
  0
LINE
  5
10A04
  8
0
 10
-687.81304296875021
 20
-2102.6210782741832
 30
0.0
 11
-687.71304180535321
 21
-2102.1210787741829
 31
0.0
  0
LINE
  5
10A05
  8
0
 10
-688.71303482497001
 20
-2099.121081774183
 30
0.0
 11
-688.61303366157279
 21
-2098.6210822741832
 31
0.0
  0
LINE
  5
10A06
  8
0
 10
-687.1130348249701
 20
-2099.121081774183
 30
0.0
 11
-687.01303366157299
 21
-2098.6210822741832
 31
0.0
  0
LINE
  5
10A07
  8
0
 10
-688.61303366157279
 20
-2098.6210822741832
 30
0.0
 11
-687.81304296875021
 21
-2102.6210782741832
 31
0.0
  0
LINE
  5
10A08
  8
0
 10
-690.21303366157304
 20
-2098.6210822741832
 30
0.0
 11
-689.41304296875035
 21
-2102.6210782741832
 31
0.0
  0
LINE
  5
10A09
  8
0
 10
-685.51303482497008
 20
-2099.121081774183
 30
0.0
 11
-685.41303366157308
 21
-2098.6210822741832
 31
0.0
  0
LINE
  5
10A0A
  8
0
 10
-677.31303482497015
 20
-2099.121081774183
 30
0.0
 11
-677.21303366157304
 21
-2098.6210822741832
 31
0.0
  0
LINE
  5
10A0B
  8
0
 10
-677.21303366157304
 20
-2098.6210822741832
 30
0.0
 11
-676.41304244194771
 21
-2102.3946714483859
 31
0.0
  0
LINE
  5
10A0C
  8
0
 10
-676.41304244194771
 20
-2102.3946714483859
 30
0.0
 11
-676.28377174431785
 21
-2101.8580782497079
 31
0.0
  0
LINE
  5
10A0D
  8
0
 10
-684.61304296875051
 20
-2102.6210782741832
 30
0.0
 11
-684.5130418053534
 21
-2102.1210787741829
 31
0.0
  0
LINE
  5
10A0E
  8
0
 10
-683.01304296875026
 20
-2102.6210782741832
 30
0.0
 11
-682.91304180535315
 21
-2102.1210787741829
 31
0.0
  0
LINE
  5
10A0F
  8
0
 10
-683.91303482497005
 20
-2099.121081774183
 30
0.0
 11
-683.81303366157294
 21
-2098.6210822741832
 31
0.0
  0
LINE
  5
10A10
  8
0
 10
-683.81303366157294
 20
-2098.6210822741832
 30
0.0
 11
-683.01304296875026
 21
-2102.6210782741832
 31
0.0
  0
LINE
  5
10A11
  8
0
 10
-685.41303366157308
 20
-2098.6210822741832
 30
0.0
 11
-684.61304296875051
 21
-2102.6210782741832
 31
0.0
  0
LINE
  5
10A12
  8
0
 10
-675.61303471518329
 20
-2099.0738979634252
 30
0.0
 11
-674.81304138834219
 21
-2101.9418577967931
 31
0.0
  0
LINE
  5
10A13
  8
0
 10
-674.01303576878752
 20
-2099.5267110186601
 30
0.0
 11
-673.21304033473655
 21
-2101.4890441451998
 31
0.0
  0
LINE
  5
10A14
  8
0
 10
-674.81304138834219
 20
-2101.9418577967931
 30
0.0
 11
-674.63027724571407
 21
-2101.3901088847392
 31
0.0
  0
LINE
  5
10A15
  8
0
 10
-674.16447156522793
 20
-2099.983882402119
 30
0.0
 11
-674.01303576878752
 21
-2099.5267110186601
 31
0.0
  0
LINE
  5
10A16
  8
0
 10
-673.21304033473655
 20
-2101.4890441451998
 30
0.0
 11
-672.90127047848443
 21
-2100.9007681584339
 31
0.0
  0
LINE
  5
10A17
  8
0
 10
-675.72580422753333
 20
-2099.541995950477
 30
0.0
 11
-675.61303471518329
 21
-2099.0738979634252
 31
0.0
  0
LINE
  5
10A18
  8
0
 10
-686.2130429687503
 20
-2102.6210782741832
 30
0.0
 11
-686.1130418053533
 21
-2102.1210787741829
 31
0.0
  0
LINE
  5
10A19
  8
0
 10
-687.01303366157299
 20
-2098.6210822741832
 30
0.0
 11
-686.2130429687503
 21
-2102.6210782741832
 31
0.0
  0
LINE
  5
10A1A
  8
0
 10
-703.91304180537009
 20
-2102.1210787741829
 30
0.0
 11
-703.81304296876795
 21
-2102.6210782741832
 31
0.0
  0
LINE
  5
10A1B
  8
0
 10
-703.01303366158174
 20
-2098.6210822741832
 30
0.0
 11
-702.2130429687636
 21
-2102.6210782741832
 31
0.0
  0
LINE
  5
10A1C
  8
0
 10
-699.81303366158181
 20
-2098.6210822741832
 30
0.0
 11
-699.01304296876344
 21
-2102.6210782741832
 31
0.0
  0
LINE
  5
10A1D
  8
0
 10
-699.01304296876344
 20
-2102.6210782741832
 30
0.0
 11
-698.91304180536565
 21
-2102.1210787741829
 31
0.0
  0
LINE
  5
10A1E
  8
0
 10
-702.2130429687636
 20
-2102.6210782741832
 30
0.0
 11
-702.11304180536581
 21
-2102.1210787741829
 31
0.0
  0
LINE
  5
10A1F
  8
0
 10
-701.51303482497951
 20
-2099.121081774183
 30
0.0
 11
-701.41303366158195
 21
-2098.6210822741832
 31
0.0
  0
LINE
  5
10A20
  8
0
 10
-700.61304296876369
 20
-2102.6210782741832
 30
0.0
 11
-700.5130418053659
 21
-2102.1210787741829
 31
0.0
  0
LINE
  5
10A21
  8
0
 10
-701.41303366158195
 20
-2098.6210822741832
 30
0.0
 11
-700.61304296876369
 21
-2102.6210782741832
 31
0.0
  0
LINE
  5
10A22
  8
0
 10
-699.91303482497926
 20
-2099.121081774183
 30
0.0
 11
-699.81303366158181
 21
-2098.6210822741832
 31
0.0
  0
LINE
  5
10A23
  8
0
 10
-703.81304296876795
 20
-2102.6210782741832
 30
0.0
 11
-703.71304180537027
 21
-2102.1210787741829
 31
0.0
  0
LINE
  5
10A24
  8
0
 10
-703.11303482497942
 20
-2099.121081774183
 30
0.0
 11
-703.01303366158174
 21
-2098.6210822741832
 31
0.0
  0
LINE
  5
10A25
  8
0
 10
-706.61302900776661
 20
-2096.6210377383309
 30
0.0
 11
-706.6130476221258
 21
-2104.6210297383309
 31
0.0
  0
LINE
  5
10A26
  8
0
 10
-698.31303482497515
 20
-2099.121081774183
 30
0.0
 11
-698.21303366157736
 21
-2098.6210822741832
 31
0.0
  0
LINE
  5
10A27
  8
0
 10
-696.71303482497069
 20
-2099.121081774183
 30
0.0
 11
-696.61303366157313
 21
-2098.6210822741832
 31
0.0
  0
LINE
  5
10A28
  8
0
 10
-697.4130429687591
 20
-2102.6210782741832
 30
0.0
 11
-697.31304180536154
 21
-2102.1210787741829
 31
0.0
  0
LINE
  5
10A29
  8
0
 10
-693.51303482497065
 20
-2099.121081774183
 30
0.0
 11
-693.41303366157297
 21
-2098.6210822741832
 31
0.0
  0
LINE
  5
10A2A
  8
0
 10
-695.01303366157322
 20
-2098.6210822741832
 30
0.0
 11
-694.21304296875496
 21
-2102.6210782741832
 31
0.0
  0
LINE
  5
10A2B
  8
0
 10
-694.21304296875496
 20
-2102.6210782741832
 30
0.0
 11
-694.11304180535706
 21
-2102.1210787741829
 31
0.0
  0
LINE
  5
10A2C
  8
0
 10
-695.11303482497078
 20
-2099.121081774183
 30
0.0
 11
-695.01303366157322
 21
-2098.6210822741832
 31
0.0
  0
LINE
  5
10A2D
  8
0
 10
-695.81304296875487
 20
-2102.6210782741832
 30
0.0
 11
-695.71304180535697
 21
-2102.1210787741829
 31
0.0
  0
LINE
  5
10A2E
  8
0
 10
-691.01304296875026
 20
-2102.6210782741832
 30
0.0
 11
-690.91304180535315
 21
-2102.1210787741829
 31
0.0
  0
LINE
  5
10A2F
  8
0
 10
-692.61304296875483
 20
-2102.6210782741832
 30
0.0
 11
-692.51304180535703
 21
-2102.1210787741829
 31
0.0
  0
LINE
  5
10A30
  8
0
 10
-691.91303482497074
 20
-2099.121081774183
 30
0.0
 11
-691.81303366157294
 21
-2098.6210822741832
 31
0.0
  0
LINE
  5
10A31
  8
0
 10
-691.81303366157294
 20
-2098.6210822741832
 30
0.0
 11
-691.01304296875026
 21
-2102.6210782741832
 31
0.0
  0
LINE
  5
10A32
  8
0
 10
-693.41303366157297
 20
-2098.6210822741832
 30
0.0
 11
-692.61304296875483
 21
-2102.6210782741832
 31
0.0
  0
LINE
  5
10A33
  8
0
 10
-696.61303366157313
 20
-2098.6210822741832
 30
0.0
 11
-695.81304296875487
 21
-2102.6210782741832
 31
0.0
  0
LINE
  5
10A34
  8
0
 10
-698.21303366157736
 20
-2098.6210822741832
 30
0.0
 11
-697.4130429687591
 21
-2102.6210782741832
 31
0.0
  0
LINE
  5
10A35
  8
01
 10
-711.11303831494661
 20
-2127.72100663833
 30
0.0
 11
-709.61303831494661
 21
-2127.72100663833
 31
0.0
  0
LINE
  5
10A36
  8
0
 10
-794.6129917790488
 20
-2017.8211130483569
 30
0.0
 11
-794.6129917790488
 21
-2044.721051246516
 31
0.0
  0
LINE
  5
10A37
  8
0
 10
-797.11303831494683
 20
-2047.2210778311589
 30
0.0
 11
-794.6129917790488
 21
-2044.721051246516
 31
0.0
  0
LINE
  5
10A38
  8
0
 10
-793.11299177904891
 20
-2012.5211218384929
 30
0.0
 11
-794.6129917790488
 21
-2017.8211130483569
 31
0.0
  0
LINE
  5
10A39
  8
0
 10
-797.11303831494683
 20
-2047.2210778311589
 30
0.0
 11
-797.11303831494683
 21
-2047.52107753116
 31
0.0
  0
LINE
  5
10A3A
  8
0
 10
-793.11299177904891
 20
-2012.5211218384929
 30
0.0
 11
-791.61299177904891
 21
-2017.8211200287351
 31
0.0
  0
LINE
  5
10A3B
  8
0
 10
-797.11303831494683
 20
-2047.52107753116
 30
0.0
 11
-789.11303831494683
 21
-2047.5210961455009
 31
0.0
  0
LINE
  5
10A3C
  8
0
 10
-791.61299177904891
 20
-2017.8211200287351
 30
0.0
 11
-791.61299177904891
 21
-2044.7211163968159
 31
0.0
  0
LINE
  5
10A3D
  8
0
 10
-789.11303831494683
 20
-2047.2210964455001
 30
0.0
 11
-789.11303831494683
 21
-2047.5210961455009
 31
0.0
  0
LINE
  5
10A3E
  8
0
 10
-789.11303831494683
 20
-2047.2210964455001
 30
0.0
 11
-791.61299177904891
 21
-2044.7211163968159
 31
0.0
  0
LINE
  5
10A3F
  8
1CENTER
 10
-793.11303831494683
 20
-2011.0666271021889
 30
0.0
 11
-793.11303831494683
 21
-2048.8997223164301
 31
0.0
  0
LINE
  5
10A40
  8
0
 10
-794.6129917790488
 20
-2019.7211111483571
 30
0.0
 11
-795.11299177904891
 21
-2019.6211100849609
 31
0.0
  0
LINE
  5
10A41
  8
0
 10
-795.11299177904891
 20
-2019.6211100849609
 30
0.0
 11
-791.11299177904891
 21
-2018.821120192129
 31
0.0
  0
LINE
  5
10A42
  8
0
 10
-791.11299177904891
 20
-2018.821120192129
 30
0.0
 11
-791.61299177904891
 21
-2018.7211191287331
 31
0.0
  0
LINE
  5
10A43
  8
0
 10
-794.6129917790488
 20
-2021.3211095483571
 30
0.0
 11
-795.11299177904891
 21
-2021.221108484961
 31
0.0
  0
LINE
  5
10A44
  8
0
 10
-791.11299177904891
 20
-2020.421118592129
 30
0.0
 11
-791.61299177904891
 21
-2020.3211175287331
 31
0.0
  0
LINE
  5
10A45
  8
0
 10
-795.11299177904891
 20
-2021.221108484961
 30
0.0
 11
-791.11299177904891
 21
-2020.421118592129
 31
0.0
  0
LINE
  5
10A46
  8
0
 10
-794.6129917790488
 20
-2022.9211079483571
 30
0.0
 11
-795.11299177904891
 21
-2022.821106884961
 31
0.0
  0
LINE
  5
10A47
  8
0
 10
-795.11299177904891
 20
-2022.821106884961
 30
0.0
 11
-791.11299177904891
 21
-2022.021116992129
 31
0.0
  0
LINE
  5
10A48
  8
0
 10
-791.11299177904891
 20
-2022.021116992129
 30
0.0
 11
-791.61299177904891
 21
-2021.921115928734
 31
0.0
  0
LINE
  5
10A49
  8
0
 10
-794.6129917790488
 20
-2030.9210999483571
 30
0.0
 11
-795.11299177904891
 21
-2030.821098884961
 31
0.0
  0
LINE
  5
10A4A
  8
0
 10
-791.11299177904891
 20
-2030.021108992129
 30
0.0
 11
-791.61299177904891
 21
-2029.921107928734
 31
0.0
  0
LINE
  5
10A4B
  8
0
 10
-791.11299177904891
 20
-2028.421110592129
 30
0.0
 11
-791.61299177904891
 21
-2028.3211095287329
 31
0.0
  0
LINE
  5
10A4C
  8
0
 10
-794.6129917790488
 20
-2029.3211015483571
 30
0.0
 11
-795.11299177904891
 21
-2029.221100484961
 31
0.0
  0
LINE
  5
10A4D
  8
0
 10
-794.6129917790488
 20
-2027.7211031483571
 30
0.0
 11
-795.11299177904891
 21
-2027.621102084961
 31
0.0
  0
LINE
  5
10A4E
  8
0
 10
-795.11299177904891
 20
-2029.221100484961
 30
0.0
 11
-791.11299177904891
 21
-2028.421110592129
 31
0.0
  0
LINE
  5
10A4F
  8
0
 10
-795.11299177904891
 20
-2030.821098884961
 30
0.0
 11
-791.11299177904891
 21
-2030.021108992129
 31
0.0
  0
LINE
  5
10A50
  8
0
 10
-794.6129917790488
 20
-2026.1211047483571
 30
0.0
 11
-795.11299177904891
 21
-2026.021103684961
 31
0.0
  0
LINE
  5
10A51
  8
0
 10
-794.6129917790488
 20
-2017.9211129483569
 30
0.0
 11
-795.11299177904891
 21
-2017.8211118849611
 31
0.0
  0
LINE
  5
10A52
  8
0
 10
-795.11299177904891
 20
-2017.8211118849611
 30
0.0
 11
-791.33939883125277
 21
-2017.021121465327
 31
0.0
  0
LINE
  5
10A53
  8
0
 10
-791.33939883125277
 20
-2017.021121465327
 30
0.0
 11
-791.87599256652402
 21
-2016.891850896968
 31
0.0
  0
LINE
  5
10A54
  8
0
 10
-791.11299177904891
 20
-2025.221113792129
 30
0.0
 11
-791.61299177904891
 21
-2025.1211127287329
 31
0.0
  0
LINE
  5
10A55
  8
0
 10
-791.11299177904891
 20
-2023.621115392129
 30
0.0
 11
-791.61299177904891
 21
-2023.5211143287329
 31
0.0
  0
LINE
  5
10A56
  8
0
 10
-794.6129917790488
 20
-2024.5211063483571
 30
0.0
 11
-795.11299177904891
 21
-2024.421105284961
 31
0.0
  0
LINE
  5
10A57
  8
0
 10
-795.11299177904891
 20
-2024.421105284961
 30
0.0
 11
-791.11299177904891
 21
-2023.621115392129
 31
0.0
  0
LINE
  5
10A58
  8
0
 10
-795.11299177904891
 20
-2026.021103684961
 30
0.0
 11
-791.11299177904891
 21
-2025.221113792129
 31
0.0
  0
LINE
  5
10A59
  8
0
 10
-794.66017563699018
 20
-2016.22111453857
 30
0.0
 11
-791.79221293565968
 21
-2015.421122011722
 31
0.0
  0
LINE
  5
10A5A
  8
0
 10
-794.20736212894178
 20
-2014.6211171921741
 30
0.0
 11
-792.24502704006636
 21
-2013.8211225581181
 31
0.0
  0
LINE
  5
10A5B
  8
0
 10
-791.79221293565968
 20
-2015.421122011722
 30
0.0
 11
-792.34396239946295
 21
-2015.2383580518581
 31
0.0
  0
LINE
  5
10A5C
  8
0
 10
-793.75019028831071
 20
-2014.772552837178
 30
0.0
 11
-794.20736212894178
 21
-2014.6211171921741
 31
0.0
  0
LINE
  5
10A5D
  8
0
 10
-792.24502704006636
 20
-2013.8211225581181
 30
0.0
 11
-792.83330361510878
 21
-2013.509353013636
 31
0.0
  0
LINE
  5
10A5E
  8
0
 10
-794.1920771818402
 20
-2016.3338839381511
 30
0.0
 11
-794.66017563699018
 21
-2016.22111453857
 31
0.0
  0
LINE
  5
10A5F
  8
0
 10
-791.11299177904891
 20
-2026.821112192129
 30
0.0
 11
-791.61299177904891
 21
-2026.7211111287329
 31
0.0
  0
LINE
  5
10A60
  8
0
 10
-795.11299177904891
 20
-2027.621102084961
 30
0.0
 11
-791.11299177904891
 21
-2026.821112192129
 31
0.0
  0
LINE
  5
10A61
  8
0
 10
-791.61299177904891
 20
-2044.5210933287501
 30
0.0
 11
-791.11299177904891
 21
-2044.421094592147
 31
0.0
  0
LINE
  5
10A62
  8
0
 10
-795.11299177904891
 20
-2043.6210860849701
 30
0.0
 11
-791.11299177904891
 21
-2042.821096192142
 31
0.0
  0
LINE
  5
10A63
  8
0
 10
-795.11299177904891
 20
-2040.4210892849701
 30
0.0
 11
-791.11299177904891
 21
-2039.621099392142
 31
0.0
  0
LINE
  5
10A64
  8
0
 10
-791.11299177904891
 20
-2039.621099392142
 30
0.0
 11
-791.61299177904891
 21
-2039.5210983287459
 31
0.0
  0
LINE
  5
10A65
  8
0
 10
-791.11299177904891
 20
-2042.821096192142
 30
0.0
 11
-791.61299177904891
 21
-2042.7210951287459
 31
0.0
  0
LINE
  5
10A66
  8
0
 10
-794.6129917790488
 20
-2042.121088748366
 30
0.0
 11
-795.11299177904891
 21
-2042.0210876849701
 31
0.0
  0
LINE
  5
10A67
  8
0
 10
-791.11299177904891
 20
-2041.2210977921429
 30
0.0
 11
-791.61299177904891
 21
-2041.1210967287459
 31
0.0
  0
LINE
  5
10A68
  8
0
 10
-795.11299177904891
 20
-2042.0210876849701
 30
0.0
 11
-791.11299177904891
 21
-2041.2210977921429
 31
0.0
  0
LINE
  5
10A69
  8
0
 10
-794.6129917790488
 20
-2040.5210903483669
 30
0.0
 11
-795.11299177904891
 21
-2040.4210892849701
 31
0.0
  0
LINE
  5
10A6A
  8
0
 10
-791.11299177904891
 20
-2044.421094592147
 30
0.0
 11
-791.61299177904891
 21
-2044.32109352875
 31
0.0
  0
LINE
  5
10A6B
  8
0
 10
-794.6129917790488
 20
-2043.721087148366
 30
0.0
 11
-795.11299177904891
 21
-2043.6210860849701
 31
0.0
  0
LINE
  5
10A6C
  8
0
 10
-797.11303831494683
 20
-2047.2210778311589
 30
0.0
 11
-789.11303831494683
 21
-2047.2210964455001
 31
0.0
  0
LINE
  5
10A6D
  8
0
 10
-794.6129917790488
 20
-2038.9210919483619
 30
0.0
 11
-795.11299177904891
 21
-2038.8210908849651
 31
0.0
  0
LINE
  5
10A6E
  8
0
 10
-794.6129917790488
 20
-2037.321093548358
 30
0.0
 11
-795.11299177904891
 21
-2037.221092484961
 31
0.0
  0
LINE
  5
10A6F
  8
0
 10
-791.11299177904891
 20
-2038.0211009921379
 30
0.0
 11
-791.61299177904891
 21
-2037.9210999287409
 31
0.0
  0
LINE
  5
10A70
  8
0
 10
-794.6129917790488
 20
-2034.121096748358
 30
0.0
 11
-795.11299177904891
 21
-2034.021095684961
 31
0.0
  0
LINE
  5
10A71
  8
0
 10
-795.11299177904891
 20
-2035.621094084961
 30
0.0
 11
-791.11299177904891
 21
-2034.821104192134
 31
0.0
  0
LINE
  5
10A72
  8
0
 10
-791.11299177904891
 20
-2034.821104192134
 30
0.0
 11
-791.61299177904891
 21
-2034.721103128737
 31
0.0
  0
LINE
  5
10A73
  8
0
 10
-794.6129917790488
 20
-2035.721095148358
 30
0.0
 11
-795.11299177904891
 21
-2035.621094084961
 31
0.0
  0
LINE
  5
10A74
  8
0
 10
-791.11299177904891
 20
-2036.421102592134
 30
0.0
 11
-791.61299177904891
 21
-2036.321101528737
 31
0.0
  0
LINE
  5
10A75
  8
0
 10
-791.11299177904891
 20
-2031.621107392129
 30
0.0
 11
-791.61299177904891
 21
-2031.5211063287329
 31
0.0
  0
LINE
  5
10A76
  8
0
 10
-791.11299177904891
 20
-2033.221105792134
 30
0.0
 11
-791.61299177904891
 21
-2033.121104728737
 31
0.0
  0
LINE
  5
10A77
  8
0
 10
-794.6129917790488
 20
-2032.521098348358
 30
0.0
 11
-795.11299177904891
 21
-2032.421097284961
 31
0.0
  0
LINE
  5
10A78
  8
0
 10
-795.11299177904891
 20
-2032.421097284961
 30
0.0
 11
-791.11299177904891
 21
-2031.621107392129
 31
0.0
  0
LINE
  5
10A79
  8
0
 10
-795.11299177904891
 20
-2034.021095684961
 30
0.0
 11
-791.11299177904891
 21
-2033.221105792134
 31
0.0
  0
LINE
  5
10A7A
  8
0
 10
-795.11299177904891
 20
-2037.221092484961
 30
0.0
 11
-791.11299177904891
 21
-2036.421102592134
 31
0.0
  0
LINE
  5
10A7B
  8
0
 10
-795.11299177904891
 20
-2038.8210908849651
 30
0.0
 11
-791.11299177904891
 21
-2038.0211009921379
 31
0.0
  0
LINE
  5
10A7C
  8
1CENTER
 10
-793.11303831494661
 20
-2123.6210107383308
 30
0.0
 11
-793.11303831494661
 21
-2117.621016738331
 31
0.0
  0
LINE
  5
10A7D
  8
1CENTER
 10
-796.11303831494661
 20
-2120.6210137383309
 30
0.0
 11
-790.11303831494661
 21
-2120.6210137383309
 31
0.0
  0
LINE
  5
10A7E
  8
1CENTER
 10
-793.11303831494661
 20
-2103.6210307383308
 30
0.0
 11
-793.11303831494661
 21
-2097.621036738331
 31
0.0
  0
LINE
  5
10A7F
  8
1CENTER
 10
-796.11303831494661
 20
-2100.6210337383309
 30
0.0
 11
-790.11303831494661
 21
-2100.6210337383309
 31
0.0
  0
LINE
  5
10A80
  8
1DIM
 10
-670.45854212430925
 20
-2100.6210337383309
 30
0.0
 11
-664.11303831494661
 21
-2100.6210337383309
 31
0.0
  0
LINE
  5
10A81
  8
1DIM
 10
-670.45854212430925
 20
-2120.6210370118129
 30
0.0
 11
-664.11303831494661
 21
-2120.6210370118129
 31
0.0
  0
LINE
  5
10A82
  8
1DIM
 10
-665.11303831494661
 20
-2102.621031738332
 30
0.0
 11
-665.11303831494661
 21
-2118.6210390118131
 31
0.0
  0
LINE
  5
10A83
  8
0
  6
BYBLOCK
 10
-665.64893669494666
 20
-2102.621031738332
 30
0.0
 11
-665.11303831494661
 21
-2100.6210337383309
 31
0.0
  0
LINE
  5
10A84
  8
0
  6
BYBLOCK
 10
-665.11303831494661
 20
-2100.6210337383309
 30
0.0
 11
-664.57713993494644
 21
-2102.621031738332
 31
0.0
  0
LINE
  5
10A85
  8
0
  6
BYBLOCK
 10
-665.11303831494661
 20
-2100.6210337383309
 30
0.0
 11
-665.11303831494661
 21
-2102.621031738332
 31
0.0
  0
LINE
  5
10A86
  8
0
  6
BYBLOCK
 10
-664.57713993494644
 20
-2118.6210390118131
 30
0.0
 11
-665.11303831494661
 21
-2120.6210370118129
 31
0.0
  0
LINE
  5
10A87
  8
0
  6
BYBLOCK
 10
-665.11303831494661
 20
-2120.6210370118129
 30
0.0
 11
-665.64893669494666
 21
-2118.6210390118131
 31
0.0
  0
LINE
  5
10A88
  8
0
  6
BYBLOCK
 10
-665.11303831494661
 20
-2120.6210370118129
 30
0.0
 11
-665.11303831494661
 21
-2118.6210390118131
 31
0.0
  0
TEXT
  5
10A89
  8
1DIM
 10
-665.81303831494631
 20
-2113.2460327500721
 30
0.0
 40
3.5
  1
20 
 50
90.0
 41
0.9999990000001162
  0
LINE
  5
10A8A
  8
1DIM
 10
-729.11303831494649
 20
-2141.7209926383298
 30
0.0
 11
-744.11303831494661
 21
-2141.7209926383298
 31
0.0
  0
LINE
  5
10A8B
  8
1DIM
 10
-732.61303831494649
 20
-2127.72100663833
 30
0.0
 11
-744.11303831494661
 21
-2127.72100663833
 31
0.0
  0
LINE
  5
10A8C
  8
1DIM
 10
-743.11303831494661
 20
-2139.7209946383309
 30
0.0
 11
-743.11303831494661
 21
-2129.7210046383302
 31
0.0
  0
LINE
  5
10A8D
  8
0
  6
BYBLOCK
 10
-742.57713993494644
 20
-2139.7209946383309
 30
0.0
 11
-743.11303831494661
 21
-2141.7209926383298
 31
0.0
  0
LINE
  5
10A8E
  8
0
  6
BYBLOCK
 10
-743.11303831494661
 20
-2141.7209926383298
 30
0.0
 11
-743.64893669494666
 21
-2139.7209946383309
 31
0.0
  0
LINE
  5
10A8F
  8
0
  6
BYBLOCK
 10
-743.11303831494661
 20
-2141.7209926383298
 30
0.0
 11
-743.11303831494661
 21
-2139.7209946383309
 31
0.0
  0
LINE
  5
10A90
  8
0
  6
BYBLOCK
 10
-743.64893669494666
 20
-2129.7210046383302
 30
0.0
 11
-743.11303831494661
 21
-2127.72100663833
 31
0.0
  0
LINE
  5
10A91
  8
0
  6
BYBLOCK
 10
-743.11303831494661
 20
-2127.72100663833
 30
0.0
 11
-742.57713993494644
 21
-2129.7210046383302
 31
0.0
  0
LINE
  5
10A92
  8
0
  6
BYBLOCK
 10
-743.11303831494661
 20
-2127.72100663833
 30
0.0
 11
-743.11303831494661
 21
-2129.7210046383302
 31
0.0
  0
TEXT
  5
10A93
  8
1DIM
 10
-743.81303831494631
 20
-2137.0543306383311
 30
0.0
 40
3.5
  1
14 
 50
90.0
 41
0.9999990000001162
  0
LINE
  5
10A94
  8
1DIM
 10
-743.11303831494661
 20
-2141.7209926383298
 30
0.0
 11
-754.11303831494649
 21
-2141.7209926383298
 31
0.0
  0
LINE
  5
10A95
  8
1DIM
 10
-709.61303831494638
 20
-2093.721040638331
 30
0.0
 11
-754.11303831494649
 21
-2093.721040638331
 31
0.0
  0
LINE
  5
10A96
  8
1DIM
 10
-753.11303831494661
 20
-2139.7209946383309
 30
0.0
 11
-753.11303831494661
 21
-2095.7210386383299
 31
0.0
  0
LINE
  5
10A97
  8
0
  6
BYBLOCK
 10
-752.57713993494656
 20
-2139.7209946383309
 30
0.0
 11
-753.11303831494661
 21
-2141.7209926383298
 31
0.0
  0
LINE
  5
10A98
  8
0
  6
BYBLOCK
 10
-753.11303831494661
 20
-2141.7209926383298
 30
0.0
 11
-753.64893669494666
 21
-2139.7209946383309
 31
0.0
  0
LINE
  5
10A99
  8
0
  6
BYBLOCK
 10
-753.11303831494661
 20
-2141.7209926383298
 30
0.0
 11
-753.11303831494661
 21
-2139.7209946383309
 31
0.0
  0
LINE
  5
10A9A
  8
0
  6
BYBLOCK
 10
-753.64893669494666
 20
-2095.7210386383299
 30
0.0
 11
-753.11303831494661
 21
-2093.721040638331
 31
0.0
  0
LINE
  5
10A9B
  8
0
  6
BYBLOCK
 10
-753.11303831494661
 20
-2093.721040638331
 30
0.0
 11
-752.57713993494656
 21
-2095.7210386383299
 31
0.0
  0
LINE
  5
10A9C
  8
0
  6
BYBLOCK
 10
-753.11303831494661
 20
-2093.721040638331
 30
0.0
 11
-753.11303831494661
 21
-2095.7210386383299
 31
0.0
  0
TEXT
  5
10A9D
  8
1DIM
 10
-753.81303831494631
 20
-2120.63768038833
 30
0.0
 40
3.5
  1
48 
 50
90.0
 41
0.9999990000001162
  0
LINE
  5
10A9E
  8
1DIM
 10
-783.61303831494661
 20
-2067.7210666383298
 30
0.0
 11
-772.11303831494661
 21
-2067.7210666383298
 31
0.0
  0
LINE
  5
10A9F
  8
1DIM
 10
-783.61303831494661
 20
-2045.72108863833
 30
0.0
 11
-772.11303831494661
 21
-2045.72108863833
 31
0.0
  0
LINE
  5
10AA0
  8
1DIM
 10
-773.11303831494661
 20
-2065.7210686383301
 30
0.0
 11
-773.11303831494661
 21
-2047.72108663833
 31
0.0
  0
LINE
  5
10AA1
  8
0
  6
BYBLOCK
 10
-772.57713993494644
 20
-2065.7210686383301
 30
0.0
 11
-773.11303831494661
 21
-2067.7210666383298
 31
0.0
  0
LINE
  5
10AA2
  8
0
  6
BYBLOCK
 10
-773.11303831494661
 20
-2067.7210666383298
 30
0.0
 11
-773.64893669494666
 21
-2065.7210686383301
 31
0.0
  0
LINE
  5
10AA3
  8
0
  6
BYBLOCK
 10
-773.11303831494661
 20
-2067.7210666383298
 30
0.0
 11
-773.11303831494661
 21
-2065.7210686383301
 31
0.0
  0
LINE
  5
10AA4
  8
0
  6
BYBLOCK
 10
-773.64893669494666
 20
-2047.72108663833
 30
0.0
 11
-773.11303831494661
 21
-2045.72108863833
 31
0.0
  0
LINE
  5
10AA5
  8
0
  6
BYBLOCK
 10
-773.11303831494661
 20
-2045.72108863833
 30
0.0
 11
-772.57713993494644
 21
-2047.72108663833
 31
0.0
  0
LINE
  5
10AA6
  8
0
  6
BYBLOCK
 10
-773.11303831494661
 20
-2045.72108863833
 30
0.0
 11
-773.11303831494661
 21
-2047.72108663833
 31
0.0
  0
TEXT
  5
10AA7
  8
1DIM
 10
-773.81303831494631
 20
-2059.6377413883301
 30
0.0
 40
3.5
  1
22 
 50
90.0
 41
0.9999990000001162
  0
LINE
  5
10AA8
  8
1DIM
 10
-773.11303831494661
 20
-2045.72108863833
 30
0.0
 11
-762.11303831494649
 21
-2045.72108863833
 31
0.0
  0
LINE
  5
10AA9
  8
1DIM
 10
-783.61303831494661
 20
-2073.721060638331
 30
0.0
 11
-762.11303831494649
 21
-2073.721060638331
 31
0.0
  0
LINE
  5
10AAA
  8
1DIM
 10
-763.11303831494661
 20
-2047.72108663833
 30
0.0
 11
-763.11303831494661
 21
-2071.7210626383298
 31
0.0
  0
LINE
  5
10AAB
  8
0
  6
BYBLOCK
 10
-763.64893669494666
 20
-2047.72108663833
 30
0.0
 11
-763.11303831494661
 21
-2045.72108863833
 31
0.0
  0
LINE
  5
10AAC
  8
0
  6
BYBLOCK
 10
-763.11303831494661
 20
-2045.72108863833
 30
0.0
 11
-762.57713993494644
 21
-2047.72108663833
 31
0.0
  0
LINE
  5
10AAD
  8
0
  6
BYBLOCK
 10
-763.11303831494661
 20
-2045.72108863833
 30
0.0
 11
-763.11303831494661
 21
-2047.72108663833
 31
0.0
  0
LINE
  5
10AAE
  8
0
  6
BYBLOCK
 10
-762.57713993494644
 20
-2071.7210626383298
 30
0.0
 11
-763.11303831494661
 21
-2073.721060638331
 31
0.0
  0
LINE
  5
10AAF
  8
0
  6
BYBLOCK
 10
-763.11303831494661
 20
-2073.721060638331
 30
0.0
 11
-763.64893669494666
 21
-2071.7210626383298
 31
0.0
  0
LINE
  5
10AB0
  8
0
  6
BYBLOCK
 10
-763.11303831494661
 20
-2073.721060638331
 30
0.0
 11
-763.11303831494661
 21
-2071.7210626383298
 31
0.0
  0
TEXT
  5
10AB1
  8
1DIM
 10
-763.81303831494631
 20
-2062.63773838833
 30
0.0
 40
3.5
  1
28 
 50
90.0
 41
0.9999989999996614
  0
LINE
  5
10AB2
  8
1DIM
 10
-803.11303831494581
 20
-2073.2210611383312
 30
0.0
 11
-803.11303831494581
 21
-2084.72104963833
 31
0.0
  0
LINE
  5
10AB3
  8
1DIM
 10
-783.11303831494649
 20
-2073.2210611383312
 30
0.0
 11
-783.11303831494649
 21
-2084.72104963833
 31
0.0
  0
LINE
  5
10AB4
  8
1DIM
 10
-801.11303831494581
 20
-2083.7210506383308
 30
0.0
 11
-785.11303831494661
 21
-2083.7210506383308
 31
0.0
  0
LINE
  5
10AB5
  8
0
  6
BYBLOCK
 10
-801.11303831494581
 20
-2084.256948482433
 30
0.0
 11
-803.11303831494581
 21
-2083.7210506383308
 31
0.0
  0
LINE
  5
10AB6
  8
0
  6
BYBLOCK
 10
-803.11303831494581
 20
-2083.7210506383308
 30
0.0
 11
-801.11303831494581
 21
-2083.185152794229
 31
0.0
  0
LINE
  5
10AB7
  8
0
  6
BYBLOCK
 10
-803.11303831494581
 20
-2083.7210506383308
 30
0.0
 11
-801.11303831494581
 21
-2083.7210506383308
 31
0.0
  0
LINE
  5
10AB8
  8
0
  6
BYBLOCK
 10
-785.11303831494661
 20
-2083.185152794229
 30
0.0
 11
-783.11303831494649
 21
-2083.7210506383308
 31
0.0
  0
LINE
  5
10AB9
  8
0
  6
BYBLOCK
 10
-783.11303831494649
 20
-2083.7210506383308
 30
0.0
 11
-785.11303831494661
 21
-2084.256948482433
 31
0.0
  0
LINE
  5
10ABA
  8
0
  6
BYBLOCK
 10
-783.11303831494649
 20
-2083.7210506383308
 30
0.0
 11
-785.11303831494661
 21
-2083.7210506383308
 31
0.0
  0
TEXT
  5
10ABB
  8
1DIM
 10
-795.73803831494615
 20
-2083.0210513383299
 30
0.0
 40
3.4999964999997242
  1
20 
 41
1.0000010000010959
  0
SOLID
  5
10ABC
  8
1DIM1
 10
-798.41526690255262
 20
-2109.2868646584288
 30
0.0
 11
-797.33665673243547
 21
-2111.0037529240449
 31
0.0
 12
-798.91379283362949
 22
-2109.729488594357
 32
0.0
 13
-798.91379283362949
 23
-2109.729488594357
 33
0.0
  0
LINE
  5
10ABD
  8
1DIM1
 10
-798.66452986809111
 20
-2109.5081766263929
 30
0.0
 11
-814.63665673243554
 21
-2091.5188569240818
 31
0.0
  0
LINE
  5
10ABE
  8
1DIM1
 10
-814.63665673243554
 20
-2091.5188569240818
 30
0.0
 11
-862.60332339910212
 21
-2091.5188569240818
 31
0.0
  0
TEXT
  5
10ABF
  8
1DIM1
 10
-861.90332339910219
 20
-2084.9855301240818
 30
0.0
 40
3.4999965000001789
  1
材質：亜鉛ダイキャスト
 41
1.00000100000095
  0
TEXT
  5
10AC0
  8
1DIM1
 10
-849.76999006576887
 20
-2090.8188576240818
 30
0.0
 40
3.4999965000001789
  1
仕上げ：クローム
 41
1.00000100000095
  0
SOLID
  5
10AC1
  8
1DIM1
 10
-798.41526690255262
 20
-2135.4281874547069
 30
0.0
 11
-797.33665673243547
 21
-2137.1450757203238
 31
0.0
 12
-798.91379283362949
 22
-2135.870811390635
 32
0.0
 13
-798.91379283362949
 23
-2135.870811390635
 33
0.0
  0
LINE
  5
10AC2
  8
1DIM1
 10
-798.66452986809111
 20
-2135.6494994226709
 30
0.0
 11
-814.63665673243554
 21
-2117.6601797203612
 31
0.0
  0
LINE
  5
10AC3
  8
1DIM1
 10
-814.63665673243554
 20
-2117.6601797203612
 30
0.0
 11
-862.60332339910212
 21
-2117.6601797203612
 31
0.0
  0
TEXT
  5
10AC4
  8
1DIM1
 10
-861.90332339910219
 20
-2111.1268529203612
 30
0.0
 40
3.4999965000001789
  1
材質：亜鉛ダイキャスト
 41
1.00000100000095
  0
TEXT
  5
10AC5
  8
1DIM1
 10
-849.76999006576887
 20
-2116.9601804203612
 30
0.0
 40
3.4999965000001789
  1
仕上げ：クローム
 41
1.00000100000095
  0
VIEWPORT
  5
57
 67
     1
  8
0
 10
-12.71820606546882
 20
10.09248672500371
 30
0.0
 40
426.48431561502389
 41
282.79835762855021
 68
     1
 69
     1
1001
ACAD
1000
MVIEW
1002
{
1070
    16
1010
0.0
1020
0.0
1030
0.0
1010
0.0
1020
0.0
1030
1.0
1040
0.0
1040
282.79835762855021
1040
-12.71820606546882
1040
10.09248672500371
1040
50.0
1040
0.0
1040
0.0
1070
     0
1070
   100
1070
     1
1070
     1
1070
     0
1070
     0
1070
     0
1070
     0
1040
0.0
1040
0.0
1040
0.0
1040
10.0
1040
10.0
1040
10.0
1040
10.0
1070
     0
1002
{
1002
}
1002
}
  0
ENDSEC
  0
EOF
