  0
SECTION
  2
HEADER
  9
$ACADVER
  1
AC1009
  9
$INSBASE
 10
0.0
 20
0.0
 30
0.0
  9
$EXTMIN
 10
119.78000640501079
 20
-94.737416201192104
 30
0.0
  9
$EXTMAX
 10
441.00027623793522
 20
83.822315084950461
 30
0.0
  9
$LIMMIN
 10
0.0
 20
0.0
  9
$LIMMAX
 10
420.0
 20
297.0
  9
$ORTHOMODE
 70
     0
  9
$REGENMODE
 70
     1
  9
$FILLMODE
 70
     1
  9
$QTEXTMODE
 70
     0
  9
$MIRRTEXT
 70
     1
  9
$DRAGMODE
 70
     2
  9
$LTSCALE
 40
0.5
  9
$OSMODE
 70
  2175
  9
$ATTMODE
 70
     1
  9
$TEXTSIZE
 40
4.0
  9
$TRACEWID
 40
1.0
  9
$TEXTSTYLE
  7
STANDARD
  9
$CLAYER
  8
1TEXT
  9
$CELTYPE
  6
BYLAYER
  9
$CECOLOR
 62
   256
  9
$DIMSCALE
 40
1.0
  9
$DIMASZ
 40
2.0
  9
$DIMEXO
 40
0.0
  9
$DIMDLI
 40
7.0
  9
$DIMRND
 40
0.0
  9
$DIMDLE
 40
0.0
  9
$DIMEXE
 40
1.0
  9
$DIMTP
 40
0.0
  9
$DIMTM
 40
0.0
  9
$DIMTXT
 40
3.5
  9
$DIMCEN
 40
0.0
  9
$DIMTSZ
 40
0.0
  9
$DIMTOL
 70
     0
  9
$DIMLIM
 70
     0
  9
$DIMTIH
 70
     0
  9
$DIMTOH
 70
     0
  9
$DIMSE1
 70
     0
  9
$DIMSE2
 70
     0
  9
$DIMTAD
 70
     1
  9
$DIMZIN
 70
     8
  9
$DIMBLK
  1

  9
$DIMASO
 70
     1
  9
$DIMSHO
 70
     1
  9
$DIMPOST
  1
 
  9
$DIMAPOST
  1

  9
$DIMALT
 70
     0
  9
$DIMALTD
 70
     2
  9
$DIMALTF
 40
25.399999999999999
  9
$DIMLFAC
 40
1.0
  9
$DIMTOFL
 70
     1
  9
$DIMTVP
 40
0.0
  9
$DIMTIX
 70
     0
  9
$DIMSOXD
 70
     0
  9
$DIMSAH
 70
     1
  9
$DIMBLK1
  1
OPEN30
  9
$DIMBLK2
  1
OPEN30
  9
$DIMSTYLE
  2
NEWX10
  9
$DIMCLRD
 70
   256
  9
$DIMCLRE
 70
   256
  9
$DIMCLRT
 70
   201
  9
$DIMTFAC
 40
0.7
  9
$DIMGAP
 40
0.7
  9
$LUNITS
 70
     2
  9
$LUPREC
 70
     4
  9
$SKETCHINC
 40
1.0
  9
$FILLETRAD
 40
0.0
  9
$AUNITS
 70
     0
  9
$AUPREC
 70
     2
  9
$MENU
  1
acad
  9
$ELEVATION
 40
0.0
  9
$PELEVATION
 40
0.0
  9
$THICKNESS
 40
0.0
  9
$LIMCHECK
 70
     0
  9
$BLIPMODE
 70
     0
  9
$CHAMFERA
 40
10.0
  9
$CHAMFERB
 40
10.0
  9
$SKPOLY
 70
     0
  9
$TDCREATE
 40
2454568.758518334
  9
$TDUPDATE
 40
2456268.3847354171
  9
$TDINDWG
 40
0.0727595139
  9
$TDUSRTIMER
 40
0.0727593287
  9
$USRTIMER
 70
     1
  9
$ANGBASE
 50
0.0
  9
$ANGDIR
 70
     0
  9
$PDMODE
 70
     0
  9
$PDSIZE
 40
0.0
  9
$PLINEWID
 40
0.0
  9
$COORDS
 70
     0
  9
$SPLFRAME
 70
     0
  9
$SPLINETYPE
 70
     6
  9
$SPLINESEGS
 70
     8
  9
$ATTDIA
 70
     0
  9
$ATTREQ
 70
     1
  9
$HANDLING
 70
     1
  9
$HANDSEED
  5
3816
  9
$SURFTAB1
 70
     6
  9
$SURFTAB2
 70
     6
  9
$SURFTYPE
 70
     6
  9
$SURFU
 70
     6
  9
$SURFV
 70
     6
  9
$UCSNAME
  2

  9
$UCSORG
 10
0.0
 20
0.0
 30
0.0
  9
$UCSXDIR
 10
1.0
 20
0.0
 30
0.0
  9
$UCSYDIR
 10
0.0
 20
1.0
 30
0.0
  9
$PUCSNAME
  2

  9
$PUCSORG
 10
0.0
 20
0.0
 30
0.0
  9
$PUCSXDIR
 10
1.0
 20
0.0
 30
0.0
  9
$PUCSYDIR
 10
0.0
 20
1.0
 30
0.0
  9
$USERI1
 70
     0
  9
$USERI2
 70
     0
  9
$USERI3
 70
     0
  9
$USERI4
 70
     0
  9
$USERI5
 70
     0
  9
$USERR1
 40
0.0
  9
$USERR2
 40
0.0
  9
$USERR3
 40
0.0
  9
$USERR4
 40
0.0
  9
$USERR5
 40
0.0
  9
$WORLDVIEW
 70
     1
  9
$SHADEDGE
 70
     3
  9
$SHADEDIF
 70
    70
  9
$TILEMODE
 70
     1
  9
$MAXACTVP
 70
    48
  9
$PLIMCHECK
 70
     0
  9
$PEXTMIN
 10
1.0000000000000000E+020
 20
1.0000000000000000E+020
 30
1.0000000000000000E+020
  9
$PEXTMAX
 10
-1.0000000000000000E+020
 20
-1.0000000000000000E+020
 30
-1.0000000000000000E+020
  9
$PLIMMIN
 10
0.0
 20
0.0
  9
$PLIMMAX
 10
420.0
 20
297.0
  9
$UNITMODE
 70
     0
  9
$VISRETAIN
 70
     1
  9
$PLINEGEN
 70
     0
  9
$PSLTSCALE
 70
     1
  0
ENDSEC
  0
SECTION
  2
TABLES
  0
TABLE
  2
VPORT
 70
     1
  0
VPORT
  2
*ACTIVE
 70
     0
 10
0.0
 20
0.0
 11
1.0
 21
1.0
 12
280.38939792087967
 22
-5.4613811774660803
 13
0.0
 23
0.0
 14
10.0
 24
10.0
 15
10.0
 25
10.0
 16
0.0
 26
0.0
 36
1.0
 17
0.0
 27
0.0
 37
0.0
 40
227.7361832676126
 41
1.492734478203434
 42
50.0
 43
0.0
 44
0.0
 50
0.0
 51
0.0
 71
     0
 72
  1000
 73
     1
 74
     1
 75
     0
 76
     0
 77
     0
 78
     0
  0
ENDTAB
  0
TABLE
  2
LTYPE
 70
    14
  0
LTYPE
  2
CONTINUOUS
 70
     0
  3
Solid line
 72
    65
 73
     0
 40
0.0
  0
LTYPE
  2
CENTER2
 70
     0
  3
Center (.5x) ___ _ ___ _ ___ _ ___ _ ___ _ ___
 72
    65
 73
     4
 40
28.574999999999999
 49
19.050000000000001
 49
-3.1749999999999989
 49
3.1749999999999989
 49
-3.1749999999999989
  0
LTYPE
  2
XREF1|CENTER2
 70
    48
  3
Center (.5x) ___ _ ___ _ ___ _ ___ _ ___ _ ___
 72
    65
 73
     4
 40
28.574999999999999
 49
19.050000000000001
 49
-3.1749999999999989
 49
3.1749999999999989
 49
-3.1749999999999989
  0
LTYPE
  2
PHANTOM2
 70
     0
  3
Phantom (.5x) ___ _ _ ___ _ _ ___ _ _ ___ _ _
 72
    65
 73
     6
 40
31.75
 49
15.875
 49
-3.1749999999999989
 49
3.1749999999999989
 49
-3.1749999999999989
 49
3.1749999999999989
 49
-3.1749999999999989
  0
LTYPE
  2
A3WAKUDAKE|CENTER2
 70
    48
  3
Center (.5x) ___ _ ___ _ ___ _ ___ _ ___ _ ___
 72
    65
 73
     4
 40
28.574999999999999
 49
19.050000000000001
 49
-3.1749999999999989
 49
3.1749999999999989
 49
-3.1749999999999989
  0
ENDTAB
  0
TABLE
  2
LAYER
 70
    43
  0
LAYER
  2
0
 70
     0
 62
     7
  6
CONTINUOUS
  0
LAYER
  2
1CENTER
 70
     0
 62
     7
  6
CENTER2
  0
LAYER
  2
1TEXT
 70
     0
 62
     7
  6
CONTINUOUS
  0
LAYER
  2
1DIM
 70
     0
 62
     7
  6
CONTINUOUS
  0
LAYER
  2
1PHANTOM
 70
     0
 62
     7
  6
PHANTOM2
  0
LAYER
  2
01
 70
     0
 62
     1
  6
CONTINUOUS
  0
LAYER
  2
1HATCH
 70
     0
 62
     7
  6
CONTINUOUS
  0
LAYER
  2
A3WAKUDAKE|THICK
 70
    48
 62
     7
  6
CONTINUOUS
  0
LAYER
  2
A3WAKUDAKE|POINT
 70
    48
 62
     7
  6
CONTINUOUS
  0
LAYER
  2
A3WAKUDAKE|1CENTER
 70
    48
 62
     7
  6
A3WAKUDAKE|CENTER2
  0
LAYER
  2
A3WAKUDAKE|0-6
 70
    48
 62
     7
  6
CONTINUOUS
  0
LAYER
  2
A3WAKUDAKE|1DIM
 70
    48
 62
     7
  6
CONTINUOUS
  0
LAYER
  2
XREF1|1CENTER
 70
    48
 62
     7
  6
XREF1|CENTER2
  0
ENDTAB
  0
TABLE
  2
STYLE
 70
    21
  0
STYLE
  2
STANDARD
 70
     0
 40
0.0
 41
1.0
 50
0.0
 71
     0
 42
4.0
  3
txt.shx
  4
extfont.shx
  0
ENDTAB
  0
TABLE
  2
VIEW
 70
     5
  0
ENDTAB
  0
TABLE
  2
UCS
 70
     0
  0
ENDTAB
  0
TABLE
  2
APPID
 70
    10
  0
APPID
  2
ACAD
 70
     0
  0
APPID
  2
DRAWINGVARIABLESXDATA
 70
     0
  0
APPID
  2
CONTENTTABDATA
 70
     0
  0
APPID
  2
CONTENTCURRENTTAB
 70
     0
  0
APPID
  2
CONTENTBLOCKDESCRIPTION
 70
     0
  0
APPID
  2
CONTENTBLOCKICON
 70
     0
  0
APPID
  2
CONTENTLONGBLOCKNAME
 70
     0
  0
APPID
  2
ACAD_PSEXT
 70
     0
  0
APPID
  2
ACAD_MLEADERVER
 70
     0
  0
APPID
  2
ACAD_DSTYLE_DIMRADIAL_EXTENSION
 70
     0
  0
ENDTAB
  0
TABLE
  2
DIMSTYLE
 70
     8
  0
DIMSTYLE
  2
NEWX10
 70
     0
  3
 
  4

  5

  6
OPEN30
  7
OPEN30
 40
1.0
 41
2.0
 42
0.0
 43
7.0
 44
1.0
 45
0.0
 46
0.0
 47
0.0
 48
0.0
140
3.5
141
0.0
142
0.0
143
25.399999999999999
144
1.0
145
0.0
146
0.7
147
0.7
 71
     0
 72
     0
 73
     0
 74
     0
 75
     0
 76
     0
 77
     1
 78
     8
170
     0
171
     2
172
     1
173
     1
174
     0
175
     0
176
   256
177
   256
178
   201
  0
ENDTAB
  0
ENDSEC
  0
SECTION
  2
BLOCKS
  0
BLOCK
  8
0
  2
$MODEL_SPACE
 70
     0
 10
0.0
 20
0.0
 30
0.0
  3
$MODEL_SPACE
  1

  0
ENDBLK
  5
1A
  8
0
  0
BLOCK
 67
     1
  8
0
  2
$PAPER_SPACE
 70
     0
 10
0.0
 20
0.0
 30
0.0
  3
$PAPER_SPACE
  1

  0
ENDBLK
  5
17
 67
     1
  8
0
  0
BLOCK
  8
0
  2
_OPEN30
 70
     0
 10
0.0
 20
0.0
 30
0.0
  3
_OPEN30
  1

  0
LINE
  5
44
  8
0
  6
BYBLOCK
 62
     0
 10
-1.0
 20
0.26794919
 30
0.0
 11
0.0
 21
0.0
 31
0.0
  0
LINE
  5
45
  8
0
  6
BYBLOCK
 62
     0
 10
0.0
 20
0.0
 30
0.0
 11
-1.0
 21
-0.26794919
 31
0.0
  0
LINE
  5
46
  8
0
  6
BYBLOCK
 62
     0
 10
0.0
 20
0.0
 30
0.0
 11
-1.0
 21
0.0
 31
0.0
  0
ENDBLK
  5
47
  8
0
  0
BLOCK
  8
0
  2
XREF1
 70
    36
 10
0.0
 20
0.0
 30
0.0
  3
XREF1
  1
D:\ACLT\FORMAT\KAWAJUN(9)図面用.dwg
  0
ENDBLK
  5
5D
  8
0
  0
BLOCK
  8
0
  2
A3WAKUDAKE
 70
    36
 10
0.0
 20
0.0
 30
0.0
  3
A3WAKUDAKE
  1
D:\ACLT\FORMAT\A3WAKUdake.dwg
  0
ENDBLK
  5
2036
  8
0
  0
ENDSEC
  0
SECTION
  2
ENTITIES
  0
ARC
  5
288D
  8
01
 10
394.17366867702452
 20
-52.773624996928937
 30
0.0
 40
1.0
 50
91.963342475707506
 51
179.99999999910111
  0
LINE
  5
288E
  8
01
 10
393.17366867702452
 20
-52.773624996913242
 30
0.0
 11
393.17366867702452
 21
-66.37362499691703
 31
0.0
  0
LINE
  5
288F
  8
01
 10
393.17366867702452
 20
-55.573624996928892
 30
0.0
 11
395.17366867702458
 21
-55.573624996928892
 31
0.0
  0
LINE
  5
2890
  8
01
 10
395.17366867702458
 20
-55.573624996928892
 30
0.0
 11
395.17366867702458
 21
-63.573624996928892
 31
0.0
  0
LINE
  5
2891
  8
01
 10
395.17366867702458
 20
-63.573624996928892
 30
0.0
 11
393.17366867702452
 21
-63.573624996928892
 31
0.0
  0
ARC
  5
2893
  8
01
 10
394.17366867702452
 20
-66.373624996928854
 30
0.0
 40
1.0
 50
179.99999999932251
 51
268.03665752428589
  0
ARC
  5
2894
  8
01
 10
-370.57366867702461
 20
-68.073624690949174
 30
0.0
 40
1.0
210
0.0
220
0.0
230
-1.0
 50
180.0
 51
269.999999999772
  0
ARC
  5
2895
  8
01
 10
370.57366867702461
 20
-51.073624690949167
 30
0.0
 40
1.0
 50
0.0
 51
89.999999999772015
  0
LINE
  5
2898
  8
01
 10
371.57366867702461
 20
-51.073624690949167
 30
0.0
 11
371.57366867702461
 21
-68.073624690949174
 31
0.0
  0
LINE
  5
2899
  8
01
 10
362.57366867702461
 20
-69.073624690949174
 30
0.0
 11
370.57366867702461
 21
-69.073624690949174
 31
0.0
  0
LINE
  5
289D
  8
01
 10
362.57366867702461
 20
-50.073624690949181
 30
0.0
 11
370.57366867702461
 21
-50.073624690949181
 31
0.0
  0
LINE
  5
289E
  8
01
 10
392.47366867702459
 20
-50.073630679409384
 30
0.0
 11
397.07366867702461
 21
-50.073630679409391
 31
0.0
  0
ARC
  5
289F
  8
01
 10
-392.47368062552738
 20
-51.073642627912392
 30
0.0
 40
1.0000119485742529
210
0.0
220
0.0
230
-1.0
 50
0.0006845906129981
 51
89.999315409178564
  0
LINE
  5
28A0
  8
01
 10
391.47366867702459
 20
-51.073630679409384
 30
0.0
 11
391.47366867702459
 21
-68.073630679409376
 31
0.0
  0
ARC
  5
28A1
  8
01
 10
392.47368062552852
 20
-68.07361873090511
 30
0.0
 40
1.000011948575442
 50
180.00068459067811
 51
269.99931540911342
  0
LINE
  5
28A2
  8
01
 10
392.47366867702459
 20
-69.073630679409376
 30
0.0
 11
397.07366867702461
 21
-69.073630679409391
 31
0.0
  0
LINE
  5
28A3
  8
01
 10
387.57366867702461
 20
-69.073630679409376
 30
0.0
 11
392.47366867702459
 21
-69.073630679409376
 31
0.0
  0
LINE
  5
28A4
  8
01
 10
387.57366867702461
 20
-50.073630679409384
 30
0.0
 11
392.47366867702459
 21
-50.073630679409384
 31
0.0
  0
LINE
  5
28A7
  8
01
 10
354.47366867702459
 20
-51.07362500130003
 30
0.0
 11
354.47366867702459
 21
-68.07362500130003
 31
0.0
  0
LINE
  5
28A8
  8
01
 10
370.57366867702461
 20
-50.073630893595258
 30
0.0
 11
387.57366867702461
 21
-50.073630893595272
 31
0.0
  0
ARC
  5
28A9
  8
01
 10
-355.47366867702459
 20
-51.07362500130003
 30
0.0
 40
1.0
210
0.0
220
0.0
230
-1.0
 50
0.0
 51
89.999999999772015
  0
LINE
  5
28AA
  8
01
 10
362.57366867702461
 20
-50.07362500130003
 30
0.0
 11
355.47366867702459
 21
-50.07362500130003
 31
0.0
  0
ARC
  5
28AB
  8
01
 10
355.47366867702459
 20
-68.07362500130003
 30
0.0
 40
1.0
 50
180.0
 51
269.999999999772
  0
LINE
  5
28AC
  8
01
 10
362.57366867702461
 20
-69.07362500130003
 30
0.0
 11
355.47366867702459
 21
-69.07362500130003
 31
0.0
  0
LINE
  5
28AD
  8
01
 10
370.57366867702461
 20
-69.073630893595265
 30
0.0
 11
387.57366867702461
 21
-69.073630893595265
 31
0.0
  0
LINE
  5
28AE
  8
01
 10
401.57366867702461
 20
-50.073625040640351
 30
0.0
 11
401.57366867702461
 21
-69.073625040640351
 31
0.0
  0
LINE
  5
28B0
  8
01
 10
397.07366867702461
 20
-50.073625040640351
 30
0.0
 11
401.57366867702461
 21
-50.073625040640351
 31
0.0
  0
LINE
  5
28B1
  8
01
 10
397.07366867702461
 20
-50.073630679409391
 30
0.0
 11
397.07366867702461
 21
-51.673624996928922
 31
0.0
  0
LINE
  5
28B2
  8
01
 10
397.07366867702461
 20
-69.073625040640351
 30
0.0
 11
401.57366867702461
 21
-69.073625040640351
 31
0.0
  0
LINE
  5
28B4
  8
01
 10
397.07366867702461
 20
-67.473624996928876
 30
0.0
 11
397.07366867702461
 21
-69.073630679409277
 31
0.0
  0
ARC
  5
28B5
  8
01
 10
-331.99054954240029
 20
-68.073625001299916
 30
0.0
 40
1.0
210
0.0
220
0.0
230
-1.0
 50
180.0
 51
269.99999999977848
  0
ARC
  5
28B7
  8
01
 10
331.99054954240029
 20
-51.07362500130003
 30
0.0
 40
1.0
 50
0.0
 51
89.999999999778538
  0
ARC
  5
28B9
  8
01
 10
183.89054954240021
 20
-68.073625001299916
 30
0.0
 40
1.0
 50
180.0
 51
269.99999999977848
  0
ARC
  5
28BB
  8
01
 10
-183.89054954240021
 20
-51.07362500130003
 30
0.0
 40
1.0
210
0.0
220
0.0
230
-1.0
 50
0.0
 51
89.999999999778538
  0
LINE
  5
28BD
  8
01
 10
332.99054954240017
 20
-51.07362500130003
 30
0.0
 11
332.99054954240017
 21
-68.073625001299916
 31
0.0
  0
LINE
  5
28C1
  8
01
 10
182.89054954240021
 20
-51.07362500130003
 30
0.0
 11
182.89054954240021
 21
-68.073625001299916
 31
0.0
  0
LINE
  5
28C3
  8
01
 10
183.89054954239629
 20
-50.07362469094906
 30
0.0
 11
331.99054954240029
 21
-50.07362469094906
 31
0.0
  0
LINE
  5
28C5
  8
01
 10
183.89054954240021
 20
-69.07362469094906
 30
0.0
 11
331.9905495424041
 21
-69.07362469094906
 31
0.0
  0
ARC
  5
28FB
  8
01
 10
325.7905495424003
 20
6.0434818588040571
 30
0.0
 40
1.0
 50
90.000000000560192
 51
180.0000000003387
  0
ARC
  5
28FD
  8
01
 10
331.99054954240029
 20
6.0434818588040571
 30
0.0
 40
1.0
 50
0.0000000005601847
 51
90.000000000338687
  0
LINE
  5
28FF
  8
01
 10
194.9905495424004
 20
32.543481858804
 30
0.0
 11
194.9905495424004
 21
26.943481858804152
 31
0.0
  0
ARC
  5
2900
  8
01
 10
194.9905495424004
 20
23.043481858804061
 30
0.0
 40
3.8999999999999999
 50
90.000000000560192
 51
180.0000000003387
  0
LINE
  5
2901
  8
01
 10
191.0905495424002
 20
23.043481858804061
 30
0.0
 11
191.0905495424002
 21
2.0434818588040571
 31
0.0
  0
ARC
  5
2903
  8
01
 10
194.9905495424004
 20
2.0434818588040571
 30
0.0
 40
3.8999999999999999
 50
180.00000000056019
 51
270.00000000033867
  0
LINE
  5
2904
  8
01
 10
194.9905495424004
 20
-1.85651814119592
 30
0.0
 11
320.89054954240021
 21
-1.85651814119592
 31
0.0
  0
ARC
  5
2906
  8
01
 10
320.89054954240021
 20
2.0434818588040571
 30
0.0
 40
3.8999999999999999
 50
270.00000000056019
 51
0.0000000003387164
  0
LINE
  5
2907
  8
01
 10
324.7905495424003
 20
6.0434818588040571
 30
0.0
 11
324.7905495424003
 21
2.0434818588040571
 31
0.0
  0
LINE
  5
2909
  8
01
 10
332.9905495424004
 20
6.0434818588040571
 30
0.0
 11
332.9905495424004
 21
-1.956518141195942
 31
0.0
  0
ARC
  5
290B
  8
01
 10
324.89054954240021
 20
-1.956518141195942
 30
0.0
 40
8.0999999999999996
 50
269.99999999967429
 51
359.99999999943981
  0
LINE
  5
290D
  8
01
 10
324.89054954240021
 20
-10.05651814119596
 30
0.0
 11
190.99054954240009
 21
-10.05651814119596
 31
0.0
  0
ARC
  5
290F
  8
01
 10
190.99054954240009
 20
-1.956518141195942
 30
0.0
 40
8.0999999999999996
 50
179.9999999996613
 51
269.99999999943981
  0
LINE
  5
2911
  8
01
 10
182.89054954240021
 20
-1.956518141195942
 30
0.0
 11
182.89054954240021
 21
37.043481858804057
 31
0.0
  0
LINE
  5
2913
  8
01
 10
325.7905495424003
 20
7.0434818588040571
 30
0.0
 11
331.99054954240029
 21
7.0434818588040571
 31
0.0
  0
LINE
  5
2915
  8
01
 10
325.39054954240038
 20
27.443481858804152
 30
0.0
 11
325.39054954240038
 21
37.043481858804057
 31
0.0
  0
LINE
  5
2916
  8
01
 10
182.89054954240021
 20
37.043481858804057
 30
0.0
 11
325.39054954240038
 21
37.043481858804057
 31
0.0
  0
LINE
  5
29CD
  8
01
 10
394.13940859217001
 20
-51.774212045949326
 30
0.0
 11
397.07366867702461
 21
-51.673624996928922
 31
0.0
  0
LINE
  5
29CE
  8
01
 10
394.13940859217001
 20
-67.373037947908458
 30
0.0
 11
397.07366867702461
 21
-67.473624996928876
 31
0.0
  0
LINE
  5
2E7E
  8
1CENTER
 10
272.19054766497288
 20
-60.896743320927897
 30
0.0
 11
272.19054766497288
 21
-55.070337762388618
 31
0.0
  0
LINE
  5
2E7F
  8
1CENTER
 10
235.6905495423913
 20
-58.25057844615759
 30
0.0
 11
235.6905495423913
 21
-64.302945534890426
 31
0.0
  0
LINE
  5
2E80
  8
1CENTER
 10
210.6905437438561
 20
-55.070337762388618
 30
0.0
 11
210.69053884683959
 21
-60.896743320927897
 31
0.0
  0
LINE
  5
2E81
  8
1CENTER
 10
297.19054949472229
 20
-58.25057844615759
 30
0.0
 11
297.19054949472229
 21
-64.302945534890426
 31
0.0
  0
LINE
  5
2E82
  8
1CENTER
 10
299.93701719735247
 20
-60.896760304514771
 30
0.0
 11
294.19130062358101
 21
-60.896760304514771
 31
0.0
  0
LINE
  5
2E83
  8
1CENTER
 10
274.56959249115528
 20
-58.250589615123971
 30
0.0
 11
269.77076329884852
 21
-58.250588776070117
 31
0.0
  0
LINE
  5
2E84
  8
1CENTER
 10
213.81499621584311
 20
-58.250578992454592
 30
0.0
 11
207.41015686301409
 21
-58.250577872597063
 31
0.0
  0
LINE
  5
2E85
  8
1CENTER
 10
239.02041201142319
 20
-60.896760304514821
 30
0.0
 11
232.58742406687739
 21
-60.896760304514771
 31
0.0
  0
LINE
  5
2E86
  8
01
 10
194.9905495424004
 20
26.943481858804152
 30
0.0
 11
324.89054954240038
 21
26.943481858804152
 31
0.0
  0
LINE
  5
2E87
  8
01
 10
325.39054954240038
 20
32.543481858804
 30
0.0
 11
194.9905495424004
 21
32.543481858804
 31
0.0
  0
ARC
  5
2E8B
  8
01
 10
324.89054954240038
 20
27.443481858804152
 30
0.0
 40
0.5
 50
270.0
 51
0.0
  0
LINE
  5
2E90
  8
1PHANTOM
 10
400.54553676532021
 20
-65.684936079299945
 30
0.0
 11
397.60190898407149
 21
-58.03150185109493
 31
0.0
  0
LINE
  5
2E91
  8
1PHANTOM
 10
396.34548139618329
 20
-67.300341569009817
 30
0.0
 11
400.54553676532021
 21
-65.684936079299945
 31
0.0
  0
LINE
  5
2E92
  8
1PHANTOM
 10
395.3736679064022
 20
-58.88851742658332
 30
0.0
 11
397.60190898407149
 21
-58.03150185109493
 31
0.0
  0
LINE
  5
2E93
  8
1PHANTOM
 10
397.60190871443859
 20
-61.115747535740837
 30
0.0
 11
400.54553783385609
 21
-53.462313822216139
 31
0.0
  0
LINE
  5
2E94
  8
1PHANTOM
 10
398.3198670362479
 20
-59.249056386100357
 30
0.0
 11
401.57366776547661
 21
-60.500518531570179
 31
0.0
  0
LINE
  5
2E95
  8
1PHANTOM
 10
400.54553783385609
 20
-53.462313822216139
 30
0.0
 11
396.34548274716542
 21
-51.846907598145918
 31
0.0
  0
LINE
  5
2E96
  8
1PHANTOM
 10
397.60190871443859
 20
-61.115747535740837
 30
0.0
 11
395.37366770074948
 21
-60.2587315376297
 31
0.0
  0
LINE
  5
2E97
  8
1PHANTOM
 10
401.5736681588736
 20
-56.000577703557859
 30
0.0
 11
399.82757951204678
 21
-55.329004971857067
 31
0.0
  0
LINE
  5
2E99
  8
1CENTER
 10
390.5868238755769
 20
-59.573624080140029
 30
0.0
 11
404.17130834950723
 21
-59.573625267733199
 31
0.0
  0
LINE
  5
2EA0
  8
01
 10
399.47166272762382
 20
-65.767393307117914
 30
0.0
 11
400.40799191013542
 21
-65.416269878709613
 31
0.0
  0
LINE
  5
2EA1
  8
01
 10
396.80312467172092
 20
-58.651291520029993
 30
0.0
 11
397.73945385423252
 21
-58.300168091621678
 31
0.0
  0
LINE
  5
2EA2
  8
01
 10
397.73945385423252
 20
-58.300168091621678
 30
0.0
 11
400.40799191013542
 21
-65.416269878709613
 31
0.0
  0
LINE
  5
2EA3
  8
1PHANTOM
 10
399.47166272762382
 20
-65.767393307117914
 30
0.0
 11
396.80312467172081
 21
-58.651291520029922
 31
0.0
  0
LINE
  5
2EA5
  8
1PHANTOM
 10
399.4716638105765
 20
-53.379856406636591
 30
0.0
 11
400.40799293169567
 21
-53.73097999875786
 31
0.0
  0
LINE
  5
2EA6
  8
01
 10
396.80312451045512
 20
-60.495957727142461
 30
0.0
 11
397.73945363157441
 21
-60.847081319263722
 31
0.0
  0
LINE
  5
2EA7
  8
1PHANTOM
 10
397.73945363157441
 20
-60.847081319263722
 30
0.0
 11
400.40799293169567
 21
-53.73097999875786
 31
0.0
  0
LINE
  5
2EA8
  8
1PHANTOM
 10
399.4716638105765
 20
-53.379856406636591
 30
0.0
 11
396.80312451045501
 21
-60.49595772714251
 31
0.0
  0
LINE
  5
2EAF
  8
01
 10
410.57366867702461
 20
-14.737416201192559
 30
0.0
 11
410.57366867702461
 21
-94.737416201192104
 31
0.0
  0
LINE
  5
2EB0
  8
01
 10
419.57366867702473
 20
-14.737416201192559
 30
0.0
 11
419.57366867702461
 21
-94.737416201192104
 31
0.0
  0
LINE
  5
2EB1
  8
01
 10
401.57366867702461
 20
-14.737416201192559
 30
0.0
 11
401.57366867702461
 21
-94.737416201192104
 31
0.0
  0
LINE
  5
2EF9
  8
1CENTER
 10
210.6905437438561
 20
22.771791140227151
 30
0.0
 11
210.6905437438561
 21
43.782542152910651
 31
0.0
  0
LINE
  5
2EFA
  8
1CENTER
 10
235.6905495423913
 20
22.771791140227151
 30
0.0
 11
235.6905495423913
 21
43.782542152910651
 31
0.0
  0
LINE
  5
2EFB
  8
1CENTER
 10
272.19054766497288
 20
22.771791140227151
 30
0.0
 11
272.19054766497288
 21
43.782542152910651
 31
0.0
  0
LINE
  5
2EFC
  8
1CENTER
 10
297.19054949472229
 20
22.771791140227151
 30
0.0
 11
297.19054949472229
 21
43.782542152910651
 31
0.0
  0
TEXT
  5
306C
  8
1TEXT
 10
185.11216144051821
 20
77.822315084950461
 30
0.0
 40
6.0
  1
SC-099-XCS
  0
LINE
  5
3076
  8
01
 10
158.78000640501091
 20
-69.073624690949174
 30
0.0
 11
150.78000640501091
 21
-69.073624690949174
 31
0.0
  0
LINE
  5
3077
  8
01
 10
158.78000640501091
 20
-50.073624690949181
 30
0.0
 11
150.78000640501091
 21
-50.073624690949181
 31
0.0
  0
LINE
  5
307F
  8
01
 10
166.8800064050109
 20
-51.07362500130003
 30
0.0
 11
166.8800064050109
 21
-68.07362500130003
 31
0.0
  0
LINE
  5
3080
  8
01
 10
150.78000640501091
 20
-50.073630893595258
 30
0.0
 11
119.78000640501089
 21
-50.073630893595272
 31
0.0
  0
ARC
  5
3081
  8
01
 10
-165.8800064050109
 20
-51.07362500130003
 30
0.0
 40
1.0
210
0.0
220
0.0
230
-1.0
 50
90.000000000227985
 51
180.0
  0
LINE
  5
3082
  8
01
 10
158.78000640501091
 20
-50.07362500130003
 30
0.0
 11
165.8800064050109
 21
-50.07362500130003
 31
0.0
  0
ARC
  5
3083
  8
01
 10
165.8800064050109
 20
-68.07362500130003
 30
0.0
 40
1.0
 50
270.000000000228
 51
0.000000000000007
  0
LINE
  5
3084
  8
01
 10
158.78000640501091
 20
-69.07362500130003
 30
0.0
 11
165.8800064050109
 21
-69.07362500130003
 31
0.0
  0
LINE
  5
3085
  8
01
 10
150.78000640501091
 20
-69.073630893595265
 30
0.0
 11
119.78000640501079
 21
-69.073630893595265
 31
0.0
  0
LINE
  5
3086
  8
01
 10
119.78000640501089
 20
-50.073630893595272
 30
0.0
 11
119.78000640501079
 21
-69.073630893595265
 31
0.0
  0
LINE
  5
3653
  8
1DIM
 10
235.6905495423913
 20
-64.302945534890426
 30
0.0
 11
235.6905495423913
 21
-79.120111618192894
 31
0.0
  0
LINE
  5
3654
  8
1DIM
 10
272.19054766497288
 20
-60.896743320927897
 30
0.0
 11
272.19054766497288
 21
-79.120111618192894
 31
0.0
  0
LINE
  5
3655
  8
1DIM
 10
237.6905495423913
 20
-78.120111618192908
 30
0.0
 11
270.19054766497288
 21
-78.120111618192908
 31
0.0
  0
LINE
  5
3659
  8
1DIM
 10
182.89054954240021
 20
-68.073625001299916
 30
0.0
 11
182.89054954240021
 21
-79.120111618192894
 31
0.0
  0
LINE
  5
365A
  8
1DIM
 10
210.69054107090599
 20
-61.707587651405028
 30
0.0
 11
210.69054107090599
 21
-79.120111618192894
 31
0.0
  0
LINE
  5
365B
  8
1DIM
 10
184.89054954240021
 20
-78.120111618192908
 30
0.0
 11
208.69054107090599
 21
-78.120111618192908
 31
0.0
  0
LINE
  5
365F
  8
1DIM
 10
331.99054954240029
 20
-50.07362469094906
 30
0.0
 11
343.66831620203072
 21
-50.073624690949067
 31
0.0
  0
LINE
  5
3660
  8
1DIM
 10
331.9905495424041
 20
-69.07362469094906
 30
0.0
 11
343.66831620203072
 21
-69.07362469094906
 31
0.0
  0
LINE
  5
3661
  8
1DIM
 10
342.66831620203072
 20
-52.07362469094906
 30
0.0
 11
342.66831620203072
 21
-67.07362469094906
 31
0.0
  0
LINE
  5
3665
  8
1DIM
 10
182.89054954240021
 20
37.043481858804057
 30
0.0
 11
182.89054954240021
 21
60.494442023226839
 31
0.0
  0
LINE
  5
3666
  8
1DIM
 10
325.39054954240038
 20
37.043481858804057
 30
0.0
 11
325.39054954240038
 21
60.494442023226839
 31
0.0
  0
LINE
  5
3667
  8
1DIM
 10
184.89054954240021
 20
59.494442023226839
 30
0.0
 11
323.39054954240038
 21
59.494442023226839
 31
0.0
  0
LINE
  5
366B
  8
1DIM
 10
182.89054954240009
 20
-1.956518141195942
 30
0.0
 11
182.89054954240009
 21
-28.642132986892651
 31
0.0
  0
LINE
  5
366C
  8
1DIM
 10
332.9905495424004
 20
-1.8565181411959231
 30
0.0
 11
332.9905495424004
 21
-28.642132986892651
 31
0.0
  0
LINE
  5
366D
  8
1DIM
 10
184.89054954240009
 20
-27.642132986892651
 30
0.0
 11
330.9905495424004
 21
-27.642132986892651
 31
0.0
  0
LINE
  5
3671
  8
1DIM
 10
182.89054954240009
 20
-1.9565181411480559
 30
0.0
 11
182.89054954240009
 21
-22.004996191509012
 31
0.0
  0
LINE
  5
3672
  8
1DIM
 10
191.0905495424002
 20
2.0434818588040571
 30
0.0
 11
191.0905495424002
 21
-22.004996191509012
 31
0.0
  0
LINE
  5
3673
  8
1DIM
 10
184.89054954240009
 20
-21.004996191509012
 30
0.0
 11
189.09054954240031
 21
-21.004996191509012
 31
0.0
  0
LINE
  5
3677
  8
1DIM
 10
320.89054954240021
 20
-1.85651814119592
 30
0.0
 11
344.06328139689941
 21
-1.856518141195926
 31
0.0
  0
LINE
  5
3678
  8
1DIM
 10
324.89054954235422
 20
-10.056518141195941
 30
0.0
 11
344.06328139689941
 21
-10.05651814119595
 31
0.0
  0
LINE
  5
3679
  8
1DIM
 10
343.06328139689941
 20
-3.856518141195926
 30
0.0
 11
343.06328139689941
 21
-8.0565181411959461
 31
0.0
  0
LINE
  5
367D
  8
1DIM
 10
325.39054954240038
 20
37.043481858804057
 30
0.0
 11
386.78615763195268
 21
37.043481858804043
 31
0.0
  0
LINE
  5
367E
  8
1DIM
 10
324.89054954235422
 20
-10.056518141195941
 30
0.0
 11
386.78615763195268
 21
-10.05651814119596
 31
0.0
  0
LINE
  5
367F
  8
1DIM
 10
385.78615763195268
 20
35.043481858804043
 30
0.0
 11
385.78615763195268
 21
-8.0565181411959585
 31
0.0
  0
LINE
  5
3683
  8
1DIM
 10
325.39054954240038
 20
37.043481858804057
 30
0.0
 11
378.18136911998391
 21
37.043481858804043
 31
0.0
  0
LINE
  5
3684
  8
1DIM
 10
331.99054954239438
 20
7.0434818588040571
 30
0.0
 11
378.18136911998391
 21
7.0434818588040429
 31
0.0
  0
LINE
  5
3685
  8
1DIM
 10
377.18136911998391
 20
35.04348185880405
 30
0.0
 11
377.18136911998391
 21
9.0434818588040446
 31
0.0
  0
LINE
  5
3689
  8
1DIM
 10
325.39054954240038
 20
37.043481858804057
 30
0.0
 11
370.73213835567901
 21
37.043481858804043
 31
0.0
  0
LINE
  5
368A
  8
1DIM
 10
324.89054954240038
 20
26.943481858804152
 30
0.0
 11
370.73213835567901
 21
26.94348185880413
 31
0.0
  0
LINE
  5
368B
  8
1DIM
 10
369.7321383556789
 20
35.04348185880405
 30
0.0
 11
369.7321383556789
 21
28.943481858804141
 31
0.0
  0
LINE
  5
368F
  8
1DIM
 10
235.6905495423913
 20
-64.302945534890426
 30
0.0
 11
235.6905495423913
 21
-79.120111618192894
 31
0.0
  0
LINE
  5
3690
  8
1DIM
 10
210.69054107090599
 20
-61.707587651405028
 30
0.0
 11
210.69054107090599
 21
-79.120111618192894
 31
0.0
  0
LINE
  5
3691
  8
1DIM
 10
233.6905495423913
 20
-78.120111618192908
 30
0.0
 11
212.69054107090599
 21
-78.120111618192908
 31
0.0
  0
LINE
  5
3695
  8
1DIM
 10
272.19054766497288
 20
-60.896743320927897
 30
0.0
 11
272.19054766497288
 21
-79.120111618192894
 31
0.0
  0
LINE
  5
3696
  8
1DIM
 10
297.19054949472229
 20
-64.302945534890426
 30
0.0
 11
297.19054949472229
 21
-79.120111618192894
 31
0.0
  0
LINE
  5
3697
  8
1DIM
 10
274.19054766497288
 20
-78.120111618192908
 30
0.0
 11
295.19054949472229
 21
-78.120111618192908
 31
0.0
  0
TEXT
  5
369B
  8
1HATCH
 10
405.22876991941553
 20
5.5544266054715692
 30
0.0
 40
3.5
  1
PB
  0
TEXT
  5
36A0
  8
1DIM
 10
411.39611441395408
 20
-0.4469194116524107
 30
0.0
 40
3.5
  1
合板9mm以上
  0
LINE
  5
36A1
  8
1DIM
 10
426.2169308118867
 20
-67.342378828948199
 30
0.0
 11
441.00027623793522
 21
-67.342378828948199
 31
0.0
  0
LINE
  5
36A2
  8
1DIM
 10
426.2169308118867
 20
-51.804939503822098
 30
0.0
 11
441.00027623793522
 21
-51.804939503822098
 31
0.0
  0
LINE
  5
36A3
  8
1DIM
 10
440.00027623793522
 20
-65.342378828948199
 30
0.0
 11
440.00027623793522
 21
-53.804939503822098
 31
0.0
  0
LINE
  5
36A7
  8
1DIM
 10
401.57366950754101
 20
-69.073653623525047
 30
0.0
 11
401.57366950754101
 21
-84.129186117135404
 31
0.0
  0
LINE
  5
36A8
  8
1DIM
 10
426.2169308118867
 20
-67.342329128587664
 30
0.0
 11
426.2169308118867
 21
-84.129186117135404
 31
0.0
  0
LINE
  5
36A9
  8
1DIM
 10
403.57366950754101
 20
-83.129186117135404
 30
0.0
 11
424.2169308118867
 21
-83.129186117135404
 31
0.0
  0
LINE
  5
36AD
  8
1DIM
 10
401.5736690279179
 20
-58.101156055628287
 30
0.0
 11
435.1851630787724
 21
-58.101156055628302
 31
0.0
  0
LINE
  5
36AE
  8
1DIM
 10
401.57366915664602
 20
-61.046112528508338
 30
0.0
 11
435.1851630787724
 21
-61.046112528508353
 31
0.0
  0
LINE
  5
36AF
  8
1DIM
 10
434.1851630787724
 20
-56.101156055628302
 30
0.0
 11
434.1851630787724
 21
-54.101156055628302
 31
0.0
  0
LINE
  5
36B0
  8
1DIM
 10
434.1851630787724
 20
-63.046112528508353
 30
0.0
 11
434.1851630787724
 21
-65.046112528508345
 31
0.0
  0
LINE
  5
36B1
  8
1DIM
 10
434.1851630787724
 20
-58.101156055628302
 30
0.0
 11
434.1851630787724
 21
-61.046112528508353
 31
0.0
  0
LINE
  5
36B6
  8
1CENTER
 10
428.99965865636528
 20
-68.511260983237392
 30
0.0
 11
394.70080742268789
 21
-55.649186571935331
 31
0.0
  0
LINE
  5
36B7
  8
0
 10
424.64522215960858
 20
-65.709608233042033
 30
0.0
 11
424.70525909499207
 21
-67.827896990960554
 31
0.0
  0
LINE
  5
36B8
  8
0
 10
424.70525909499207
 20
-67.827896990960554
 30
0.0
 11
425.20373606237018
 21
-67.386546240417914
 31
0.0
  0
LINE
  5
36B9
  8
0
 10
403.9894395124831
 20
-56.996473671079848
 30
0.0
 11
403.33399983858311
 21
-61.022685779560192
 31
0.0
  0
LINE
  5
36BA
  8
0
 10
414.47632577868637
 20
-60.929057610402232
 30
0.0
 11
413.82088610479042
 21
-64.955269718884082
 31
0.0
  0
LINE
  5
36BB
  8
0
 10
417.47257899760052
 20
-62.052653021636772
 30
0.0
 11
416.8171393237044
 21
-66.078865130118615
 31
0.0
  0
LINE
  5
36BC
  8
0
 10
416.8171393237044
 20
-66.078865130118615
 30
0.0
 11
417.08633510912358
 21
-65.645813329760557
 31
0.0
  0
LINE
  5
36BD
  8
0
 10
418.7015098216383
 20
-63.047502527612103
 30
0.0
 11
418.97070560705748
 21
-62.614450727254038
 31
0.0
  0
LINE
  5
36BE
  8
0
 10
413.82088610479042
 20
-64.955269718884082
 30
0.0
 11
414.09008189020949
 21
-64.522217918526025
 31
0.0
  0
LINE
  5
36BF
  8
0
 10
415.31901271424761
 20
-65.517067424501391
 30
0.0
 11
415.58820849966662
 21
-65.084015624143291
 31
0.0
  0
LINE
  5
36C0
  8
0
 10
417.20338321218139
 20
-62.485704821994872
 30
0.0
 11
417.47257899760052
 21
-62.052653021636772
 31
0.0
  0
LINE
  5
36C1
  8
0
 10
415.70525660272438
 20
-61.923907116377642
 30
0.0
 11
415.9744523881435
 21
-61.490855316019541
 31
0.0
  0
LINE
  5
36C2
  8
0
 10
415.9744523881435
 20
-61.490855316019541
 30
0.0
 11
415.31901271424761
 21
-65.517067424501391
 31
0.0
  0
LINE
  5
36C3
  8
0
 10
423.04813779593411
 20
-67.690081952240817
 30
0.0
 11
423.41299742603769
 21
-67.237635653815929
 31
0.0
  0
LINE
  5
36C4
  8
0
 10
419.81339254261849
 20
-67.202460541353162
 30
0.0
 11
420.08258832803762
 21
-66.769408740995061
 31
0.0
  0
LINE
  5
36C5
  8
0
 10
418.31526593316153
 20
-66.640662835735895
 30
0.0
 11
418.58446171858049
 21
-66.207611035377752
 31
0.0
  0
LINE
  5
36C6
  8
0
 10
421.39101649687609
 20
-67.55226691352108
 30
0.0
 11
421.70046712266759
 21
-67.095228556055062
 31
0.0
  0
LINE
  5
36C7
  8
0
 10
423.0361402520474
 20
-65.122526605292165
 30
0.0
 11
423.30609003035568
 21
-64.723828418914621
 31
0.0
  0
LINE
  5
36C8
  8
0
 10
420.19963643109548
 20
-63.609300233229412
 30
0.0
 11
420.4688322165145
 21
-63.176248432871311
 31
0.0
  0
LINE
  5
36C9
  8
0
 10
421.69776304055239
 20
-64.171097938846643
 30
0.0
 11
421.96695882597152
 21
-63.738046138488549
 31
0.0
  0
LINE
  5
36CA
  8
0
 10
424.3429046049767
 20
-66.084498868389105
 30
0.0
 11
424.64522215960858
 21
-65.709608233042033
 31
0.0
  0
LINE
  5
36CB
  8
0
 10
423.30609003035568
 20
-64.723828418914621
 30
0.0
 11
423.04813779593411
 21
-67.690081952240817
 31
0.0
  0
LINE
  5
36CC
  8
0
 10
420.4688322165145
 20
-63.176248432871311
 30
0.0
 11
419.81339254261849
 21
-67.202460541353162
 31
0.0
  0
LINE
  5
36CD
  8
0
 10
421.96695882597152
 20
-63.738046138488549
 30
0.0
 11
421.39101649687609
 21
-67.55226691352108
 31
0.0
  0
LINE
  5
36CE
  8
0
 10
418.97070560705748
 20
-62.614450727254038
 30
0.0
 11
418.31526593316153
 21
-66.640662835735895
 31
0.0
  0
LINE
  5
36CF
  8
0
 10
406.98569273139719
 20
-58.120069082314401
 30
0.0
 11
406.3302530574972
 21
-62.146281190794731
 31
0.0
  0
LINE
  5
36D0
  8
0
 10
406.3302530574972
 20
-62.146281190794731
 30
0.0
 11
406.59944884291679
 21
-61.71322939043683
 31
0.0
  0
LINE
  5
36D1
  8
0
 10
408.21462355543878
 20
-59.114918588291083
 30
0.0
 11
408.4838193408583
 21
-58.681866787933188
 31
0.0
  0
LINE
  5
36D2
  8
0
 10
404.83212644804013
 20
-61.584483485177408
 30
0.0
 11
405.10132223345971
 21
-61.151431684819521
 31
0.0
  0
LINE
  5
36D3
  8
0
 10
403.33399983858311
 20
-61.022685779560192
 30
0.0
 11
403.60319562400269
 21
-60.58963397920229
 31
0.0
  0
LINE
  5
36D4
  8
0
 10
406.71649694597772
 20
-58.553120882672289
 30
0.0
 11
406.98569273139719
 21
-58.120069082314401
 31
0.0
  0
LINE
  5
36D5
  8
0
 10
405.21837033652048
 20
-57.991323177054987
 30
0.0
 11
405.48756612194012
 21
-57.558271376697078
 31
0.0
  0
LINE
  5
36D6
  8
0
 10
405.48756612194012
 20
-57.558271376697078
 30
0.0
 11
404.83212644804013
 21
-61.584483485177408
 31
0.0
  0
LINE
  5
36D7
  8
0
 10
410.8246328858724
 20
-63.831674307648058
 30
0.0
 11
411.09382867129199
 21
-63.398622507290163
 31
0.0
  0
LINE
  5
36D8
  8
0
 10
412.32275949533351
 20
-64.393472013266845
 30
0.0
 11
412.59195528075247
 21
-63.960420212908751
 31
0.0
  0
LINE
  5
36D9
  8
0
 10
407.82837966695831
 20
-62.708078896413518
 30
0.0
 11
408.0975754523779
 21
-62.275027096055631
 31
0.0
  0
LINE
  5
36DA
  8
0
 10
409.32650627641522
 20
-63.269876602030749
 30
0.0
 11
409.5957020618348
 21
-62.836824801672847
 31
0.0
  0
LINE
  5
36DB
  8
0
 10
414.2071299932673
 20
-61.362109410760333
 30
0.0
 11
414.47632577868637
 21
-60.929057610402232
 31
0.0
  0
LINE
  5
36DC
  8
0
 10
412.70900338380972
 20
-60.80031170514286
 30
0.0
 11
412.97819916922941
 21
-60.367259904785001
 31
0.0
  0
LINE
  5
36DD
  8
0
 10
409.71275016489568
 20
-59.676716293908321
 30
0.0
 11
409.98194595031521
 21
-59.243664493550419
 31
0.0
  0
LINE
  5
36DE
  8
0
 10
411.21087677435281
 20
-60.238513999525622
 30
0.0
 11
411.4800725597724
 21
-59.805462199167728
 31
0.0
  0
LINE
  5
36DF
  8
0
 10
411.4800725597724
 20
-59.805462199167728
 30
0.0
 11
410.8246328858724
 21
-63.831674307648058
 31
0.0
  0
LINE
  5
36E0
  8
0
 10
412.97819916922941
 20
-60.367259904785001
 30
0.0
 11
412.32275949533351
 21
-64.393472013266845
 31
0.0
  0
LINE
  5
36E1
  8
0
 10
409.98194595031521
 20
-59.243664493550419
 30
0.0
 11
409.32650627641522
 21
-63.269876602030749
 31
0.0
  0
LINE
  5
36E2
  8
0
 10
408.4838193408583
 20
-58.681866787933188
 30
0.0
 11
407.82837966695831
 21
-62.708078896413518
 31
0.0
  0
LINE
  5
36E3
  8
0
 10
397.61068918628121
 20
-58.342443156773143
 30
0.0
 11
398.66406642025089
 21
-55.53345821501901
 31
0.0
  0
LINE
  5
36E4
  8
0
 10
399.22586389868871
 20
-55.744132354584501
 30
0.0
 11
399.4950596841083
 21
-55.311080554226599
 31
0.0
  0
LINE
  5
36E5
  8
0
 10
399.4950596841083
 20
-55.311080554226599
 30
0.0
 11
398.83962001020831
 21
-59.337292662706929
 31
0.0
  0
LINE
  5
36E6
  8
0
 10
398.83962001020831
 20
-59.337292662706929
 30
0.0
 11
399.10881579562778
 21
-58.904240862349042
 31
0.0
  0
LINE
  5
36E7
  8
0
 10
400.72399050814562
 20
-56.305930060201732
 30
0.0
 11
400.99318629356509
 21
-55.87287825984383
 31
0.0
  0
LINE
  5
36E8
  8
0
 10
402.22211711760252
 20
-56.867727765818962
 30
0.0
 11
402.49131290302211
 21
-56.434675965461061
 31
0.0
  0
LINE
  5
36E9
  8
0
 10
402.49131290302211
 20
-56.434675965461061
 30
0.0
 11
401.83587322912211
 21
-60.460888073941398
 31
0.0
  0
LINE
  5
36EA
  8
0
 10
400.3377466196651
 20
-59.899090368324167
 30
0.0
 11
400.60694240508468
 21
-59.466038567966272
 31
0.0
  0
LINE
  5
36EB
  8
0
 10
401.83587322912211
 20
-60.460888073941398
 30
0.0
 11
402.1050690145417
 21
-60.02783627358351
 31
0.0
  0
LINE
  5
36EC
  8
0
 10
400.99318629356509
 20
-55.87287825984383
 30
0.0
 11
400.3377466196651
 21
-59.899090368324167
 31
0.0
  0
LINE
  5
36ED
  8
0
 10
403.72024372706358
 20
-57.429525471437763
 30
0.0
 11
403.9894395124831
 21
-56.996473671079848
 31
0.0
  0
LINE
  5
36EF
  8
1CENTER
 10
428.99965990614658
 20
-50.635993058891287
 30
0.0
 11
394.70080678226492
 21
-63.498062429649359
 31
0.0
  0
LINE
  5
36F0
  8
0
 10
423.8767375389429
 20
-51.388350524838629
 30
0.0
 11
425.3148184338126
 21
-52.944844994904223
 31
0.0
  0
LINE
  5
36F1
  8
0
 10
425.3148184338126
 20
-52.944844994904223
 30
0.0
 11
425.4001799605677
 21
-52.284554769502442
 31
0.0
  0
LINE
  5
36F2
  8
0
 10
402.58497803611169
 20
-58.405547111350231
 30
0.0
 11
404.73852638116819
 21
-61.869968366639519
 31
0.0
  0
LINE
  5
36F3
  8
0
 10
413.07186488024558
 20
-54.472964713176033
 30
0.0
 11
415.22541322530611
 21
-57.937385968463801
 31
0.0
  0
LINE
  5
36F4
  8
0
 10
416.0681182642827
 20
-53.349369742269531
 30
0.0
 11
418.22166660934329
 21
-56.813790997557298
 31
0.0
  0
LINE
  5
36F5
  8
0
 10
418.22166660934329
 20
-56.813790997557298
 30
0.0
 11
418.13973890271302
 21
-56.310513654964673
 31
0.0
  0
LINE
  5
36F6
  8
0
 10
417.64817266293147
 20
-53.290849599408922
 30
0.0
 11
417.56624495630132
 21
-52.787572256816269
 31
0.0
  0
LINE
  5
36F7
  8
0
 10
415.22541322530611
 20
-57.937385968463801
 30
0.0
 11
415.1434855186759
 21
-57.434108625871161
 31
0.0
  0
LINE
  5
36F8
  8
0
 10
416.72353991732479
 20
-57.375588483010517
 30
0.0
 11
416.6416122106944
 21
-56.872311140417899
 31
0.0
  0
LINE
  5
36F9
  8
0
 10
416.15004597091303
 20
-53.852647084862127
 30
0.0
 11
416.0681182642827
 21
-53.349369742269531
 31
0.0
  0
LINE
  5
36FA
  8
0
 10
414.65191927889458
 20
-54.414444570315339
 30
0.0
 11
414.56999157226431
 21
-53.911167227722743
 31
0.0
  0
LINE
  5
36FB
  8
0
 10
414.56999157226431
 20
-53.911167227722743
 30
0.0
 11
416.72353991732479
 21
-57.375588483010517
 31
0.0
  0
LINE
  5
36FC
  8
0
 10
423.97568439604328
 20
-53.93062591051202
 30
0.0
 11
423.95307963294948
 21
-53.349834013768238
 31
0.0
  0
LINE
  5
36FD
  8
0
 10
421.21791999338041
 20
-55.69019602665081
 30
0.0
 11
421.13599228675008
 21
-55.186918684058199
 31
0.0
  0
LINE
  5
36FE
  8
0
 10
419.71979330136179
 20
-56.25199351210405
 30
0.0
 11
419.63786559473141
 21
-55.748716169511489
 31
0.0
  0
LINE
  5
36FF
  8
0
 10
422.63655035827401
 20
-54.916406826119811
 30
0.0
 11
422.56917965291768
 21
-54.368588482088022
 31
0.0
  0
LINE
  5
3700
  8
0
 10
422.27838935116313
 20
-52.004055400167481
 30
0.0
 11
422.21961840206922
 21
-51.526165138525698
 31
0.0
  0
LINE
  5
3701
  8
0
 10
419.14629935495009
 20
-52.729052113955632
 30
0.0
 11
419.06437164831982
 21
-52.225774771363042
 31
0.0
  0
LINE
  5
3702
  8
0
 10
420.64442604696859
 20
-52.16725462850242
 30
0.0
 11
420.56249834033821
 21
-51.66397728590983
 31
0.0
  0
LINE
  5
3703
  8
0
 10
423.89546752751289
 20
-51.869586516673948
 30
0.0
 11
423.8767375389429
 21
-51.388350524838629
 31
0.0
  0
LINE
  5
3704
  8
0
 10
422.21961840206922
 20
-51.526165138525698
 30
0.0
 11
423.97568439604328
 21
-53.93062591051202
 31
0.0
  0
LINE
  5
3705
  8
0
 10
419.06437164831982
 20
-52.225774771363042
 30
0.0
 11
421.21791999338041
 21
-55.69019602665081
 31
0.0
  0
LINE
  5
3706
  8
0
 10
420.56249834033821
 20
-51.66397728590983
 30
0.0
 11
422.63655035827401
 21
-54.916406826119811
 31
0.0
  0
LINE
  5
3707
  8
0
 10
417.56624495630132
 20
-52.787572256816269
 30
0.0
 11
419.71979330136179
 21
-56.25199351210405
 31
0.0
  0
LINE
  5
3708
  8
0
 10
405.58123142014881
 20
-57.281952140443728
 30
0.0
 11
407.7347797652053
 21
-60.746373395733031
 31
0.0
  0
LINE
  5
3709
  8
0
 10
407.7347797652053
 20
-60.746373395733031
 30
0.0
 11
407.6528520585756
 21
-60.243096053140228
 31
0.0
  0
LINE
  5
370A
  8
0
 10
407.16128581880128
 20
-57.223431997581777
 30
0.0
 11
407.07935811217141
 21
-56.720154654988981
 31
0.0
  0
LINE
  5
370B
  8
0
 10
406.23665307318669
 20
-61.308170881186321
 30
0.0
 11
406.15472536655687
 21
-60.804893538593518
 31
0.0
  0
LINE
  5
370C
  8
0
 10
404.73852638116819
 20
-61.869968366639519
 30
0.0
 11
404.65659867453849
 21
-61.366691024046723
 31
0.0
  0
LINE
  5
370D
  8
0
 10
405.66315912677868
 20
-57.785229483036531
 30
0.0
 11
405.58123142014881
 21
-57.281952140443728
 31
0.0
  0
LINE
  5
370E
  8
0
 10
404.16503243476001
 20
-58.347026968489828
 30
0.0
 11
404.08310472813019
 21
-57.843749625897019
 31
0.0
  0
LINE
  5
370F
  8
0
 10
404.08310472813019
 20
-57.843749625897019
 30
0.0
 11
406.23665307318669
 21
-61.308170881186321
 31
0.0
  0
LINE
  5
3710
  8
0
 10
412.22915984126507
 20
-59.060980939371781
 30
0.0
 11
412.1472321346352
 21
-58.557703596778971
 31
0.0
  0
LINE
  5
3711
  8
0
 10
413.72728653328772
 20
-58.499183453917013
 30
0.0
 11
413.6453588266574
 21
-57.995906111324402
 31
0.0
  0
LINE
  5
3712
  8
0
 10
409.23290645722801
 20
-60.184575910278269
 30
0.0
 11
409.1509787505982
 21
-59.681298567685467
 31
0.0
  0
LINE
  5
3713
  8
0
 10
410.7310331492464
 20
-59.622778424825071
 30
0.0
 11
410.64910544261659
 21
-59.119501082232262
 31
0.0
  0
LINE
  5
3714
  8
0
 10
413.15379258687602
 20
-54.976242055768623
 30
0.0
 11
413.07186488024558
 21
-54.472964713176033
 31
0.0
  0
LINE
  5
3715
  8
0
 10
411.65566589485678
 20
-55.538039541222084
 30
0.0
 11
411.57373818822708
 21
-55.034762198629231
 31
0.0
  0
LINE
  5
3716
  8
0
 10
408.65941251081972
 20
-56.661634512128572
 30
0.0
 11
408.57748480418991
 21
-56.158357169535762
 31
0.0
  0
LINE
  5
3717
  8
0
 10
410.15753920283839
 20
-56.099837026675281
 30
0.0
 11
410.07561149620858
 21
-55.596559684082479
 31
0.0
  0
LINE
  5
3718
  8
0
 10
410.07561149620858
 20
-55.596559684082479
 30
0.0
 11
412.22915984126507
 21
-59.060980939371781
 31
0.0
  0
LINE
  5
3719
  8
0
 10
411.57373818822708
 20
-55.034762198629231
 30
0.0
 11
413.72728653328772
 21
-58.499183453917013
 31
0.0
  0
LINE
  5
371A
  8
0
 10
408.57748480418991
 20
-56.158357169535762
 30
0.0
 11
410.7310331492464
 21
-59.622778424825071
 31
0.0
  0
LINE
  5
371B
  8
0
 10
407.07935811217141
 20
-56.720154654988981
 30
0.0
 11
409.23290645722801
 21
-60.184575910278269
 31
0.0
  0
LINE
  5
371C
  8
0
 10
398.66409190657072
 20
-63.613880965819767
 30
0.0
 11
397.61072815728392
 21
-60.804890967308623
 31
0.0
  0
LINE
  5
371D
  8
0
 10
398.17252566668202
 20
-60.594216910304219
 30
0.0
 11
398.09059796005232
 21
-60.090939567711423
 31
0.0
  0
LINE
  5
371E
  8
0
 10
398.09059796005232
 20
-60.090939567711423
 30
0.0
 11
400.2441463051087
 21
-63.555360823000711
 31
0.0
  0
LINE
  5
371F
  8
0
 10
400.2441463051087
 20
-63.555360823000711
 30
0.0
 11
400.16221859847889
 21
-63.052083480407909
 31
0.0
  0
LINE
  5
3720
  8
0
 10
399.67065235870052
 20
-60.032419424851
 30
0.0
 11
399.58872465207071
 21
-59.529142082258197
 31
0.0
  0
LINE
  5
3721
  8
0
 10
401.1687790507188
 20
-59.470621939397802
 30
0.0
 11
401.0868513440891
 21
-58.967344596804999
 31
0.0
  0
LINE
  5
3722
  8
0
 10
401.0868513440891
 20
-58.967344596804999
 30
0.0
 11
403.24039968914559
 21
-62.431765852094287
 31
0.0
  0
LINE
  5
3723
  8
0
 10
401.74227299712709
 20
-62.993563337547499
 30
0.0
 11
401.66034529049728
 21
-62.490285994954696
 31
0.0
  0
LINE
  5
3724
  8
0
 10
403.24039968914559
 20
-62.431765852094287
 30
0.0
 11
403.15847198251589
 21
-61.928488509501491
 31
0.0
  0
LINE
  5
3725
  8
0
 10
399.58872465207071
 20
-59.529142082258197
 30
0.0
 11
401.74227299712709
 21
-62.993563337547499
 31
0.0
  0
LINE
  5
3726
  8
0
 10
402.66690574274151
 20
-58.908824453943041
 30
0.0
 11
402.58497803611169
 21
-58.405547111350231
 31
0.0
  0
TEXT
  5
3727
  8
1DIM
 10
319.31632864601892
 20
18.809376619555088
 30
0.0
 40
3.5
  1
材質：ABS樹脂
  0
TEXT
  5
3728
  8
1DIM
 10
319.31632864601892
 20
12.976043286221749
 30
0.0
 40
3.5
  1
仕上：クロームメッキ
  0
TEXT
  5
372B
  8
1DIM
 10
243.8590947268975
 20
12.7553010919356
 30
0.0
 40
3.5
  1
材質：亜鉛ダイキャスト
  0
TEXT
  5
372C
  8
1DIM
 10
243.8590947268975
 20
6.9219677586022597
 30
0.0
 40
3.5
  1
仕上：クロームメッキ
  0
LINE
  5
372F
  8
1DIM
 10
233.33308404821781
 20
-3.325196786593664
 30
0.0
 11
241.15909472689751
 21
6.2219677586022604
 31
0.0
  0
LINE
  5
3730
  8
1DIM
 10
241.15909472689751
 20
6.2219677586022604
 30
0.0
 11
243.8590947268975
 21
6.2219677586022604
 31
0.0
  0
LINE
  5
3731
  8
0
  6
BYBLOCK
 10
233.74753370686989
 20
-3.6649298496442242
 30
0.0
 11
232.06518298439829
 21
-4.8719439838969256
 31
0.0
  0
LINE
  5
3732
  8
0
  6
BYBLOCK
 10
232.06518298439829
 20
-4.8719439838969256
 30
0.0
 11
232.9186343895656
 21
-2.9854637235431021
 31
0.0
  0
LINE
  5
3733
  8
0
  6
BYBLOCK
 10
232.06518298439829
 20
-4.8719439838969256
 30
0.0
 11
233.33308404821781
 21
-3.325196786593664
 31
0.0
  0
LINE
  5
3734
  8
1DIM
 10
306.99930875314999
 20
25.46861023583417
 30
0.0
 11
316.61632864601893
 21
12.27604328622175
 31
0.0
  0
LINE
  5
3735
  8
1DIM
 10
316.61632864601893
 20
12.27604328622175
 30
0.0
 11
319.31632864601892
 21
12.27604328622175
 31
0.0
  0
LINE
  5
3736
  8
0
  6
BYBLOCK
 10
306.56625882316632
 20
25.152928700378279
 30
0.0
 11
305.8211692131278
 21
27.084774591410849
 31
0.0
  0
LINE
  5
3737
  8
0
  6
BYBLOCK
 10
305.8211692131278
 20
27.084774591410849
 30
0.0
 11
307.4323586831336
 21
25.78429177129005
 31
0.0
  0
LINE
  5
3738
  8
0
  6
BYBLOCK
 10
305.8211692131278
 20
27.084774591410849
 30
0.0
 11
306.99930875314999
 21
25.46861023583417
 31
0.0
  0
LINE
  5
3739
  8
0
 10
426.22728550722422
 20
-51.675683114334852
 30
0.0
 11
420.73805896521878
 21
-52.132142285661978
 31
0.0
  0
LINE
  5
373A
  8
0
 10
420.73805896521878
 20
-52.132142285661978
 30
0.0
 11
397.61072815728392
 21
-60.804890967308623
 31
0.0
  0
LINE
  5
373B
  8
0
 10
426.22728550722422
 20
-51.675683114334852
 30
0.0
 11
421.79142271450672
 21
-54.941132284173086
 31
0.0
  0
LINE
  5
373C
  8
0
 10
396.90846931801661
 20
-58.932187395343661
 30
0.0
 11
397.61072815728392
 21
-60.804890967308623
 31
0.0
  0
LINE
  5
373D
  8
0
 10
421.79142271450672
 20
-54.941132284173086
 30
0.0
 11
398.66409190657072
 21
-63.613880965819767
 31
0.0
  0
LINE
  5
373E
  8
0
 10
396.90846931801661
 20
-58.932187395343661
 30
0.0
 11
395.87850394928211
 21
-59.318424392082001
 31
0.0
  0
LINE
  5
373F
  8
0
 10
398.66409190657072
 20
-63.613880965819767
 30
0.0
 11
399.36631806635268
 21
-65.486497391870074
 31
0.0
  0
ARC
  5
3740
  8
0
 10
396.40518909189439
 20
-60.722918165849393
 30
0.0
 40
1.5
 50
110.5560444130661
 51
200.55591109753749
  0
LINE
  5
3741
  8
0
 10
399.36631806635268
 20
-65.486497391870074
 30
0.0
 11
398.3363592335561
 21
-65.872731937631926
 31
0.0
  0
LINE
  5
3742
  8
0
 10
395.00069409264262
 20
-61.249600040491373
 30
0.0
 11
396.40517909169182
 21
-64.994920038506535
 31
0.0
  0
ARC
  5
3743
  8
0
 10
397.8096740909437
 20
-64.468238163864541
 30
0.0
 40
1.5
 50
200.5559110975378
 51
290.5560444130661
  0
LINE
  5
3744
  8
0
 10
426.22725173053442
 20
-67.471657666200656
 30
0.0
 11
421.79139595364239
 21
-64.206210295447335
 31
0.0
  0
LINE
  5
3745
  8
0
 10
421.79139595364239
 20
-64.206210295447335
 30
0.0
 11
398.66406642025089
 21
-55.53345821501901
 31
0.0
  0
LINE
  5
3746
  8
0
 10
426.22725173053442
 20
-67.471657666200656
 30
0.0
 11
420.73801871967351
 21
-67.015195237202136
 31
0.0
  0
LINE
  5
3747
  8
0
 10
399.36633424951611
 20
-53.660758014303831
 30
0.0
 11
398.66406642025089
 21
-55.53345821501901
 31
0.0
  0
LINE
  5
3748
  8
0
 10
420.73801871967351
 20
-67.015195237202136
 30
0.0
 11
397.61068918628121
 21
-58.342443156773143
 31
0.0
  0
LINE
  5
3749
  8
0
 10
399.36633424951611
 20
-53.660758014303831
 30
0.0
 11
398.33636893754277
 21
-53.274520866202039
 31
0.0
  0
LINE
  5
374A
  8
0
 10
397.61068918628121
 20
-58.342443156773143
 30
0.0
 11
396.90845403691969
 21
-60.215056211730527
 31
0.0
  0
ARC
  5
374B
  8
0
 10
397.8096835885267
 20
-54.679014562567993
 30
0.0
 40
1.5
 50
69.443947166770783
 51
159.4438138512414
  0
LINE
  5
374C
  8
0
 10
396.90845403691969
 20
-60.215056211730527
 30
0.0
 11
395.87849526088388
 21
-59.828821514606403
 31
0.0
  0
LINE
  5
374D
  8
0
 10
396.40519111765332
 20
-54.152325945584423
 30
0.0
 11
395.00068813902669
 21
-57.897639201256879
 31
0.0
  0
ARC
  5
374E
  8
0
 10
396.40518060990013
 20
-58.42432781824045
 30
0.0
 40
1.5
 50
159.44381385124211
 51
249.44394716677081
  0
TEXT
  5
374F
  8
1DIM
 10
433.4851630787723
 20
-60.74030095873492
 30
0.0
 40
3.5
  1
3
 50
90.0
  0
LINE
  5
3750
  8
0
  6
BYBLOCK
 10
433.64926469877241
 20
-63.046112528508353
 30
0.0
 11
434.1851630787724
 21
-61.046112528508353
 31
0.0
  0
LINE
  5
3751
  8
0
  6
BYBLOCK
 10
434.1851630787724
 20
-61.046112528508353
 30
0.0
 11
434.7210614587724
 21
-63.046112528508353
 31
0.0
  0
LINE
  5
3752
  8
0
  6
BYBLOCK
 10
434.1851630787724
 20
-61.046112528508353
 30
0.0
 11
434.1851630787724
 21
-63.046112528508353
 31
0.0
  0
LINE
  5
3753
  8
0
  6
BYBLOCK
 10
434.7210614587724
 20
-56.101156055628302
 30
0.0
 11
434.1851630787724
 21
-58.101156055628302
 31
0.0
  0
LINE
  5
3754
  8
0
  6
BYBLOCK
 10
434.1851630787724
 20
-58.101156055628302
 30
0.0
 11
433.64926469877241
 21
-56.101156055628302
 31
0.0
  0
LINE
  5
3755
  8
0
  6
BYBLOCK
 10
434.1851630787724
 20
-58.101156055628302
 30
0.0
 11
434.1851630787724
 21
-56.101156055628302
 31
0.0
  0
TEXT
  5
3756
  8
1DIM
 10
410.9786334930472
 20
-82.429186117135416
 30
0.0
 40
3.5
  1
25
  0
LINE
  5
3757
  8
0
  6
BYBLOCK
 10
424.2169308118867
 20
-82.593287737135412
 30
0.0
 11
426.2169308118867
 21
-83.129186117135404
 31
0.0
  0
LINE
  5
3758
  8
0
  6
BYBLOCK
 10
426.2169308118867
 20
-83.129186117135404
 30
0.0
 11
424.2169308118867
 21
-83.665084497135425
 31
0.0
  0
LINE
  5
3759
  8
0
  6
BYBLOCK
 10
426.2169308118867
 20
-83.129186117135404
 30
0.0
 11
424.2169308118867
 21
-83.129186117135404
 31
0.0
  0
LINE
  5
375A
  8
0
  6
BYBLOCK
 10
403.57366950754101
 20
-83.665084497135425
 30
0.0
 11
401.57366950754101
 21
-83.129186117135404
 31
0.0
  0
LINE
  5
375B
  8
0
  6
BYBLOCK
 10
401.57366950754101
 20
-83.129186117135404
 30
0.0
 11
403.57366950754101
 21
-82.593287737135412
 31
0.0
  0
LINE
  5
375C
  8
0
  6
BYBLOCK
 10
401.57366950754101
 20
-83.129186117135404
 30
0.0
 11
403.57366950754101
 21
-83.129186117135404
 31
0.0
  0
TEXT
  5
375D
  8
1DIM
 10
439.30027623793518
 20
-61.906992499718491
 30
0.0
 40
3.5
  1
16
 50
90.0
  0
LINE
  5
375E
  8
0
  6
BYBLOCK
 10
439.46437785793518
 20
-53.804939503822098
 30
0.0
 11
440.00027623793522
 21
-51.804939503822098
 31
0.0
  0
LINE
  5
375F
  8
0
  6
BYBLOCK
 10
440.00027623793522
 20
-51.804939503822098
 30
0.0
 11
440.53617461793522
 21
-53.804939503822098
 31
0.0
  0
LINE
  5
3760
  8
0
  6
BYBLOCK
 10
440.00027623793522
 20
-51.804939503822098
 30
0.0
 11
440.00027623793522
 21
-53.804939503822098
 31
0.0
  0
LINE
  5
3761
  8
0
  6
BYBLOCK
 10
440.53617461793522
 20
-65.342378828948199
 30
0.0
 11
440.00027623793522
 21
-67.342378828948199
 31
0.0
  0
LINE
  5
3762
  8
0
  6
BYBLOCK
 10
440.00027623793522
 20
-67.342378828948199
 30
0.0
 11
439.46437785793518
 21
-65.342378828948199
 31
0.0
  0
LINE
  5
3763
  8
0
  6
BYBLOCK
 10
440.00027623793522
 20
-67.342378828948199
 30
0.0
 11
440.00027623793522
 21
-65.342378828948199
 31
0.0
  0
LINE
  5
3764
  8
1DIM
 10
413.88869285290082
 20
-13.72987537167459
 30
0.0
 11
408.69611441395421
 21
-1.1469194116524539
 31
0.0
  0
LINE
  5
3765
  8
1DIM
 10
408.69611441395421
 20
-1.1469194116524539
 30
0.0
 11
411.39611441395419
 21
-1.1469194116524539
 31
0.0
  0
LINE
  5
3766
  8
0
  6
BYBLOCK
 10
414.38406872602849
 20
-13.52544979105987
 30
0.0
 11
414.65161951304378
 21
-15.578643315804699
 31
0.0
  0
LINE
  5
3767
  8
0
  6
BYBLOCK
 10
414.65161951304378
 20
-15.578643315804699
 30
0.0
 11
413.39331697977332
 21
-13.9343009522893
 31
0.0
  0
LINE
  5
3768
  8
0
  6
BYBLOCK
 10
414.65161951304378
 20
-15.578643315804699
 30
0.0
 11
413.88869285290082
 21
-13.72987537167459
 31
0.0
  0
LINE
  5
3769
  8
1HATCH
 10
405.80506825236239
 20
-13.65642923934166
 30
0.0
 11
402.52876991941559
 21
4.8544266054715228
 31
0.0
  0
LINE
  5
376A
  8
1HATCH
 10
402.52876991941559
 20
4.8544266054715228
 30
0.0
 11
405.22876991941558
 21
4.8544266054715228
 31
0.0
  0
LINE
  5
376B
  8
0
  6
BYBLOCK
 10
406.33276488776562
 20
-13.56303044560855
 30
0.0
 11
406.15363729910263
 21
-15.62581991151786
 31
0.0
  0
LINE
  5
376C
  8
0
  6
BYBLOCK
 10
406.15363729910263
 20
-15.62581991151786
 30
0.0
 11
405.27737161695927
 21
-13.74982803307476
 31
0.0
  0
LINE
  5
376D
  8
0
  6
BYBLOCK
 10
406.15363729910263
 20
-15.62581991151786
 30
0.0
 11
405.80506825236239
 21
-13.65642923934166
 31
0.0
  0
TEXT
  5
376E
  8
1DIM
 10
280.0238819131809
 20
-77.420111618192905
 30
0.0
 40
3.5
  1
P25
  0
LINE
  5
376F
  8
0
  6
BYBLOCK
 10
295.19054949472229
 20
-77.584213238192902
 30
0.0
 11
297.19054949472229
 21
-78.120111618192908
 31
0.0
  0
LINE
  5
3770
  8
0
  6
BYBLOCK
 10
297.19054949472229
 20
-78.120111618192908
 30
0.0
 11
295.19054949472229
 21
-78.656009998192914
 31
0.0
  0
LINE
  5
3771
  8
0
  6
BYBLOCK
 10
297.19054949472229
 20
-78.120111618192908
 30
0.0
 11
295.19054949472229
 21
-78.120111618192908
 31
0.0
  0
LINE
  5
3772
  8
0
  6
BYBLOCK
 10
274.19054766497288
 20
-78.656009998192914
 30
0.0
 11
272.19054766497288
 21
-78.120111618192908
 31
0.0
  0
LINE
  5
3773
  8
0
  6
BYBLOCK
 10
272.19054766497288
 20
-78.120111618192908
 30
0.0
 11
274.19054766497288
 21
-77.584213238192902
 31
0.0
  0
LINE
  5
3774
  8
0
  6
BYBLOCK
 10
272.19054766497288
 20
-78.120111618192908
 30
0.0
 11
274.19054766497288
 21
-78.120111618192908
 31
0.0
  0
TEXT
  5
3775
  8
1DIM
 10
218.523878639982
 20
-77.420111618192905
 30
0.0
 40
3.5
  1
P25
  0
LINE
  5
3776
  8
0
  6
BYBLOCK
 10
212.69054107090599
 20
-78.656009998192914
 30
0.0
 11
210.69054107090599
 21
-78.120111618192908
 31
0.0
  0
LINE
  5
3777
  8
0
  6
BYBLOCK
 10
210.69054107090599
 20
-78.120111618192908
 30
0.0
 11
212.69054107090599
 21
-77.584213238192902
 31
0.0
  0
LINE
  5
3778
  8
0
  6
BYBLOCK
 10
210.69054107090599
 20
-78.120111618192908
 30
0.0
 11
212.69054107090599
 21
-78.120111618192908
 31
0.0
  0
LINE
  5
3779
  8
0
  6
BYBLOCK
 10
233.6905495423913
 20
-77.584213238192902
 30
0.0
 11
235.6905495423913
 21
-78.120111618192908
 31
0.0
  0
LINE
  5
377A
  8
0
  6
BYBLOCK
 10
235.6905495423913
 20
-78.120111618192908
 30
0.0
 11
233.6905495423913
 21
-78.656009998192914
 31
0.0
  0
LINE
  5
377B
  8
0
  6
BYBLOCK
 10
235.6905495423913
 20
-78.120111618192908
 30
0.0
 11
233.6905495423913
 21
-78.120111618192908
 31
0.0
  0
TEXT
  5
377C
  8
1DIM
 10
369.03213835567902
 20
29.951815192137492
 30
0.0
 40
3.5
  1
10
 50
90.0
  0
LINE
  5
377D
  8
0
  6
BYBLOCK
 10
370.26803673567889
 20
28.943481858804141
 30
0.0
 11
369.7321383556789
 21
26.94348185880413
 31
0.0
  0
LINE
  5
377E
  8
0
  6
BYBLOCK
 10
369.7321383556789
 20
26.94348185880413
 30
0.0
 11
369.19623997567902
 21
28.943481858804141
 31
0.0
  0
LINE
  5
377F
  8
0
  6
BYBLOCK
 10
369.7321383556789
 20
26.94348185880413
 30
0.0
 11
369.7321383556789
 21
28.943481858804141
 31
0.0
  0
LINE
  5
3780
  8
0
  6
BYBLOCK
 10
369.19623997567902
 20
35.04348185880405
 30
0.0
 11
369.7321383556789
 21
37.043481858804043
 31
0.0
  0
LINE
  5
3781
  8
0
  6
BYBLOCK
 10
369.7321383556789
 20
37.043481858804043
 30
0.0
 11
370.26803673567889
 21
35.04348185880405
 31
0.0
  0
LINE
  5
3782
  8
0
  6
BYBLOCK
 10
369.7321383556789
 20
37.043481858804043
 30
0.0
 11
369.7321383556789
 21
35.04348185880405
 31
0.0
  0
TEXT
  5
3783
  8
1DIM
 10
376.48136911998392
 20
19.41848185880411
 30
0.0
 40
3.5
  1
30
 50
90.0
  0
LINE
  5
3784
  8
0
  6
BYBLOCK
 10
377.7172674999839
 20
9.0434818588040446
 30
0.0
 11
377.18136911998391
 21
7.0434818588040438
 31
0.0
  0
LINE
  5
3785
  8
0
  6
BYBLOCK
 10
377.18136911998391
 20
7.0434818588040438
 30
0.0
 11
376.64547073998392
 21
9.0434818588040446
 31
0.0
  0
LINE
  5
3786
  8
0
  6
BYBLOCK
 10
377.18136911998391
 20
7.0434818588040438
 30
0.0
 11
377.18136911998391
 21
9.0434818588040446
 31
0.0
  0
LINE
  5
3787
  8
0
  6
BYBLOCK
 10
376.64547073998392
 20
35.04348185880405
 30
0.0
 11
377.18136911998391
 21
37.043481858804043
 31
0.0
  0
LINE
  5
3788
  8
0
  6
BYBLOCK
 10
377.18136911998391
 20
37.043481858804043
 30
0.0
 11
377.7172674999839
 21
35.04348185880405
 31
0.0
  0
LINE
  5
3789
  8
0
  6
BYBLOCK
 10
377.18136911998391
 20
37.043481858804043
 30
0.0
 11
377.18136911998391
 21
35.04348185880405
 31
0.0
  0
TEXT
  5
378A
  8
1DIM
 10
385.08615763195269
 20
10.576815192137429
 30
0.0
 40
3.5
  1
47
 50
90.0
  0
LINE
  5
378B
  8
0
  6
BYBLOCK
 10
386.32205601195272
 20
-8.0565181411959585
 30
0.0
 11
385.78615763195268
 21
-10.05651814119596
 31
0.0
  0
LINE
  5
378C
  8
0
  6
BYBLOCK
 10
385.78615763195268
 20
-10.05651814119596
 30
0.0
 11
385.25025925195268
 21
-8.0565181411959585
 31
0.0
  0
LINE
  5
378D
  8
0
  6
BYBLOCK
 10
385.78615763195268
 20
-10.05651814119596
 30
0.0
 11
385.78615763195268
 21
-8.0565181411959585
 31
0.0
  0
LINE
  5
378E
  8
0
  6
BYBLOCK
 10
385.25025925195268
 20
35.043481858804043
 30
0.0
 11
385.78615763195268
 21
37.043481858804043
 31
0.0
  0
LINE
  5
378F
  8
0
  6
BYBLOCK
 10
385.78615763195268
 20
37.043481858804043
 30
0.0
 11
386.32205601195272
 21
35.043481858804043
 31
0.0
  0
LINE
  5
3790
  8
0
  6
BYBLOCK
 10
385.78615763195268
 20
37.043481858804043
 30
0.0
 11
385.78615763195268
 21
35.043481858804043
 31
0.0
  0
TEXT
  5
3791
  8
1DIM
 10
342.36328139689942
 20
-7.1231848078625477
 30
0.0
 40
3.5
  1
8
 50
90.0
  0
LINE
  5
3792
  8
0
  6
BYBLOCK
 10
343.5991797768994
 20
-8.0565181411959461
 30
0.0
 11
343.06328139689941
 21
-10.05651814119595
 31
0.0
  0
LINE
  5
3793
  8
0
  6
BYBLOCK
 10
343.06328139689941
 20
-10.05651814119595
 30
0.0
 11
342.52738301689942
 21
-8.0565181411959461
 31
0.0
  0
LINE
  5
3794
  8
0
  6
BYBLOCK
 10
343.06328139689941
 20
-10.05651814119595
 30
0.0
 11
343.06328139689941
 21
-8.0565181411959461
 31
0.0
  0
LINE
  5
3795
  8
0
  6
BYBLOCK
 10
342.52738301689942
 20
-3.856518141195926
 30
0.0
 11
343.06328139689941
 21
-1.856518141195926
 31
0.0
  0
LINE
  5
3796
  8
0
  6
BYBLOCK
 10
343.06328139689941
 20
-1.856518141195926
 30
0.0
 11
343.5991797768994
 21
-3.856518141195926
 31
0.0
  0
LINE
  5
3797
  8
0
  6
BYBLOCK
 10
343.06328139689941
 20
-1.856518141195926
 30
0.0
 11
343.06328139689941
 21
-3.856518141195926
 31
0.0
  0
TEXT
  5
3798
  8
1DIM
 10
185.82388287573349
 20
-20.304996191509009
 30
0.0
 40
3.5
  1
8
  0
LINE
  5
3799
  8
0
  6
BYBLOCK
 10
189.09054954240031
 20
-20.469097811509009
 30
0.0
 11
191.0905495424002
 21
-21.004996191509012
 31
0.0
  0
LINE
  5
379A
  8
0
  6
BYBLOCK
 10
191.0905495424002
 20
-21.004996191509012
 30
0.0
 11
189.09054954240031
 21
-21.540894571509011
 31
0.0
  0
LINE
  5
379B
  8
0
  6
BYBLOCK
 10
191.0905495424002
 20
-21.004996191509012
 30
0.0
 11
189.09054954240031
 21
-21.004996191509012
 31
0.0
  0
LINE
  5
379C
  8
0
  6
BYBLOCK
 10
184.89054954240009
 20
-21.540894571509011
 30
0.0
 11
182.89054954240009
 21
-21.004996191509012
 31
0.0
  0
LINE
  5
379D
  8
0
  6
BYBLOCK
 10
182.89054954240009
 20
-21.004996191509012
 30
0.0
 11
184.89054954240009
 21
-20.469097811509009
 31
0.0
  0
LINE
  5
379E
  8
0
  6
BYBLOCK
 10
182.89054954240009
 20
-21.004996191509012
 30
0.0
 11
184.89054954240009
 21
-21.004996191509012
 31
0.0
  0
TEXT
  5
379F
  8
1DIM
 10
254.14888287573359
 20
-26.942132986892648
 30
0.0
 40
3.5
  1
150
  0
LINE
  5
37A0
  8
0
  6
BYBLOCK
 10
330.9905495424004
 20
-27.106234606892649
 30
0.0
 11
332.9905495424004
 21
-27.642132986892651
 31
0.0
  0
LINE
  5
37A1
  8
0
  6
BYBLOCK
 10
332.9905495424004
 20
-27.642132986892651
 30
0.0
 11
330.9905495424004
 21
-28.17803136689265
 31
0.0
  0
LINE
  5
37A2
  8
0
  6
BYBLOCK
 10
332.9905495424004
 20
-27.642132986892651
 30
0.0
 11
330.9905495424004
 21
-27.642132986892651
 31
0.0
  0
LINE
  5
37A3
  8
0
  6
BYBLOCK
 10
184.89054954240009
 20
-28.17803136689265
 30
0.0
 11
182.89054954240009
 21
-27.642132986892651
 31
0.0
  0
LINE
  5
37A4
  8
0
  6
BYBLOCK
 10
182.89054954240009
 20
-27.642132986892651
 30
0.0
 11
184.89054954240009
 21
-27.106234606892649
 31
0.0
  0
LINE
  5
37A5
  8
0
  6
BYBLOCK
 10
182.89054954240009
 20
-27.642132986892651
 30
0.0
 11
184.89054954240009
 21
-27.642132986892651
 31
0.0
  0
TEXT
  5
37A6
  8
1DIM
 10
247.72388287573369
 20
60.194442023226841
 30
0.0
 40
3.5
  1
142.5
  0
LINE
  5
37A7
  8
0
  6
BYBLOCK
 10
323.39054954240038
 20
60.030340403226838
 30
0.0
 11
325.39054954240038
 21
59.494442023226839
 31
0.0
  0
LINE
  5
37A8
  8
0
  6
BYBLOCK
 10
325.39054954240038
 20
59.494442023226839
 30
0.0
 11
323.39054954240038
 21
58.958543643226832
 31
0.0
  0
LINE
  5
37A9
  8
0
  6
BYBLOCK
 10
325.39054954240038
 20
59.494442023226839
 30
0.0
 11
323.39054954240038
 21
59.494442023226839
 31
0.0
  0
LINE
  5
37AA
  8
0
  6
BYBLOCK
 10
184.89054954240021
 20
58.958543643226832
 30
0.0
 11
182.89054954240021
 21
59.494442023226839
 31
0.0
  0
LINE
  5
37AB
  8
0
  6
BYBLOCK
 10
182.89054954240021
 20
59.494442023226839
 30
0.0
 11
184.89054954240021
 21
60.030340403226838
 31
0.0
  0
LINE
  5
37AC
  8
0
  6
BYBLOCK
 10
182.89054954240021
 20
59.494442023226839
 30
0.0
 11
184.89054954240021
 21
59.494442023226839
 31
0.0
  0
TEXT
  5
37AD
  8
1DIM
 10
341.96831620203068
 20
-61.906958024282339
 30
0.0
 40
3.5
  1
19
 50
90.0
  0
LINE
  5
37AE
  8
0
  6
BYBLOCK
 10
343.2042145820306
 20
-67.07362469094906
 30
0.0
 11
342.66831620203072
 21
-69.07362469094906
 31
0.0
  0
LINE
  5
37AF
  8
0
  6
BYBLOCK
 10
342.66831620203072
 20
-69.07362469094906
 30
0.0
 11
342.13241782203067
 21
-67.07362469094906
 31
0.0
  0
LINE
  5
37B0
  8
0
  6
BYBLOCK
 10
342.66831620203072
 20
-69.07362469094906
 30
0.0
 11
342.66831620203072
 21
-67.07362469094906
 31
0.0
  0
LINE
  5
37B1
  8
0
  6
BYBLOCK
 10
342.13241782203067
 20
-52.07362469094906
 30
0.0
 11
342.66831620203072
 21
-50.073624690949067
 31
0.0
  0
LINE
  5
37B2
  8
0
  6
BYBLOCK
 10
342.66831620203072
 20
-50.073624690949067
 30
0.0
 11
343.2042145820306
 21
-52.07362469094906
 31
0.0
  0
LINE
  5
37B3
  8
0
  6
BYBLOCK
 10
342.66831620203072
 20
-50.073624690949067
 30
0.0
 11
342.66831620203072
 21
-52.07362469094906
 31
0.0
  0
TEXT
  5
37B4
  8
1DIM
 10
191.54054530665309
 20
-77.420111618192905
 30
0.0
 40
3.5
  1
27.8
  0
LINE
  5
37B5
  8
0
  6
BYBLOCK
 10
208.69054107090599
 20
-77.584213238192902
 30
0.0
 11
210.69054107090599
 21
-78.120111618192908
 31
0.0
  0
LINE
  5
37B6
  8
0
  6
BYBLOCK
 10
210.69054107090599
 20
-78.120111618192908
 30
0.0
 11
208.69054107090599
 21
-78.656009998192914
 31
0.0
  0
LINE
  5
37B7
  8
0
  6
BYBLOCK
 10
210.69054107090599
 20
-78.120111618192908
 30
0.0
 11
208.69054107090599
 21
-78.120111618192908
 31
0.0
  0
LINE
  5
37B8
  8
0
  6
BYBLOCK
 10
184.89054954240021
 20
-78.656009998192914
 30
0.0
 11
182.89054954240021
 21
-78.120111618192908
 31
0.0
  0
LINE
  5
37B9
  8
0
  6
BYBLOCK
 10
182.89054954240021
 20
-78.120111618192908
 30
0.0
 11
184.89054954240021
 21
-77.584213238192902
 31
0.0
  0
LINE
  5
37BA
  8
0
  6
BYBLOCK
 10
182.89054954240021
 20
-78.120111618192908
 30
0.0
 11
184.89054954240021
 21
-78.120111618192908
 31
0.0
  0
TEXT
  5
37BB
  8
1DIM
 10
246.94054860368209
 20
-77.420111618192905
 30
0.0
 40
3.5
  1
P36.5
  0
LINE
  5
37BC
  8
0
  6
BYBLOCK
 10
270.19054766497288
 20
-77.584213238192902
 30
0.0
 11
272.19054766497288
 21
-78.120111618192908
 31
0.0
  0
LINE
  5
37BD
  8
0
  6
BYBLOCK
 10
272.19054766497288
 20
-78.120111618192908
 30
0.0
 11
270.19054766497288
 21
-78.656009998192914
 31
0.0
  0
LINE
  5
37BE
  8
0
  6
BYBLOCK
 10
272.19054766497288
 20
-78.120111618192908
 30
0.0
 11
270.19054766497288
 21
-78.120111618192908
 31
0.0
  0
LINE
  5
37BF
  8
0
  6
BYBLOCK
 10
237.6905495423913
 20
-78.656009998192914
 30
0.0
 11
235.6905495423913
 21
-78.120111618192908
 31
0.0
  0
LINE
  5
37C0
  8
0
  6
BYBLOCK
 10
235.6905495423913
 20
-78.120111618192908
 30
0.0
 11
237.6905495423913
 21
-77.584213238192902
 31
0.0
  0
LINE
  5
37C1
  8
0
  6
BYBLOCK
 10
235.6905495423913
 20
-78.120111618192908
 30
0.0
 11
237.6905495423913
 21
-78.120111618192908
 31
0.0
  0
VIEWPORT
  5
57
 67
     1
  8
0
 10
-7.7188140231955913
 20
70.661074083695624
 30
0.0
 40
581.65777903874186
 41
389.6592378162191
 68
     1
 69
     1
1001
ACAD
1000
MVIEW
1002
{
1070
    16
1010
0.0
1020
0.0
1030
0.0
1010
0.0
1020
0.0
1030
1.0
1040
0.0
1040
389.6592378162191
1040
-7.7188140231955913
1040
70.661074083695624
1040
50.0
1040
0.0
1040
0.0
1070
     0
1070
  1000
1070
     1
1070
     1
1070
     0
1070
     0
1070
     0
1070
     0
1040
0.0
1040
0.0
1040
0.0
1040
10.0
1040
10.0
1040
10.0
1040
10.0
1070
     0
1002
{
1002
}
1002
}
  0
ENDSEC
  0
EOF
