  0
SECTION
  2
HEADER
  9
$ACADVER
  1
AC1009
  9
$INSBASE
 10
0.0
 20
0.0
 30
0.0
  9
$EXTMIN
 10
115.2312141510556
 20
-94.737415785934132
 30
0.0
  9
$EXTMAX
 10
483.30836086643308
 20
83.822315500208447
 30
0.0
  9
$LIMMIN
 10
0.0
 20
0.0
  9
$LIMMAX
 10
420.0
 20
297.0
  9
$ORTHOMODE
 70
     0
  9
$REGENMODE
 70
     1
  9
$FILLMODE
 70
     1
  9
$QTEXTMODE
 70
     0
  9
$MIRRTEXT
 70
     1
  9
$DRAGMODE
 70
     2
  9
$LTSCALE
 40
0.5
  9
$OSMODE
 70
   255
  9
$ATTMODE
 70
     1
  9
$TEXTSIZE
 40
4.0
  9
$TRACEWID
 40
1.0
  9
$TEXTSTYLE
  7
STANDARD
  9
$CLAYER
  8
1TEXT
  9
$CELTYPE
  6
BYLAYER
  9
$CECOLOR
 62
   256
  9
$DIMSCALE
 40
1.0
  9
$DIMASZ
 40
2.0
  9
$DIMEXO
 40
0.0
  9
$DIMDLI
 40
7.0
  9
$DIMRND
 40
0.0
  9
$DIMDLE
 40
0.0
  9
$DIMEXE
 40
1.0
  9
$DIMTP
 40
0.0
  9
$DIMTM
 40
0.0
  9
$DIMTXT
 40
3.5
  9
$DIMCEN
 40
0.0
  9
$DIMTSZ
 40
0.0
  9
$DIMTOL
 70
     0
  9
$DIMLIM
 70
     0
  9
$DIMTIH
 70
     0
  9
$DIMTOH
 70
     0
  9
$DIMSE1
 70
     0
  9
$DIMSE2
 70
     0
  9
$DIMTAD
 70
     1
  9
$DIMZIN
 70
     8
  9
$DIMBLK
  1

  9
$DIMASO
 70
     1
  9
$DIMSHO
 70
     1
  9
$DIMPOST
  1
 
  9
$DIMAPOST
  1

  9
$DIMALT
 70
     0
  9
$DIMALTD
 70
     2
  9
$DIMALTF
 40
25.399999999999999
  9
$DIMLFAC
 40
1.0
  9
$DIMTOFL
 70
     1
  9
$DIMTVP
 40
0.0
  9
$DIMTIX
 70
     0
  9
$DIMSOXD
 70
     0
  9
$DIMSAH
 70
     1
  9
$DIMBLK1
  1
OPEN30
  9
$DIMBLK2
  1
OPEN30
  9
$DIMSTYLE
  2
NEWX10
  9
$DIMCLRD
 70
   256
  9
$DIMCLRE
 70
   256
  9
$DIMCLRT
 70
   201
  9
$DIMTFAC
 40
0.7
  9
$DIMGAP
 40
0.7
  9
$LUNITS
 70
     2
  9
$LUPREC
 70
     4
  9
$SKETCHINC
 40
1.0
  9
$FILLETRAD
 40
0.5
  9
$AUNITS
 70
     0
  9
$AUPREC
 70
     2
  9
$MENU
  1
acad
  9
$ELEVATION
 40
0.0
  9
$PELEVATION
 40
0.0
  9
$THICKNESS
 40
0.0
  9
$LIMCHECK
 70
     0
  9
$BLIPMODE
 70
     0
  9
$CHAMFERA
 40
10.0
  9
$CHAMFERB
 40
10.0
  9
$SKPOLY
 70
     0
  9
$TDCREATE
 40
2454568.758518334
  9
$TDUPDATE
 40
2454568.7981369328
  9
$TDINDWG
 40
0.0396196875
  9
$TDUSRTIMER
 40
0.0396195023
  9
$USRTIMER
 70
     1
  9
$ANGBASE
 50
0.0
  9
$ANGDIR
 70
     0
  9
$PDMODE
 70
     0
  9
$PDSIZE
 40
0.0
  9
$PLINEWID
 40
0.0
  9
$COORDS
 70
     2
  9
$SPLFRAME
 70
     0
  9
$SPLINETYPE
 70
     6
  9
$SPLINESEGS
 70
     8
  9
$ATTDIA
 70
     0
  9
$ATTREQ
 70
     1
  9
$HANDLING
 70
     1
  9
$HANDSEED
  5
22ED
  9
$SURFTAB1
 70
     6
  9
$SURFTAB2
 70
     6
  9
$SURFTYPE
 70
     6
  9
$SURFU
 70
     6
  9
$SURFV
 70
     6
  9
$UCSNAME
  2

  9
$UCSORG
 10
0.0
 20
0.0
 30
0.0
  9
$UCSXDIR
 10
1.0
 20
0.0
 30
0.0
  9
$UCSYDIR
 10
0.0
 20
1.0
 30
0.0
  9
$PUCSNAME
  2

  9
$PUCSORG
 10
0.0
 20
0.0
 30
0.0
  9
$PUCSXDIR
 10
1.0
 20
0.0
 30
0.0
  9
$PUCSYDIR
 10
0.0
 20
1.0
 30
0.0
  9
$USERI1
 70
     0
  9
$USERI2
 70
     0
  9
$USERI3
 70
     0
  9
$USERI4
 70
     0
  9
$USERI5
 70
     0
  9
$USERR1
 40
0.0
  9
$USERR2
 40
0.0
  9
$USERR3
 40
0.0
  9
$USERR4
 40
0.0
  9
$USERR5
 40
0.0
  9
$WORLDVIEW
 70
     1
  9
$SHADEDGE
 70
     3
  9
$SHADEDIF
 70
    70
  9
$TILEMODE
 70
     1
  9
$MAXACTVP
 70
    48
  9
$PLIMCHECK
 70
     0
  9
$PEXTMIN
 10
1.0000000000000000E+020
 20
1.0000000000000000E+020
 30
1.0000000000000000E+020
  9
$PEXTMAX
 10
-1.0000000000000000E+020
 20
-1.0000000000000000E+020
 30
-1.0000000000000000E+020
  9
$PLIMMIN
 10
0.0
 20
0.0
  9
$PLIMMAX
 10
420.0
 20
297.0
  9
$UNITMODE
 70
     0
  9
$VISRETAIN
 70
     1
  9
$PLINEGEN
 70
     0
  9
$PSLTSCALE
 70
     1
  0
ENDSEC
  0
SECTION
  2
TABLES
  0
TABLE
  2
VPORT
 70
     9
  0
VPORT
  2
*ACTIVE
 70
     0
 10
0.0
 20
0.0
 11
1.0
 21
1.0
 12
299.2690279584192
 22
-5.4613808568442996
 13
0.0
 23
0.0
 14
10.0
 24
10.0
 15
10.0
 25
10.0
 16
0.0
 26
0.0
 36
1.0
 17
0.0
 27
0.0
 37
0.0
 40
258.31223958264491
 41
1.508086253369272
 42
50.0
 43
0.0
 44
0.0
 50
0.0
 51
0.0
 71
     0
 72
  1000
 73
     1
 74
     1
 75
     0
 76
     0
 77
     0
 78
     0
  0
ENDTAB
  0
TABLE
  2
LTYPE
 70
    15
  0
LTYPE
  2
CONTINUOUS
 70
     0
  3
Solid line
 72
    65
 73
     0
 40
0.0
  0
LTYPE
  2
CENTER2
 70
     0
  3
Center (.5x) ___ _ ___ _ ___ _ ___ _ ___ _ ___
 72
    65
 73
     4
 40
28.574999999999999
 49
19.050000000000001
 49
-3.1749999999999989
 49
3.1749999999999989
 49
-3.1749999999999989
  0
LTYPE
  2
A3WAKU|CENTER2
 70
    48
  3
Center (.5x) ___ _ ___ _ ___ _ ___ _ ___ _ ___
 72
    65
 73
     4
 40
28.574999999999999
 49
19.050000000000001
 49
-3.1749999999999989
 49
3.1749999999999989
 49
-3.1749999999999989
  0
LTYPE
  2
XREF1|CENTER2
 70
    48
  3
Center (.5x) ___ _ ___ _ ___ _ ___ _ ___ _ ___
 72
    65
 73
     4
 40
28.574999999999999
 49
19.050000000000001
 49
-3.1749999999999989
 49
3.1749999999999989
 49
-3.1749999999999989
  0
LTYPE
  2
PHANTOM2
 70
     0
  3
Phantom (.5x) ___ _ _ ___ _ _ ___ _ _ ___ _ _
 72
    65
 73
     6
 40
31.75
 49
15.875
 49
-3.1749999999999989
 49
3.1749999999999989
 49
-3.1749999999999989
 49
3.1749999999999989
 49
-3.1749999999999989
  0
LTYPE
  2
A3WAKUDAKE|CENTER2
 70
    48
  3
Center (.5x) ___ _ ___ _ ___ _ ___ _ ___ _ ___
 72
    65
 73
     4
 40
28.574999999999999
 49
19.050000000000001
 49
-3.1749999999999989
 49
3.1749999999999989
 49
-3.1749999999999989
  0
ENDTAB
  0
TABLE
  2
LAYER
 70
    46
  0
LAYER
  2
0
 70
     0
 62
     7
  6
CONTINUOUS
  0
LAYER
  2
1CENTER
 70
     0
 62
     7
  6
CENTER2
  0
LAYER
  2
1TEXT
 70
     0
 62
     7
  6
CONTINUOUS
  0
LAYER
  2
A3WAKU|THICK
 70
    48
 62
     7
  6
CONTINUOUS
  0
LAYER
  2
A3WAKU|POINT
 70
    48
 62
     7
  6
CONTINUOUS
  0
LAYER
  2
A3WAKU|1CENTER
 70
    48
 62
     7
  6
A3WAKU|CENTER2
  0
LAYER
  2
1DIM
 70
     0
 62
     7
  6
CONTINUOUS
  0
LAYER
  2
1PHANTOM
 70
     0
 62
     7
  6
PHANTOM2
  0
LAYER
  2
01
 70
     0
 62
     1
  6
CONTINUOUS
  0
LAYER
  2
1HATCH
 70
     0
 62
     7
  6
CONTINUOUS
  0
LAYER
  2
XREF1|1CENTER
 70
    48
 62
     7
  6
XREF1|CENTER2
  0
LAYER
  2
A3WAKUDAKE|THICK
 70
    48
 62
     7
  6
CONTINUOUS
  0
LAYER
  2
A3WAKUDAKE|POINT
 70
    48
 62
     7
  6
CONTINUOUS
  0
LAYER
  2
A3WAKUDAKE|1CENTER
 70
    48
 62
     7
  6
A3WAKUDAKE|CENTER2
  0
LAYER
  2
A3WAKUDAKE|0-6
 70
    48
 62
     7
  6
CONTINUOUS
  0
LAYER
  2
A3WAKUDAKE|1DIM
 70
    48
 62
     7
  6
CONTINUOUS
  0
ENDTAB
  0
TABLE
  2
STYLE
 70
    22
  0
STYLE
  2
STANDARD
 70
     0
 40
0.0
 41
1.0
 50
0.0
 71
     0
 42
4.0
  3
txt.shx
  4
extfont.shx
  0
ENDTAB
  0
TABLE
  2
VIEW
 70
     0
  0
ENDTAB
  0
TABLE
  2
UCS
 70
     0
  0
ENDTAB
  0
TABLE
  2
APPID
 70
     8
  0
APPID
  2
ACAD
 70
     0
  0
APPID
  2
DRAWINGVARIABLESXDATA
 70
     0
  0
APPID
  2
CONTENTTABDATA
 70
     0
  0
APPID
  2
CONTENTCURRENTTAB
 70
     0
  0
APPID
  2
CONTENTBLOCKDESCRIPTION
 70
     0
  0
APPID
  2
CONTENTBLOCKICON
 70
     0
  0
APPID
  2
CONTENTLONGBLOCKNAME
 70
     0
  0
APPID
  2
ACAD_PSEXT
 70
     0
  0
ENDTAB
  0
TABLE
  2
DIMSTYLE
 70
     9
  0
DIMSTYLE
  2
NEWX10
 70
     0
  3
 
  4

  5

  6
OPEN30
  7
OPEN30
 40
1.0
 41
2.0
 42
0.0
 43
7.0
 44
1.0
 45
0.0
 46
0.0
 47
0.0
 48
0.0
140
3.5
141
0.0
142
0.0
143
25.399999999999999
144
1.0
145
0.0
146
0.7
147
0.7
 71
     0
 72
     0
 73
     0
 74
     0
 75
     0
 76
     0
 77
     1
 78
     8
170
     0
171
     2
172
     1
173
     1
174
     0
175
     0
176
   256
177
   256
178
   201
  0
ENDTAB
  0
ENDSEC
  0
SECTION
  2
BLOCKS
  0
BLOCK
  8
0
  2
$MODEL_SPACE
 70
     0
 10
0.0
 20
0.0
 30
0.0
  3
$MODEL_SPACE
  1

  0
ENDBLK
  5
1A
  8
0
  0
BLOCK
 67
     1
  8
0
  2
$PAPER_SPACE
 70
     0
 10
0.0
 20
0.0
 30
0.0
  3
$PAPER_SPACE
  1

  0
ENDBLK
  5
17
 67
     1
  8
0
  0
BLOCK
  8
0
  2
_OPEN30
 70
     0
 10
0.0
 20
0.0
 30
0.0
  3
_OPEN30
  1

  0
LINE
  5
44
  8
0
  6
BYBLOCK
 62
     0
 10
-1.0
 20
0.26794919
 30
0.0
 11
0.0
 21
0.0
 31
0.0
  0
LINE
  5
45
  8
0
  6
BYBLOCK
 62
     0
 10
0.0
 20
0.0
 30
0.0
 11
-1.0
 21
-0.26794919
 31
0.0
  0
LINE
  5
46
  8
0
  6
BYBLOCK
 62
     0
 10
0.0
 20
0.0
 30
0.0
 11
-1.0
 21
0.0
 31
0.0
  0
ENDBLK
  5
47
  8
0
  0
BLOCK
  8
0
  2
A3WAKU
 70
    36
 10
0.0
 20
0.0
 30
0.0
  3
A3WAKU
  1
D:\ACLT\FORMAT\A3WAKU.dwg
  0
ENDBLK
  5
5A
  8
0
  0
BLOCK
  8
0
  2
XREF1
 70
    36
 10
0.0
 20
0.0
 30
0.0
  3
XREF1
  1
D:\ACLT\FORMAT\KAWAJUN(9)図面用.dwg
  0
ENDBLK
  5
5D
  8
0
  0
BLOCK
  8
0
  2
A3WAKUDAKE
 70
    36
 10
0.0
 20
0.0
 30
0.0
  3
A3WAKUDAKE
  1
D:\ACLT\FORMAT\A3WAKUdake.dwg
  0
ENDBLK
  5
2036
  8
0
  0
BLOCK
  8
0
  2
*X38
 70
     1
 10
0.0
 20
0.0
 30
0.0
  3
*X38
  1

  0
LINE
  5
21C8
  8
0
 62
     0
 10
522.87292051432905
 20
33.10822202930126
 30
0.0
 11
523.75769276766096
 21
33.992994282633177
 31
0.0
  0
LINE
  5
21C9
  8
0
 62
     0
 10
521.75038849919542
 20
33.108222029301281
 30
0.0
 11
523.75769276766096
 21
35.11552629776682
 31
0.0
  0
LINE
  5
21CA
  8
0
 62
     0
 10
520.62785648406179
 20
33.108222029301288
 30
0.0
 11
523.75769276766096
 21
36.238058312900471
 31
0.0
  0
LINE
  5
21CB
  8
0
 62
     0
 10
519.50532446892805
 20
33.108222029301288
 30
0.0
 11
523.75769276766096
 21
37.360590328034121
 31
0.0
  0
LINE
  5
21CC
  8
0
 62
     0
 10
519.25769276766096
 20
33.983122343167743
 30
0.0
 11
523.75769276766096
 21
38.483122343167757
 31
0.0
  0
LINE
  5
21CD
  8
0
 62
     0
 10
518.88269276765948
 20
34.730654358300008
 30
0.0
 11
523.75769276766096
 21
39.605654358301408
 31
0.0
  0
LINE
  5
21CE
  8
0
 62
     0
 10
518.13772842353274
 20
35.108222029306852
 30
0.0
 11
523.75769276766096
 21
40.728186373435037
 31
0.0
  0
LINE
  5
21CF
  8
0
 62
     0
 10
517.01519640839444
 20
35.108222029302297
 30
0.0
 11
523.74838390712534
 21
41.841409528033182
 31
0.0
  0
LINE
  5
21D0
  8
0
 62
     0
 10
516.27237737261851
 20
35.487935008659882
 30
0.0
 11
522.93199698702824
 21
42.14755462306961
 31
0.0
  0
LINE
  5
21D1
  8
0
 62
     0
 10
516.25769276766096
 20
36.59578241883596
 30
0.0
 11
522.11561006693103
 21
42.453699718106037
 31
0.0
  0
LINE
  5
21D2
  8
0
 62
     0
 10
519.85895120671591
 20
41.319572873024583
 30
0.0
 11
521.29922314683381
 21
42.759844813142472
 31
0.0
  0
LINE
  5
21D3
  8
0
 62
     0
 10
516.25769276766096
 20
37.71831443396961
 30
0.0
 11
519.82344068173325
 21
41.284062348041878
 31
0.0
  0
LINE
  5
21D4
  8
0
 62
     0
 10
523.74509220222103
 20
46.328245883663321
 30
0.0
 11
523.75769276766096
 21
46.34084644910326
 31
0.0
  0
LINE
  5
21D5
  8
0
 62
     0
 10
516.25769276766096
 20
38.84084644910326
 30
0.0
 11
519.00705376163603
 21
41.590207443078327
 31
0.0
  0
LINE
  5
21D6
  8
0
 62
     0
 10
522.92870528212381
 20
46.634390978699749
 30
0.0
 11
523.75769276766096
 21
47.463378464236911
 31
0.0
  0
LINE
  5
21D7
  8
0
 62
     0
 10
516.25769276766096
 20
39.963378464236897
 30
0.0
 11
518.19066684153893
 21
41.89635253811484
 31
0.0
  0
LINE
  5
21D8
  8
0
 62
     0
 10
522.1123183620266
 20
46.94053607373619
 30
0.0
 11
523.75769276766096
 21
48.585910479370547
 31
0.0
  0
LINE
  5
21D9
  8
0
 62
     0
 10
516.25769276766096
 20
41.085910479370533
 30
0.0
 11
517.37427992144171
 21
42.202497633151303
 31
0.0
  0
LINE
  5
21DA
  8
0
 62
     0
 10
522.55302804303687
 20
48.503777769880223
 30
0.0
 11
523.75769276766096
 21
49.70844249450419
 31
0.0
  0
LINE
  5
21DB
  8
0
 62
     0
 10
516.25769276766096
 20
42.20844249450419
 30
0.0
 11
516.55789300134438
 21
42.508642728187752
 31
0.0
  0
LINE
  5
21DC
  8
0
 62
     0
 10
521.95532698693262
 20
49.028608728909518
 30
0.0
 11
523.75769276766096
 21
50.830974509637841
 31
0.0
  0
LINE
  5
21DD
  8
0
 62
     0
 10
521.1389400668354
 20
49.334753823945952
 30
0.0
 11
523.75769276766096
 21
51.953506524771491
 31
0.0
  0
LINE
  5
21DE
  8
0
 62
     0
 10
520.32255314673819
 20
49.640898918982458
 30
0.0
 11
522.78987625705713
 21
52.108222029301281
 31
0.0
  0
LINE
  5
21DF
  8
0
 62
     0
 10
519.50616622664097
 20
49.947044014018893
 30
0.0
 11
521.66734424192339
 21
52.108222029301288
 31
0.0
  0
LINE
  5
21E0
  8
0
 62
     0
 10
518.88269276766096
 20
50.446102570172421
 30
0.0
 11
520.54481222678976
 21
52.108222029301302
 31
0.0
  0
LINE
  5
21E1
  8
0
 62
     0
 10
519.25769276766096
 20
51.94363458530605
 30
0.0
 11
519.42228021165624
 21
52.108222029301309
 31
0.0
  0
ENDBLK
  5
21E3
  8
0
  0
BLOCK
  8
0
  2
*X39
 70
     1
 10
0.0
 20
0.0
 30
0.0
  3
*X39
  1

  0
LINE
  5
21E5
  8
0
 62
     0
 10
564.25769276766096
 20
51.373476645284427
 30
0.0
 11
563.52294738364412
 21
52.10822202930126
 31
0.0
  0
LINE
  5
21E6
  8
0
 62
     0
 10
564.25769276766073
 20
50.25094463015057
 30
0.0
 11
562.40041536851027
 21
52.108222029301032
 31
0.0
  0
LINE
  5
21E7
  8
0
 62
     0
 10
564.25769276766073
 20
49.128412615017169
 30
0.0
 11
561.27788335337675
 21
52.108222029301032
 31
0.0
  0
LINE
  5
21E8
  8
0
 62
     0
 10
564.25769276766118
 20
48.00588059988354
 30
0.0
 11
560.15535133824324
 21
52.108222029301487
 31
0.0
  0
LINE
  5
21E9
  8
0
 62
     0
 10
564.25769276766118
 20
46.883348584749683
 30
0.0
 11
559.7576927676613
 21
51.383348584749449
 31
0.0
  0
LINE
  5
21EA
  8
0
 62
     0
 10
564.2576927676613
 20
45.760816569615827
 30
0.0
 11
559.38269276765777
 21
50.635816569619692
 31
0.0
  0
LINE
  5
21EB
  8
0
 62
     0
 10
564.25769276766096
 20
44.638284554482432
 30
0.0
 11
559.38269276764845
 21
49.51328455449493
 31
0.0
  0
LINE
  5
21EC
  8
0
 62
     0
 10
564.25769276766096
 20
43.515752539348789
 30
0.0
 11
559.38269276764015
 21
48.390752539369721
 31
0.0
  0
LINE
  5
21ED
  8
0
 62
     0
 10
564.25769276766039
 20
42.39322052421516
 30
0.0
 11
559.38269276763094
 21
47.268220524244732
 31
0.0
  0
LINE
  5
21EE
  8
0
 62
     0
 10
564.25769276766073
 20
41.270688509081538
 30
0.0
 11
558.42015924744135
 21
47.108222029300812
 31
0.0
  0
LINE
  5
21EF
  8
0
 62
     0
 10
564.25769276766073
 20
40.148156493948129
 30
0.0
 11
557.29762723230749
 21
47.10822202930126
 31
0.0
  0
LINE
  5
21F0
  8
0
 62
     0
 10
564.25769276766118
 20
39.025624478814279
 30
0.0
 11
556.75769276766107
 21
46.525624478814052
 31
0.0
  0
LINE
  5
21F1
  8
0
 62
     0
 10
564.2576927676613
 20
37.903092463680203
 30
0.0
 11
556.75769276766141
 21
45.403092463680188
 31
0.0
  0
LINE
  5
21F2
  8
0
 62
     0
 10
564.25769276766096
 20
36.780560448546801
 30
0.0
 11
556.75769276766096
 21
44.280560448546787
 31
0.0
  0
LINE
  5
21F3
  8
0
 62
     0
 10
564.25769276766096
 20
35.658028433413399
 30
0.0
 11
556.75769276766096
 21
43.158028433413392
 31
0.0
  0
LINE
  5
21F4
  8
0
 62
     0
 10
564.25769276766096
 20
34.535496418279763
 30
0.0
 11
556.75769276766096
 21
42.035496418279763
 31
0.0
  0
LINE
  5
21F5
  8
0
 62
     0
 10
564.25769276766073
 20
33.412964403145907
 30
0.0
 11
556.75769276766073
 21
40.912964403145899
 31
0.0
  0
LINE
  5
21F6
  8
0
 62
     0
 10
558.43990312637186
 20
38.10822202930126
 30
0.0
 11
556.75769276766073
 21
39.790432388012512
 31
0.0
  0
LINE
  5
21F7
  8
0
 62
     0
 10
563.4399031263722
 20
33.108222029301032
 30
0.0
 11
559.38269276765345
 21
37.165432388019781
 31
0.0
  0
LINE
  5
21F8
  8
0
 62
     0
 10
557.31737111123846
 20
38.10822202930126
 30
0.0
 11
556.75769276766107
 21
38.667900372878648
 31
0.0
  0
LINE
  5
21F9
  8
0
 62
     0
 10
562.3173711112388
 20
33.108222029301032
 30
0.0
 11
559.38269276765629
 21
36.042900372883423
 31
0.0
  0
LINE
  5
21FA
  8
0
 62
     0
 10
561.19483909610506
 20
33.108222029301032
 30
0.0
 11
559.38269276765936
 21
34.920368357746611
 31
0.0
  0
LINE
  5
21FB
  8
0
 62
     0
 10
560.07230708097131
 20
33.10822202930126
 30
0.0
 11
559.75769276766118
 21
33.42283634261139
 31
0.0
  0
ENDBLK
  5
21FD
  8
0
  0
BLOCK
  8
0
  2
*X40
 70
     1
 10
0.0
 20
0.0
 30
0.0
  3
*X40
  1

  0
LINE
  5
21FF
  8
0
 62
     0
 10
609.17318303687455
 20
51.956633482660891
 30
0.0
 11
609.02159514590494
 21
52.108221373630379
 31
0.0
  0
LINE
  5
2200
  8
0
 62
     0
 10
609.17318303687409
 20
50.834101467527262
 30
0.0
 11
607.89906313077108
 21
52.108221373630158
 31
0.0
  0
LINE
  5
2201
  8
0
 62
     0
 10
609.17318303687443
 20
49.711569452393398
 30
0.0
 11
606.77653111563757
 21
52.108221373630158
 31
0.0
  0
LINE
  5
2202
  8
0
 62
     0
 10
609.17318303687443
 20
48.589037437259996
 30
0.0
 11
605.65399910050428
 21
52.108221373630158
 31
0.0
  0
LINE
  5
2203
  8
0
 62
     0
 10
608.53146708537042
 20
48.108221373630613
 30
0.0
 11
604.67318303687455
 21
51.966505422126147
 31
0.0
  0
LINE
  5
2204
  8
0
 62
     0
 10
607.40893507023702
 20
48.108221373630393
 30
0.0
 11
604.67318303687489
 21
50.843973406992291
 31
0.0
  0
LINE
  5
2205
  8
0
 62
     0
 10
606.28640305510316
 20
48.108221373630393
 30
0.0
 11
604.67318303687443
 21
49.721441391858889
 31
0.0
  0
LINE
  5
2206
  8
0
 62
     0
 10
605.16387103996931
 20
48.108221373630613
 30
0.0
 11
603.66387103996954
 21
49.608221373630613
 31
0.0
  0
LINE
  5
2207
  8
0
 62
     0
 10
604.05540793391549
 20
48.094152464550689
 30
0.0
 11
602.0554079339156
 21
50.094152464550689
 31
0.0
  0
LINE
  5
2208
  8
0
 62
     0
 10
603.67318303687421
 20
47.353845346458002
 30
0.0
 11
601.67318303687409
 21
49.353845346458229
 31
0.0
  0
LINE
  5
2209
  8
0
 62
     0
 10
603.67318303687443
 20
46.231313331324372
 30
0.0
 11
601.67318303687409
 21
48.231313331324827
 31
0.0
  0
LINE
  5
220A
  8
0
 62
     0
 10
603.67318303687443
 20
45.108781316190743
 30
0.0
 11
601.67318303687409
 21
47.108781316191198
 31
0.0
  0
LINE
  5
220B
  8
0
 62
     0
 10
603.67318303687443
 20
43.986249301057107
 30
0.0
 11
601.67318303687466
 21
45.98624930105688
 31
0.0
  0
LINE
  5
220C
  8
0
 62
     0
 10
603.67318303687443
 20
42.863717285923713
 30
0.0
 11
601.67318303687466
 21
44.863717285923478
 31
0.0
  0
LINE
  5
220D
  8
0
 62
     0
 10
603.67318303687421
 20
41.741185270790083
 30
0.0
 11
601.67318303687409
 21
43.741185270790083
 31
0.0
  0
LINE
  5
220E
  8
0
 62
     0
 10
609.17318303687409
 20
36.241185270790091
 30
0.0
 11
608.30614693403379
 21
37.108221373630393
 31
0.0
  0
LINE
  5
220F
  8
0
 62
     0
 10
603.67318303687421
 20
40.618653255656447
 30
0.0
 11
601.67318303687409
 21
42.618653255656447
 31
0.0
  0
LINE
  5
2210
  8
0
 62
     0
 10
609.17318303687409
 20
35.118653255656461
 30
0.0
 11
607.1836149189005
 21
37.108221373630158
 31
0.0
  0
LINE
  5
2211
  8
0
 62
     0
 10
603.67318303687421
 20
39.49612124052237
 30
0.0
 11
601.67318303687409
 21
41.496121240522598
 31
0.0
  0
LINE
  5
2212
  8
0
 62
     0
 10
609.17318303687409
 20
33.996121240522598
 30
0.0
 11
606.06108290376631
 21
37.108221373630158
 31
0.0
  0
LINE
  5
2213
  8
0
 62
     0
 10
603.67318303687421
 20
38.373589225388969
 30
0.0
 11
601.67318303687409
 21
40.373589225389203
 31
0.0
  0
LINE
  5
2214
  8
0
 62
     0
 10
608.93855088863302
 20
33.108221373630158
 30
0.0
 11
604.93855088863302
 21
37.108221373630158
 31
0.0
  0
LINE
  5
2215
  8
0
 62
     0
 10
607.81601887349962
 20
33.108221373630158
 30
0.0
 11
601.67318303687443
 21
39.25105721025534
 31
0.0
  0
LINE
  5
2216
  8
0
 62
     0
 10
604.19348685836621
 20
35.608221373629931
 30
0.0
 11
601.67318303687443
 21
38.128525195121711
 31
0.0
  0
LINE
  5
2217
  8
0
 62
     0
 10
606.69348685836587
 20
33.108221373630158
 30
0.0
 11
604.67318303687455
 21
35.128525195121483
 31
0.0
  0
LINE
  5
2218
  8
0
 62
     0
 10
603.12206894005362
 20
35.557107276808892
 30
0.0
 11
601.67318303687443
 21
37.005993179988081
 31
0.0
  0
LINE
  5
2219
  8
0
 62
     0
 10
605.57095484323247
 20
33.108221373629931
 30
0.0
 11
604.67318303687489
 21
34.005993179987627
 31
0.0
  0
LINE
  5
221A
  8
0
 62
     0
 10
602.44842282809816
 20
35.108221373630393
 30
0.0
 11
601.67318303687409
 21
35.883461164854452
 31
0.0
  0
ENDBLK
  5
221C
  8
0
  0
BLOCK
  8
0
  2
*X41
 70
     1
 10
0.0
 20
0.0
 30
0.0
  3
*X41
  1

  0
LINE
  5
221E
  8
0
 62
     0
 10
494.12760619954418
 20
70.690974234466012
 30
0.0
 11
494.71346979042897
 21
71.276837825350782
 31
0.0
  0
LINE
  5
221F
  8
0
 62
     0
 10
493.0050741844106
 20
70.690974234466012
 30
0.0
 11
494.7346143190934
 21
72.420514369148734
 31
0.0
  0
LINE
  5
2220
  8
0
 62
     0
 10
491.88254216927697
 20
70.690974234466026
 30
0.0
 11
494.75281604399368
 21
73.561248109182756
 31
0.0
  0
LINE
  5
2221
  8
0
 62
     0
 10
490.7600101541434
 20
70.690974234466026
 30
0.0
 11
494.76809791743489
 21
74.699061997757553
 31
0.0
  0
LINE
  5
2222
  8
0
 62
     0
 10
489.63747813900972
 20
70.690974234466012
 30
0.0
 11
494.78048253978778
 21
75.833978635244137
 31
0.0
  0
LINE
  5
2223
  8
0
 62
     0
 10
488.51494612387609
 20
70.690974234466012
 30
0.0
 11
494.78999216695189
 21
76.966020277541929
 31
0.0
  0
LINE
  5
2224
  8
0
 62
     0
 10
487.39729484140258
 20
70.695854967126181
 30
0.0
 11
494.7966487176148
 21
78.095208843338426
 31
0.0
  0
LINE
  5
2225
  8
0
 62
     0
 10
486.75157907117682
 20
71.17267121203399
 30
0.0
 11
494.80047378031378
 21
79.221565921171006
 31
0.0
  0
LINE
  5
2226
  8
0
 62
     0
 10
486.67199062941631
 20
72.215614785407155
 30
0.0
 11
494.80148862030831
 21
80.345112776299203
 31
0.0
  0
LINE
  5
2227
  8
0
 62
     0
 10
486.65382309968783
 20
73.319979270812325
 30
0.0
 11
494.79971418626701
 21
81.465870357391566
 31
0.0
  0
LINE
  5
2228
  8
0
 62
     0
 10
486.6383248719635
 20
74.427013058221704
 30
0.0
 11
494.79517111677751
 21
82.58385930303568
 31
0.0
  0
LINE
  5
2229
  8
0
 62
     0
 10
486.62551511784142
 20
75.536735319233244
 30
0.0
 11
494.7878797466829
 21
83.699099948074775
 31
0.0
  0
LINE
  5
222A
  8
0
 62
     0
 10
486.61541328876177
 20
76.649165505287286
 30
0.0
 11
494.7778601132523
 21
84.811612329777773
 31
0.0
  0
LINE
  5
222B
  8
0
 62
     0
 10
486.60803912170371
 20
77.764323353362812
 30
0.0
 11
494.76513196218917
 21
85.921416193848273
 31
0.0
  0
LINE
  5
222C
  8
0
 62
     0
 10
486.60341264503262
 20
78.882228891825363
 30
0.0
 11
494.7497147534836
 21
87.028531000276317
 31
0.0
  0
LINE
  5
222D
  8
0
 62
     0
 10
486.60155418450398
 20
80.002902446430369
 30
0.0
 11
494.73162766711329
 21
88.132975929039731
 31
0.0
  0
LINE
  5
222E
  8
0
 62
     0
 10
486.60248436942851
 20
81.126364646488582
 30
0.0
 11
494.70983554101662
 21
89.233715818076604
 31
0.0
  0
LINE
  5
222F
  8
0
 62
     0
 10
486.60622413900438
 20
82.252636431198084
 30
0.0
 11
494.04456194227242
 21
89.690974234466026
 31
0.0
  0
LINE
  5
2230
  8
0
 62
     0
 10
486.61279474882059
 20
83.381739056148007
 30
0.0
 11
492.92202992713862
 21
89.690974234465955
 31
0.0
  0
LINE
  5
2231
  8
0
 62
     0
 10
486.62221777753967
 20
84.51369410000072
 30
0.0
 11
491.79949791200499
 21
89.690974234465983
 31
0.0
  0
LINE
  5
2232
  8
0
 62
     0
 10
486.63451513376339
 20
85.648523471358061
 30
0.0
 11
490.67696589687131
 21
89.690974234465983
 31
0.0
  0
LINE
  5
2233
  8
0
 62
     0
 10
486.64970906308929
 20
86.786249415817565
 30
0.0
 11
489.55443388173768
 21
89.690974234465955
 31
0.0
  0
LINE
  5
2234
  8
0
 62
     0
 10
486.66782215536369
 20
87.926894523225599
 30
0.0
 11
488.43190186660399
 21
89.690974234465997
 31
0.0
  0
LINE
  5
2235
  8
0
 62
     0
 10
486.71148095278693
 20
89.093085335782405
 30
0.0
 11
487.28341836320902
 21
89.665022746204585
 31
0.0
  0
ENDBLK
  5
2237
  8
0
  0
BLOCK
  8
0
  2
*X42
 70
     1
 10
0.0
 20
0.0
 30
0.0
  3
*X42
  1

  0
LINE
  5
2239
  8
0
 62
     0
 10
622.77826986122341
 20
33.108222029301281
 30
0.0
 11
623.75769276766096
 21
34.087644935738822
 31
0.0
  0
LINE
  5
223A
  8
0
 62
     0
 10
621.65573784608978
 20
33.108222029301288
 30
0.0
 11
623.75769276766096
 21
35.21017695087248
 31
0.0
  0
LINE
  5
223B
  8
0
 62
     0
 10
620.53320583095615
 20
33.108222029301288
 30
0.0
 11
623.75769276766096
 21
36.332708966006109
 31
0.0
  0
LINE
  5
223C
  8
0
 62
     0
 10
619.41067381582229
 20
33.108222029301317
 30
0.0
 11
623.75769276766084
 21
37.455240981139767
 31
0.0
  0
LINE
  5
223D
  8
0
 62
     0
 10
622.3729075022386
 20
37.192987730851137
 30
0.0
 11
623.75769276766096
 21
38.577772996273417
 31
0.0
  0
LINE
  5
223E
  8
0
 62
     0
 10
619.25769276766096
 20
34.077772996273438
 30
0.0
 11
621.01521196956924
 21
35.835292198181783
 31
0.0
  0
LINE
  5
223F
  8
0
 62
     0
 10
622.06676240720219
 20
38.009374650948303
 30
0.0
 11
622.46588216857617
 21
38.408494412322433
 31
0.0
  0
LINE
  5
2240
  8
0
 62
     0
 10
618.88269276766096
 20
34.825305011407067
 30
0.0
 11
619.21916074535545
 21
35.161772989101578
 31
0.0
  0
LINE
  5
2241
  8
0
 62
     0
 10
622.45864041778646
 20
42.891380722067282
 30
0.0
 11
623.75769276766096
 21
44.190433071941669
 31
0.0
  0
LINE
  5
2242
  8
0
 62
     0
 10
620.66258919357267
 20
42.21786151298717
 30
0.0
 11
623.75769276766096
 21
45.312965087075312
 31
0.0
  0
LINE
  5
2243
  8
0
 62
     0
 10
620.2298918369836
 20
42.907696171531541
 30
0.0
 11
623.75769276766096
 21
46.435497102208942
 31
0.0
  0
LINE
  5
2244
  8
0
 62
     0
 10
619.92374674194707
 20
43.724083091628657
 30
0.0
 11
623.75769276766096
 21
47.558029117342578
 31
0.0
  0
LINE
  5
2245
  8
0
 62
     0
 10
618.52115694415261
 20
43.444025308967831
 30
0.0
 11
623.75769276766096
 21
48.680561132476221
 31
0.0
  0
LINE
  5
2246
  8
0
 62
     0
 10
616.72510571993848
 20
42.770506099887498
 30
0.0
 11
623.75769276766096
 21
49.803093147609871
 31
0.0
  0
LINE
  5
2247
  8
0
 62
     0
 10
616.25769276766096
 20
43.425625162743529
 30
0.0
 11
623.75769276766096
 21
50.925625162743501
 31
0.0
  0
LINE
  5
2248
  8
0
 62
     0
 10
616.25769276766096
 20
44.548157177877187
 30
0.0
 11
623.75769276766096
 21
52.048157177877137
 31
0.0
  0
LINE
  5
2249
  8
0
 62
     0
 10
616.25769276766096
 20
45.670689193010809
 30
0.0
 11
622.69522560395137
 21
52.108222029301231
 31
0.0
  0
LINE
  5
224A
  8
0
 62
     0
 10
616.25769276766096
 20
46.793221208144459
 30
0.0
 11
621.57269358881774
 21
52.108222029301238
 31
0.0
  0
LINE
  5
224B
  8
0
 62
     0
 10
618.88269276765948
 20
50.540753223276823
 30
0.0
 11
620.45016157368411
 21
52.10822202930126
 31
0.0
  0
LINE
  5
224C
  8
0
 62
     0
 10
616.25769276766096
 20
47.915753223278109
 30
0.0
 11
618.45016157367706
 21
50.108222029294431
 31
0.0
  0
LINE
  5
224D
  8
0
 62
     0
 10
619.25769276766084
 20
52.03828523841171
 30
0.0
 11
619.32762955855048
 21
52.10822202930126
 31
0.0
  0
LINE
  5
224E
  8
0
 62
     0
 10
616.25769276766096
 20
49.03828523841176
 30
0.0
 11
617.32762955854798
 21
50.108222029298972
 31
0.0
  0
ENDBLK
  5
2250
  8
0
  0
BLOCK
  8
0
  2
*U43
 70
     1
 10
0.0
 20
0.0
 30
0.0
  3
*U43
  1

  0
INSERT
  5
2252
  8
1DIM
  2
_OPEN30
 10
520.59112421891859
 20
67.685669727980894
 30
0.0
 41
2.0
 42
2.0
 43
2.0
 50
90.0
  0
POLYLINE
  5
2253
  8
1DIM
 66
     1
 10
0.0
 20
0.0
 30
0.0
  0
VERTEX
  5
2254
  8
1DIM
 10
520.59112421891859
 20
65.685669727980894
 30
0.0
  0
VERTEX
  5
2255
  8
1DIM
 10
520.59112421891859
 20
54.940862799715433
 30
0.0
  0
SEQEND
  5
2256
  8
1DIM
  0
ENDBLK
  5
2258
  8
0
  0
BLOCK
  8
0
  2
*U44
 70
     1
 10
0.0
 20
0.0
 30
0.0
  3
*U44
  1

  0
INSERT
  5
225A
  8
1DIM
  2
_OPEN30
 10
561.09112421891848
 20
67.685669727980894
 30
0.0
 41
2.0
 42
2.0
 43
2.0
 50
90.0
  0
POLYLINE
  5
225B
  8
1DIM
 66
     1
 10
0.0
 20
0.0
 30
0.0
  0
VERTEX
  5
225C
  8
1DIM
 10
561.09112421891848
 20
65.685669727980894
 30
0.0
  0
VERTEX
  5
225D
  8
1DIM
 10
561.09112421891848
 20
54.940862799715433
 30
0.0
  0
SEQEND
  5
225E
  8
1DIM
  0
ENDBLK
  5
2260
  8
0
  0
BLOCK
  8
0
  2
*U45
 70
     1
 10
0.0
 20
0.0
 30
0.0
  3
*U45
  1

  0
INSERT
  5
2262
  8
1DIM
  2
_OPEN30
 10
606.00661448813207
 20
67.68566907231002
 30
0.0
 41
2.0
 42
2.0
 43
2.0
 50
90.0
  0
POLYLINE
  5
2263
  8
1DIM
 66
     1
 10
0.0
 20
0.0
 30
0.0
  0
VERTEX
  5
2264
  8
1DIM
 10
606.00661448813207
 20
65.68566907231002
 30
0.0
  0
VERTEX
  5
2265
  8
1DIM
 10
606.00661448813207
 20
54.940862144044559
 30
0.0
  0
SEQEND
  5
2266
  8
1DIM
  0
ENDBLK
  5
2268
  8
0
  0
BLOCK
  8
0
  2
*U46
 70
     1
 10
0.0
 20
0.0
 30
0.0
  3
*U46
  1

  0
INSERT
  5
226A
  8
1DIM
  2
_OPEN30
 10
620.59112421891859
 20
67.685669727980894
 30
0.0
 41
2.0
 42
2.0
 43
2.0
 50
90.0
  0
POLYLINE
  5
226B
  8
1DIM
 66
     1
 10
0.0
 20
0.0
 30
0.0
  0
VERTEX
  5
226C
  8
1DIM
 10
620.59112421891859
 20
65.685669727980894
 30
0.0
  0
VERTEX
  5
226D
  8
1DIM
 10
620.59112421891859
 20
54.940862799715433
 30
0.0
  0
SEQEND
  5
226E
  8
1DIM
  0
ENDBLK
  5
2270
  8
0
  0
BLOCK
  8
0
  2
*U47
 70
     1
 10
0.0
 20
0.0
 30
0.0
  3
*U47
  1

  0
LINE
  5
2272
  8
0
 10
-29.999999999837598
 20
0.0000465358979227
 30
0.0
 11
-24.700003489975941
 21
-1.4999534641020771
 31
0.0
  0
LINE
  5
2273
  8
0
 10
-24.700003489975941
 20
-1.4999534641020771
 30
0.0
 11
-0.0000034900840618
 21
-1.499953464101849
 31
0.0
  0
LINE
  5
2274
  8
0
 10
-29.999999999837598
 20
0.0000465358979227
 30
0.0
 11
-24.6999965095923
 21
1.5000465358980359
 31
0.0
  0
LINE
  5
2275
  8
0
 10
-0.0000081437821464
 20
-3.4999999999998859
 30
0.0
 11
-0.0000034900840618
 21
-1.499953464101849
 31
0.0
  0
LINE
  5
2276
  8
0
 10
-24.6999965095923
 20
1.5000465358980359
 30
0.0
 11
0.0000034903006139
 21
1.500046535897922
 31
0.0
  0
LINE
  5
2277
  8
0
 10
-0.0000081437821464
 20
-3.4999999999998859
 30
0.0
 11
1.0999953464131731
 21
-3.5
 31
0.0
  0
LINE
  5
2278
  8
0
 10
0.0000034903006139
 20
1.500046535897922
 30
0.0
 11
0.0000081437821322
 21
3.5
 31
0.0
  0
ARC
  5
2279
  8
0
 10
1.0999953464131731
 20
-2.0
 30
0.0
 40
1.5
 50
270.0
 51
359.99986668447059
  0
LINE
  5
227A
  8
0
 10
0.0000081437821322
 20
3.5
 30
0.0
 11
1.100004653592769
 21
3.5
 31
0.0
  0
LINE
  5
227B
  8
0
 10
2.5999953464091159
 20
-2.0000034901923982
 30
0.0
 11
2.6000046535887051
 21
1.9999965098076009
 31
0.0
  0
ARC
  5
227C
  8
0
 10
1.100004653592769
 20
2.0
 30
0.0
 40
1.5
 50
359.99986668447059
 51
90.0
  0
ENDBLK
  5
227E
  8
0
  0
BLOCK
  8
0
  2
*U48
 70
     1
 10
0.0
 20
0.0
 30
0.0
  3
*U48
  1

  0
TEXT
  5
2280
  8
1DIM
 62
   201
 10
188.47387707718929
 20
51.373410677191103
 30
0.0
 40
3.5
  1
35.1 
  0
ENDBLK
  5
2282
  8
0
  0
BLOCK
  8
0
  2
*U49
 70
     1
 10
0.0
 20
0.0
 30
0.0
  3
*U49
  1

  0
TEXT
  5
2284
  8
1DIM
 62
   201
 10
243.0655437438561
 20
51.373410677191103
 30
0.0
 40
3.5
  1
70 
  0
ENDBLK
  5
2286
  8
0
  0
BLOCK
  8
0
  2
*U50
 70
     1
 10
0.0
 20
0.0
 30
0.0
  3
*U50
  1

  0
TEXT
  5
2288
  8
1DIM
 62
   201
 10
170.49933970517151
 20
-68.106993295062409
 30
0.0
 40
3.5
  1
3 
 50
90.0
  0
ENDBLK
  5
228A
  8
0
  0
BLOCK
  8
0
  2
*U51
 70
     1
 10
0.0
 20
0.0
 30
0.0
  3
*U51
  1

  0
TEXT
  5
228C
  8
1DIM
 62
   201
 10
178.5238770771895
 20
-20.672909738413569
 30
0.0
 40
3.5
  1
8 
  0
ENDBLK
  5
228E
  8
0
  0
BLOCK
  8
0
  2
*U52
 70
     1
 10
0.0
 20
0.0
 30
0.0
  3
*U52
  1

  0
TEXT
  5
2290
  8
1DIM
 62
   201
 10
375.09054367978121
 20
29.951815421622271
 30
0.0
 40
3.5
  1
10 
 50
90.0
  0
ENDBLK
  5
2292
  8
0
  0
BLOCK
  8
0
  2
*U53
 70
     1
 10
0.0
 20
0.0
 30
0.0
  3
*U53
  1

  0
TEXT
  5
2294
  8
1DIM
 62
   201
 10
223.06554374385601
 20
-77.24319313376445
 30
0.0
 40
3.5
  1
30 
  0
ENDBLK
  5
2296
  8
0
  0
BLOCK
  8
0
  2
*U54
 70
     1
 10
0.0
 20
0.0
 30
0.0
  3
*U54
  1

  0
TEXT
  5
2298
  8
1DIM
 62
   201
 10
273.06554374385598
 20
-77.24319313376445
 30
0.0
 40
3.5
  1
70 
  0
ENDBLK
  5
229A
  8
0
  0
BLOCK
  8
0
  2
*U55
 70
     1
 10
0.0
 20
0.0
 30
0.0
  3
*U55
  1

  0
TEXT
  5
229C
  8
1DIM
 62
   201
 10
243.0655437438561
 20
-43.522852116866069
 30
0.0
 40
3.5
  1
70 
  0
ENDBLK
  5
229E
  8
0
  0
BLOCK
  8
0
  2
*U56
 70
     1
 10
0.0
 20
0.0
 30
0.0
  3
*U56
  1

  0
TEXT
  5
22A0
  8
1DIM
 62
   201
 10
246.8488770771894
 20
60.194442438484842
 30
0.0
 40
3.5
  1
150 
  0
ENDBLK
  5
22A2
  8
0
  0
BLOCK
  8
0
  2
*U57
 70
     1
 10
0.0
 20
0.0
 30
0.0
  3
*U57
  1

  0
TEXT
  5
22A4
  8
1DIM
 62
   201
 10
157.3435029607345
 20
10.57681539976646
 30
0.0
 40
3.5
  1
47 
 50
90.0
  0
ENDBLK
  5
22A6
  8
0
  0
BLOCK
  8
0
  2
*U58
 70
     1
 10
0.0
 20
0.0
 30
0.0
  3
*U58
  1

  0
TEXT
  5
22A8
  8
1DIM
 62
   201
 10
271.60721041052273
 20
-31.579955672843809
 30
0.0
 40
3.5
  1
200 
  0
ENDBLK
  5
22AA
  8
0
  0
BLOCK
  8
0
  2
*U59
 70
     1
 10
0.0
 20
0.0
 30
0.0
  3
*U59
  1

  0
TEXT
  5
22AC
  8
1DIM
 62
   201
 10
164.09334472332719
 20
-7.123184392604573
 30
0.0
 40
3.5
  1
8 
 50
90.0
  0
ENDBLK
  5
22AE
  8
0
  0
BLOCK
  8
0
  2
*U60
 70
     1
 10
0.0
 20
0.0
 30
0.0
  3
*U60
  1

  0
TEXT
  5
22B0
  8
1DIM
 62
   201
 10
-497.7298323366669
 20
-919.34328350453075
 30
0.0
 40
3.5
  1
145 （ペーパー付き最大値）
  0
ENDBLK
  5
22B2
  8
0
  0
BLOCK
  8
0
  2
*U61
 70
     1
 10
0.0
 20
0.0
 30
0.0
  3
*U61
  1

  0
TEXT
  5
22B4
  8
1DIM
 62
   201
 10
224.06295058513669
 20
94.290496799319158
 30
0.0
 40
3.5
  1
合板9mm以上
  0
ENDBLK
  5
22B6
  8
0
  0
BLOCK
  8
0
  2
*U62
 70
     1
 10
0.0
 20
0.0
 30
0.0
  3
*U62
  1

  0
INSERT
  5
22B8
  8
1DIM
  2
_OPEN30
 10
227.31845568422631
 20
79.158772895166862
 30
0.0
 41
2.0
 42
2.0
 43
2.0
 50
292.42435418253939
  0
POLYLINE
  5
22B9
  8
1DIM
 66
     1
 10
0.0
 20
0.0
 30
0.0
  0
VERTEX
  5
22BA
  8
1DIM
 10
226.5555290240834
 20
81.007540839296979
 30
0.0
  0
VERTEX
  5
22BB
  8
1DIM
 10
221.3629505851367
 20
93.590496799319126
 30
0.0
  0
VERTEX
  5
22BC
  8
1DIM
 10
253.26295058513671
 20
93.590496799319126
 30
0.0
  0
SEQEND
  5
22BD
  8
1DIM
  0
ENDBLK
  5
22BF
  8
0
  0
BLOCK
  8
0
  2
*U63
 70
     1
 10
0.0
 20
0.0
 30
0.0
  3
*U63
  1

  0
INSERT
  5
22C1
  8
1HATCH
  2
_OPEN30
 10
218.82047347028521
 20
79.111596299453709
 30
0.0
 41
2.0
 42
2.0
 43
2.0
 50
280.03702448809162
  0
POLYLINE
  5
22C2
  8
1HATCH
 66
     1
 10
0.0
 20
0.0
 30
0.0
  0
VERTEX
  5
22C3
  8
1HATCH
 10
218.47190442354491
 20
81.080986971629926
 30
0.0
  0
VERTEX
  5
22C4
  8
1HATCH
 10
215.19560609059809
 20
99.591842816443105
 30
0.0
  0
VERTEX
  5
22C5
  8
1HATCH
 10
223.72893942393151
 20
99.591842816443105
 30
0.0
  0
SEQEND
  5
22C6
  8
1HATCH
  0
ENDBLK
  5
22C8
  8
0
  0
BLOCK
  8
0
  2
*U64
 70
     1
 10
0.0
 20
0.0
 30
0.0
  3
*U64
  1

  0
TEXT
  5
22CA
  8
1HATCH
 62
   201
 10
217.89560609059811
 20
100.29184281644309
 30
0.0
 40
3.5
  1
PB
  0
ENDBLK
  5
22CC
  8
0
  0
BLOCK
  8
0
  2
*U65
 70
     1
 10
0.0
 20
0.0
 30
0.0
  3
*U65
  1

  0
TEXT
  5
22CE
  8
1DIM
 62
   201
 10
354.32963299884221
 20
-0.8151455817151877
 30
0.0
 40
3.5
  1
145 （ペーパー付き最大値）
  0
ENDBLK
  5
22D0
  8
0
  0
BLOCK
  8
0
  2
*U66
 70
     1
 10
0.0
 20
0.0
 30
0.0
  3
*U66
  1

  0
TEXT
  5
22D2
  8
1DIM
 62
   201
 10
385.88773853801132
 20
-7.1231843926045499
 30
0.0
 40
3.5
  1
8 
 50
90.0
  0
ENDBLK
  5
22D4
  8
0
  0
BLOCK
  8
0
  2
*U67
 70
     1
 10
0.0
 20
0.0
 30
0.0
  3
*U67
  1

  0
TEXT
  5
22D6
  8
1DIM
 62
   201
 10
392.63758030060399
 20
10.57681539976649
 30
0.0
 40
3.5
  1
47 
 50
90.0
  0
ENDBLK
  5
22D8
  8
0
  0
BLOCK
  8
0
  2
*U68
 70
     1
 10
0.0
 20
0.0
 30
0.0
  3
*U68
  1

  0
TEXT
  5
22DA
  8
1DIM
 62
   201
 10
385.88773853801132
 20
19.418482099216519
 30
0.0
 40
3.5
  1
30 
 50
90.0
  0
ENDBLK
  5
22DC
  8
0
  0
BLOCK
  8
0
  2
*U69
 70
     1
 10
0.0
 20
0.0
 30
0.0
  3
*U69
  1

  0
TEXT
  5
22DE
  8
1DIM
 62
   201
 10
475.79324770727033
 20
-60.740300543476927
 30
0.0
 40
3.5
  1
3 
 50
90.0
  0
ENDBLK
  5
22E0
  8
0
  0
BLOCK
  8
0
  2
*U70
 70
     1
 10
0.0
 20
0.0
 30
0.0
  3
*U70
  1

  0
TEXT
  5
22E2
  8
1DIM
 62
   201
 10
453.28671812154511
 20
-82.429185701877444
 30
0.0
 40
3.5
  1
25 
  0
ENDBLK
  5
22E4
  8
0
  0
BLOCK
  8
0
  2
*U71
 70
     1
 10
0.0
 20
0.0
 30
0.0
  3
*U71
  1

  0
TEXT
  5
22E6
  8
1DIM
 62
   201
 10
481.60836086643309
 20
-61.906992084460512
 30
0.0
 40
3.5
  1
16 
 50
90.0
  0
ENDBLK
  5
22E8
  8
0
  0
BLOCK
  8
0
  2
*U72
 70
     1
 10
0.0
 20
0.0
 30
0.0
  3
*U72
  1

  0
TEXT
  5
22EA
  8
1DIM
 62
   201
 10
385.88773853801132
 20
-61.906993295061007
 30
0.0
 40
3.5
  1
19 
 50
90.0
  0
ENDBLK
  5
22EC
  8
0
  0
ENDSEC
  0
SECTION
  2
ENTITIES
  0
LINE
  5
18FA
  8
01
 10
115.23121491422989
 20
-58.80332130141214
 30
0.0
 11
115.2312153063735
 21
-63.288923267703737
 31
0.0
  0
LINE
  5
18FB
  8
01
 10
115.2312141510556
 20
-50.073624625382351
 30
0.0
 11
161.44719964609391
 21
-50.073620585051501
 31
0.0
  0
ARC
  5
18FC
  8
01
 10
-288.96891977217319
 20
-59.573659961677798
 30
0.0
 40
451.30013472861611
 50
358.89344758031029
 51
1.106562437595908
  0
LINE
  5
18FD
  8
01
 10
115.2312158120881
 20
-69.073624625380759
 30
0.0
 11
161.44720130712651
 21
-69.073620585051501
 31
0.0
  0
ARC
  5
18FE
  8
01
 10
161.44720123718821
 20
-68.273620573130586
 30
0.0
 40
0.8000000119209284
 50
270.00000500917838
 51
358.89344724993509
  0
ARC
  5
18FF
  8
01
 10
161.4471997160326
 20
-50.873620596972437
 30
0.0
 40
0.8000000119209282
 50
1.106562767984105
 51
90.000005008768042
  0
LINE
  5
1900
  8
01
 10
115.2312141510556
 20
-50.073624625382351
 30
0.0
 11
115.2312158120881
 21
-69.073624625380759
 31
0.0
  0
LINE
  5
1901
  8
01
 10
115.2312153063735
 20
-63.288923267703737
 30
0.0
 11
115.23121581208829
 21
-69.073624625381214
 31
0.0
  0
ARC
  5
196D
  8
01
 10
412.38174791609492
 20
-51.573663242949067
 30
0.0
 40
1.500003281275992
 50
0.000125335094232
 51
89.999874643006436
  0
LINE
  5
196E
  8
01
 10
413.88175119736741
 20
-51.573659961676789
 30
0.0
 11
413.88175119736741
 21
-67.573659961676782
 31
0.0
  0
ARC
  5
196F
  8
01
 10
-412.38174791609492
 20
-67.573656680404099
 30
0.0
 40
1.5000032812759829
210
0.0
220
0.0
230
-1.0
 50
180.00012533509431
 51
269.99987464300642
  0
ARC
  5
1972
  8
01
 10
-397.66576601831719
 20
-50.873659973597739
 30
0.0
 40
0.8000000119209284
210
0.0
220
0.0
230
-1.0
 50
1.106557759024537
 51
89.999999999778495
  0
ARC
  5
1973
  8
01
 10
-848.08175151346074
 20
-59.573659961677798
 30
0.0
 40
451.30000000010511
210
0.0
220
0.0
230
-1.0
 50
358.89344224097539
 51
1.106557759024537
  0
ARC
  5
1974
  8
01
 10
-397.66576601831378
 20
-68.273659949755881
 30
0.0
 40
0.8000000119209282
210
0.0
220
0.0
230
-1.0
 50
270.00000000021498
 51
358.89344224097539
  0
LINE
  5
19B0
  8
01
 10
368.09251576101627
 20
7.0434822157770887
 30
0.0
 11
368.09103674517519
 21
7.0434822449195726
 31
0.0
  0
LINE
  5
19B1
  8
01
 10
368.16153424923732
 20
7.0434819243708944
 30
0.0
 11
368.09251576101627
 21
7.0434822157770887
 31
0.0
  0
LINE
  5
19B5
  8
01
 10
374.98857041613468
 20
7.0434822157770887
 30
0.0
 11
374.99005036868721
 21
7.0434822449195726
 31
0.0
  0
LINE
  5
19B6
  8
01
 10
374.91950594462202
 20
7.0434819243708944
 30
0.0
 11
374.98857041613468
 21
7.0434822157770887
 31
0.0
  0
LINE
  5
19B7
  8
01
 10
176.4745582488176
 20
37.043481858804057
 30
0.0
 11
324.6905437438561
 21
37.043481858804057
 31
0.0
  0
LINE
  5
19B8
  8
01
 10
368.16153424923732
 20
7.0434819243708944
 30
0.0
 11
374.91950594462202
 21
7.0434819243708944
 31
0.0
  0
LINE
  5
19B9
  8
01
 10
175.6747074302273
 20
37.043481893097692
 30
0.0
 11
175.5911282680263
 21
37.043482242312059
 31
0.0
  0
LINE
  5
19BA
  8
01
 10
176.4745582488176
 20
37.043481893772991
 30
0.0
 11
175.6747074302273
 21
37.043481893772991
 31
0.0
  0
ARC
  5
19D7
  8
01
 10
374.99054065561501
 20
6.2434792498935394
 30
0.0
 40
0.8000030241719057
 50
0.0002157354139202
 51
89.999787711715413
  0
LINE
  5
19D8
  8
01
 10
375.79054374385578
 20
-1.9565177259377149
 30
0.0
 11
375.79054374385578
 21
6.2434822621411277
 31
0.0
  0
ARC
  5
19D9
  8
01
 10
-367.69053951748219
 20
-1.9565134995638109
 30
0.0
 40
8.1000042263749847
210
0.0
220
0.0
230
-1.0
 50
180.0000298954634
 51
270.0
  0
LINE
  5
19DA
  8
01
 10
183.6905437438563
 20
-10.05651772593785
 30
0.0
 11
367.69053951748219
 21
-10.056517725938081
 31
0.0
  0
ARC
  5
19DB
  8
01
 10
-183.6905479702302
 20
-1.9565134995638109
 30
0.0
 40
8.1000042263751428
210
0.0
220
0.0
230
-1.0
 50
270.00002989546988
 51
359.9999701043086
  0
LINE
  5
19DC
  8
01
 10
175.59054374385619
 20
-1.956517725937942
 30
0.0
 11
175.5905437438559
 21
37.043482274062058
 31
0.0
  0
ARC
  5
19DD
  8
01
 10
-368.09055023943438
 20
6.5434757986662362
 30
0.0
 40
0.5000064754364287
210
0.0
220
0.0
230
-1.0
 50
0.0007420159774304
 51
89.999259707587242
  0
LINE
  5
19DE
  8
01
 10
367.59054374385602
 20
6.5434822740620566
 30
0.0
 11
367.59054374385602
 21
2.0434822740620571
 31
0.0
  0
ARC
  5
19DF
  8
01
 10
363.69052639546908
 20
2.0434996224488482
 30
0.0
 40
3.9000173484253668
 50
270.0
 51
359.99974513184571
  0
LINE
  5
19E0
  8
01
 10
363.69052639546908
 20
-1.8565177259378061
 30
0.0
 11
187.6905437438561
 21
-1.8565177259378061
 31
0.0
  0
ARC
  5
19E1
  8
01
 10
-187.69056109224331
 20
2.0434996224493029
 30
0.0
 40
3.900017348425723
210
0.0
220
0.0
230
-1.0
 50
270.0002548679393
 51
359.99974513183918
  0
LINE
  5
19E2
  8
01
 10
183.7905437438562
 20
2.0434822740620571
 30
0.0
 11
183.7905437438562
 21
23.043482274062061
 31
0.0
  0
ARC
  5
19E3
  8
01
 10
187.69056109224331
 20
23.043464925674812
 30
0.0
 40
3.9000173484257852
 50
90.000254867939319
 51
179.99974513183921
  0
LINE
  5
19E4
  8
01
 10
187.6905437438561
 20
26.943482274062148
 30
0.0
 11
195.6905437438561
 21
26.943482274062148
 31
0.0
  0
LINE
  5
19E5
  8
01
 10
176.4745582488176
 20
-50.073659961727792
 30
0.0
 11
183.6905437438563
 21
-50.073659961727792
 31
0.0
  0
LINE
  5
19E6
  8
01
 10
367.69054374385632
 20
-50.073659961727792
 30
0.0
 11
183.6905437438563
 21
-50.073659961727792
 31
0.0
  0
LINE
  5
19E7
  8
01
 10
367.69054374385632
 20
-50.073659961727792
 30
0.0
 11
374.90652923889462
 21
-50.073659961727792
 31
0.0
  0
LINE
  5
19E8
  8
01
 10
374.90652923889462
 20
-69.073659961727685
 30
0.0
 11
367.69054374385632
 21
-69.073659961727685
 31
0.0
  0
LINE
  5
19E9
  8
01
 10
183.6905437438563
 20
-69.073659961727685
 30
0.0
 11
367.69054374385632
 21
-69.073659961727685
 31
0.0
  0
LINE
  5
19EA
  8
01
 10
183.6905437438563
 20
-69.073659961727685
 30
0.0
 11
176.4745582488176
 21
-69.073659961727685
 31
0.0
  0
ARC
  5
19EB
  8
01
 10
-176.4745582488176
 20
-50.873659973648728
 30
0.0
 40
0.8000000119209301
210
0.0
220
0.0
230
-1.0
 50
1.106557759031036
 51
89.999999999778538
  0
ARC
  5
19EC
  8
01
 10
-374.90652923889462
 20
-50.873659973648728
 30
0.0
 40
0.8000000119209159
210
0.0
220
0.0
230
-1.0
 50
90.000000000221448
 51
178.89344224096891
  0
ARC
  5
19ED
  8
01
 10
75.509456256084604
 20
-59.573659961729163
 30
0.0
 40
451.2999999999405
210
0.0
220
0.0
230
-1.0
 50
178.89344224096891
 51
181.10655775901799
  0
ARC
  5
19EE
  8
01
 10
-374.90652923889462
 20
-68.273659949806756
 30
0.0
 40
0.8000000119209159
210
0.0
220
0.0
230
-1.0
 50
181.10655775903101
 51
269.99999999977848
  0
ARC
  5
19EF
  8
01
 10
626.89054374393709
 20
-59.573659961729163
 30
0.0
 40
451.30000000008079
 50
178.89344224096891
 51
181.10655775901799
  0
ARC
  5
19F0
  8
01
 10
-176.4745582488176
 20
-68.273659949806756
 30
0.0
 40
0.8000000119209584
210
0.0
220
0.0
230
-1.0
 50
270.00000000022152
 51
358.89344224096891
  0
LINE
  5
19F1
  8
01
 10
191.6905437438561
 20
37.043482601897608
 30
0.0
 11
178.6905437438561
 21
37.043482601897608
 31
0.0
  0
LINE
  5
19F2
  8
01
 10
178.6905437438561
 20
37.043482558186163
 30
0.0
 11
177.6905437438561
 21
37.043482558186163
 31
0.0
  0
LINE
  5
19F3
  8
01
 10
191.6905437438561
 20
37.043482558186163
 30
0.0
 11
192.6905437438561
 21
37.043482558186163
 31
0.0
  0
LINE
  5
1C52
  8
01
 10
325.6905437438561
 20
37.043481902515509
 30
0.0
 11
325.6905437438561
 21
32.543481902515509
 31
0.0
  0
LINE
  5
1C53
  8
01
 10
324.6905437438561
 20
37.043481902515509
 30
0.0
 11
325.6905437438561
 21
37.043481902515509
 31
0.0
  0
LINE
  5
1C54
  8
01
 10
324.6905437438561
 20
32.543481902515509
 30
0.0
 11
325.6905437438561
 21
32.543481902515509
 31
0.0
  0
LINE
  5
1C55
  8
01
 10
196.490543755777
 20
32.543481858804057
 30
0.0
 11
324.6905437438561
 21
32.543481858804057
 31
0.0
  0
ARC
  5
1C56
  8
01
 10
196.490543755777
 20
31.743481846883132
 30
0.0
 40
0.800000011920929
 50
90.0
 51
179.99999999977851
  0
LINE
  5
1C57
  8
01
 10
195.6905437438561
 20
27.533331096698362
 30
0.0
 11
195.6905437438561
 21
31.743481846883132
 31
0.0
  0
LINE
  5
1C58
  8
01
 10
195.6905437438561
 20
26.944106948153941
 30
0.0
 11
195.6905437438561
 21
27.03343077343936
 31
0.0
  0
LINE
  5
1C59
  8
01
 10
195.6905437438561
 20
27.533331096698362
 30
0.0
 11
195.6905437438561
 21
27.03343077343925
 31
0.0
  0
LINE
  5
1C5B
  8
01
 10
325.6905437438561
 20
27.445708455121238
 30
0.0
 11
325.6905437438561
 21
27.444038804188612
 31
0.0
  0
LINE
  5
1C5C
  8
01
 10
325.6905437438561
 20
27.52362434130271
 30
0.0
 11
325.6905437438561
 21
27.445708455121238
 31
0.0
  0
ARC
  5
1C5D
  8
01
 10
-196.6905437438561
 20
31.543481867546351
 30
0.0
 40
1.0
210
0.0
220
0.0
230
-1.0
 50
0.0
 51
89.999999999778538
  0
LINE
  5
1C5E
  8
01
 10
325.6905437438561
 20
32.343481899535277
 30
0.0
 11
325.6905437438561
 21
27.52362434130259
 31
0.0
  0
ARC
  5
1C5F
  8
01
 10
-325.49054374087592
 20
32.343481899535277
 30
0.0
 40
0.2000000029802322
210
0.0
220
0.0
230
-1.0
 50
90.000000000221448
 51
180.0
  0
ARC
  5
1C60
  8
01
 10
-195.8905437468363
 20
27.143482277042381
 30
0.0
 40
0.2000000029801754
210
0.0
220
0.0
230
-1.0
 50
270.0
 51
359.99999999977848
  0
LINE
  5
1C61
  8
01
 10
195.8905437468363
 20
26.943482274062259
 30
0.0
 11
325.1905437438561
 21
26.943482274062259
 31
0.0
  0
ARC
  5
1C62
  8
01
 10
325.1905437438561
 20
27.443482274062259
 30
0.0
 40
0.5
 50
270.0
 51
359.99999999977848
  0
LINE
  5
1C65
  8
01
 10
397.66576601831082
 20
-69.073659961676782
 30
0.0
 11
443.88175413603881
 21
-69.073653208267075
 31
0.0
  0
LINE
  5
1C66
  8
01
 10
443.88175330552252
 20
-50.073653208267082
 30
0.0
 11
397.66576601831412
 21
-50.073659961676789
 31
0.0
  0
LINE
  5
1C67
  8
01
 10
443.88175409232753
 20
-68.07365316455585
 30
0.0
 11
443.88175334923392
 21
-51.07365316455585
 31
0.0
  0
LINE
  5
1C68
  8
01
 10
439.38175330552258
 20
-50.073653865839248
 30
0.0
 11
439.38175413603892
 21
-69.073653865839134
 31
0.0
  0
LINE
  5
1C6A
  8
01
 10
443.88175409232753
 20
-68.07365316455585
 30
0.0
 11
443.88175413603892
 21
-69.073653208267075
 31
0.0
  0
LINE
  5
1C6B
  8
01
 10
443.88175334923392
 20
-51.07365316455585
 30
0.0
 11
443.88175330552252
 21
-50.073653208267082
 31
0.0
  0
LINE
  5
1C6F
  8
01
 10
437.88175356779072
 20
-56.073653426824109
 30
0.0
 11
437.88175387377038
 21
-63.073653426824123
 31
0.0
  0
LINE
  5
1C70
  8
01
 10
433.8619854206558
 20
-68.083081308506422
 30
0.0
 11
433.87170300783532
 21
-68.583635899591314
 31
0.0
  0
ARC
  5
1C71
  8
01
 10
885.08175372079018
 20
-59.573633900947037
 30
0.0
 40
451.30000000000967
 50
178.9196054590324
 51
181.08039954992259
  0
LINE
  5
1C72
  8
01
 10
433.86198467673802
 20
-51.06422594027223
 30
0.0
 11
433.87170222015772
 21
-50.563671392049088
 31
0.0
  0
ARC
  5
1C73
  8
01
 10
434.37160335207739
 20
-68.573653623968937
 30
0.0
 40
0.5000000000000018
 50
181.14396052893409
 51
270.00000250447522
  0
ARC
  5
1C74
  8
01
 10
434.37160256527238
 20
-50.57365362396893
 30
0.0
 40
0.4999999999999277
 50
90.000002504696667
 51
178.8560444802396
  0
LINE
  5
1C77
  8
01
 10
439.18175356481049
 20
-56.073653369999342
 30
0.0
 11
437.88175356779072
 21
-56.073653426824109
 31
0.0
  0
LINE
  5
1C7A
  8
01
 10
437.88175387377038
 20
-63.073653426824123
 30
0.0
 11
439.1817538707902
 21
-63.073653369999342
 31
0.0
  0
LINE
  5
1C7B
  8
01
 10
439.18175356481049
 20
-56.073653378741398
 30
0.0
 11
439.38175356779072
 21
-56.073653369999342
 31
0.0
  0
LINE
  5
1C7C
  8
01
 10
439.1817538707902
 20
-63.073653378741398
 30
0.0
 11
439.38175387377049
 21
-63.073653369999342
 31
0.0
  0
LINE
  5
1CD7
  8
01
 10
441.76939266078432
 20
-53.25061852054629
 30
0.0
 11
442.70572184329598
 21
-53.60174194895459
 31
0.0
  0
LINE
  5
1CD8
  8
01
 10
439.10085460488148
 20
-60.366720307634218
 30
0.0
 11
440.03718378739302
 21
-60.717843736042518
 31
0.0
  0
LINE
  5
1CD9
  8
01
 10
440.03718378739302
 20
-60.717843736042518
 30
0.0
 11
442.70572184329598
 21
-53.60174194895459
 31
0.0
  0
LINE
  5
1CDA
  8
1PHANTOM
 10
441.76939266078432
 20
-53.25061852054629
 30
0.0
 11
439.10085460488131
 21
-60.366720307634267
 31
0.0
  0
LINE
  5
1CDD
  8
01
 10
441.76939266078432
 20
-65.896649281347464
 30
0.0
 11
442.70572184329598
 21
-65.545525852939164
 31
0.0
  0
LINE
  5
1CDE
  8
01
 10
439.10085460488148
 20
-58.780547494259537
 30
0.0
 11
440.03718378739302
 21
-58.429424065851236
 31
0.0
  0
LINE
  5
1CDF
  8
01
 10
440.03718378739302
 20
-58.429424065851236
 30
0.0
 11
442.70572184329598
 21
-65.545525852939164
 31
0.0
  0
LINE
  5
1CE0
  8
1PHANTOM
 10
441.76939266078432
 20
-65.896649281347464
 30
0.0
 11
439.10085460488131
 21
-58.780547494259487
 31
0.0
  0
LINE
  5
1CEB
  8
1CENTER
 10
210.6905437438561
 20
19.442525479170399
 30
0.0
 11
210.6905437438561
 21
43.782542568168651
 31
0.0
  0
LINE
  5
1CEC
  8
1CENTER
 10
240.69054374385601
 20
19.442525479170399
 30
0.0
 11
240.69054374385601
 21
43.782542568168651
 31
0.0
  0
LINE
  5
1CED
  8
1CENTER
 10
280.6905437438561
 20
19.442525479170399
 30
0.0
 11
280.6905437438561
 21
43.782542568168651
 31
0.0
  0
LINE
  5
1CEE
  8
1CENTER
 10
310.6905437438561
 20
19.442525479170399
 30
0.0
 11
310.6905437438561
 21
43.782542568168651
 31
0.0
  0
LINE
  5
1CF2
  8
1CENTER
 10
210.6905437438561
 20
-53.702790410579098
 30
0.0
 11
210.6905437438561
 21
-62.444529512879122
 31
0.0
  0
LINE
  5
1CF3
  8
1CENTER
 10
280.6905437438561
 20
-53.702790410579098
 30
0.0
 11
280.6905437438561
 21
-62.444529512879122
 31
0.0
  0
LINE
  5
1CF4
  8
1CENTER
 10
240.69054374385601
 20
-56.702790410579119
 30
0.0
 11
240.69054374385601
 21
-65.444529512879143
 31
0.0
  0
LINE
  5
1CF5
  8
1CENTER
 10
310.6905437438561
 20
-56.702790410579098
 30
0.0
 11
310.6905437438561
 21
-65.444529512879114
 31
0.0
  0
LINE
  5
1CF6
  8
1CENTER
 10
206.31967419270609
 20
-58.07365996172912
 30
0.0
 11
215.0614132950061
 21
-58.07365996172912
 31
0.0
  0
LINE
  5
1CF7
  8
1CENTER
 10
236.319674192706
 20
-61.073659961729113
 30
0.0
 11
245.06141329500599
 21
-61.073659961729113
 31
0.0
  0
LINE
  5
1CF8
  8
1CENTER
 10
276.31967419270609
 20
-58.07365996172912
 30
0.0
 11
285.0614132950061
 21
-58.07365996172912
 31
0.0
  0
LINE
  5
1CF9
  8
1CENTER
 10
306.31967419270609
 20
-61.073659961729099
 30
0.0
 11
315.0614132950061
 21
-61.073659961729099
 31
0.0
  0
LINE
  5
1FA4
  8
01
 10
452.88175330552241
 20
-14.737415785934591
 30
0.0
 11
452.88175330552241
 21
-94.737415785934132
 31
0.0
  0
LINE
  5
1FA5
  8
01
 10
461.88175330552258
 20
-14.737415785934591
 30
0.0
 11
461.88175330552252
 21
-94.737415785934132
 31
0.0
  0
LINE
  5
1FA6
  8
01
 10
443.88175330552252
 20
-14.737415785934591
 30
0.0
 11
443.88175330552252
 21
-94.737415785934132
 31
0.0
  0
TEXT
  5
2040
  8
1TEXT
 10
178.4956614458998
 20
77.822315500208461
 30
0.0
 40
6.0
  1
SC-099-XC
  0
TEXT
  5
2055
  8
1DIM
 10
326.10391928234043
 20
18.809377034813082
 30
0.0
 40
3.5
  1
材質：ABS樹脂
  0
TEXT
  5
2056
  8
1DIM
 10
326.10391928234043
 20
12.97604370147975
 30
0.0
 40
3.5
  1
仕上：クロームメッキ
  0
TEXT
  5
2059
  8
1DIM
 10
262.11370271348642
 20
12.75530150719359
 30
0.0
 40
3.5
  1
材質：亜鉛ダイキャスト
  0
TEXT
  5
205A
  8
1DIM
 10
262.11370271348642
 20
6.9219681738602601
 30
0.0
 40
3.5
  1
仕上：クロームメッキ
  0
LINE
  5
205D
  8
1DIM
 10
363.69053951748242
 20
-1.8565177259378061
 30
0.0
 11
387.58773853801131
 21
-1.8565177259378121
 31
0.0
  0
LINE
  5
205E
  8
1DIM
 10
363.69053951748242
 20
-10.05651772593807
 30
0.0
 11
387.58773853801131
 21
-10.056517725938081
 31
0.0
  0
LINE
  5
205F
  8
1DIM
 10
386.58773853801131
 20
-3.8565177259378118
 30
0.0
 11
386.58773853801131
 21
-8.0565177259380807
 31
0.0
  0
LINE
  5
2063
  8
1DIM
 10
375.79053951748261
 20
37.04348185880405
 30
0.0
 11
394.33758030060397
 21
37.04348185880405
 31
0.0
  0
LINE
  5
2064
  8
1DIM
 10
367.69053529110829
 20
-10.05651772593785
 30
0.0
 11
394.33758030060397
 21
-10.05651772593786
 31
0.0
  0
LINE
  5
2065
  8
1DIM
 10
393.33758030060409
 20
35.04348185880405
 30
0.0
 11
393.33758030060409
 21
-8.0565177259378586
 31
0.0
  0
TEXT
  5
2069
  8
1HATCH
 10
447.53685454791349
 20
5.5544270207295483
 30
0.0
 40
3.5
  1
PB
  0
TEXT
  5
206E
  8
1DIM
 10
453.7041990424521
 20
-0.4469189963944312
 30
0.0
 40
3.5
  1
合板9mm以上
  0
LINE
  5
206F
  8
1DIM
 10
183.7905437438562
 20
6.2434822621395547
 30
0.0
 11
183.7905437438562
 21
-22.372909738413568
 31
0.0
  0
LINE
  5
2070
  8
1DIM
 10
175.59054374385619
 20
-1.9565134995638589
 30
0.0
 11
175.59054374385619
 21
-22.372909738413568
 31
0.0
  0
LINE
  5
2071
  8
1DIM
 10
181.7905437438562
 20
-21.372909738413568
 30
0.0
 11
177.59054374385619
 21
-21.372909738413568
 31
0.0
  0
LINE
  5
2075
  8
1DIM
 10
325.1905437438561
 20
26.943482274062259
 30
0.0
 11
376.79054367978119
 21
26.943482274062251
 31
0.0
  0
LINE
  5
2076
  8
1DIM
 10
325.6905437438561
 20
37.043481902515509
 30
0.0
 11
376.79054367978119
 21
37.043481902515502
 31
0.0
  0
LINE
  5
2077
  8
1DIM
 10
375.79054367978119
 20
28.943482274062251
 30
0.0
 11
375.79054367978119
 21
35.043481902515502
 31
0.0
  0
LINE
  5
207B
  8
1DIM
 10
374.90652923889462
 20
-69.073659961727685
 30
0.0
 11
387.58773853801131
 21
-69.073659961727685
 31
0.0
  0
LINE
  5
207C
  8
1DIM
 10
374.90652923889462
 20
-50.073659961727792
 30
0.0
 11
387.58773853801131
 21
-50.073659961727792
 31
0.0
  0
LINE
  5
207D
  8
1DIM
 10
386.58773853801119
 20
-67.073659961727685
 30
0.0
 11
386.58773853801119
 21
-52.073659961727799
 31
0.0
  0
LINE
  5
2081
  8
1DIM
 10
371.54052009692958
 20
7.0434819243708944
 30
0.0
 11
387.58773853801131
 21
7.043481924370889
 31
0.0
  0
LINE
  5
2082
  8
1DIM
 10
325.6905437438561
 20
37.043482274062058
 30
0.0
 11
387.58773853801131
 21
37.043482274062043
 31
0.0
  0
LINE
  5
2083
  8
1DIM
 10
386.58773853801131
 20
9.0434819243708908
 30
0.0
 11
386.58773853801131
 21
35.043482274062043
 31
0.0
  0
LINE
  5
2087
  8
1DIM
 10
468.52501544038461
 20
-67.342378413690227
 30
0.0
 11
483.30836086643308
 21
-67.342378413690241
 31
0.0
  0
LINE
  5
2088
  8
1DIM
 10
468.52501544038461
 20
-51.804939088564119
 30
0.0
 11
483.30836086643308
 21
-51.804939088564119
 31
0.0
  0
LINE
  5
2089
  8
1DIM
 10
482.30836086643308
 20
-65.342378413690241
 30
0.0
 11
482.30836086643308
 21
-53.804939088564112
 31
0.0
  0
LINE
  5
208D
  8
1DIM
 10
443.88175413603892
 20
-69.073653208267075
 30
0.0
 11
443.88175413603892
 21
-84.129185701877446
 31
0.0
  0
LINE
  5
208E
  8
1DIM
 10
468.52501544038461
 20
-67.342328713329692
 30
0.0
 11
468.52501544038461
 21
-84.129185701877446
 31
0.0
  0
LINE
  5
208F
  8
1DIM
 10
445.88175413603898
 20
-83.129185701877446
 30
0.0
 11
466.52501544038461
 21
-83.129185701877446
 31
0.0
  0
LINE
  5
2093
  8
1DIM
 10
443.8817536564157
 20
-58.101155640370308
 30
0.0
 11
477.4932477072702
 21
-58.101155640370322
 31
0.0
  0
LINE
  5
2094
  8
1DIM
 10
443.88175378514393
 20
-61.046112113250359
 30
0.0
 11
477.4932477072702
 21
-61.046112113250373
 31
0.0
  0
LINE
  5
2095
  8
1DIM
 10
476.49324770727031
 20
-56.101155640370322
 30
0.0
 11
476.49324770727031
 21
-54.101155640370322
 31
0.0
  0
LINE
  5
2096
  8
1DIM
 10
476.49324770727031
 20
-63.046112113250373
 30
0.0
 11
476.49324770727031
 21
-65.046112113250373
 31
0.0
  0
LINE
  5
2097
  8
1DIM
 10
476.49324770727031
 20
-58.101155640370322
 30
0.0
 11
476.49324770727031
 21
-61.046112113250373
 31
0.0
  0
LINE
  5
209B
  8
1DIM
 10
240.69054374385601
 20
-65.444529512879143
 30
0.0
 11
240.69054374385601
 21
-78.943193133764453
 31
0.0
  0
LINE
  5
209C
  8
1DIM
 10
210.6905437438561
 20
-61.530669166976573
 30
0.0
 11
210.6905437438561
 21
-78.943193133764453
 31
0.0
  0
LINE
  5
209D
  8
1DIM
 10
238.69054374385601
 20
-77.943193133764453
 30
0.0
 11
212.6905437438561
 21
-77.943193133764453
 31
0.0
  0
LINE
  5
20A1
  8
1DIM
 10
240.69054374385601
 20
-65.444529512879143
 30
0.0
 11
240.69054374385601
 21
-78.943193133764453
 31
0.0
  0
LINE
  5
20A2
  8
1DIM
 10
310.6905437438561
 20
-65.444529512879114
 30
0.0
 11
310.6905437438561
 21
-78.943193133764453
 31
0.0
  0
LINE
  5
20A3
  8
1DIM
 10
242.69054374385601
 20
-77.943193133764453
 30
0.0
 11
308.6905437438561
 21
-77.943193133764453
 31
0.0
  0
LINE
  5
20A7
  8
1DIM
 10
210.6905437438561
 20
-53.702790410579098
 30
0.0
 11
210.6905437438561
 21
-43.222852116866072
 31
0.0
  0
LINE
  5
20A8
  8
1DIM
 10
280.6905437438561
 20
-53.702790410579098
 30
0.0
 11
280.6905437438561
 21
-43.222852116866072
 31
0.0
  0
LINE
  5
20A9
  8
1DIM
 10
212.6905437438561
 20
-44.222852116866079
 30
0.0
 11
278.6905437438561
 21
-44.222852116866079
 31
0.0
  0
LINE
  5
20AD
  8
1DIM
 10
175.5905437438559
 20
37.043482274062058
 30
0.0
 11
175.5905437438559
 21
60.494442438484832
 31
0.0
  0
LINE
  5
20AE
  8
1DIM
 10
325.6905437438561
 20
37.043482274062058
 30
0.0
 11
325.6905437438561
 21
60.494442438484832
 31
0.0
  0
LINE
  5
20AF
  8
1DIM
 10
177.5905437438559
 20
59.494442438484839
 30
0.0
 11
323.6905437438561
 21
59.494442438484839
 31
0.0
  0
LINE
  5
20B3
  8
1DIM
 10
175.59054374385619
 20
-1.9565134995638589
 30
0.0
 11
175.59054374385619
 21
-33.279955672843812
 31
0.0
  0
LINE
  5
20B4
  8
1DIM
 10
375.79054374385578
 20
-1.9565134995638109
 30
0.0
 11
375.79054374385578
 21
-33.279955672843812
 31
0.0
  0
LINE
  5
20B5
  8
1DIM
 10
177.59054374385619
 20
-32.279955672843812
 30
0.0
 11
373.79054374385578
 21
-32.279955672843812
 31
0.0
  0
LINE
  5
20BA
  8
1CENTER
 10
471.29738983930707
 20
-50.76524903312054
 30
0.0
 11
436.99853671542547
 21
-63.627318403878952
 31
0.0
  0
LINE
  5
20BB
  8
0
 10
466.17446747210329
 20
-51.517606499067938
 30
0.0
 11
467.61254836697299
 21
-53.074100969133511
 31
0.0
  0
LINE
  5
20BC
  8
0
 10
467.61254836697299
 20
-53.074100969133511
 30
0.0
 11
467.69790989372808
 21
-52.41381074373173
 31
0.0
  0
LINE
  5
20BD
  8
0
 10
444.88270796927219
 20
-58.534803085579739
 30
0.0
 11
447.0362563143288
 21
-61.99922434086902
 31
0.0
  0
LINE
  5
20BE
  8
0
 10
455.36959481340608
 20
-54.602220687405428
 30
0.0
 11
457.52314315846672
 21
-58.066641942693202
 31
0.0
  0
LINE
  5
20BF
  8
0
 10
458.3658481974432
 20
-53.478625716498911
 30
0.0
 11
460.51939654250373
 21
-56.943046971786657
 31
0.0
  0
LINE
  5
20C0
  8
0
 10
460.51939654250373
 20
-56.943046971786657
 30
0.0
 11
460.43746883587357
 21
-56.439769629194032
 31
0.0
  0
LINE
  5
20C1
  8
0
 10
459.94590259609203
 20
-53.420105573638288
 30
0.0
 11
459.8639748894617
 21
-52.916828231045649
 31
0.0
  0
LINE
  5
20C2
  8
0
 10
457.52314315846672
 20
-58.066641942693202
 30
0.0
 11
457.4412154518364
 21
-57.563364600100549
 31
0.0
  0
LINE
  5
20C3
  8
0
 10
459.02126985048528
 20
-57.504844457239891
 30
0.0
 11
458.93934214385501
 21
-57.00156711464728
 31
0.0
  0
LINE
  5
20C4
  8
0
 10
458.44777590407352
 20
-53.981903059091501
 30
0.0
 11
458.3658481974432
 21
-53.478625716498911
 31
0.0
  0
LINE
  5
20C5
  8
0
 10
456.94964921205502
 20
-54.543700544544727
 30
0.0
 11
456.8677215054247
 21
-54.04042320195213
 31
0.0
  0
LINE
  5
20C6
  8
0
 10
456.8677215054247
 20
-54.04042320195213
 30
0.0
 11
459.02126985048528
 21
-57.504844457239891
 31
0.0
  0
LINE
  5
20C7
  8
0
 10
466.27341432920377
 20
-54.059881884741323
 30
0.0
 11
466.25080956610998
 21
-53.479089987997561
 31
0.0
  0
LINE
  5
20C8
  8
0
 10
463.51564992654079
 20
-55.81945200088014
 30
0.0
 11
463.43372221991052
 21
-55.316174658287537
 31
0.0
  0
LINE
  5
20C9
  8
0
 10
462.01752323452229
 20
-56.381249486333402
 30
0.0
 11
461.93559552789179
 21
-55.877972143740841
 31
0.0
  0
LINE
  5
20CA
  8
0
 10
464.9342802914345
 20
-55.045662800349128
 30
0.0
 11
464.86690958607812
 21
-54.497844456317338
 31
0.0
  0
LINE
  5
20CB
  8
0
 10
464.57611928432362
 20
-52.133311374396811
 30
0.0
 11
464.5173483352296
 21
-51.655421112755022
 31
0.0
  0
LINE
  5
20CC
  8
0
 10
461.44402928811058
 20
-52.858308088184991
 30
0.0
 11
461.3621015814802
 21
-52.355030745592387
 31
0.0
  0
LINE
  5
20CD
  8
0
 10
462.94215598012909
 20
-52.296510602731772
 30
0.0
 11
462.86022827349882
 21
-51.793233260139161
 31
0.0
  0
LINE
  5
20CE
  8
0
 10
466.19319746067339
 20
-51.99884249090325
 30
0.0
 11
466.17446747210329
 21
-51.517606499067938
 31
0.0
  0
LINE
  5
20CF
  8
0
 10
464.5173483352296
 20
-51.655421112755022
 30
0.0
 11
466.27341432920377
 21
-54.059881884741323
 31
0.0
  0
LINE
  5
20D0
  8
0
 10
461.3621015814802
 20
-52.355030745592387
 30
0.0
 11
463.51564992654079
 21
-55.81945200088014
 31
0.0
  0
LINE
  5
20D1
  8
0
 10
462.86022827349882
 20
-51.793233260139161
 30
0.0
 11
464.9342802914345
 21
-55.045662800349128
 31
0.0
  0
LINE
  5
20D2
  8
0
 10
459.8639748894617
 20
-52.916828231045649
 30
0.0
 11
462.01752323452229
 21
-56.381249486333402
 31
0.0
  0
LINE
  5
20D3
  8
0
 10
447.87896135330931
 20
-57.411208114673222
 30
0.0
 11
450.03250969836591
 21
-60.875629369962489
 31
0.0
  0
LINE
  5
20D4
  8
0
 10
450.03250969836591
 20
-60.875629369962489
 30
0.0
 11
449.9505819917361
 21
-60.372352027369693
 31
0.0
  0
LINE
  5
20D5
  8
0
 10
449.45901575196172
 20
-57.35268797181125
 30
0.0
 11
449.37708804533202
 21
-56.84941062921844
 31
0.0
  0
LINE
  5
20D6
  8
0
 10
448.53438300634718
 20
-61.437426855415801
 30
0.0
 11
448.45245529971743
 21
-60.934149512822998
 31
0.0
  0
LINE
  5
20D7
  8
0
 10
447.0362563143288
 20
-61.99922434086902
 30
0.0
 11
446.95432860769898
 21
-61.495946998276217
 31
0.0
  0
LINE
  5
20D8
  8
0
 10
447.96088905993918
 20
-57.914485457266018
 30
0.0
 11
447.87896135330931
 21
-57.411208114673222
 31
0.0
  0
LINE
  5
20D9
  8
0
 10
446.4627623679205
 20
-58.47628294271933
 30
0.0
 11
446.38083466129069
 21
-57.973005600126527
 31
0.0
  0
LINE
  5
20DA
  8
0
 10
446.38083466129069
 20
-57.973005600126527
 30
0.0
 11
448.53438300634718
 21
-61.437426855415801
 31
0.0
  0
LINE
  5
20DB
  8
0
 10
454.52688977442563
 20
-59.190236913601197
 30
0.0
 11
454.44496206779581
 21
-58.686959571008401
 31
0.0
  0
LINE
  5
20DC
  8
0
 10
456.02501646644811
 20
-58.628439428146422
 30
0.0
 11
455.94308875981778
 21
-58.125162085553811
 31
0.0
  0
LINE
  5
20DD
  8
0
 10
451.53063639038851
 20
-60.313831884507721
 30
0.0
 11
451.4487086837587
 21
-59.810554541914911
 31
0.0
  0
LINE
  5
20DE
  8
0
 10
453.0287630824069
 20
-59.752034399054487
 30
0.0
 11
452.9468353757772
 21
-59.248757056461692
 31
0.0
  0
LINE
  5
20DF
  8
0
 10
455.45152252003641
 20
-55.105498029998039
 30
0.0
 11
455.36959481340608
 21
-54.602220687405428
 31
0.0
  0
LINE
  5
20E0
  8
0
 10
453.95339582801728
 20
-55.667295515451499
 30
0.0
 11
453.87146812138758
 21
-55.164018172858647
 31
0.0
  0
LINE
  5
20E1
  8
0
 10
450.95714244398022
 20
-56.790890486358023
 30
0.0
 11
450.8752147373504
 21
-56.287613143765221
 31
0.0
  0
LINE
  5
20E2
  8
0
 10
452.45526913599878
 20
-56.229093000904719
 30
0.0
 11
452.37334142936908
 21
-55.725815658311923
 31
0.0
  0
LINE
  5
20E3
  8
0
 10
452.37334142936908
 20
-55.725815658311923
 30
0.0
 11
454.52688977442563
 21
-59.190236913601197
 31
0.0
  0
LINE
  5
20E4
  8
0
 10
453.87146812138758
 20
-55.164018172858647
 30
0.0
 11
456.02501646644811
 21
-58.628439428146422
 31
0.0
  0
LINE
  5
20E5
  8
0
 10
450.8752147373504
 20
-56.287613143765221
 30
0.0
 11
453.0287630824069
 21
-59.752034399054487
 31
0.0
  0
LINE
  5
20E6
  8
0
 10
449.37708804533202
 20
-56.84941062921844
 30
0.0
 11
451.53063639038851
 21
-60.313831884507721
 31
0.0
  0
LINE
  5
20E7
  8
0
 10
440.96182183973121
 20
-63.743136940049332
 30
0.0
 11
439.9084580904443
 21
-60.934146941538181
 31
0.0
  0
LINE
  5
20E8
  8
0
 10
440.47025559984252
 20
-60.723472884533777
 30
0.0
 11
440.3883278932127
 21
-60.220195541940967
 31
0.0
  0
LINE
  5
20E9
  8
0
 10
440.3883278932127
 20
-60.220195541940967
 30
0.0
 11
442.54187623826931
 21
-63.684616797230248
 31
0.0
  0
LINE
  5
20EA
  8
0
 10
442.54187623826931
 20
-63.684616797230248
 30
0.0
 11
442.45994853163938
 21
-63.181339454637452
 31
0.0
  0
LINE
  5
20EB
  8
0
 10
441.96838229186102
 20
-60.161675399080551
 30
0.0
 11
441.88645458523109
 21
-59.658398056487748
 31
0.0
  0
LINE
  5
20EC
  8
0
 10
443.46650898387941
 20
-59.599877913627331
 30
0.0
 11
443.38458127724959
 21
-59.096600571034529
 31
0.0
  0
LINE
  5
20ED
  8
0
 10
443.38458127724959
 20
-59.096600571034529
 30
0.0
 11
445.5381296223062
 21
-62.561021826323802
 31
0.0
  0
LINE
  5
20EE
  8
0
 10
444.0400029302877
 20
-63.122819311777022
 30
0.0
 11
443.95807522365789
 21
-62.619541969184233
 31
0.0
  0
LINE
  5
20EF
  8
0
 10
445.5381296223062
 20
-62.561021826323802
 30
0.0
 11
445.45620191567639
 21
-62.057744483731
 31
0.0
  0
LINE
  5
20F0
  8
0
 10
441.88645458523109
 20
-59.658398056487748
 30
0.0
 11
444.0400029302877
 21
-63.122819311777022
 31
0.0
  0
LINE
  5
20F1
  8
0
 10
444.964635675902
 20
-59.038080428172549
 30
0.0
 11
444.88270796927219
 21
-58.534803085579739
 31
0.0
  0
LINE
  5
20F3
  8
1CENTER
 10
471.29738983930707
 20
-68.382018768773293
 30
0.0
 11
436.99853671542547
 21
-55.519949398014859
 31
0.0
  0
LINE
  5
20F4
  8
0
 10
466.17446747210329
 20
-67.629661302825895
 30
0.0
 11
467.61254836697299
 21
-66.073166832760336
 31
0.0
  0
LINE
  5
20F5
  8
0
 10
467.61254836697299
 20
-66.073166832760336
 30
0.0
 11
467.69790989372808
 21
-66.733457058162102
 31
0.0
  0
LINE
  5
20F6
  8
0
 10
444.88270796927219
 20
-60.612464716314072
 30
0.0
 11
447.0362563143288
 21
-57.148043461024798
 31
0.0
  0
LINE
  5
20F7
  8
0
 10
455.36959481340608
 20
-64.545047114488398
 30
0.0
 11
457.52314315846672
 21
-61.08062585920063
 31
0.0
  0
LINE
  5
20F8
  8
0
 10
458.36584819744309
 20
-65.668642085394922
 30
0.0
 11
460.51939654250373
 21
-62.204220830107168
 31
0.0
  0
LINE
  5
20F9
  8
0
 10
460.51939654250373
 20
-62.204220830107168
 30
0.0
 11
460.43746883587357
 21
-62.7074981726998
 31
0.0
  0
LINE
  5
20FA
  8
0
 10
459.94590259609203
 20
-65.727162228255537
 30
0.0
 11
459.8639748894617
 21
-66.230439570848191
 31
0.0
  0
LINE
  5
20FB
  8
0
 10
457.52314315846672
 20
-61.08062585920063
 30
0.0
 11
457.4412154518364
 21
-61.583903201793291
 31
0.0
  0
LINE
  5
20FC
  8
0
 10
459.02126985048528
 20
-61.642423344653942
 30
0.0
 11
458.93934214385501
 21
-62.145700687246539
 31
0.0
  0
LINE
  5
20FD
  8
0
 10
458.44777590407352
 20
-65.165364742802325
 30
0.0
 11
458.36584819744309
 21
-65.668642085394922
 31
0.0
  0
LINE
  5
20FE
  8
0
 10
456.94964921205502
 20
-64.603567257349098
 30
0.0
 11
456.8677215054247
 21
-65.106844599941695
 31
0.0
  0
LINE
  5
20FF
  8
0
 10
456.8677215054247
 20
-65.106844599941695
 30
0.0
 11
459.02126985048528
 21
-61.642423344653942
 31
0.0
  0
LINE
  5
2100
  8
0
 10
466.27341432920377
 20
-65.087385917152517
 30
0.0
 11
466.25080956610998
 21
-65.668177813896293
 31
0.0
  0
LINE
  5
2101
  8
0
 10
463.51564992654079
 20
-63.327815801013692
 30
0.0
 11
463.43372221991052
 21
-63.831093143606303
 31
0.0
  0
LINE
  5
2102
  8
0
 10
462.01752323452229
 20
-62.76601831556043
 30
0.0
 11
461.93559552789179
 21
-63.269295658152991
 31
0.0
  0
LINE
  5
2103
  8
0
 10
464.93428029143439
 20
-64.101605001544698
 30
0.0
 11
464.86690958607812
 21
-64.649423345576494
 31
0.0
  0
LINE
  5
2104
  8
0
 10
464.57611928432362
 20
-67.013956427497035
 30
0.0
 11
464.5173483352296
 21
-67.491846689138825
 31
0.0
  0
LINE
  5
2105
  8
0
 10
461.44402928811058
 20
-66.288959713708849
 30
0.0
 11
461.3621015814802
 21
-66.792237056301445
 31
0.0
  0
LINE
  5
2106
  8
0
 10
462.94215598012909
 20
-66.850757199162075
 30
0.0
 11
462.86022827349871
 21
-67.354034541754672
 31
0.0
  0
LINE
  5
2107
  8
0
 10
466.19319746067339
 20
-67.148425310990575
 30
0.0
 11
466.17446747210329
 21
-67.629661302825895
 31
0.0
  0
LINE
  5
2108
  8
0
 10
464.5173483352296
 20
-67.491846689138825
 30
0.0
 11
466.27341432920377
 21
-65.087385917152517
 31
0.0
  0
LINE
  5
2109
  8
0
 10
461.3621015814802
 20
-66.792237056301445
 30
0.0
 11
463.51564992654079
 21
-63.327815801013692
 31
0.0
  0
LINE
  5
210A
  8
0
 10
462.86022827349871
 20
-67.354034541754672
 30
0.0
 11
464.93428029143439
 21
-64.101605001544698
 31
0.0
  0
LINE
  5
210B
  8
0
 10
459.8639748894617
 20
-66.230439570848191
 30
0.0
 11
462.01752323452229
 21
-62.76601831556043
 31
0.0
  0
LINE
  5
210C
  8
0
 10
447.87896135330931
 20
-61.73605968722061
 30
0.0
 11
450.03250969836591
 21
-58.271638431931329
 31
0.0
  0
LINE
  5
210D
  8
0
 10
450.03250969836591
 20
-58.271638431931329
 30
0.0
 11
449.9505819917361
 21
-58.774915774524132
 31
0.0
  0
LINE
  5
210E
  8
0
 10
449.45901575196172
 20
-61.794579830082583
 30
0.0
 11
449.3770880453319
 21
-62.297857172675378
 31
0.0
  0
LINE
  5
210F
  8
0
 10
448.53438300634718
 20
-57.709840946478018
 30
0.0
 11
448.45245529971743
 21
-58.213118289070827
 31
0.0
  0
LINE
  5
2110
  8
0
 10
447.0362563143288
 20
-57.148043461024798
 30
0.0
 11
446.95432860769898
 21
-57.651320803617601
 31
0.0
  0
LINE
  5
2111
  8
0
 10
447.96088905993918
 20
-61.2327823446278
 30
0.0
 11
447.87896135330931
 21
-61.73605968722061
 31
0.0
  0
LINE
  5
2112
  8
0
 10
446.4627623679205
 20
-60.670984859174489
 30
0.0
 11
446.38083466129069
 21
-61.174262201767299
 31
0.0
  0
LINE
  5
2113
  8
0
 10
446.38083466129069
 20
-61.174262201767299
 30
0.0
 11
448.53438300634718
 21
-57.709840946478018
 31
0.0
  0
LINE
  5
2114
  8
0
 10
454.52688977442563
 20
-59.957030888292628
 30
0.0
 11
454.44496206779581
 21
-60.460308230885438
 31
0.0
  0
LINE
  5
2115
  8
0
 10
456.02501646644811
 20
-60.518828373747411
 30
0.0
 11
455.94308875981778
 21
-61.022105716340022
 31
0.0
  0
LINE
  5
2116
  8
0
 10
451.53063639038851
 20
-58.833435917386112
 30
0.0
 11
451.4487086837587
 21
-59.336713259978907
 31
0.0
  0
LINE
  5
2117
  8
0
 10
453.0287630824069
 20
-59.395233402839331
 30
0.0
 11
452.9468353757772
 21
-59.898510745432141
 31
0.0
  0
LINE
  5
2118
  8
0
 10
455.45152252003641
 20
-64.041769771895787
 30
0.0
 11
455.36959481340608
 21
-64.545047114488398
 31
0.0
  0
LINE
  5
2119
  8
0
 10
453.95339582801728
 20
-63.479972286442333
 30
0.0
 11
453.87146812138758
 21
-63.983249629035171
 31
0.0
  0
LINE
  5
211A
  8
0
 10
450.95714244398022
 20
-62.356377315535802
 30
0.0
 11
450.8752147373504
 21
-62.859654658128612
 31
0.0
  0
LINE
  5
211B
  8
0
 10
452.45526913599878
 20
-62.9181748009891
 30
0.0
 11
452.37334142936902
 21
-63.421452143581909
 31
0.0
  0
LINE
  5
211C
  8
0
 10
452.37334142936902
 20
-63.421452143581909
 30
0.0
 11
454.52688977442563
 21
-59.957030888292628
 31
0.0
  0
LINE
  5
211D
  8
0
 10
453.87146812138758
 20
-63.983249629035171
 30
0.0
 11
456.02501646644811
 21
-60.518828373747411
 31
0.0
  0
LINE
  5
211E
  8
0
 10
450.8752147373504
 20
-62.859654658128612
 30
0.0
 11
453.0287630824069
 21
-59.395233402839331
 31
0.0
  0
LINE
  5
211F
  8
0
 10
449.3770880453319
 20
-62.297857172675378
 30
0.0
 11
451.53063639038851
 21
-58.833435917386112
 31
0.0
  0
LINE
  5
2120
  8
0
 10
440.96182183973121
 20
-55.404130861844479
 30
0.0
 11
439.9084580904443
 21
-58.21312086035563
 31
0.0
  0
LINE
  5
2121
  8
0
 10
440.47025559984252
 20
-58.423794917360041
 30
0.0
 11
440.3883278932127
 21
-58.927072259952837
 31
0.0
  0
LINE
  5
2122
  8
0
 10
440.3883278932127
 20
-58.927072259952837
 30
0.0
 11
442.54187623826931
 21
-55.46265100466357
 31
0.0
  0
LINE
  5
2123
  8
0
 10
442.54187623826931
 20
-55.46265100466357
 30
0.0
 11
442.45994853163938
 21
-55.965928347256373
 31
0.0
  0
LINE
  5
2124
  8
0
 10
441.96838229186102
 20
-58.985592402813261
 30
0.0
 11
441.88645458523109
 21
-59.48886974540607
 31
0.0
  0
LINE
  5
2125
  8
0
 10
443.46650898387941
 20
-59.547389888266487
 30
0.0
 11
443.38458127724959
 21
-60.05066723085929
 31
0.0
  0
LINE
  5
2126
  8
0
 10
443.38458127724959
 20
-60.05066723085929
 30
0.0
 11
445.5381296223062
 21
-56.586245975570023
 31
0.0
  0
LINE
  5
2127
  8
0
 10
444.0400029302877
 20
-56.024448490116789
 30
0.0
 11
443.95807522365789
 21
-56.527725832709599
 31
0.0
  0
LINE
  5
2128
  8
0
 10
445.5381296223062
 20
-56.586245975570023
 30
0.0
 11
445.45620191567639
 21
-57.089523318162819
 31
0.0
  0
LINE
  5
2129
  8
0
 10
441.88645458523109
 20
-59.48886974540607
 30
0.0
 11
444.0400029302877
 21
-56.024448490116789
 31
0.0
  0
LINE
  5
212A
  8
0
 10
444.964635675902
 20
-60.109187373721269
 30
0.0
 11
444.88270796927219
 21
-60.612464716314072
 31
0.0
  0
LINE
  5
212B
  8
0
 10
468.52501544038461
 20
-67.342328713329707
 30
0.0
 11
463.03578889837922
 21
-66.88586954200251
 31
0.0
  0
LINE
  5
212C
  8
0
 10
468.52501544038461
 20
-67.342328713329707
 30
0.0
 11
464.08915264766711
 21
-64.076879543491415
 31
0.0
  0
LINE
  5
212D
  8
0
 10
463.03578889837922
 20
-66.88586954200251
 30
0.0
 11
439.9084580904443
 21
-58.21312086035563
 31
0.0
  0
LINE
  5
212E
  8
0
 10
464.08915264766711
 20
-64.076879543491415
 30
0.0
 11
440.96182183973121
 21
-55.404130861844479
 31
0.0
  0
LINE
  5
212F
  8
0
 10
439.20619925117711
 20
-60.085824432320592
 30
0.0
 11
439.9084580904443
 21
-58.21312086035563
 31
0.0
  0
LINE
  5
2130
  8
0
 10
440.96182183973121
 20
-55.404130861844479
 30
0.0
 11
441.66404799951317
 21
-53.531514435794193
 31
0.0
  0
LINE
  5
2131
  8
0
 10
439.20619925117711
 20
-60.085824432320592
 30
0.0
 11
438.1762338824426
 21
-59.699587435582231
 31
0.0
  0
LINE
  5
2132
  8
0
 10
441.66404799951317
 20
-53.531514435794193
 30
0.0
 11
440.63408916671659
 21
-53.145279890032327
 31
0.0
  0
ARC
  5
2133
  8
0
 10
438.702919025055
 20
-58.29509366181486
 30
0.0
 40
1.5
 50
159.44408890246169
 51
249.44395558693381
  0
ARC
  5
2134
  8
0
 10
440.1074040241042
 20
-54.549773663799712
 30
0.0
 40
1.5
 50
69.443955586931764
 51
159.44408890246191
  0
LINE
  5
2135
  8
0
 10
437.29842402580312
 20
-57.768411787172852
 30
0.0
 11
438.70290902485237
 21
-54.023091789157711
 31
0.0
  0
LINE
  5
2136
  8
0
 10
468.52501544038461
 20
-51.804939088564133
 30
0.0
 11
463.03578889837922
 21
-52.261398259891322
 31
0.0
  0
LINE
  5
2137
  8
0
 10
463.03578889837922
 20
-52.261398259891322
 30
0.0
 11
439.9084580904443
 21
-60.934146941538181
 31
0.0
  0
LINE
  5
2138
  8
0
 10
468.52501544038461
 20
-51.804939088564133
 30
0.0
 11
464.08915264766711
 21
-55.070388258402417
 31
0.0
  0
LINE
  5
2139
  8
0
 10
439.20619925117711
 20
-59.061443369573219
 30
0.0
 11
439.9084580904443
 21
-60.934146941538181
 31
0.0
  0
LINE
  5
213A
  8
0
 10
464.08915264766711
 20
-55.070388258402417
 30
0.0
 11
440.96182183973121
 21
-63.743136940049332
 31
0.0
  0
LINE
  5
213B
  8
0
 10
439.20619925117711
 20
-59.061443369573219
 30
0.0
 11
438.1762338824426
 21
-59.44768036631158
 31
0.0
  0
LINE
  5
213C
  8
0
 10
440.96182183973121
 20
-63.743136940049332
 30
0.0
 11
441.66404799951317
 21
-65.615753366099625
 31
0.0
  0
ARC
  5
213D
  8
0
 10
438.702919025055
 20
-60.852174140078958
 30
0.0
 40
1.5
 50
110.5560444130662
 51
200.55591109753831
  0
LINE
  5
213E
  8
0
 10
441.66404799951317
 20
-65.615753366099625
 30
0.0
 11
440.63408916671659
 21
-66.001987911861477
 31
0.0
  0
LINE
  5
213F
  8
0
 10
437.29842402580312
 20
-61.378856014720959
 30
0.0
 11
438.70290902485237
 21
-65.124176012736115
 31
0.0
  0
ARC
  5
2140
  8
0
 10
440.1074040241042
 20
-64.597494138094106
 30
0.0
 40
1.5
 50
200.55591109753831
 51
290.55604441306832
  0
TEXT
  5
2141
  8
1DIM
 10
271.60721041052273
 20
-31.579955672843809
 30
0.0
 40
3.5
  1
200 
  0
LINE
  5
2142
  8
0
  6
BYBLOCK
 10
373.79054374385578
 20
-31.744057292843809
 30
0.0
 11
375.79054374385578
 21
-32.279955672843812
 31
0.0
  0
LINE
  5
2143
  8
0
  6
BYBLOCK
 10
375.79054374385578
 20
-32.279955672843812
 30
0.0
 11
373.79054374385578
 21
-32.815854052843811
 31
0.0
  0
LINE
  5
2144
  8
0
  6
BYBLOCK
 10
375.79054374385578
 20
-32.279955672843812
 30
0.0
 11
373.79054374385578
 21
-32.279955672843812
 31
0.0
  0
LINE
  5
2145
  8
0
  6
BYBLOCK
 10
177.59054374385619
 20
-32.815854052843811
 30
0.0
 11
175.59054374385619
 21
-32.279955672843812
 31
0.0
  0
LINE
  5
2146
  8
0
  6
BYBLOCK
 10
175.59054374385619
 20
-32.279955672843812
 30
0.0
 11
177.59054374385619
 21
-31.744057292843809
 31
0.0
  0
LINE
  5
2147
  8
0
  6
BYBLOCK
 10
175.59054374385619
 20
-32.279955672843812
 30
0.0
 11
177.59054374385619
 21
-32.279955672843812
 31
0.0
  0
TEXT
  5
2148
  8
1DIM
 10
246.8488770771894
 20
60.194442438484842
 30
0.0
 40
3.5
  1
150 
  0
LINE
  5
2149
  8
0
  6
BYBLOCK
 10
323.6905437438561
 20
60.030340818484831
 30
0.0
 11
325.6905437438561
 21
59.494442438484839
 31
0.0
  0
LINE
  5
214A
  8
0
  6
BYBLOCK
 10
325.6905437438561
 20
59.494442438484839
 30
0.0
 11
323.6905437438561
 21
58.95854405848484
 31
0.0
  0
LINE
  5
214B
  8
0
  6
BYBLOCK
 10
325.6905437438561
 20
59.494442438484839
 30
0.0
 11
323.6905437438561
 21
59.494442438484839
 31
0.0
  0
LINE
  5
214C
  8
0
  6
BYBLOCK
 10
177.5905437438559
 20
58.95854405848484
 30
0.0
 11
175.5905437438559
 21
59.494442438484839
 31
0.0
  0
LINE
  5
214D
  8
0
  6
BYBLOCK
 10
175.5905437438559
 20
59.494442438484839
 30
0.0
 11
177.5905437438559
 21
60.030340818484831
 31
0.0
  0
LINE
  5
214E
  8
0
  6
BYBLOCK
 10
175.5905437438559
 20
59.494442438484839
 30
0.0
 11
177.5905437438559
 21
59.494442438484839
 31
0.0
  0
TEXT
  5
214F
  8
1DIM
 10
243.0655437438561
 20
-43.522852116866069
 30
0.0
 40
3.5
  1
70 
  0
LINE
  5
2150
  8
0
  6
BYBLOCK
 10
278.6905437438561
 20
-43.68695373686608
 30
0.0
 11
280.6905437438561
 21
-44.222852116866079
 31
0.0
  0
LINE
  5
2151
  8
0
  6
BYBLOCK
 10
280.6905437438561
 20
-44.222852116866079
 30
0.0
 11
278.6905437438561
 21
-44.758750496866071
 31
0.0
  0
LINE
  5
2152
  8
0
  6
BYBLOCK
 10
280.6905437438561
 20
-44.222852116866079
 30
0.0
 11
278.6905437438561
 21
-44.222852116866079
 31
0.0
  0
LINE
  5
2153
  8
0
  6
BYBLOCK
 10
212.6905437438561
 20
-44.758750496866071
 30
0.0
 11
210.6905437438561
 21
-44.222852116866079
 31
0.0
  0
LINE
  5
2154
  8
0
  6
BYBLOCK
 10
210.6905437438561
 20
-44.222852116866079
 30
0.0
 11
212.6905437438561
 21
-43.68695373686608
 31
0.0
  0
LINE
  5
2155
  8
0
  6
BYBLOCK
 10
210.6905437438561
 20
-44.222852116866079
 30
0.0
 11
212.6905437438561
 21
-44.222852116866079
 31
0.0
  0
TEXT
  5
2156
  8
1DIM
 10
273.06554374385598
 20
-77.24319313376445
 30
0.0
 40
3.5
  1
70 
  0
LINE
  5
2157
  8
0
  6
BYBLOCK
 10
308.6905437438561
 20
-77.407294753764447
 30
0.0
 11
310.6905437438561
 21
-77.943193133764453
 31
0.0
  0
LINE
  5
2158
  8
0
  6
BYBLOCK
 10
310.6905437438561
 20
-77.943193133764453
 30
0.0
 11
308.6905437438561
 21
-78.479091513764459
 31
0.0
  0
LINE
  5
2159
  8
0
  6
BYBLOCK
 10
310.6905437438561
 20
-77.943193133764453
 30
0.0
 11
308.6905437438561
 21
-77.943193133764453
 31
0.0
  0
LINE
  5
215A
  8
0
  6
BYBLOCK
 10
242.69054374385601
 20
-78.479091513764459
 30
0.0
 11
240.69054374385601
 21
-77.943193133764453
 31
0.0
  0
LINE
  5
215B
  8
0
  6
BYBLOCK
 10
240.69054374385601
 20
-77.943193133764453
 30
0.0
 11
242.69054374385601
 21
-77.407294753764447
 31
0.0
  0
LINE
  5
215C
  8
0
  6
BYBLOCK
 10
240.69054374385601
 20
-77.943193133764453
 30
0.0
 11
242.69054374385601
 21
-77.943193133764453
 31
0.0
  0
TEXT
  5
215D
  8
1DIM
 10
223.06554374385601
 20
-77.24319313376445
 30
0.0
 40
3.5
  1
30 
  0
LINE
  5
215E
  8
0
  6
BYBLOCK
 10
212.6905437438561
 20
-78.479091513764459
 30
0.0
 11
210.6905437438561
 21
-77.943193133764453
 31
0.0
  0
LINE
  5
215F
  8
0
  6
BYBLOCK
 10
210.6905437438561
 20
-77.943193133764453
 30
0.0
 11
212.6905437438561
 21
-77.407294753764447
 31
0.0
  0
LINE
  5
2160
  8
0
  6
BYBLOCK
 10
210.6905437438561
 20
-77.943193133764453
 30
0.0
 11
212.6905437438561
 21
-77.943193133764453
 31
0.0
  0
LINE
  5
2161
  8
0
  6
BYBLOCK
 10
238.69054374385601
 20
-77.407294753764447
 30
0.0
 11
240.69054374385601
 21
-77.943193133764453
 31
0.0
  0
LINE
  5
2162
  8
0
  6
BYBLOCK
 10
240.69054374385601
 20
-77.943193133764453
 30
0.0
 11
238.69054374385601
 21
-78.479091513764459
 31
0.0
  0
LINE
  5
2163
  8
0
  6
BYBLOCK
 10
240.69054374385601
 20
-77.943193133764453
 30
0.0
 11
238.69054374385601
 21
-77.943193133764453
 31
0.0
  0
TEXT
  5
2164
  8
1DIM
 10
475.79324770727033
 20
-60.740300543476927
 30
0.0
 40
3.5
  1
3 
 50
90.0
  0
LINE
  5
2165
  8
0
  6
BYBLOCK
 10
475.95734932727032
 20
-63.046112113250373
 30
0.0
 11
476.49324770727031
 21
-61.046112113250373
 31
0.0
  0
LINE
  5
2166
  8
0
  6
BYBLOCK
 10
476.49324770727031
 20
-61.046112113250373
 30
0.0
 11
477.02914608727019
 21
-63.046112113250373
 31
0.0
  0
LINE
  5
2167
  8
0
  6
BYBLOCK
 10
476.49324770727031
 20
-61.046112113250373
 30
0.0
 11
476.49324770727031
 21
-63.046112113250373
 31
0.0
  0
LINE
  5
2168
  8
0
  6
BYBLOCK
 10
477.02914608727019
 20
-56.101155640370322
 30
0.0
 11
476.49324770727031
 21
-58.101155640370322
 31
0.0
  0
LINE
  5
2169
  8
0
  6
BYBLOCK
 10
476.49324770727031
 20
-58.101155640370322
 30
0.0
 11
475.95734932727032
 21
-56.101155640370322
 31
0.0
  0
LINE
  5
216A
  8
0
  6
BYBLOCK
 10
476.49324770727031
 20
-58.101155640370322
 30
0.0
 11
476.49324770727031
 21
-56.101155640370322
 31
0.0
  0
TEXT
  5
216B
  8
1DIM
 10
453.28671812154511
 20
-82.429185701877444
 30
0.0
 40
3.5
  1
25 
  0
LINE
  5
216C
  8
0
  6
BYBLOCK
 10
466.52501544038461
 20
-82.593287321877455
 30
0.0
 11
468.52501544038461
 21
-83.129185701877446
 31
0.0
  0
LINE
  5
216D
  8
0
  6
BYBLOCK
 10
468.52501544038461
 20
-83.129185701877446
 30
0.0
 11
466.52501544038461
 21
-83.665084081877467
 31
0.0
  0
LINE
  5
216E
  8
0
  6
BYBLOCK
 10
468.52501544038461
 20
-83.129185701877446
 30
0.0
 11
466.52501544038461
 21
-83.129185701877446
 31
0.0
  0
LINE
  5
216F
  8
0
  6
BYBLOCK
 10
445.88175413603898
 20
-83.665084081877467
 30
0.0
 11
443.88175413603892
 21
-83.129185701877446
 31
0.0
  0
LINE
  5
2170
  8
0
  6
BYBLOCK
 10
443.88175413603892
 20
-83.129185701877446
 30
0.0
 11
445.88175413603898
 21
-82.593287321877455
 31
0.0
  0
LINE
  5
2171
  8
0
  6
BYBLOCK
 10
443.88175413603892
 20
-83.129185701877446
 30
0.0
 11
445.88175413603898
 21
-83.129185701877446
 31
0.0
  0
TEXT
  5
2172
  8
1DIM
 10
481.60836086643309
 20
-61.906992084460512
 30
0.0
 40
3.5
  1
16 
 50
90.0
  0
LINE
  5
2173
  8
0
  6
BYBLOCK
 10
481.77246248643308
 20
-53.804939088564112
 30
0.0
 11
482.30836086643308
 21
-51.804939088564119
 31
0.0
  0
LINE
  5
2174
  8
0
  6
BYBLOCK
 10
482.30836086643308
 20
-51.804939088564119
 30
0.0
 11
482.84425924643313
 21
-53.804939088564112
 31
0.0
  0
LINE
  5
2175
  8
0
  6
BYBLOCK
 10
482.30836086643308
 20
-51.804939088564119
 30
0.0
 11
482.30836086643308
 21
-53.804939088564112
 31
0.0
  0
LINE
  5
2176
  8
0
  6
BYBLOCK
 10
482.84425924643313
 20
-65.342378413690241
 30
0.0
 11
482.30836086643308
 21
-67.342378413690241
 31
0.0
  0
LINE
  5
2177
  8
0
  6
BYBLOCK
 10
482.30836086643308
 20
-67.342378413690241
 30
0.0
 11
481.77246248643308
 21
-65.342378413690241
 31
0.0
  0
LINE
  5
2178
  8
0
  6
BYBLOCK
 10
482.30836086643308
 20
-67.342378413690241
 30
0.0
 11
482.30836086643308
 21
-65.342378413690241
 31
0.0
  0
TEXT
  5
2179
  8
1DIM
 10
385.88773853801132
 20
19.418482099216519
 30
0.0
 40
3.5
  1
30 
 50
90.0
  0
LINE
  5
217A
  8
0
  6
BYBLOCK
 10
386.05184015801132
 20
35.043482274062043
 30
0.0
 11
386.58773853801131
 21
37.043482274062043
 31
0.0
  0
LINE
  5
217B
  8
0
  6
BYBLOCK
 10
386.58773853801131
 20
37.043482274062043
 30
0.0
 11
387.1236369180113
 21
35.043482274062043
 31
0.0
  0
LINE
  5
217C
  8
0
  6
BYBLOCK
 10
386.58773853801131
 20
37.043482274062043
 30
0.0
 11
386.58773853801131
 21
35.043482274062043
 31
0.0
  0
LINE
  5
217D
  8
0
  6
BYBLOCK
 10
387.1236369180113
 20
9.0434819243708908
 30
0.0
 11
386.58773853801131
 21
7.043481924370889
 31
0.0
  0
LINE
  5
217E
  8
0
  6
BYBLOCK
 10
386.58773853801131
 20
7.043481924370889
 30
0.0
 11
386.05184015801132
 21
9.0434819243708908
 31
0.0
  0
LINE
  5
217F
  8
0
  6
BYBLOCK
 10
386.58773853801131
 20
7.043481924370889
 30
0.0
 11
386.58773853801131
 21
9.0434819243708908
 31
0.0
  0
TEXT
  5
2180
  8
1DIM
 10
385.88773853801132
 20
-61.906993295061007
 30
0.0
 40
3.5
  1
19 
 50
90.0
  0
LINE
  5
2181
  8
0
  6
BYBLOCK
 10
386.05184015801132
 20
-52.073659961727799
 30
0.0
 11
386.58773853801119
 21
-50.073659961727792
 31
0.0
  0
LINE
  5
2182
  8
0
  6
BYBLOCK
 10
386.58773853801119
 20
-50.073659961727792
 30
0.0
 11
387.12363691801119
 21
-52.073659961727799
 31
0.0
  0
LINE
  5
2183
  8
0
  6
BYBLOCK
 10
386.58773853801119
 20
-50.073659961727792
 30
0.0
 11
386.58773853801119
 21
-52.073659961727799
 31
0.0
  0
LINE
  5
2184
  8
0
  6
BYBLOCK
 10
387.12363691801119
 20
-67.073659961727685
 30
0.0
 11
386.58773853801119
 21
-69.073659961727685
 31
0.0
  0
LINE
  5
2185
  8
0
  6
BYBLOCK
 10
386.58773853801119
 20
-69.073659961727685
 30
0.0
 11
386.05184015801132
 21
-67.073659961727685
 31
0.0
  0
LINE
  5
2186
  8
0
  6
BYBLOCK
 10
386.58773853801119
 20
-69.073659961727685
 30
0.0
 11
386.58773853801119
 21
-67.073659961727685
 31
0.0
  0
TEXT
  5
2187
  8
1DIM
 10
375.09054367978121
 20
29.951815421622271
 30
0.0
 40
3.5
  1
10 
 50
90.0
  0
LINE
  5
2188
  8
0
  6
BYBLOCK
 10
375.2546452997812
 20
35.043481902515502
 30
0.0
 11
375.79054367978119
 21
37.043481902515502
 31
0.0
  0
LINE
  5
2189
  8
0
  6
BYBLOCK
 10
375.79054367978119
 20
37.043481902515502
 30
0.0
 11
376.32644205978119
 21
35.043481902515502
 31
0.0
  0
LINE
  5
218A
  8
0
  6
BYBLOCK
 10
375.79054367978119
 20
37.043481902515502
 30
0.0
 11
375.79054367978119
 21
35.043481902515502
 31
0.0
  0
LINE
  5
218B
  8
0
  6
BYBLOCK
 10
376.32644205978119
 20
28.943482274062251
 30
0.0
 11
375.79054367978119
 21
26.943482274062251
 31
0.0
  0
LINE
  5
218C
  8
0
  6
BYBLOCK
 10
375.79054367978119
 20
26.943482274062251
 30
0.0
 11
375.2546452997812
 21
28.943482274062251
 31
0.0
  0
LINE
  5
218D
  8
0
  6
BYBLOCK
 10
375.79054367978119
 20
26.943482274062251
 30
0.0
 11
375.79054367978119
 21
28.943482274062251
 31
0.0
  0
TEXT
  5
218E
  8
1DIM
 10
178.5238770771895
 20
-20.672909738413569
 30
0.0
 40
3.5
  1
8 
  0
LINE
  5
218F
  8
0
  6
BYBLOCK
 10
177.59054374385619
 20
-21.908808118413571
 30
0.0
 11
175.59054374385619
 21
-21.372909738413568
 31
0.0
  0
LINE
  5
2190
  8
0
  6
BYBLOCK
 10
175.59054374385619
 20
-21.372909738413568
 30
0.0
 11
177.59054374385619
 21
-20.837011358413569
 31
0.0
  0
LINE
  5
2191
  8
0
  6
BYBLOCK
 10
175.59054374385619
 20
-21.372909738413568
 30
0.0
 11
177.59054374385619
 21
-21.372909738413568
 31
0.0
  0
LINE
  5
2192
  8
0
  6
BYBLOCK
 10
181.7905437438562
 20
-20.837011358413569
 30
0.0
 11
183.7905437438562
 21
-21.372909738413568
 31
0.0
  0
LINE
  5
2193
  8
0
  6
BYBLOCK
 10
183.7905437438562
 20
-21.372909738413568
 30
0.0
 11
181.7905437438562
 21
-21.908808118413571
 31
0.0
  0
LINE
  5
2194
  8
0
  6
BYBLOCK
 10
183.7905437438562
 20
-21.372909738413568
 30
0.0
 11
181.7905437438562
 21
-21.372909738413568
 31
0.0
  0
LINE
  5
2195
  8
1DIM
 10
456.19677748139878
 20
-13.72987495641661
 30
0.0
 11
451.00419904245223
 21
-1.146918996394475
 31
0.0
  0
LINE
  5
2196
  8
1DIM
 10
451.00419904245223
 20
-1.146918996394475
 30
0.0
 11
482.90419904245209
 21
-1.146918996394475
 31
0.0
  0
LINE
  5
2197
  8
0
  6
BYBLOCK
 10
456.69215335452628
 20
-13.525449375801889
 30
0.0
 11
456.95970414154169
 21
-15.57864290054672
 31
0.0
  0
LINE
  5
2198
  8
0
  6
BYBLOCK
 10
456.95970414154169
 20
-15.57864290054672
 30
0.0
 11
455.70140160827111
 21
-13.934300537031319
 31
0.0
  0
LINE
  5
2199
  8
0
  6
BYBLOCK
 10
456.95970414154169
 20
-15.57864290054672
 30
0.0
 11
456.19677748139878
 21
-13.72987495641661
 31
0.0
  0
LINE
  5
219A
  8
1HATCH
 10
448.1131528808603
 20
-13.65642882408368
 30
0.0
 11
444.8368545479135
 21
4.8544270207295019
 31
0.0
  0
LINE
  5
219B
  8
1HATCH
 10
444.8368545479135
 20
4.8544270207295019
 30
0.0
 11
453.37018788124692
 21
4.8544270207295019
 31
0.0
  0
LINE
  5
219C
  8
0
  6
BYBLOCK
 10
448.64084951626347
 20
-13.56303003035057
 30
0.0
 11
448.46172192760048
 21
-15.625819496259879
 31
0.0
  0
LINE
  5
219D
  8
0
  6
BYBLOCK
 10
448.46172192760048
 20
-15.625819496259879
 30
0.0
 11
447.58545624545712
 21
-13.749827617816781
 31
0.0
  0
LINE
  5
219E
  8
0
  6
BYBLOCK
 10
448.46172192760048
 20
-15.625819496259879
 30
0.0
 11
448.1131528808603
 21
-13.65642882408368
 31
0.0
  0
TEXT
  5
219F
  8
1DIM
 10
392.63758030060399
 20
10.57681539976649
 30
0.0
 40
3.5
  1
47 
 50
90.0
  0
LINE
  5
21A0
  8
0
  6
BYBLOCK
 10
393.87347868060402
 20
-8.0565177259378586
 30
0.0
 11
393.33758030060409
 21
-10.05651772593786
 31
0.0
  0
LINE
  5
21A1
  8
0
  6
BYBLOCK
 10
393.33758030060409
 20
-10.05651772593786
 30
0.0
 11
392.80168192060398
 21
-8.0565177259378586
 31
0.0
  0
LINE
  5
21A2
  8
0
  6
BYBLOCK
 10
393.33758030060409
 20
-10.05651772593786
 30
0.0
 11
393.33758030060409
 21
-8.0565177259378586
 31
0.0
  0
LINE
  5
21A3
  8
0
  6
BYBLOCK
 10
392.80168192060398
 20
35.04348185880405
 30
0.0
 11
393.33758030060409
 21
37.04348185880405
 31
0.0
  0
LINE
  5
21A4
  8
0
  6
BYBLOCK
 10
393.33758030060409
 20
37.04348185880405
 30
0.0
 11
393.87347868060402
 21
35.04348185880405
 31
0.0
  0
LINE
  5
21A5
  8
0
  6
BYBLOCK
 10
393.33758030060409
 20
37.04348185880405
 30
0.0
 11
393.33758030060409
 21
35.04348185880405
 31
0.0
  0
TEXT
  5
21A6
  8
1DIM
 10
385.88773853801132
 20
-7.1231843926045499
 30
0.0
 40
3.5
  1
8 
 50
90.0
  0
LINE
  5
21A7
  8
0
  6
BYBLOCK
 10
387.1236369180113
 20
-8.0565177259380807
 30
0.0
 11
386.58773853801131
 21
-10.056517725938081
 31
0.0
  0
LINE
  5
21A8
  8
0
  6
BYBLOCK
 10
386.58773853801131
 20
-10.056517725938081
 30
0.0
 11
386.05184015801132
 21
-8.0565177259380807
 31
0.0
  0
LINE
  5
21A9
  8
0
  6
BYBLOCK
 10
386.58773853801131
 20
-10.056517725938081
 30
0.0
 11
386.58773853801131
 21
-8.0565177259380807
 31
0.0
  0
LINE
  5
21AA
  8
0
  6
BYBLOCK
 10
386.05184015801132
 20
-3.8565177259378118
 30
0.0
 11
386.58773853801131
 21
-1.8565177259378121
 31
0.0
  0
LINE
  5
21AB
  8
0
  6
BYBLOCK
 10
386.58773853801131
 20
-1.8565177259378121
 30
0.0
 11
387.1236369180113
 21
-3.8565177259378118
 31
0.0
  0
LINE
  5
21AC
  8
0
  6
BYBLOCK
 10
386.58773853801131
 20
-1.8565177259378121
 30
0.0
 11
386.58773853801131
 21
-3.8565177259378118
 31
0.0
  0
LINE
  5
21AD
  8
1DIM
 10
251.58769203480671
 20
-3.3251963713356631
 30
0.0
 11
259.41370271348637
 21
6.221968173860259
 31
0.0
  0
LINE
  5
21AE
  8
1DIM
 10
259.41370271348637
 20
6.221968173860259
 30
0.0
 11
306.68036938015308
 21
6.221968173860259
 31
0.0
  0
LINE
  5
21AF
  8
0
  6
BYBLOCK
 10
252.0021416934589
 20
-3.6649294343862251
 30
0.0
 11
250.31979097098721
 21
-4.8719435686389261
 31
0.0
  0
LINE
  5
21B0
  8
0
  6
BYBLOCK
 10
250.31979097098721
 20
-4.8719435686389261
 30
0.0
 11
251.17324237615449
 21
-2.985463308285103
 31
0.0
  0
LINE
  5
21B1
  8
0
  6
BYBLOCK
 10
250.31979097098721
 20
-4.8719435686389261
 30
0.0
 11
251.58769203480671
 21
-3.325196371335664
 31
0.0
  0
LINE
  5
21B2
  8
1DIM
 10
313.78689938947139
 20
25.46861065109217
 30
0.0
 11
323.40391928234038
 21
12.27604370147975
 31
0.0
  0
LINE
  5
21B3
  8
1DIM
 10
323.40391928234038
 20
12.27604370147975
 30
0.0
 11
366.70391928234039
 21
12.27604370147975
 31
0.0
  0
LINE
  5
21B4
  8
0
  6
BYBLOCK
 10
313.35384945948772
 20
25.15292911563629
 30
0.0
 11
312.60875984944931
 21
27.084775006668849
 31
0.0
  0
LINE
  5
21B5
  8
0
  6
BYBLOCK
 10
312.60875984944931
 20
27.084775006668849
 30
0.0
 11
314.21994931945511
 21
25.784292186548061
 31
0.0
  0
LINE
  5
21B6
  8
0
  6
BYBLOCK
 10
312.60875984944931
 20
27.084775006668849
 30
0.0
 11
313.78689938947139
 21
25.46861065109217
 31
0.0
  0
VIEWPORT
  5
57
 67
     1
  8
0
 10
-12.737276748231009
 20
10.082546346911551
 30
0.0
 40
426.47376658638967
 41
282.79136265156501
 68
     1
 69
     1
1001
ACAD
1000
MVIEW
1002
{
1070
    16
1010
0.0
1020
0.0
1030
0.0
1010
0.0
1020
0.0
1030
1.0
1040
0.0
1040
282.79136265156501
1040
-12.737276748231009
1040
10.082546346911551
1040
50.0
1040
0.0
1040
0.0
1070
     0
1070
  1000
1070
     1
1070
     1
1070
     0
1070
     0
1070
     0
1070
     0
1040
0.0
1040
0.0
1040
0.0
1040
10.0
1040
10.0
1040
10.0
1040
10.0
1070
     0
1002
{
1002
}
1002
}
  0
ENDSEC
  0
EOF
