  0
SECTION
  2
HEADER
  9
$ACADVER
  1
AC1009
  9
$INSBASE
 10
0.0
 20
0.0
 30
0.0
  9
$EXTMIN
 10
-707.22033736227309
 20
-1048.2009569997999
 30
0.0
  9
$EXTMAX
 10
-344.7798323366668
 20
-771.58236891338458
 30
0.0
  9
$LIMMIN
 10
0.0
 20
0.0
  9
$LIMMAX
 10
420.0
 20
297.0
  9
$ORTHOMODE
 70
     0
  9
$REGENMODE
 70
     1
  9
$FILLMODE
 70
     1
  9
$QTEXTMODE
 70
     0
  9
$MIRRTEXT
 70
     0
  9
$DRAGMODE
 70
     2
  9
$LTSCALE
 40
0.5
  9
$OSMODE
 70
  2175
  9
$ATTMODE
 70
     1
  9
$TEXTSIZE
 40
4.0
  9
$TRACEWID
 40
1.0
  9
$TEXTSTYLE
  7
STANDARD
  9
$CLAYER
  8
1TEXT
  9
$CELTYPE
  6
BYLAYER
  9
$CECOLOR
 62
   256
  9
$DIMSCALE
 40
1.0
  9
$DIMASZ
 40
2.0
  9
$DIMEXO
 40
0.0
  9
$DIMDLI
 40
7.0
  9
$DIMRND
 40
0.0
  9
$DIMDLE
 40
0.0
  9
$DIMEXE
 40
1.0
  9
$DIMTP
 40
0.0
  9
$DIMTM
 40
0.0
  9
$DIMTXT
 40
3.5
  9
$DIMCEN
 40
0.0
  9
$DIMTSZ
 40
0.0
  9
$DIMTOL
 70
     0
  9
$DIMLIM
 70
     0
  9
$DIMTIH
 70
     0
  9
$DIMTOH
 70
     0
  9
$DIMSE1
 70
     0
  9
$DIMSE2
 70
     0
  9
$DIMTAD
 70
     1
  9
$DIMZIN
 70
     8
  9
$DIMBLK
  1

  9
$DIMASO
 70
     1
  9
$DIMSHO
 70
     1
  9
$DIMPOST
  1
 
  9
$DIMAPOST
  1

  9
$DIMALT
 70
     0
  9
$DIMALTD
 70
     2
  9
$DIMALTF
 40
25.399999999999999
  9
$DIMLFAC
 40
1.0
  9
$DIMTOFL
 70
     1
  9
$DIMTVP
 40
0.0
  9
$DIMTIX
 70
     0
  9
$DIMSOXD
 70
     0
  9
$DIMSAH
 70
     1
  9
$DIMBLK1
  1
OPEN30
  9
$DIMBLK2
  1
OPEN30
  9
$DIMSTYLE
  2
NEWX10
  9
$DIMCLRD
 70
   256
  9
$DIMCLRE
 70
   256
  9
$DIMCLRT
 70
   201
  9
$DIMTFAC
 40
0.7
  9
$DIMGAP
 40
0.7
  9
$LUNITS
 70
     2
  9
$LUPREC
 70
     4
  9
$SKETCHINC
 40
1.0
  9
$FILLETRAD
 40
0.5
  9
$AUNITS
 70
     0
  9
$AUPREC
 70
     2
  9
$MENU
  1
acad
  9
$ELEVATION
 40
0.0
  9
$PELEVATION
 40
0.0
  9
$THICKNESS
 40
0.0
  9
$LIMCHECK
 70
     0
  9
$BLIPMODE
 70
     0
  9
$CHAMFERA
 40
10.0
  9
$CHAMFERB
 40
10.0
  9
$SKPOLY
 70
     0
  9
$TDCREATE
 40
2453033.7326634838
  9
$TDUPDATE
 40
2455958.785844537
  9
$TDINDWG
 40
1.6427647568999999
  9
$TDUSRTIMER
 40
1.6427647568999999
  9
$USRTIMER
 70
     1
  9
$ANGBASE
 50
0.0
  9
$ANGDIR
 70
     0
  9
$PDMODE
 70
     0
  9
$PDSIZE
 40
0.0
  9
$PLINEWID
 40
0.0
  9
$COORDS
 70
     2
  9
$SPLFRAME
 70
     0
  9
$SPLINETYPE
 70
     6
  9
$SPLINESEGS
 70
     8
  9
$ATTDIA
 70
     0
  9
$ATTREQ
 70
     1
  9
$HANDLING
 70
     1
  9
$HANDSEED
  5
1665B
  9
$SURFTAB1
 70
     6
  9
$SURFTAB2
 70
     6
  9
$SURFTYPE
 70
     6
  9
$SURFU
 70
     6
  9
$SURFV
 70
     6
  9
$UCSNAME
  2

  9
$UCSORG
 10
0.0
 20
0.0
 30
0.0
  9
$UCSXDIR
 10
1.0
 20
0.0
 30
0.0
  9
$UCSYDIR
 10
0.0
 20
1.0
 30
0.0
  9
$PUCSNAME
  2

  9
$PUCSORG
 10
0.0
 20
0.0
 30
0.0
  9
$PUCSXDIR
 10
1.0
 20
0.0
 30
0.0
  9
$PUCSYDIR
 10
0.0
 20
1.0
 30
0.0
  9
$USERI1
 70
     0
  9
$USERI2
 70
     0
  9
$USERI3
 70
     0
  9
$USERI4
 70
     0
  9
$USERI5
 70
     0
  9
$USERR1
 40
0.0
  9
$USERR2
 40
0.0
  9
$USERR3
 40
0.0
  9
$USERR4
 40
0.0
  9
$USERR5
 40
0.0
  9
$WORLDVIEW
 70
     1
  9
$SHADEDGE
 70
     3
  9
$SHADEDIF
 70
    70
  9
$TILEMODE
 70
     1
  9
$MAXACTVP
 70
    48
  9
$PLIMCHECK
 70
     0
  9
$PEXTMIN
 10
1.0000000000000000E+020
 20
1.0000000000000000E+020
 30
1.0000000000000000E+020
  9
$PEXTMAX
 10
-1.0000000000000000E+020
 20
-1.0000000000000000E+020
 30
-1.0000000000000000E+020
  9
$PLIMMIN
 10
0.0
 20
0.0
  9
$PLIMMAX
 10
420.0
 20
297.0
  9
$UNITMODE
 70
     0
  9
$VISRETAIN
 70
     1
  9
$PLINEGEN
 70
     0
  9
$PSLTSCALE
 70
     1
  0
ENDSEC
  0
SECTION
  2
TABLES
  0
TABLE
  2
VPORT
 70
     1
  0
VPORT
  2
*ACTIVE
 70
     0
 10
0.0
 20
0.0
 11
1.0
 21
1.0
 12
-526.00955234174035
 22
-909.895839007208
 13
0.0
 23
0.0
 14
10.0
 24
10.0
 15
10.0
 25
10.0
 16
0.0
 26
0.0
 36
1.0
 17
0.0
 27
0.0
 37
0.0
 40
293.45600877295323
 41
1.4123581336696089
 42
50.0
 43
0.0
 44
0.0
 50
0.0
 51
0.0
 71
     0
 72
   100
 73
     1
 74
     1
 75
     0
 76
     0
 77
     0
 78
     0
  0
ENDTAB
  0
TABLE
  2
LTYPE
 70
    15
  0
LTYPE
  2
CONTINUOUS
 70
     0
  3
Solid line
 72
    65
 73
     0
 40
0.0
  0
LTYPE
  2
CENTER2
 70
     0
  3
Center (.5x) ___ _ ___ _ ___ _ ___ _ ___ _ ___
 72
    65
 73
     4
 40
28.574999999999999
 49
19.050000000000001
 49
-3.1749999999999989
 49
3.1749999999999989
 49
-3.1749999999999989
  0
LTYPE
  2
XREF1|CENTER2
 70
    48
  3
Center (.5x) ___ _ ___ _ ___ _ ___ _ ___ _ ___
 72
    65
 73
     4
 40
28.574999999999999
 49
19.050000000000001
 49
-3.1749999999999989
 49
3.1749999999999989
 49
-3.1749999999999989
  0
LTYPE
  2
PHANTOM2
 70
     0
  3
Phantom (.5x) ___ _ _ ___ _ _ ___ _ _ ___ _ _
 72
    65
 73
     6
 40
31.75
 49
15.875
 49
-3.1749999999999989
 49
3.1749999999999989
 49
-3.1749999999999989
 49
3.1749999999999989
 49
-3.1749999999999989
  0
LTYPE
  2
A3WAKUDAKE|CENTER2
 70
    48
  3
Center (.5x) ___ _ ___ _ ___ _ ___ _ ___ _ ___
 72
    65
 73
     4
 40
28.574999999999999
 49
19.050000000000001
 49
-3.1749999999999989
 49
3.1749999999999989
 49
-3.1749999999999989
  0
ENDTAB
  0
TABLE
  2
LAYER
 70
    44
  0
LAYER
  2
0
 70
     0
 62
     7
  6
CONTINUOUS
  0
LAYER
  2
1CENTER
 70
     0
 62
     7
  6
CENTER2
  0
LAYER
  2
1TEXT
 70
     0
 62
     7
  6
CONTINUOUS
  0
LAYER
  2
1DIM
 70
     0
 62
     7
  6
CONTINUOUS
  0
LAYER
  2
1PHANTOM
 70
     0
 62
     7
  6
PHANTOM2
  0
LAYER
  2
01
 70
     0
 62
     1
  6
CONTINUOUS
  0
LAYER
  2
1HATCH
 70
     0
 62
     7
  6
CONTINUOUS
  0
LAYER
  2
XREF1|1CENTER
 70
    48
 62
     7
  6
XREF1|CENTER2
  0
LAYER
  2
A3WAKUDAKE|THICK
 70
    48
 62
     7
  6
CONTINUOUS
  0
LAYER
  2
A3WAKUDAKE|POINT
 70
    48
 62
     7
  6
CONTINUOUS
  0
LAYER
  2
A3WAKUDAKE|1CENTER
 70
    48
 62
     7
  6
A3WAKUDAKE|CENTER2
  0
LAYER
  2
A3WAKUDAKE|0-6
 70
    48
 62
     7
  6
CONTINUOUS
  0
LAYER
  2
A3WAKUDAKE|1DIM
 70
    48
 62
     7
  6
CONTINUOUS
  0
ENDTAB
  0
TABLE
  2
STYLE
 70
    22
  0
STYLE
  2
STANDARD
 70
     0
 40
0.0
 41
1.0
 50
0.0
 71
     0
 42
4.0
  3
txt.shx
  4
extfont.shx
  0
ENDTAB
  0
TABLE
  2
VIEW
 70
     0
  0
ENDTAB
  0
TABLE
  2
UCS
 70
     0
  0
ENDTAB
  0
TABLE
  2
APPID
 70
    10
  0
APPID
  2
ACAD
 70
     0
  0
APPID
  2
DRAWINGVARIABLESXDATA
 70
     0
  0
APPID
  2
CONTENTTABDATA
 70
     0
  0
APPID
  2
CONTENTCURRENTTAB
 70
     0
  0
APPID
  2
CONTENTBLOCKDESCRIPTION
 70
     0
  0
APPID
  2
CONTENTBLOCKICON
 70
     0
  0
APPID
  2
CONTENTLONGBLOCKNAME
 70
     0
  0
APPID
  2
ACAD_PSEXT
 70
     0
  0
APPID
  2
ACAD_DSTYLE_DIMTEXT_FILL
 70
     0
  0
APPID
  2
ACAD_MLEADERVER
 70
     0
  0
ENDTAB
  0
TABLE
  2
DIMSTYLE
 70
     9
  0
DIMSTYLE
  2
NEWX10
 70
     0
  3
 
  4

  5

  6
OPEN30
  7
OPEN30
 40
1.0
 41
2.0
 42
0.0
 43
7.0
 44
1.0
 45
0.0
 46
0.0
 47
0.0
 48
0.0
140
3.5
141
0.0
142
0.0
143
25.399999999999999
144
1.0
145
0.0
146
0.7
147
0.7
 71
     0
 72
     0
 73
     0
 74
     0
 75
     0
 76
     0
 77
     1
 78
     8
170
     0
171
     2
172
     1
173
     1
174
     0
175
     0
176
   256
177
   256
178
   201
  0
ENDTAB
  0
ENDSEC
  0
SECTION
  2
BLOCKS
  0
BLOCK
  8
0
  2
$MODEL_SPACE
 70
     0
 10
0.0
 20
0.0
 30
0.0
  3
$MODEL_SPACE
  1

  0
ENDBLK
  5
1A
  8
0
  0
BLOCK
 67
     1
  8
0
  2
$PAPER_SPACE
 70
     0
 10
0.0
 20
0.0
 30
0.0
  3
$PAPER_SPACE
  1

  0
ENDBLK
  5
17
 67
     1
  8
0
  0
BLOCK
  8
0
  2
_OPEN30
 70
     0
 10
0.0
 20
0.0
 30
0.0
  3
_OPEN30
  1

  0
LINE
  5
44
  8
0
  6
BYBLOCK
 62
     0
 10
-1.0
 20
0.26794919
 30
0.0
 11
0.0
 21
0.0
 31
0.0
  0
LINE
  5
45
  8
0
  6
BYBLOCK
 62
     0
 10
0.0
 20
0.0
 30
0.0
 11
-1.0
 21
-0.26794919
 31
0.0
  0
LINE
  5
46
  8
0
  6
BYBLOCK
 62
     0
 10
0.0
 20
0.0
 30
0.0
 11
-1.0
 21
0.0
 31
0.0
  0
ENDBLK
  5
47
  8
0
  0
BLOCK
  8
0
  2
XREF1
 70
    36
 10
0.0
 20
0.0
 30
0.0
  3
XREF1
  1
D:\ACLT\FORMAT\KAWAJUN(9)図面用.dwg
  0
ENDBLK
  5
5D
  8
0
  0
BLOCK
  8
0
  2
A3WAKUDAKE
 70
    36
 10
0.0
 20
0.0
 30
0.0
  3
A3WAKUDAKE
  1
D:\ACLT\FORMAT\A3WAKUdake.dwg
  0
ENDBLK
  5
6DC
  8
0
  0
BLOCK
  8
0
  2
*U58
 70
     1
 10
0.0
 20
0.0
 30
0.0
  3
*U58
  1

  0
TEXT
  5
16242
  8
0
 62
   201
 10
-63.717024855154051
 20
-3.8109119089904788
 30
0.0
 40
3.5
  1
φ5
 50
48.83031736650419
  0
ENDBLK
  5
16244
  8
0
  0
BLOCK
  8
0
  2
*U59
 70
     1
 10
0.0
 20
0.0
 30
0.0
  3
*U59
  1

  0
TEXT
  5
16246
  8
1TEXT
 62
   201
 10
21.614708555164611
 20
22.401236958861659
 30
0.0
 40
2.0
  1
二文字
  0
TEXT
  5
16247
  8
1TEXT
 62
   201
 10
21.614708555164611
 20
19.067903625528331
 30
0.0
 40
2.0
  1
(別途指定)
  0
TEXT
  5
16248
  8
1TEXT
 62
   201
 10
21.614708555164611
 20
15.73457029219499
 30
0.0
 40
2.0
  1
天地 約1.8
  0
TEXT
  5
16249
  8
1TEXT
 62
   201
 10
21.614708555164611
 20
12.401236958861659
 30
0.0
 40
2.0
  1
凸0.2
  0
ENDBLK
  5
1624B
  8
0
  0
BLOCK
  8
0
  2
*U60
 70
     1
 10
0.0
 20
0.0
 30
0.0
  3
*U60
  1

  0
SOLID
  5
1624D
  8
1DIM
 10
17.769912945885331
 20
22.805130681268722
 30
0.0
 11
17.678379796037799
 21
23.814783819854821
 31
0.0
 12
18.0924202800296
 22
22.889392953575271
 32
0.0
 13
18.0924202800296
 23
22.889392953575271
 33
0.0
  0
POLYLINE
  5
1624E
  8
1DIM
 66
     1
 10
0.0
 20
0.0
 30
0.0
  0
VERTEX
  5
1624F
  8
1DIM
 10
17.931166612957469
 20
22.847261817422002
 30
0.0
  0
VERTEX
  5
16250
  8
1DIM
 10
20.91703607932029
 20
11.41907722970881
 30
0.0
  0
VERTEX
  5
16251
  8
1DIM
 10
35.143226555510758
 20
11.41907722970881
 30
0.0
  0
SEQEND
  5
16252
  8
1DIM
  0
ENDBLK
  5
16254
  8
0
  0
BLOCK
  8
0
  2
*U61
 70
     1
 10
0.0
 20
0.0
 30
0.0
  3
*U61
  1

  0
TEXT
  5
16256
  8
1DIM
 62
   201
 10
8.9421530727463576
 20
19.285028579396069
 30
0.0
 40
2.0
  1
枠
  0
TEXT
  5
16257
  8
1DIM
 62
   201
 10
7.0754864060796896
 20
15.951695246062741
 30
0.0
 40
2.0
  1
φ5
  0
TEXT
  5
16258
  8
1DIM
 62
   201
 10
4.7421530727463583
 20
12.61836191272941
 30
0.0
 40
2.0
  1
凹0.3
  0
ENDBLK
  5
1625A
  8
0
  0
BLOCK
  8
0
  2
*U62
 70
     1
 10
0.0
 20
0.0
 30
0.0
  3
*U62
  1

  0
SOLID
  5
1625C
  8
1DIM
 10
14.77538895849114
 20
20.894651819020488
 30
0.0
 11
15.75963814806016
 21
22.667323431007279
 31
0.0
 12
15.403512140193291
 22
20.67125595278117
 32
0.0
 13
15.403512140193291
 23
20.67125595278117
 33
0.0
  0
POLYLINE
  5
1625D
  8
1DIM
 66
     1
 10
0.0
 20
0.0
 30
0.0
  0
VERTEX
  5
1625E
  8
1DIM
 10
15.089450549342221
 20
20.782953885900831
 30
0.0
  0
VERTEX
  5
1625F
  8
1DIM
 10
11.821762131327951
 20
11.59517937383526
 30
0.0
  0
VERTEX
  5
16260
  8
1DIM
 10
2.3789049884708091
 20
11.59517937383526
 30
0.0
  0
SEQEND
  5
16261
  8
1DIM
  0
ENDBLK
  5
16263
  8
0
  0
BLOCK
  8
0
  2
*U63
 70
     1
 10
0.0
 20
0.0
 30
0.0
  3
*U63
  1

  0
TEXT
  5
16266
  8
1TEXT
 10
14.9745471932972
 20
24.09947430071913
 30
0.0
 40
1.8
  1
XY
  0
ENDBLK
  5
16268
  8
0
  0
BLOCK
  8
0
  2
*U64
 70
     1
 10
0.0
 20
0.0
 30
0.0
  3
*U64
  1

  0
LINE
  5
1626A
  8
0
 10
-4.1999999999999877
 20
-1.9999999999999849
 30
0.0
 11
-0.3500000000000227
 21
-2.0
 31
0.0
  0
LINE
  5
1626B
  8
0
 10
0.0
 20
-1.6499999999998629
 30
0.0
 11
-0.3500000000000227
 21
-2.0
 31
0.0
  0
LINE
  5
1626C
  8
0
 10
-6.0
 20
-0.200000000000017
 30
0.0
 11
-4.1999999999999877
 21
-1.9999999999999849
 31
0.0
  0
LINE
  5
1626D
  8
0
 10
0.0
 20
1.649999999999977
 30
0.0
 11
0.0
 21
-1.6499999999998629
 31
0.0
  0
LINE
  5
1626E
  8
0
 10
-6.0
 20
0.2000000000000028
 30
0.0
 11
-6.0
 21
-0.200000000000017
 31
0.0
  0
LINE
  5
1626F
  8
0
 10
-0.3500000000000227
 20
2.0
 30
0.0
 11
0.0
 21
1.649999999999977
 31
0.0
  0
LINE
  5
16270
  8
0
 10
-6.0
 20
0.2000000000000028
 30
0.0
 11
-4.2000000000000446
 21
2.0
 31
0.0
  0
LINE
  5
16271
  8
0
 10
-4.2000000000000446
 20
2.0
 30
0.0
 11
-0.3500000000000227
 21
2.0
 31
0.0
  0
ENDBLK
  5
16273
  8
0
  0
BLOCK
  8
0
  2
*U65
 70
     1
 10
0.0
 20
0.0
 30
0.0
  3
*U65
  1

  0
LINE
  5
16275
  8
0
 10
-5.6499999999999773
 20
2.0000000000000142
 30
0.0
 11
-0.3500000000000227
 21
2.0
 31
0.0
  0
LINE
  5
16276
  8
0
 10
-5.6499999999999773
 20
2.0000000000000142
 30
0.0
 11
-6.0
 21
1.6499999999999631
 31
0.0
  0
LINE
  5
16277
  8
0
 10
-0.3500000000000227
 20
2.0
 30
0.0
 11
0.0
 21
1.649999999999977
 31
0.0
  0
LINE
  5
16278
  8
0
 10
-6.0
 20
1.6499999999999631
 30
0.0
 11
-6.0
 21
-1.6499999999998629
 31
0.0
  0
LINE
  5
16279
  8
0
 10
0.0
 20
1.649999999999977
 30
0.0
 11
0.0
 21
-1.6499999999998629
 31
0.0
  0
LINE
  5
1627A
  8
0
 10
-6.0
 20
-1.6499999999998629
 30
0.0
 11
-5.6499999999999773
 21
-1.9999999999999849
 31
0.0
  0
LINE
  5
1627B
  8
0
 10
0.0
 20
-1.6499999999998629
 30
0.0
 11
-0.3500000000000227
 21
-2.0
 31
0.0
  0
LINE
  5
1627C
  8
0
 10
-5.6499999999999773
 20
-1.9999999999999849
 30
0.0
 11
-0.3500000000000227
 21
-2.0
 31
0.0
  0
ENDBLK
  5
1627E
  8
0
  0
BLOCK
  8
0
  2
*X66
 70
     1
 10
0.0
 20
0.0
 30
0.0
  3
*X66
  1

  0
LINE
  5
16280
  8
0
 62
     0
 10
10.35561001165331
 20
1.7353216665921991
 30
0.0
 11
1.735321666592085
 21
10.35561001165342
 31
0.0
  0
LINE
  5
16281
  8
0
 62
     0
 10
0.0000000000001137
 20
8.4988292298177157
 30
0.0
 11
-1.838891835213303
 21
10.337721065031021
 31
0.0
  0
LINE
  5
16282
  8
0
 62
     0
 10
8.4988292298179431
 20
-0.0000000000001137
 30
0.0
 11
0.0000000000001137
 21
8.4988292298177157
 31
0.0
  0
LINE
  5
16283
  8
0
 62
     0
 10
10.337721065031131
 20
-1.838891835213303
 30
0.0
 11
8.4988292298179431
 21
-0.0000000000001137
 31
0.0
  0
LINE
  5
16284
  8
0
 62
     0
 10
-0.2377810848388435
 20
5.1445078662289907
 30
0.0
 11
-4.5542045235814612
 21
9.4609313049716093
 31
0.0
  0
LINE
  5
16285
  8
0
 62
     0
 10
9.4609313049714956
 20
-4.5542045235813466
 30
0.0
 11
5.1445078662289907
 21
-0.2377810848388435
 31
0.0
  0
LINE
  5
16286
  8
0
 62
     0
 10
-2.9244738727450108
 20
4.2390982057073643
 30
0.0
 11
-6.7381554127728123
 21
8.0527797457351653
 31
0.0
  0
LINE
  5
16287
  8
0
 62
     0
 10
8.0527797457350516
 20
-6.7381554127726977
 30
0.0
 11
4.2390982057073643
 21
-2.9244738727450108
 31
0.0
  0
LINE
  5
16288
  8
0
 62
     0
 10
-4.5977163449367699
 20
2.3202382294715558
 30
0.0
 11
-8.4755144637537114
 21
6.1980363482883831
 31
0.0
  0
LINE
  5
16289
  8
0
 62
     0
 10
6.1980363482882694
 20
-8.4755144637535977
 30
0.0
 11
2.3202382294715558
 21
-4.5977163449367699
 31
0.0
  0
LINE
  5
1628A
  8
0
 62
     0
 10
-5.0907718486563454
 20
-0.7788087152364369
 30
0.0
 11
-5.8695805638927823
 21
0.0
 31
0.0
  0
LINE
  5
1628B
  8
0
 62
     0
 10
-5.8695805638928951
 20
0.0
 30
0.0
 11
-9.9540062277598054
 21
4.0844256638669094
 31
0.0
  0
LINE
  5
1628C
  8
0
 62
     0
 10
3.8851808324346839
 20
-9.7547613963275808
 30
0.0
 11
2.0
 21
-7.8695805638928951
 31
0.0
  0
LINE
  5
1628D
  8
0
 62
     0
 10
-9.4616830123206892
 20
0.0
 30
0.0
 11
-18.103896804350711
 21
8.6422137920301338
 31
0.0
  0
LINE
  5
1628E
  8
0
 62
     0
 10
-2.0000000000001128
 20
-7.4616830123204627
 30
0.0
 11
-9.4616830123204636
 21
-0.0000000000001137
 31
0.0
  0
LINE
  5
1628F
  8
0
 62
     0
 10
-13.05378546074826
 20
0.0000000000001137
 30
0.0
 11
-15.175214195387071
 21
2.1214287346389251
 31
0.0
  0
LINE
  5
16290
  8
0
 62
     0
 10
-16.603785460748661
 20
3.5500000000005221
 30
0.0
 11
-23.851266556543241
 21
10.79748109579509
 31
0.0
  0
LINE
  5
16291
  8
0
 62
     0
 10
-2.9878714975766338
 20
-10.065913963171511
 30
0.0
 11
-13.053785460748029
 21
-0.0000000000001137
 31
0.0
  0
LINE
  5
16292
  8
0
 62
     0
 10
-20.195887909176118
 20
3.5500000000002951
 30
0.0
 11
-28.659515684223379
 21
12.013627775047439
 31
0.0
  0
LINE
  5
16293
  8
0
 62
     0
 10
-29.100013291500659
 20
12.454125382324831
 30
0.0
 11
-29.745874817675372
 21
13.09998690849943
 31
0.0
  0
LINE
  5
16294
  8
0
 62
     0
 10
-12.628969351714661
 20
-4.0169185574611674
 30
0.0
 11
-14.93702132611565
 21
-1.7088665830602841
 31
0.0
  0
LINE
  5
16295
  8
0
 62
     0
 10
-23.78799035760369
 20
3.550000000000181
 30
0.0
 11
-27.799999599999751
 21
7.5620092423962433
 31
0.0
  0
LINE
  5
16296
  8
0
 62
     0
 10
-31.237990357603621
 20
11.00000000000011
 30
0.0
 11
-33.000000200000052
 21
12.762009842396539
 31
0.0
  0
LINE
  5
16297
  8
0
 62
     0
 10
-13.78316865624026
 20
-6.454821701363243
 30
0.0
 11
-16.687990357603208
 21
-3.5500000000002951
 31
0.0
  0
LINE
  5
16298
  8
0
 62
     0
 10
-16.124704244214509
 20
-7.7053885618167888
 30
0.0
 11
-20.280092806031231
 21
-3.5500000000000682
 31
0.0
  0
LINE
  5
16299
  8
0
 62
     0
 10
-18.57318348346837
 20
-8.849011770990387
 30
0.0
 11
-20.133604742031139
 21
-7.2885905124276169
 31
0.0
  0
LINE
  5
1629A
  8
0
 62
     0
 10
-24.295840827822978
 20
-6.7184568750635663
 30
0.0
 11
-27.132148651443231
 21
-3.8821490514432071
 31
0.0
  0
LINE
  5
1629B
  8
0
 62
     0
 10
-23.818861225215301
 20
-10.787538926098931
 30
0.0
 11
-27.799999599999872
 21
-6.8064005513143684
 31
0.0
  0
LINE
  5
1629C
  8
0
 62
     0
 10
-26.63513577162314
 20
-11.56336682811866
 30
0.0
 11
-28.117386294735979
 21
-10.081116305005819
 31
0.0
  0
LINE
  5
1629D
  8
0
 62
     0
 10
-29.133782390785999
 20
-12.656822657383479
 30
0.0
 11
-30.790605048169478
 21
-11.00000000000011
 31
0.0
  0
LINE
  5
1629E
  8
0
 62
     0
 10
-31.632707496597501
 20
-13.749999999999661
 30
0.0
 11
-33.000000200000159
 21
-12.38270729659712
 31
0.0
  0
ENDBLK
  5
162A0
  8
0
  0
BLOCK
  8
0
  2
*X67
 70
     1
 10
0.0
 20
0.0
 30
0.0
  3
*X67
  1

  0
LINE
  5
162A2
  8
0
 62
     0
 10
0.0
 20
-9.5063084520140535
 30
0.0
 11
1.243691546508898
 21
-10.74999999852295
 31
0.0
  0
LINE
  5
162A3
  8
0
 62
     0
 10
1.3407299661462839
 20
-9.5
 30
0.0
 11
1.8000087437750381
 21
-9.9592787776287537
 31
0.0
  0
LINE
  5
162A4
  8
0
 62
     0
 10
0.0
 20
-4.1181547793725883
 30
0.0
 11
0.8818452206274969
 21
-5.0000000000000853
 31
0.0
  0
LINE
  5
162A5
  8
0
 62
     0
 10
0.0000000000000284
 20
-2.77111636121225
 30
0.0
 11
1.8000087437751799
 21
-4.5711251049874022
 31
0.0
  0
LINE
  5
162A6
  8
0
 62
     0
 10
0.0
 20
-1.4240779430518271
 30
0.0
 11
2.125922055471221
 21
-3.5499999985230479
 31
0.0
  0
LINE
  5
162A7
  8
0
 62
     0
 10
-0.0000000000000284
 20
-0.0770395248914611
 30
0.0
 11
3.2229604751084651
 21
-3.2999999999999541
 31
0.0
  0
LINE
  5
162A8
  8
0
 62
     0
 10
1.269998893268905
 20
0.0000000000000284
 30
0.0
 11
4.5699988932688589
 21
-3.2999999999999541
 31
0.0
  0
LINE
  5
162A9
  8
0
 62
     0
 10
0.0
 20
1.269998893268933
 30
0.0
 11
1.2699988932688759
 21
0.0000000000000284
 31
0.0
  0
LINE
  5
162AA
  8
0
 62
     0
 10
2.6170373114292711
 20
0.0000000000000284
 30
0.0
 11
5.9170373114292261
 21
-3.2999999999999261
 31
0.0
  0
LINE
  5
162AB
  8
0
 62
     0
 10
0.0
 20
2.6170373114292991
 30
0.0
 11
2.6170373114292711
 21
0.0000000000000284
 31
0.0
  0
LINE
  5
162AC
  8
0
 62
     0
 10
3.9640757295896369
 20
0.0
 30
0.0
 11
7.2640757295895924
 21
-3.2999999999999541
 31
0.0
  0
LINE
  5
162AD
  8
0
 62
     0
 10
-0.0000000000000284
 20
3.9640757295896658
 30
0.0
 11
3.964075729589609
 21
0.0000000000000284
 31
0.0
  0
LINE
  5
162AE
  8
0
 62
     0
 10
5.3111141477500601
 20
-0.0000000000000568
 30
0.0
 11
8.6111141477499871
 21
-3.2999999999999541
 31
0.0
  0
LINE
  5
162AF
  8
0
 62
     0
 10
0.3111141477500894
 20
4.9999999999999138
 30
0.0
 11
5.3111141477500041
 21
0.0000000000000284
 31
0.0
  0
LINE
  5
162B0
  8
0
 62
     0
 10
3.358152565910415
 20
3.2999999999999541
 30
0.0
 11
6.6581525659103704
 21
0.0000000000000284
 31
0.0
  0
LINE
  5
162B1
  8
0
 62
     0
 10
6.6581525659104273
 20
-0.0000000000000284
 30
0.0
 11
9.5072519243349234
 21
-2.8490993584245521
 31
0.0
  0
LINE
  5
162B2
  8
0
 62
     0
 10
1.65815256591037
 20
5.0000000000000284
 30
0.0
 11
1.8000087437750381
 21
4.8581438221353324
 31
0.0
  0
LINE
  5
162B3
  8
0
 62
     0
 10
8.0051909840707935
 20
-0.0000000000000568
 30
0.0
 11
11.16707517499839
 21
-3.1618841909276219
 31
0.0
  0
LINE
  5
162B4
  8
0
 62
     0
 10
4.7051909840707822
 20
3.2999999999999541
 30
0.0
 11
8.0051909840707367
 21
0.0
 31
0.0
  0
LINE
  5
162B5
  8
0
 62
     0
 10
9.3522294022312167
 20
-0.0000000000000568
 30
0.0
 11
12.652229402231081
 21
-3.2999999999999541
 31
0.0
  0
LINE
  5
162B6
  8
0
 62
     0
 10
6.0522294022312053
 20
3.2999999999999541
 30
0.0
 11
9.3522294022311314
 21
0.0000000000000284
 31
0.0
  0
LINE
  5
162B7
  8
0
 62
     0
 10
7.3992678203915432
 20
3.2999999999999541
 30
0.0
 11
10.699267820391499
 21
0.0
 31
0.0
  0
LINE
  5
162B8
  8
0
 62
     0
 10
10.699267820391579
 20
-0.0000000000000568
 30
0.0
 11
12.90000019999993
 21
-2.2007323796084099
 31
0.0
  0
LINE
  5
162B9
  8
0
 62
     0
 10
-0.0000000000000284
 20
10.699267820391521
 30
0.0
 11
1.1992678203915259
 21
9.5
 31
0.0
  0
LINE
  5
162BA
  8
0
 62
     0
 10
9.2443367211198222
 20
2.8019695174320409
 30
0.0
 11
12.04630623855186
 21
0.0
 31
0.0
  0
LINE
  5
162BB
  8
0
 62
     0
 10
12.046306238551949
 20
-0.0000000000000853
 30
0.0
 11
14.046306238551921
 21
-2.000000000000056
 31
0.0
  0
LINE
  5
162BC
  8
0
 62
     0
 10
1.2963062400289971
 20
10.74999999852287
 30
0.0
 11
1.8000087437750381
 21
10.246297494776851
 31
0.0
  0
LINE
  5
162BD
  8
0
 62
     0
 10
13.39334465671234
 20
-0.0000000000001137
 30
0.0
 11
15.39334465671226
 21
-2.000000000000028
 31
0.0
  0
LINE
  5
162BE
  8
0
 62
     0
 10
15.90000020000002
 20
-2.5066555432877911
 30
0.0
 11
16.143344656712259
 21
-2.75
 31
0.0
  0
LINE
  5
162BF
  8
0
 62
     0
 10
10.379815373485821
 20
3.0135292832264322
 30
0.0
 11
13.39334465671223
 21
0.0
 31
0.0
  0
LINE
  5
162C0
  8
0
 62
     0
 10
14.74038307487271
 20
-0.0000000000000853
 30
0.0
 11
16.995191537436309
 21
-2.2548084625636871
 31
0.0
  0
LINE
  5
162C1
  8
0
 62
     0
 10
11.513261852327391
 20
3.227121222545235
 30
0.0
 11
14.7403830748726
 21
0.0000000000000284
 31
0.0
  0
LINE
  5
162C2
  8
0
 62
     0
 10
14.0874214930331
 20
1.9999999999999141
 30
0.0
 11
16.087421493032959
 21
0.0000000000000284
 31
0.0
  0
LINE
  5
162C3
  8
0
 62
     0
 10
16.08742149303308
 20
-0.0000000000000853
 30
0.0
 11
17.00000000000005
 21
-0.9125785069670656
 31
0.0
  0
LINE
  5
162C4
  8
0
 62
     0
 10
12.787421493032809
 20
3.300000000000181
 30
0.0
 11
12.90000019999991
 21
3.1874212930330819
 31
0.0
  0
LINE
  5
162C5
  8
0
 62
     0
 10
15.43445991119353
 20
1.999999999999829
 30
0.0
 11
17.00000000000011
 21
0.4344599111932724
 31
0.0
  0
LINE
  5
162C6
  8
0
 62
     0
 10
16.03149832935372
 20
2.75
 30
0.0
 11
17.00000000000011
 21
1.78149832935361
 31
0.0
  0
ENDBLK
  5
162C8
  8
0
  0
BLOCK
  8
0
  2
*X68
 70
     1
 10
0.0
 20
0.0
 30
0.0
  3
*X68
  1

  0
LINE
  5
162CA
  8
0
 62
     0
 10
13.41339771754258
 20
-3.163142703204584
 30
0.0
 11
14.23685749679546
 21
-3.986602482457442
 31
0.0
  0
LINE
  5
162CB
  8
0
 62
     0
 10
13.43543246913447
 20
-2.7361646487429989
 30
0.0
 11
14.66383555125705
 21
-3.9645677308655531
 31
0.0
  0
LINE
  5
162CC
  8
0
 62
     0
 10
13.57832483846698
 20
-2.4300442120220671
 30
0.0
 11
14.969955987978009
 21
-3.821675361533067
 31
0.0
  0
LINE
  5
162CD
  8
0
 62
     0
 10
13.79845481036614
 20
-2.2011613778677481
 30
0.0
 11
15.198838822132331
 21
-3.601545389633912
 31
0.0
  0
LINE
  5
162CE
  8
0
 62
     0
 10
14.09420797036085
 20
-2.04790173180902
 30
0.0
 11
15.352098468191031
 21
-3.3057922296391662
 31
0.0
  0
LINE
  5
162CF
  8
0
 62
     0
 10
14.50036871342669
 20
-2.005049668821413
 30
0.0
 11
15.39495053117866
 21
-2.8996314865733832
 31
0.0
  0
LINE
  5
162D0
  8
0
 62
     0
 10
13.48049176570316
 20
2.6069297273297991
 30
0.0
 11
14.00692992732988
 21
2.0804915657031131
 31
0.0
  0
LINE
  5
162D1
  8
0
 62
     0
 10
13.408249854336271
 20
3.1281844447501612
 30
0.0
 11
14.52818464475018
 21
2.0082496543362529
 31
0.0
  0
LINE
  5
162D2
  8
0
 62
     0
 10
13.51667895516789
 20
3.468768149971992
 30
0.0
 11
14.86876834997204
 21
2.1166787551678108
 31
0.0
  0
LINE
  5
162D3
  8
0
 62
     0
 10
13.71033322290037
 20
3.7241266882929831
 30
0.0
 11
15.124126888293031
 21
2.3103330229002941
 31
0.0
  0
LINE
  5
162D4
  8
0
 62
     0
 10
13.977233952031639
 20
3.9062387652151642
 30
0.0
 11
15.306238965215179
 21
2.5772337520315882
 31
0.0
  0
LINE
  5
162D5
  8
0
 62
     0
 10
14.334624784025429
 20
3.9978607392748131
 30
0.0
 11
15.39786093927486
 21
2.9346245840254142
 31
0.0
  0
LINE
  5
162D6
  8
0
 62
     0
 10
14.93953507999831
 20
3.8419632493554161
 30
0.0
 11
15.24196344935546
 21
3.5395348799982278
 31
0.0
  0
ENDBLK
  5
162D8
  8
0
  0
BLOCK
  8
0
  2
*X69
 70
     1
 10
0.0
 20
0.0
 30
0.0
  3
*X69
  1

  0
LINE
  5
162DA
  8
0
 62
     0
 10
6.8579485945102761
 20
5.150000099999942
 30
0.0
 11
1.636218397399261
 21
10.37173029711095
 31
0.0
  0
LINE
  5
162DB
  8
0
 62
     0
 10
0.0000000000001137
 20
8.4158462460825376
 30
0.0
 11
-1.909133603078998
 21
10.32497984916165
 31
0.0
  0
LINE
  5
162DC
  8
0
 62
     0
 10
3.2658461460825938
 20
5.150000099999942
 30
0.0
 11
0.0000000000001137
 21
8.4158462460825376
 31
0.0
  0
LINE
  5
162DD
  8
0
 62
     0
 10
-0.3262563023448592
 20
5.150000099999942
 30
0.0
 11
-4.6100846621066012
 21
9.4338284597616848
 31
0.0
  0
LINE
  5
162DE
  8
0
 62
     0
 10
-3.9183587507726538
 20
5.150000099999942
 30
0.0
 11
-6.7832174315673219
 21
8.0148587807946114
 31
0.0
  0
LINE
  5
162DF
  8
0
 62
     0
 10
8.0148587807946114
 20
-6.7832174315674356
 30
0.0
 11
6.3816414492273452
 21
-5.1500001000001703
 31
0.0
  0
LINE
  5
162E0
  8
0
 62
     0
 10
-7.5104611992003347
 20
5.150000099999942
 30
0.0
 11
-8.5000000000001137
 21
6.1395389007996073
 31
0.0
  0
LINE
  5
162E1
  8
0
 62
     0
 10
6.1499847166651298
 20
-8.5104458158656371
 30
0.0
 11
2.789539000799663
 21
-5.1500001000000557
 31
0.0
  0
LINE
  5
162E2
  8
0
 62
     0
 10
0.0
 20
-5.9525635476279604
 30
0.0
 11
-0.8025634476280174
 21
-5.1500001000000557
 31
0.0
  0
LINE
  5
162E3
  8
0
 62
     0
 10
4.0606450332290933
 20
-10.01320858085716
 30
0.0
 11
0.0000000000002274
 21
-5.9525635476283014
 31
0.0
  0
LINE
  5
162E4
  8
0
 62
     0
 10
0.0
 20
-9.5446659960557554
 30
0.0
 11
-4.3946658960555851
 21
-5.1500001000000557
 31
0.0
  0
LINE
  5
162E5
  8
0
 62
     0
 10
8.7087069959245582
 20
-18.2533729919802
 30
0.0
 11
0.0000000000003411
 21
-9.5446659960559828
 31
0.0
  0
LINE
  5
162E6
  8
0
 62
     0
 10
1.925088887040374
 20
-15.061857331523809
 30
0.0
 11
0.0
 21
-13.13676844448343
 31
0.0
  0
LINE
  5
162E7
  8
0
 62
     0
 10
0.0
 20
-13.13676844448343
 30
0.0
 11
-7.9867683444833801
 21
-5.1500001000000557
 31
0.0
  0
LINE
  5
162E8
  8
0
 62
     0
 10
10.833910220719069
 20
-23.97067866520263
 30
0.0
 11
3.54999999999984
 21
-16.686768444483391
 31
0.0
  0
LINE
  5
162E9
  8
0
 62
     0
 10
12.03432820925218
 20
-28.763199102163071
 30
0.0
 11
3.5499999999999541
 21
-20.278870892910842
 31
0.0
  0
LINE
  5
162EA
  8
0
 62
     0
 10
-1.761475686666472
 20
-14.96739520624442
 30
0.0
 11
-4.0379039399838339
 21
-12.69096695292717
 31
0.0
  0
LINE
  5
162EB
  8
0
 62
     0
 10
13.099999999999911
 20
-29.8288708929108
 30
0.0
 11
12.37112930708906
 21
-29.100000199999961
 31
0.0
  0
LINE
  5
162EC
  8
0
 62
     0
 10
7.4790262586612917
 20
-27.799999599999872
 30
0.0
 11
3.54999999999984
 21
-23.870973341338409
 31
0.0
  0
LINE
  5
162ED
  8
0
 62
     0
 10
-3.5500000000000682
 20
-16.7709733413385
 30
0.0
 11
-6.4848783247022084
 21
-13.83609501663636
 31
0.0
  0
LINE
  5
162EE
  8
0
 62
     0
 10
12.67902685866159
 20
-33.000000200000159
 30
0.0
 11
11.00000000000011
 21
-31.320973341338689
 31
0.0
  0
LINE
  5
162EF
  8
0
 62
     0
 10
-3.5499999999999541
 20
-20.363075789766409
 30
0.0
 11
-7.7330368020898268
 21
-16.180038987676539
 31
0.0
  0
LINE
  5
162F0
  8
0
 62
     0
 10
-3.5499999999999541
 20
-23.95517823819409
 30
0.0
 11
-8.8741186659308369
 21
-18.631059572263212
 31
0.0
  0
LINE
  5
162F1
  8
0
 62
     0
 10
-3.9236405433106252
 20
-27.173640143311101
 30
0.0
 11
-9.901571718252967
 21
-21.195708968368759
 31
0.0
  0
LINE
  5
162F2
  8
0
 62
     0
 10
-6.8893835350494319
 20
-27.799999599999872
 30
0.0
 11
-10.8070040231338
 21
-23.882379111915501
 31
0.0
  0
LINE
  5
162F3
  8
0
 62
     0
 10
-10.130989661818029
 20
-28.150495921658951
 30
0.0
 11
-11.57961971301688
 21
-26.7018658704601
 31
0.0
  0
LINE
  5
162F4
  8
0
 62
     0
 10
-10.999999999999771
 20
-30.873588031904781
 30
0.0
 11
-12.716460966271249
 21
-29.15712706563329
 31
0.0
  0
LINE
  5
162F5
  8
0
 62
     0
 10
-12.465690280332071
 20
-33.000000200000159
 30
0.0
 11
-13.76550531945383
 21
-31.700185160878501
 31
0.0
  0
ENDBLK
  5
162F7
  8
0
  0
BLOCK
  8
0
  2
*X70
 70
     1
 10
0.0
 20
0.0
 30
0.0
  3
*X70
  1

  0
LINE
  5
162F9
  8
0
 62
     0
 10
17.749270850893371
 20
-61.46873075173783
 30
0.0
 11
18.00000000000006
 21
-61.218001602631091
 31
0.0
  0
LINE
  5
162FA
  8
0
 62
     0
 10
15.504206820626109
 20
-61.46873075173783
 30
0.0
 11
18.00000000000011
 21
-58.972937572363769
 31
0.0
  0
LINE
  5
162FB
  8
0
 62
     0
 10
13.259142790358849
 20
-61.46873075173783
 30
0.0
 11
18.00000000000011
 21
-56.727873542096518
 31
0.0
  0
LINE
  5
162FC
  8
0
 62
     0
 10
11.014078760091589
 20
-61.46873075173778
 30
0.0
 11
18.00000000000011
 21
-54.482809511829259
 31
0.0
  0
LINE
  5
162FD
  8
0
 62
     0
 10
9.0000000000000568
 20
-61.237745481561952
 30
0.0
 11
18.00000000000006
 21
-52.237745481561937
 31
0.0
  0
LINE
  5
162FE
  8
0
 62
     0
 10
9.0000000000000568
 20
-58.992681451294679
 30
0.0
 11
18.00000000000011
 21
-49.992681451294622
 31
0.0
  0
LINE
  5
162FF
  8
0
 62
     0
 10
9.0000000000001137
 20
-56.747617421027421
 30
0.0
 11
18.00000000000011
 21
-47.747617421027371
 31
0.0
  0
LINE
  5
16300
  8
0
 62
     0
 10
9.0000000000001137
 20
-54.50255339076012
 30
0.0
 11
18.000000000000171
 21
-45.502553390759999
 31
0.0
  0
LINE
  5
16301
  8
0
 62
     0
 10
9.0
 20
-52.257489360492848
 30
0.0
 11
18.00000000000011
 21
-43.257489360492741
 31
0.0
  0
LINE
  5
16302
  8
0
 62
     0
 10
9.0000000000000568
 20
-50.01242533022554
 30
0.0
 11
18.00000000000011
 21
-41.012425330225483
 31
0.0
  0
LINE
  5
16303
  8
0
 62
     0
 10
9.0000000000000568
 20
-47.767361299958267
 30
0.0
 11
18.00000000000011
 21
-38.767361299958232
 31
0.0
  0
LINE
  5
16304
  8
0
 62
     0
 10
9.0000000000000568
 20
-45.522297269690966
 30
0.0
 11
18.00000000000011
 21
-36.52229726969091
 31
0.0
  0
LINE
  5
16305
  8
0
 62
     0
 10
9.0000000000000568
 20
-43.277233239423651
 30
0.0
 11
18.000000000000171
 21
-34.277233239423538
 31
0.0
  0
LINE
  5
16306
  8
0
 62
     0
 10
9.0000000000000568
 20
-41.032169209156393
 30
0.0
 11
18.000000000000171
 21
-32.03216920915628
 31
0.0
  0
LINE
  5
16307
  8
0
 62
     0
 10
9.0000000000000568
 20
-38.787105178889142
 30
0.0
 11
18.000000000000231
 21
-29.787105178889021
 31
0.0
  0
LINE
  5
16308
  8
0
 62
     0
 10
9.0000000000000568
 20
-36.54204114862182
 30
0.0
 11
18.000000000000171
 21
-27.54204114862171
 31
0.0
  0
LINE
  5
16309
  8
0
 62
     0
 10
8.9999999999999432
 20
-34.296977118354619
 30
0.0
 11
18.000000000000171
 21
-25.296977118354391
 31
0.0
  0
LINE
  5
1630A
  8
0
 62
     0
 10
9.0
 20
-32.051913088087311
 30
0.0
 11
18.000000000000171
 21
-23.051913088087129
 31
0.0
  0
LINE
  5
1630B
  8
0
 62
     0
 10
9.0
 20
-29.806849057820049
 30
0.0
 11
18.000000000000231
 21
-20.806849057819822
 31
0.0
  0
LINE
  5
1630C
  8
0
 62
     0
 10
9.0
 20
-27.56178502755273
 30
0.0
 11
18.000000000000231
 21
-18.561785027552499
 31
0.0
  0
LINE
  5
1630D
  8
0
 62
     0
 10
8.9999999999999432
 20
-25.316720997285479
 30
0.0
 11
18.000000000000231
 21
-16.316720997285241
 31
0.0
  0
LINE
  5
1630E
  8
0
 62
     0
 10
8.9999999999999432
 20
-23.07165696701821
 30
0.0
 11
18.000000000000231
 21
-14.071656967017979
 31
0.0
  0
LINE
  5
1630F
  8
0
 62
     0
 10
8.9999999999999432
 20
-20.826592936750899
 30
0.0
 11
18.000000000000231
 21
-11.826592936750609
 31
0.0
  0
LINE
  5
16310
  8
0
 62
     0
 10
8.9999999999999432
 20
-18.58152890648358
 30
0.0
 11
18.000000000000171
 21
-9.5815289064833564
 31
0.0
  0
LINE
  5
16311
  8
0
 62
     0
 10
16.353366242229299
 20
-8.9830986339870265
 30
0.0
 11
16.58651145322483
 21
-8.7499534229914389
 31
0.0
  0
LINE
  5
16312
  8
0
 62
     0
 10
8.9999999999999432
 20
-16.336464876216318
 30
0.0
 11
16.264414818379521
 21
-9.0720500578367478
 31
0.0
  0
LINE
  5
16313
  8
0
 62
     0
 10
17.341447422598829
 20
-5.7499534233501768
 30
0.0
 11
18.00000000000011
 21
-5.091400845948896
 31
0.0
  0
LINE
  5
16314
  8
0
 62
     0
 10
8.9999999999999432
 20
-14.091400845949069
 30
0.0
 11
14.34144742402435
 21
-8.7499534219246584
 31
0.0
  0
LINE
  5
16315
  8
0
 62
     0
 10
15.09638339339835
 20
-5.7499534222833404
 30
0.0
 11
15.475887752038769
 21
-5.3704490636429218
 31
0.0
  0
LINE
  5
16316
  8
0
 62
     0
 10
15.516052887897841
 20
-5.3302839277838521
 30
0.0
 11
18.00000000000011
 21
-2.8463368156815809
 31
0.0
  0
LINE
  5
16317
  8
0
 62
     0
 10
9.0
 20
-11.84633681568169
 30
0.0
 11
12.096383394823871
 21
-8.7499534208578211
 31
0.0
  0
LINE
  5
16318
  8
0
 62
     0
 10
12.85131936419776
 20
-5.7499534212166159
 30
0.0
 11
18.00000000000006
 21
-0.6012727854143236
 31
0.0
  0
LINE
  5
16319
  8
0
 62
     0
 10
8.9999999999999432
 20
-9.6012727854144373
 30
0.0
 11
9.8085489289221073
 21
-8.7927238564922732
 31
0.0
  0
LINE
  5
1631A
  8
0
 62
     0
 10
10.76769871211496
 20
-5.5885100430321577
 30
0.0
 11
18.00000000000006
 21
1.6437912448529339
 31
0.0
  0
LINE
  5
1631B
  8
0
 62
     0
 10
8.9999999999999432
 20
-5.11114472487992
 30
0.0
 11
18.00000000000006
 21
3.8888552751201919
 31
0.0
  0
LINE
  5
1631C
  8
0
 62
     0
 10
8.9999999999999432
 20
-2.866080694612605
 30
0.0
 11
17.61612726817793
 21
5.7500465735653838
 31
0.0
  0
LINE
  5
1631D
  8
0
 62
     0
 10
8.9999999999999432
 20
-0.6210166643452908
 30
0.0
 11
15.37106323897728
 21
5.7500465746320506
 31
0.0
  0
LINE
  5
1631E
  8
0
 62
     0
 10
16.125999208351288
 20
8.7500465742733127
 30
0.0
 11
18.00000000000011
 21
10.62404736592214
 31
0.0
  0
LINE
  5
1631F
  8
0
 62
     0
 10
8.9999999999999432
 20
1.624047365921967
 30
0.0
 11
13.02099569600597
 21
5.645043061927935
 31
0.0
  0
LINE
  5
16320
  8
0
 62
     0
 10
13.98014547919882
 20
8.8492568753880505
 30
0.0
 11
18.00000000000011
 21
12.869111396189391
 31
0.0
  0
LINE
  5
16321
  8
0
 62
     0
 10
9.0
 20
3.869111396189282
 30
0.0
 11
10.88093518057638
 21
5.7500465767656124
 31
0.0
  0
LINE
  5
16322
  8
0
 62
     0
 10
11.635871149950271
 20
8.7500465764068736
 30
0.0
 11
18.00000000000011
 21
15.114175426456709
 31
0.0
  0
LINE
  5
16323
  8
0
 62
     0
 10
9.3908071207497414
 20
8.7500465774735972
 30
0.0
 11
18.00000000000006
 21
17.359239456723969
 31
0.0
  0
LINE
  5
16324
  8
0
 62
     0
 10
9.0000000000001137
 20
10.604303486991229
 30
0.0
 11
18.00000000000006
 21
19.604303486991231
 31
0.0
  0
LINE
  5
16325
  8
0
 62
     0
 10
9.0000000000001137
 20
12.849367517258541
 30
0.0
 11
18.00000000000011
 21
21.849367517258599
 31
0.0
  0
LINE
  5
16326
  8
0
 62
     0
 10
9.0000000000001137
 20
15.094431547525859
 30
0.0
 11
18.00000000000011
 21
24.094431547525861
 31
0.0
  0
LINE
  5
16327
  8
0
 62
     0
 10
9.0000000000000568
 20
17.339495577793109
 30
0.0
 11
18.00000000000011
 21
26.339495577793169
 31
0.0
  0
LINE
  5
16328
  8
0
 62
     0
 10
9.0000000000000568
 20
19.584559608060371
 30
0.0
 11
18.00000000000011
 21
28.584559608060431
 31
0.0
  0
LINE
  5
16329
  8
0
 62
     0
 10
9.0000000000001137
 20
21.82962363832775
 30
0.0
 11
18.00000000000011
 21
30.82962363832775
 31
0.0
  0
LINE
  5
1632A
  8
0
 62
     0
 10
9.0000000000000568
 20
24.074687668595001
 30
0.0
 11
18.00000000000006
 21
33.074687668594997
 31
0.0
  0
LINE
  5
1632B
  8
0
 62
     0
 10
9.0000000000000568
 20
26.31975169886227
 30
0.0
 11
18.00000000000006
 21
35.319751698862262
 31
0.0
  0
LINE
  5
1632C
  8
0
 62
     0
 10
9.0000000000001137
 20
28.564815729129521
 30
0.0
 11
18.00000000000011
 21
37.564815729129577
 31
0.0
  0
LINE
  5
1632D
  8
0
 62
     0
 10
9.0000000000001137
 20
30.809879759396839
 30
0.0
 11
18.00000000000011
 21
39.809879759396892
 31
0.0
  0
LINE
  5
1632E
  8
0
 62
     0
 10
9.0000000000000568
 20
33.054943789664151
 30
0.0
 11
18.00000000000011
 21
42.0549437896642
 31
0.0
  0
LINE
  5
1632F
  8
0
 62
     0
 10
9.0000000000000568
 20
35.300007819931409
 30
0.0
 11
18.00000000000011
 21
44.300007819931459
 31
0.0
  0
LINE
  5
16330
  8
0
 62
     0
 10
9.0000000000000568
 20
37.545071850198667
 30
0.0
 11
16.07742504976892
 21
44.622496899967523
 31
0.0
  0
LINE
  5
16331
  8
0
 62
     0
 10
9.0000000000001137
 20
39.790135880466039
 30
0.0
 11
13.83236101950166
 21
44.622496899967587
 31
0.0
  0
LINE
  5
16332
  8
0
 62
     0
 10
9.0000000000000568
 20
42.035199910733297
 30
0.0
 11
11.587296989234339
 21
44.622496899967587
 31
0.0
  0
LINE
  5
16333
  8
0
 62
     0
 10
9.0000000000001137
 20
44.280263941000548
 30
0.0
 11
9.3422329589670881
 21
44.622496899967587
 31
0.0
  0
ENDBLK
  5
16335
  8
0
  0
BLOCK
  8
0
  2
*X71
 70
     1
 10
0.0
 20
0.0
 30
0.0
  3
*X71
  1

  0
LINE
  5
16337
  8
0
 62
     0
 10
4.01579819129564
 20
-61.431188349899848
 30
0.0
 11
4.01579819129564
 21
-61.431188349899848
 31
0.0
  0
LINE
  5
16338
  8
0
 62
     0
 10
3.5476270824212111
 20
-61.002188568063907
 30
0.0
 11
3.5476270824212111
 21
-61.002188568063907
 31
0.0
  0
LINE
  5
16339
  8
0
 62
     0
 10
1.0195030944992971
 20
-58.685589746149809
 30
0.0
 11
1.0195030944992971
 21
-58.685589746149809
 31
0.0
  0
LINE
  5
1633A
  8
0
 62
     0
 10
8.6550676192222316
 20
-56.456296513577612
 30
0.0
 11
8.6550676192222316
 21
-56.456296513577612
 31
0.0
  0
LINE
  5
1633B
  8
0
 62
     0
 10
6.4452999853349269
 20
-54.431417543311952
 30
0.0
 11
6.4452999853349269
 21
-54.431417543311952
 31
0.0
  0
LINE
  5
1633C
  8
0
 62
     0
 10
5.9771288764604993
 20
-54.002417761476011
 30
0.0
 11
5.9771288764604993
 21
-54.002417761476011
 31
0.0
  0
LINE
  5
1633D
  8
0
 62
     0
 10
3.449004888538584
 20
-51.685818939561912
 30
0.0
 11
3.449004888538584
 21
-51.685818939561912
 31
0.0
  0
LINE
  5
1633E
  8
0
 62
     0
 10
1.23923725465128
 20
-49.660939969296251
 30
0.0
 11
1.23923725465128
 21
-49.660939969296251
 31
0.0
  0
LINE
  5
1633F
  8
0
 62
     0
 10
0.7710661457768521
 20
-49.23194018746031
 30
0.0
 11
0.7710661457768521
 21
-49.23194018746031
 31
0.0
  0
LINE
  5
16340
  8
0
 62
     0
 10
8.8748017793742875
 20
-47.431646736724133
 30
0.0
 11
8.8748017793742875
 21
-47.431646736724133
 31
0.0
  0
LINE
  5
16341
  8
0
 62
     0
 10
8.4066306704998581
 20
-47.002646954888192
 30
0.0
 11
8.4066306704998581
 21
-47.002646954888192
 31
0.0
  0
LINE
  5
16342
  8
0
 62
     0
 10
5.8785066825779433
 20
-44.686048132974094
 30
0.0
 11
5.8785066825779433
 21
-44.686048132974094
 31
0.0
  0
LINE
  5
16343
  8
0
 62
     0
 10
3.668739048690639
 20
-42.661169162708433
 30
0.0
 11
3.668739048690639
 21
-42.661169162708433
 31
0.0
  0
LINE
  5
16344
  8
0
 62
     0
 10
3.200567939816211
 20
-42.232169380872492
 30
0.0
 11
3.200567939816211
 21
-42.232169380872492
 31
0.0
  0
LINE
  5
16345
  8
0
 62
     0
 10
0.6724439518942967
 20
-39.915570558958393
 30
0.0
 11
0.6724439518942967
 21
-39.915570558958393
 31
0.0
  0
LINE
  5
16346
  8
0
 62
     0
 10
8.3080084766172941
 20
-37.68627732638619
 30
0.0
 11
8.3080084766172941
 21
-37.68627732638619
 31
0.0
  0
LINE
  5
16347
  8
0
 62
     0
 10
6.0982408427299903
 20
-35.661398356120543
 30
0.0
 11
6.0982408427299903
 21
-35.661398356120543
 31
0.0
  0
LINE
  5
16348
  8
0
 62
     0
 10
5.630069733855561
 20
-35.232398574284602
 30
0.0
 11
5.630069733855561
 21
-35.232398574284602
 31
0.0
  0
LINE
  5
16349
  8
0
 62
     0
 10
3.1019457459336461
 20
-32.915799752370503
 30
0.0
 11
3.1019457459336461
 21
-32.915799752370503
 31
0.0
  0
LINE
  5
1634A
  8
0
 62
     0
 10
0.8921781120463432
 20
-30.890920782104839
 30
0.0
 11
0.8921781120463432
 21
-30.890920782104839
 31
0.0
  0
LINE
  5
1634B
  8
0
 62
     0
 10
0.4240070031719147
 20
-30.461921000268891
 30
0.0
 11
0.4240070031719147
 21
-30.461921000268891
 31
0.0
  0
LINE
  5
1634C
  8
0
 62
     0
 10
8.5277426367693003
 20
-28.661627549532721
 30
0.0
 11
8.5277426367693003
 21
-28.661627549532721
 31
0.0
  0
LINE
  5
1634D
  8
0
 62
     0
 10
8.0595715278948692
 20
-28.232627767696769
 30
0.0
 11
8.0595715278948692
 21
-28.232627767696769
 31
0.0
  0
LINE
  5
1634E
  8
0
 62
     0
 10
5.5314475399729552
 20
-25.916028945782671
 30
0.0
 11
5.5314475399729552
 21
-25.916028945782671
 31
0.0
  0
LINE
  5
1634F
  8
0
 62
     0
 10
3.321679906085651
 20
-23.89114997551701
 30
0.0
 11
3.321679906085651
 21
-23.89114997551701
 31
0.0
  0
LINE
  5
16350
  8
0
 62
     0
 10
2.853508797211223
 20
-23.462150193681069
 30
0.0
 11
2.853508797211223
 21
-23.462150193681069
 31
0.0
  0
LINE
  5
16351
  8
0
 62
     0
 10
0.3253848092893086
 20
-21.14555137176697
 30
0.0
 11
0.3253848092893086
 21
-21.14555137176697
 31
0.0
  0
LINE
  5
16352
  8
0
 62
     0
 10
7.960949334012235
 20
-18.916258139194781
 30
0.0
 11
7.960949334012235
 21
-18.916258139194781
 31
0.0
  0
LINE
  5
16353
  8
0
 62
     0
 10
5.751181700124933
 20
-16.89137916892912
 30
0.0
 11
5.751181700124933
 21
-16.89137916892912
 31
0.0
  0
LINE
  5
16354
  8
0
 62
     0
 10
5.2830105912505037
 20
-16.462379387093169
 30
0.0
 11
5.2830105912505037
 21
-16.462379387093169
 31
0.0
  0
LINE
  5
16355
  8
0
 62
     0
 10
2.7548866033285888
 20
-14.14578056517907
 30
0.0
 11
2.7548866033285888
 21
-14.14578056517907
 31
0.0
  0
LINE
  5
16356
  8
0
 62
     0
 10
0.5451189694412864
 20
-12.12090159491342
 30
0.0
 11
0.5451189694412864
 21
-12.12090159491342
 31
0.0
  0
LINE
  5
16357
  8
0
 62
     0
 10
0.0769478605668576
 20
-11.69190181307747
 30
0.0
 11
0.0769478605668576
 21
-11.69190181307747
 31
0.0
  0
LINE
  5
16358
  8
0
 62
     0
 10
8.1806834941643185
 20
-9.8916083623412607
 30
0.0
 11
8.1806834941643185
 21
-9.8916083623412607
 31
0.0
  0
LINE
  5
16359
  8
0
 62
     0
 10
7.71251238528989
 20
-9.4626085805053162
 30
0.0
 11
7.71251238528989
 21
-9.4626085805053162
 31
0.0
  0
LINE
  5
1635A
  8
0
 62
     0
 10
2.9746207634806661
 20
-5.1211307883256101
 30
0.0
 11
2.9746207634806661
 21
-5.1211307883256101
 31
0.0
  0
LINE
  5
1635B
  8
0
 62
     0
 10
2.506449654606238
 20
-4.6921310064896664
 30
0.0
 11
2.506449654606238
 21
-4.6921310064896664
 31
0.0
  0
LINE
  5
1635C
  8
0
 62
     0
 10
7.6138901914073207
 20
-0.1462389520033798
 30
0.0
 11
7.6138901914073207
 21
-0.1462389520033798
 31
0.0
  0
LINE
  5
1635D
  8
0
 62
     0
 10
5.4041225575200169
 20
1.8786400182622769
 30
0.0
 11
5.4041225575200169
 21
1.8786400182622769
 31
0.0
  0
LINE
  5
1635E
  8
0
 62
     0
 10
4.9359514486455893
 20
2.307639800098221
 30
0.0
 11
4.9359514486455893
 21
2.307639800098221
 31
0.0
  0
LINE
  5
1635F
  8
0
 62
     0
 10
2.407827460723674
 20
4.6242386220123208
 30
0.0
 11
2.407827460723674
 21
4.6242386220123208
 31
0.0
  0
LINE
  5
16360
  8
0
 62
     0
 10
7.8336243515593544
 20
8.8784108248501266
 30
0.0
 11
7.8336243515593544
 21
8.8784108248501266
 31
0.0
  0
LINE
  5
16361
  8
0
 62
     0
 10
7.3654532426849251
 20
9.3074106066860711
 30
0.0
 11
7.3654532426849251
 21
9.3074106066860711
 31
0.0
  0
LINE
  5
16362
  8
0
 62
     0
 10
4.8373292547630111
 20
11.62400942860017
 30
0.0
 11
4.8373292547630111
 21
11.62400942860017
 31
0.0
  0
LINE
  5
16363
  8
0
 62
     0
 10
2.6275616208757082
 20
13.64888839886583
 30
0.0
 11
2.6275616208757082
 21
13.64888839886583
 31
0.0
  0
LINE
  5
16364
  8
0
 62
     0
 10
2.1593905120012789
 20
14.07788818070177
 30
0.0
 11
2.1593905120012789
 21
14.07788818070177
 31
0.0
  0
LINE
  5
16365
  8
0
 62
     0
 10
7.2668310488023229
 20
18.623780235188089
 30
0.0
 11
7.2668310488023229
 21
18.623780235188089
 31
0.0
  0
LINE
  5
16366
  8
0
 62
     0
 10
5.0570634149150191
 20
20.648659205453761
 30
0.0
 11
5.0570634149150191
 21
20.648659205453761
 31
0.0
  0
LINE
  5
16367
  8
0
 62
     0
 10
4.5888923060405906
 20
21.077658987289698
 30
0.0
 11
4.5888923060405906
 21
21.077658987289698
 31
0.0
  0
LINE
  5
16368
  8
0
 62
     0
 10
2.0607683181186771
 20
23.3942578092038
 30
0.0
 11
2.0607683181186771
 21
23.3942578092038
 31
0.0
  0
LINE
  5
16369
  8
0
 62
     0
 10
7.4865652089542847
 20
27.648430012041619
 30
0.0
 11
7.4865652089542847
 21
27.648430012041619
 31
0.0
  0
LINE
  5
1636A
  8
0
 62
     0
 10
7.0183941000798571
 20
28.07742979387756
 30
0.0
 11
7.0183941000798571
 21
28.07742979387756
 31
0.0
  0
LINE
  5
1636B
  8
0
 62
     0
 10
4.4902701121579423
 20
30.394028615791662
 30
0.0
 11
4.4902701121579423
 21
30.394028615791662
 31
0.0
  0
LINE
  5
1636C
  8
0
 62
     0
 10
2.2805024782706389
 20
32.418907586057323
 30
0.0
 11
2.2805024782706389
 21
32.418907586057323
 31
0.0
  0
LINE
  5
1636D
  8
0
 62
     0
 10
1.81233136939621
 20
32.847907367893256
 30
0.0
 11
1.81233136939621
 21
32.847907367893256
 31
0.0
  0
LINE
  5
1636E
  8
0
 62
     0
 10
6.9197719061972807
 20
37.393799422379502
 30
0.0
 11
6.9197719061972807
 21
37.393799422379502
 31
0.0
  0
LINE
  5
1636F
  8
0
 62
     0
 10
4.7100042723099769
 20
39.418678392645162
 30
0.0
 11
4.7100042723099769
 21
39.418678392645162
 31
0.0
  0
LINE
  5
16370
  8
0
 62
     0
 10
4.2418331634355493
 20
39.847678174481111
 30
0.0
 11
4.2418331634355493
 21
39.847678174481111
 31
0.0
  0
LINE
  5
16371
  8
0
 62
     0
 10
1.713709175513634
 20
42.164276996395202
 30
0.0
 11
1.713709175513634
 21
42.164276996395202
 31
0.0
  0
LINE
  5
16372
  8
0
 62
     0
 10
7.6039294291079393
 20
-61.37093519581228
 30
0.0
 11
7.6039294291079393
 21
-61.37093519581228
 31
0.0
  0
LINE
  5
16373
  8
0
 62
     0
 10
2.569725889050825
 20
-58.163793833590091
 30
0.0
 11
2.569725889050825
 21
-58.163793833590091
 31
0.0
  0
LINE
  5
16374
  8
0
 62
     0
 10
6.62366390120894
 20
-55.692888177442953
 30
0.0
 11
6.62366390120894
 21
-55.692888177442953
 31
0.0
  0
LINE
  5
16375
  8
0
 62
     0
 10
5.5525567650265764
 20
-55.010517674842482
 30
0.0
 11
5.5525567650265764
 21
-55.010517674842482
 31
0.0
  0
LINE
  5
16376
  8
0
 62
     0
 10
0.5183532249694629
 20
-51.803376312620287
 30
0.0
 11
0.5183532249694629
 21
-51.803376312620287
 31
0.0
  0
LINE
  5
16377
  8
0
 62
     0
 10
8.4282769273839921
 20
-51.789004465834807
 30
0.0
 11
8.4282769273839921
 21
-51.789004465834807
 31
0.0
  0
LINE
  5
16378
  8
0
 62
     0
 10
4.5722912371274811
 20
-49.332470656473127
 30
0.0
 11
4.5722912371274811
 21
-49.332470656473127
 31
0.0
  0
LINE
  5
16379
  8
0
 62
     0
 10
3.501184100945117
 20
-48.650100153872657
 30
0.0
 11
3.501184100945117
 21
-48.650100153872657
 31
0.0
  0
LINE
  5
1637A
  8
0
 62
     0
 10
6.3769042633026087
 20
-45.428586944865053
 30
0.0
 11
6.3769042633026087
 21
-45.428586944865053
 31
0.0
  0
LINE
  5
1637B
  8
0
 62
     0
 10
2.5209185730460968
 20
-42.972053135503373
 30
0.0
 11
2.5209185730460968
 21
-42.972053135503373
 31
0.0
  0
LINE
  5
1637C
  8
0
 62
     0
 10
1.4498114368637329
 20
-42.289682632902903
 30
0.0
 11
1.4498114368637329
 21
-42.289682632902903
 31
0.0
  0
LINE
  5
1637D
  8
0
 62
     0
 10
4.3255315992211782
 20
-39.068169423895192
 30
0.0
 11
4.3255315992211782
 21
-39.068169423895192
 31
0.0
  0
LINE
  5
1637E
  8
0
 62
     0
 10
0.4695459089646658
 20
-36.611635614533512
 30
0.0
 11
0.4695459089646658
 21
-36.611635614533512
 31
0.0
  0
LINE
  5
1637F
  8
0
 62
     0
 10
8.3794696113792817
 20
-36.597263767748082
 30
0.0
 11
8.3794696113792817
 21
-36.597263767748082
 31
0.0
  0
LINE
  5
16380
  8
0
 62
     0
 10
7.3083624751969172
 20
-35.914893265147612
 30
0.0
 11
7.3083624751969172
 21
-35.914893265147612
 31
0.0
  0
LINE
  5
16381
  8
0
 62
     0
 10
2.2741589351398028
 20
-32.707751902925423
 30
0.0
 11
2.2741589351398028
 21
-32.707751902925423
 31
0.0
  0
LINE
  5
16382
  8
0
 62
     0
 10
6.328096947297821
 20
-30.236846246778288
 30
0.0
 11
6.328096947297821
 21
-30.236846246778288
 31
0.0
  0
LINE
  5
16383
  8
0
 62
     0
 10
5.2569898111154574
 20
-29.554475744177829
 30
0.0
 11
5.2569898111154574
 21
-29.554475744177829
 31
0.0
  0
LINE
  5
16384
  8
0
 62
     0
 10
0.2227862710583442
 20
-26.34733438195563
 30
0.0
 11
0.2227862710583442
 21
-26.34733438195563
 31
0.0
  0
LINE
  5
16385
  8
0
 62
     0
 10
8.1327099734729629
 20
-26.332962535170171
 30
0.0
 11
8.1327099734729629
 21
-26.332962535170171
 31
0.0
  0
LINE
  5
16386
  8
0
 62
     0
 10
4.27672428321645
 20
-23.876428725808481
 30
0.0
 11
4.27672428321645
 21
-23.876428725808481
 31
0.0
  0
LINE
  5
16387
  8
0
 62
     0
 10
3.2056171470340851
 20
-23.194058223208021
 30
0.0
 11
3.2056171470340851
 21
-23.194058223208021
 31
0.0
  0
LINE
  5
16388
  8
0
 62
     0
 10
6.08133730939148
 20
-19.97254501420036
 30
0.0
 11
6.08133730939148
 21
-19.97254501420036
 31
0.0
  0
LINE
  5
16389
  8
0
 62
     0
 10
2.225351619134968
 20
-17.51601120483868
 30
0.0
 11
2.225351619134968
 21
-17.51601120483868
 31
0.0
  0
LINE
  5
1638A
  8
0
 62
     0
 10
1.1542444829526031
 20
-16.83364070223821
 30
0.0
 11
1.1542444829526031
 21
-16.83364070223821
 31
0.0
  0
LINE
  5
1638B
  8
0
 62
     0
 10
4.0299646453101081
 20
-13.61212749323059
 30
0.0
 11
4.0299646453101081
 21
-13.61212749323059
 31
0.0
  0
LINE
  5
1638C
  8
0
 62
     0
 10
0.1739789550535956
 20
-11.15559368386891
 30
0.0
 11
0.1739789550535956
 21
-11.15559368386891
 31
0.0
  0
LINE
  5
1638D
  8
0
 62
     0
 10
8.0839026574682151
 20
-11.14122183708349
 30
0.0
 11
8.0839026574682151
 21
-11.14122183708349
 31
0.0
  0
LINE
  5
1638E
  8
0
 62
     0
 10
7.0127955212858497
 20
-10.45885133448302
 30
0.0
 11
7.0127955212858497
 21
-10.45885133448302
 31
0.0
  0
LINE
  5
1638F
  8
0
 62
     0
 10
6.0325299933867882
 20
-4.7808043161136462
 30
0.0
 11
6.0325299933867882
 21
-4.7808043161136462
 31
0.0
  0
LINE
  5
16390
  8
0
 62
     0
 10
4.9614228572044228
 20
-4.0984338135131786
 30
0.0
 11
4.9614228572044228
 21
-4.0984338135131786
 31
0.0
  0
LINE
  5
16391
  8
0
 62
     0
 10
7.8371430195619052
 20
-0.8769206045055604
 30
0.0
 11
7.8371430195619052
 21
-0.8769206045055604
 31
0.0
  0
LINE
  5
16392
  8
0
 62
     0
 10
3.9811573293053919
 20
1.5796132048561189
 30
0.0
 11
3.9811573293053919
 21
1.5796132048561189
 31
0.0
  0
LINE
  5
16393
  8
0
 62
     0
 10
2.9100501931230269
 20
2.2619837074565861
 30
0.0
 11
2.9100501931230269
 21
2.2619837074565861
 31
0.0
  0
LINE
  5
16394
  8
0
 62
     0
 10
5.7857703554804303
 20
5.4834969164642349
 30
0.0
 11
5.7857703554804303
 21
5.4834969164642349
 31
0.0
  0
LINE
  5
16395
  8
0
 62
     0
 10
3.734397691399074
 20
11.84391443743405
 30
0.0
 11
3.734397691399074
 21
11.84391443743405
 31
0.0
  0
LINE
  5
16396
  8
0
 62
     0
 10
7.7883357035571521
 20
14.31482009358125
 30
0.0
 11
7.7883357035571521
 21
14.31482009358125
 31
0.0
  0
LINE
  5
16397
  8
0
 62
     0
 10
6.7172285673747876
 20
14.997190596181721
 30
0.0
 11
6.7172285673747876
 21
14.997190596181721
 31
0.0
  0
LINE
  5
16398
  8
0
 62
     0
 10
1.6830250273176739
 20
18.204331958403909
 30
0.0
 11
1.6830250273176739
 21
18.204331958403909
 31
0.0
  0
LINE
  5
16399
  8
0
 62
     0
 10
5.7369630394757527
 20
20.675237614551001
 30
0.0
 11
5.7369630394757527
 21
20.675237614551001
 31
0.0
  0
LINE
  5
1639A
  8
0
 62
     0
 10
4.6658559032933891
 20
21.357608117151461
 30
0.0
 11
4.6658559032933891
 21
21.357608117151461
 31
0.0
  0
LINE
  5
1639B
  8
0
 62
     0
 10
7.5415760656507649
 20
24.57912132615909
 30
0.0
 11
7.5415760656507649
 21
24.57912132615909
 31
0.0
  0
LINE
  5
1639C
  8
0
 62
     0
 10
3.685590375394252
 20
27.03565513552077
 30
0.0
 11
3.685590375394252
 21
27.03565513552077
 31
0.0
  0
LINE
  5
1639D
  8
0
 62
     0
 10
2.614483239211888
 20
27.71802563812124
 30
0.0
 11
2.614483239211888
 21
27.71802563812124
 31
0.0
  0
LINE
  5
1639E
  8
0
 62
     0
 10
5.4902034015693664
 20
30.939538847128901
 30
0.0
 11
5.4902034015693664
 21
30.939538847128901
 31
0.0
  0
LINE
  5
1639F
  8
0
 62
     0
 10
1.6342177113128531
 20
33.396072656490567
 30
0.0
 11
1.6342177113128531
 21
33.396072656490567
 31
0.0
  0
LINE
  5
163A0
  8
0
 62
     0
 10
0.5631105751304892
 20
34.078443159091037
 30
0.0
 11
0.5631105751304892
 21
34.078443159091037
 31
0.0
  0
LINE
  5
163A1
  8
0
 62
     0
 10
8.4730342775450875
 20
34.092815005876503
 30
0.0
 11
8.4730342775450875
 21
34.092815005876503
 31
0.0
  0
LINE
  5
163A2
  8
0
 62
     0
 10
3.4388307374879732
 20
37.299956368098691
 30
0.0
 11
3.4388307374879732
 21
37.299956368098691
 31
0.0
  0
LINE
  5
163A3
  8
0
 62
     0
 10
7.492768749646034
 20
39.77086202424583
 30
0.0
 11
7.492768749646034
 21
39.77086202424583
 31
0.0
  0
LINE
  5
163A4
  8
0
 62
     0
 10
6.4216616134636686
 20
40.4532325268463
 30
0.0
 11
6.4216616134636686
 21
40.4532325268463
 31
0.0
  0
LINE
  5
163A5
  8
0
 62
     0
 10
1.387458073406556
 20
43.660373889068488
 30
0.0
 11
1.387458073406556
 21
43.660373889068488
 31
0.0
  0
LINE
  5
163A6
  8
0
 62
     0
 10
8.2994528038308442
 20
-55.941633358613942
 30
0.0
 11
8.2994528038308442
 21
-55.941633358613942
 31
0.0
  0
LINE
  5
163A7
  8
0
 62
     0
 10
6.2344714465614741
 20
-56.213493311769859
 30
0.0
 11
6.2344714465614741
 21
-56.213493311769859
 31
0.0
  0
LINE
  5
163A8
  8
0
 62
     0
 10
4.9123797239194982
 20
-56.387549989095298
 30
0.0
 11
4.9123797239194982
 21
-56.387549989095298
 31
0.0
  0
LINE
  5
163A9
  8
0
 62
     0
 10
1.462349895310912
 20
-56.84175503278265
 30
0.0
 11
1.462349895310912
 21
-56.84175503278265
 31
0.0
  0
LINE
  5
163AA
  8
0
 62
     0
 10
5.957582726691057
 20
-49.673504027099071
 30
0.0
 11
5.957582726691057
 21
-49.673504027099071
 31
0.0
  0
LINE
  5
163AB
  8
0
 62
     0
 10
3.8926013694216852
 20
-49.945363980255003
 30
0.0
 11
3.8926013694216852
 21
-49.945363980255003
 31
0.0
  0
LINE
  5
163AC
  8
0
 62
     0
 10
2.5705096467797088
 20
-50.119420657580442
 30
0.0
 11
2.5705096467797088
 21
-50.119420657580442
 31
0.0
  0
LINE
  5
163AD
  8
0
 62
     0
 10
8.3878342008016062
 20
-42.777112974571473
 30
0.0
 11
8.3878342008016062
 21
-42.777112974571473
 31
0.0
  0
LINE
  5
163AE
  8
0
 62
     0
 10
7.0657424781596294
 20
-42.951169651896898
 30
0.0
 11
7.0657424781596294
 21
-42.951169651896898
 31
0.0
  0
LINE
  5
163AF
  8
0
 62
     0
 10
3.615712649551043
 20
-43.40537469558425
 30
0.0
 11
3.615712649551043
 21
-43.40537469558425
 31
0.0
  0
LINE
  5
163B0
  8
0
 62
     0
 10
1.5507312922816709
 20
-43.677234648740168
 30
0.0
 11
1.5507312922816709
 21
-43.677234648740168
 31
0.0
  0
LINE
  5
163B1
  8
0
 62
     0
 10
0.2286395696396954
 20
-43.851291326065613
 30
0.0
 11
0.2286395696396954
 21
-43.851291326065613
 31
0.0
  0
LINE
  5
163B2
  8
0
 62
     0
 10
8.1109454809310098
 20
-36.23712368990072
 30
0.0
 11
8.1109454809310098
 21
-36.23712368990072
 31
0.0
  0
LINE
  5
163B3
  8
0
 62
     0
 10
6.045964123661637
 20
-36.508983643056638
 30
0.0
 11
6.045964123661637
 21
-36.508983643056638
 31
0.0
  0
LINE
  5
163B4
  8
0
 62
     0
 10
4.7238724010196611
 20
-36.683040320382077
 30
0.0
 11
4.7238724010196611
 21
-36.683040320382077
 31
0.0
  0
LINE
  5
163B5
  8
0
 62
     0
 10
1.2738425724110749
 20
-37.137245364069422
 30
0.0
 11
1.2738425724110749
 21
-37.137245364069422
 31
0.0
  0
LINE
  5
163B6
  8
0
 62
     0
 10
5.7690754037913328
 20
-29.96899435838586
 30
0.0
 11
5.7690754037913328
 21
-29.96899435838586
 31
0.0
  0
LINE
  5
163B7
  8
0
 62
     0
 10
3.7040940465219601
 20
-30.240854311541781
 30
0.0
 11
3.7040940465219601
 21
-30.240854311541781
 31
0.0
  0
LINE
  5
163B8
  8
0
 62
     0
 10
2.382002323879985
 20
-30.41491098886722
 30
0.0
 11
2.382002323879985
 21
-30.41491098886722
 31
0.0
  0
LINE
  5
163B9
  8
0
 62
     0
 10
8.1993268779017701
 20
-23.07260330585823
 30
0.0
 11
8.1993268779017701
 21
-23.07260330585823
 31
0.0
  0
LINE
  5
163BA
  8
0
 62
     0
 10
6.8772351552597932
 20
-23.246659983183669
 30
0.0
 11
6.8772351552597932
 21
-23.246659983183669
 31
0.0
  0
LINE
  5
163BB
  8
0
 62
     0
 10
3.4272053266512059
 20
-23.700865026871011
 30
0.0
 11
3.4272053266512059
 21
-23.700865026871011
 31
0.0
  0
LINE
  5
163BC
  8
0
 62
     0
 10
1.3622239693818341
 20
-23.972724980026928
 30
0.0
 11
1.3622239693818341
 21
-23.972724980026928
 31
0.0
  0
LINE
  5
163BD
  8
0
 62
     0
 10
0.0401322467398583
 20
-24.146781657352371
 30
0.0
 11
0.0401322467398583
 21
-24.146781657352371
 31
0.0
  0
LINE
  5
163BE
  8
0
 62
     0
 10
7.9224381580313974
 20
-16.532614021187449
 30
0.0
 11
7.9224381580313974
 21
-16.532614021187449
 31
0.0
  0
LINE
  5
163BF
  8
0
 62
     0
 10
5.8574568007620247
 20
-16.804473974343381
 30
0.0
 11
5.8574568007620247
 21
-16.804473974343381
 31
0.0
  0
LINE
  5
163C0
  8
0
 62
     0
 10
4.5353650781200487
 20
-16.978530651668819
 30
0.0
 11
4.5353650781200487
 21
-16.978530651668819
 31
0.0
  0
LINE
  5
163C1
  8
0
 62
     0
 10
1.0853352495114641
 20
-17.432735695356151
 30
0.0
 11
1.0853352495114641
 21
-17.432735695356151
 31
0.0
  0
LINE
  5
163C2
  8
0
 62
     0
 10
5.5805680808913829
 20
-10.26448468967264
 30
0.0
 11
5.5805680808913829
 21
-10.26448468967264
 31
0.0
  0
LINE
  5
163C3
  8
0
 62
     0
 10
3.5155867236220111
 20
-10.53634464282856
 30
0.0
 11
3.5155867236220111
 21
-10.53634464282856
 31
0.0
  0
LINE
  5
163C4
  8
0
 62
     0
 10
2.193495000980036
 20
-10.710401320154
 30
0.0
 11
2.193495000980036
 21
-10.710401320154
 31
0.0
  0
LINE
  5
163C5
  8
0
 62
     0
 10
8.0108195550021595
 20
-3.3680936371449901
 30
0.0
 11
8.0108195550021595
 21
-3.3680936371449901
 31
0.0
  0
LINE
  5
163C6
  8
0
 62
     0
 10
6.6887278323601818
 20
-3.5421503144704292
 30
0.0
 11
6.6887278323601818
 21
-3.5421503144704292
 31
0.0
  0
LINE
  5
163C7
  8
0
 62
     0
 10
3.2386980037515962
 20
-3.9963553581577642
 30
0.0
 11
3.2386980037515962
 21
-3.9963553581577642
 31
0.0
  0
LINE
  5
163C8
  8
0
 62
     0
 10
1.1737166464822231
 20
-4.2682153113136883
 30
0.0
 11
1.1737166464822231
 21
-4.2682153113136883
 31
0.0
  0
LINE
  5
163C9
  8
0
 62
     0
 10
7.7339308351315621
 20
3.1718956475257549
 30
0.0
 11
7.7339308351315621
 21
3.1718956475257549
 31
0.0
  0
LINE
  5
163CA
  8
0
 62
     0
 10
5.6689494778621903
 20
2.9000356943698322
 30
0.0
 11
5.6689494778621903
 21
2.9000356943698322
 31
0.0
  0
LINE
  5
163CB
  8
0
 62
     0
 10
4.3468577552202143
 20
2.7259790170443932
 30
0.0
 11
4.3468577552202143
 21
2.7259790170443932
 31
0.0
  0
LINE
  5
163CC
  8
0
 62
     0
 10
0.896827926611628
 20
2.2717739733570581
 30
0.0
 11
0.896827926611628
 21
2.2717739733570581
 31
0.0
  0
LINE
  5
163CD
  8
0
 62
     0
 10
2.0049876780801821
 20
8.9941083485592426
 30
0.0
 11
2.0049876780801821
 21
8.9941083485592426
 31
0.0
  0
LINE
  5
163CE
  8
0
 62
     0
 10
8.8420905866000723
 20
9.8942300227279318
 30
0.0
 11
8.8420905866000723
 21
9.8942300227279318
 31
0.0
  0
LINE
  5
163CF
  8
0
 62
     0
 10
5.3920607579914854
 20
9.4400249790405972
 30
0.0
 11
5.3920607579914854
 21
9.4400249790405972
 31
0.0
  0
LINE
  5
163D0
  8
0
 62
     0
 10
3.3270794007221132
 20
9.1681650258846741
 30
0.0
 11
3.3270794007221132
 21
9.1681650258846741
 31
0.0
  0
LINE
  5
163D1
  8
0
 62
     0
 10
7.8223122321023224
 20
16.336416031568241
 30
0.0
 11
7.8223122321023224
 21
16.336416031568241
 31
0.0
  0
LINE
  5
163D2
  8
0
 62
     0
 10
6.5002205094603456
 20
16.162359354242799
 30
0.0
 11
6.5002205094603456
 21
16.162359354242799
 31
0.0
  0
LINE
  5
163D3
  8
0
 62
     0
 10
3.05019068085176
 20
15.708154310555461
 30
0.0
 11
3.05019068085176
 21
15.708154310555461
 31
0.0
  0
LINE
  5
163D4
  8
0
 62
     0
 10
0.9852093235823877
 20
15.436294357399539
 30
0.0
 11
0.9852093235823877
 21
15.436294357399539
 31
0.0
  0
LINE
  5
163D5
  8
0
 62
     0
 10
7.5454235122316131
 20
22.87640531623898
 30
0.0
 11
7.5454235122316131
 21
22.87640531623898
 31
0.0
  0
LINE
  5
163D6
  8
0
 62
     0
 10
5.4804421549622413
 20
22.604545363083059
 30
0.0
 11
5.4804421549622413
 21
22.604545363083059
 31
0.0
  0
LINE
  5
163D7
  8
0
 62
     0
 10
4.1583504323202654
 20
22.43048868575762
 30
0.0
 11
4.1583504323202654
 21
22.43048868575762
 31
0.0
  0
LINE
  5
163D8
  8
0
 62
     0
 10
0.7083206037116793
 20
21.976283642070278
 30
0.0
 11
0.7083206037116793
 21
21.976283642070278
 31
0.0
  0
LINE
  5
163D9
  8
0
 62
     0
 10
8.6535832637005257
 20
29.598739691441182
 30
0.0
 11
8.6535832637005257
 21
29.598739691441182
 31
0.0
  0
LINE
  5
163DA
  8
0
 62
     0
 10
5.2035534350919379
 20
29.14453464775384
 30
0.0
 11
5.2035534350919379
 21
29.14453464775384
 31
0.0
  0
LINE
  5
163DB
  8
0
 62
     0
 10
3.1385720778225661
 20
28.872674694597919
 30
0.0
 11
3.1385720778225661
 21
28.872674694597919
 31
0.0
  0
LINE
  5
163DC
  8
0
 62
     0
 10
1.8164803551805899
 20
28.69861801727248
 30
0.0
 11
1.8164803551805899
 21
28.69861801727248
 31
0.0
  0
LINE
  5
163DD
  8
0
 62
     0
 10
7.6338049092024871
 20
36.040925700281463
 30
0.0
 11
7.6338049092024871
 21
36.040925700281463
 31
0.0
  0
LINE
  5
163DE
  8
0
 62
     0
 10
6.3117131865605112
 20
35.866869022956017
 30
0.0
 11
6.3117131865605112
 21
35.866869022956017
 31
0.0
  0
LINE
  5
163DF
  8
0
 62
     0
 10
2.8616833579519252
 20
35.412663979268679
 30
0.0
 11
2.8616833579519252
 21
35.412663979268679
 31
0.0
  0
LINE
  5
163E0
  8
0
 62
     0
 10
0.7967020006825532
 20
35.140804026112761
 30
0.0
 11
0.7967020006825532
 21
35.140804026112761
 31
0.0
  0
LINE
  5
163E1
  8
0
 62
     0
 10
7.3569161893318897
 20
42.580914984952237
 30
0.0
 11
7.3569161893318897
 21
42.580914984952237
 31
0.0
  0
LINE
  5
163E2
  8
0
 62
     0
 10
5.2919348320625179
 20
42.309055031796319
 30
0.0
 11
5.2919348320625179
 21
42.309055031796319
 31
0.0
  0
LINE
  5
163E3
  8
0
 62
     0
 10
3.969843109420542
 20
42.134998354470881
 30
0.0
 11
3.969843109420542
 21
42.134998354470881
 31
0.0
  0
LINE
  5
163E4
  8
0
 62
     0
 10
0.5198132808119568
 20
41.680793310783542
 30
0.0
 11
0.5198132808119568
 21
41.680793310783542
 31
0.0
  0
LINE
  5
163E5
  8
0
 62
     0
 10
6.43540543883607
 20
-59.471602609558978
 30
0.0
 11
6.43540543883607
 21
-59.471602609558978
 31
0.0
  0
LINE
  5
163E6
  8
0
 62
     0
 10
6.275402309237827
 20
-54.577470236265448
 30
0.0
 11
6.275402309237827
 21
-54.577470236265448
 31
0.0
  0
LINE
  5
163E7
  8
0
 62
     0
 10
3.0008363971857528
 20
-57.09013303449894
 30
0.0
 11
3.0008363971857528
 21
-57.09013303449894
 31
0.0
  0
LINE
  5
163E8
  8
0
 62
     0
 10
6.1153991796394154
 20
-49.683337862972039
 30
0.0
 11
6.1153991796394154
 21
-49.683337862972039
 31
0.0
  0
LINE
  5
163E9
  8
0
 62
     0
 10
2.840833267587342
 20
-52.196000661205531
 30
0.0
 11
2.840833267587342
 21
-52.196000661205531
 31
0.0
  0
LINE
  5
163EA
  8
0
 62
     0
 10
5.955396050040946
 20
-44.789205489678622
 30
0.0
 11
5.955396050040946
 21
-44.789205489678622
 31
0.0
  0
LINE
  5
163EB
  8
0
 62
     0
 10
2.680830137988873
 20
-47.301868287912122
 30
0.0
 11
2.680830137988873
 21
-47.301868287912122
 31
0.0
  0
LINE
  5
163EC
  8
0
 62
     0
 10
8.8583714966390605
 20
-37.544766991268283
 30
0.0
 11
8.8583714966390605
 21
-37.544766991268283
 31
0.0
  0
LINE
  5
163ED
  8
0
 62
     0
 10
5.7953929204426577
 20
-39.895073116385142
 30
0.0
 11
5.7953929204426577
 21
-39.895073116385142
 31
0.0
  0
LINE
  5
163EE
  8
0
 62
     0
 10
2.5208270083905848
 20
-42.407735914618627
 30
0.0
 11
2.5208270083905848
 21
-42.407735914618627
 31
0.0
  0
LINE
  5
163EF
  8
0
 62
     0
 10
8.6983683670406258
 20
-32.650634617974859
 30
0.0
 11
8.6983683670406258
 21
-32.650634617974859
 31
0.0
  0
LINE
  5
163F0
  8
0
 62
     0
 10
5.635389790844223
 20
-35.000940743091732
 30
0.0
 11
5.635389790844223
 21
-35.000940743091732
 31
0.0
  0
LINE
  5
163F1
  8
0
 62
     0
 10
2.3608238787921501
 20
-37.513603541325217
 30
0.0
 11
2.3608238787921501
 21
-37.513603541325217
 31
0.0
  0
LINE
  5
163F2
  8
0
 62
     0
 10
8.5383652374421573
 20
-27.756502244681499
 30
0.0
 11
8.5383652374421573
 21
-27.756502244681499
 31
0.0
  0
LINE
  5
163F3
  8
0
 62
     0
 10
5.4753866612457553
 20
-30.106808369798369
 30
0.0
 11
5.4753866612457553
 21
-30.106808369798369
 31
0.0
  0
LINE
  5
163F4
  8
0
 62
     0
 10
2.2008207491936811
 20
-32.619471168031872
 30
0.0
 11
2.2008207491936811
 21
-32.619471168031872
 31
0.0
  0
LINE
  5
163F5
  8
0
 62
     0
 10
8.3783621078436887
 20
-22.862369871388101
 30
0.0
 11
8.3783621078436887
 21
-22.862369871388101
 31
0.0
  0
LINE
  5
163F6
  8
0
 62
     0
 10
5.3153835316472859
 20
-25.21267599650497
 30
0.0
 11
5.3153835316472859
 21
-25.21267599650497
 31
0.0
  0
LINE
  5
163F7
  8
0
 62
     0
 10
2.040817619595213
 20
-27.725338794738459
 30
0.0
 11
2.040817619595213
 21
-27.725338794738459
 31
0.0
  0
LINE
  5
163F8
  8
0
 62
     0
 10
8.2183589782454565
 20
-17.968237498094549
 30
0.0
 11
8.2183589782454565
 21
-17.968237498094549
 31
0.0
  0
LINE
  5
163F9
  8
0
 62
     0
 10
5.1553804020490546
 20
-20.318543623211418
 30
0.0
 11
5.1553804020490546
 21
-20.318543623211418
 31
0.0
  0
LINE
  5
163FA
  8
0
 62
     0
 10
1.8808144899969821
 20
-22.831206421444922
 30
0.0
 11
1.8808144899969821
 21
-22.831206421444922
 31
0.0
  0
LINE
  5
163FB
  8
0
 62
     0
 10
8.0583558486470217
 20
-13.074105124801131
 30
0.0
 11
8.0583558486470217
 21
-13.074105124801131
 31
0.0
  0
LINE
  5
163FC
  8
0
 62
     0
 10
4.9953772724506189
 20
-15.424411249918
 30
0.0
 11
4.9953772724506189
 21
-15.424411249918
 31
0.0
  0
LINE
  5
163FD
  8
0
 62
     0
 10
1.720811360398546
 20
-17.937074048151491
 30
0.0
 11
1.720811360398546
 21
-17.937074048151491
 31
0.0
  0
LINE
  5
163FE
  8
0
 62
     0
 10
4.8353741428521513
 20
-10.530278876624591
 30
0.0
 11
4.8353741428521513
 21
-10.530278876624591
 31
0.0
  0
LINE
  5
163FF
  8
0
 62
     0
 10
1.5608082308000779
 20
-13.04294167485809
 30
0.0
 11
1.5608082308000779
 21
-13.04294167485809
 31
0.0
  0
LINE
  5
16400
  8
0
 62
     0
 10
4.6753710132538471
 20
-5.6361465033310978
 30
0.0
 11
4.6753710132538471
 21
-5.6361465033310978
 31
0.0
  0
LINE
  5
16401
  8
0
 62
     0
 10
7.7383495894501984
 20
-3.2858403782142842
 30
0.0
 11
7.7383495894501984
 21
-3.2858403782142842
 31
0.0
  0
LINE
  5
16402
  8
0
 62
     0
 10
7.5783464598517973
 20
1.608291995079111
 30
0.0
 11
7.5783464598517973
 21
1.608291995079111
 31
0.0
  0
LINE
  5
16403
  8
0
 62
     0
 10
4.5153678836553954
 20
-0.7420141300377581
 30
0.0
 11
4.5153678836553954
 21
-0.7420141300377581
 31
0.0
  0
LINE
  5
16404
  8
0
 62
     0
 10
1.240801971603321
 20
-3.2546769282712522
 30
0.0
 11
1.240801971603321
 21
-3.2546769282712522
 31
0.0
  0
LINE
  5
16405
  8
0
 62
     0
 10
4.355364754056926
 20
4.1521182432556483
 30
0.0
 11
4.355364754056926
 21
4.1521182432556483
 31
0.0
  0
LINE
  5
16406
  8
0
 62
     0
 10
1.0807988420048531
 20
1.6394554450221539
 30
0.0
 11
1.0807988420048531
 21
1.6394554450221539
 31
0.0
  0
LINE
  5
16407
  8
0
 62
     0
 10
7.2583402006548541
 20
11.396556741665909
 30
0.0
 11
7.2583402006548541
 21
11.396556741665909
 31
0.0
  0
LINE
  5
16408
  8
0
 62
     0
 10
4.1953616244584531
 20
9.0462506165490382
 30
0.0
 11
4.1953616244584531
 21
9.0462506165490382
 31
0.0
  0
LINE
  5
16409
  8
0
 62
     0
 10
7.098337071056628
 20
16.29068911495941
 30
0.0
 11
7.098337071056628
 21
16.29068911495941
 31
0.0
  0
LINE
  5
1640A
  8
0
 62
     0
 10
4.035358494860227
 20
13.94038298984254
 30
0.0
 11
4.035358494860227
 21
13.94038298984254
 31
0.0
  0
LINE
  5
1640B
  8
0
 62
     0
 10
0.7607925828081537
 20
11.427720191609049
 30
0.0
 11
0.7607925828081537
 21
11.427720191609049
 31
0.0
  0
LINE
  5
1640C
  8
0
 62
     0
 10
6.9383339414581586
 20
21.184821488252769
 30
0.0
 11
6.9383339414581586
 21
21.184821488252769
 31
0.0
  0
LINE
  5
1640D
  8
0
 62
     0
 10
3.8753553652617581
 20
18.834515363135889
 30
0.0
 11
3.8753553652617581
 21
18.834515363135889
 31
0.0
  0
LINE
  5
1640E
  8
0
 62
     0
 10
0.6007894532096851
 20
16.3218525649024
 30
0.0
 11
0.6007894532096851
 21
16.3218525649024
 31
0.0
  0
LINE
  5
1640F
  8
0
 62
     0
 10
6.7783308118596901
 20
26.078953861546111
 30
0.0
 11
6.7783308118596901
 21
26.078953861546111
 31
0.0
  0
LINE
  5
16410
  8
0
 62
     0
 10
3.7153522356632891
 20
23.728647736429249
 30
0.0
 11
3.7153522356632891
 21
23.728647736429249
 31
0.0
  0
LINE
  5
16411
  8
0
 62
     0
 10
0.4407863236112166
 20
21.215984938195749
 30
0.0
 11
0.4407863236112166
 21
21.215984938195749
 31
0.0
  0
LINE
  5
16412
  8
0
 62
     0
 10
6.6183276822614934
 20
30.97308623483967
 30
0.0
 11
6.6183276822614934
 21
30.97308623483967
 31
0.0
  0
LINE
  5
16413
  8
0
 62
     0
 10
3.555349106065091
 20
28.6227801097228
 30
0.0
 11
3.555349106065091
 21
28.6227801097228
 31
0.0
  0
LINE
  5
16414
  8
0
 62
     0
 10
0.2807831940130185
 20
26.110117311489311
 30
0.0
 11
0.2807831940130185
 21
26.110117311489311
 31
0.0
  0
LINE
  5
16415
  8
0
 62
     0
 10
6.4583245526630249
 20
35.867218608133079
 30
0.0
 11
6.4583245526630249
 21
35.867218608133079
 31
0.0
  0
LINE
  5
16416
  8
0
 62
     0
 10
3.395345976466623
 20
33.516912483016213
 30
0.0
 11
3.395345976466623
 21
33.516912483016213
 31
0.0
  0
LINE
  5
16417
  8
0
 62
     0
 10
0.1207800644145504
 20
31.004249684782721
 30
0.0
 11
0.1207800644145504
 21
31.004249684782721
 31
0.0
  0
LINE
  5
16418
  8
0
 62
     0
 10
6.298321423064646
 20
40.761350981426553
 30
0.0
 11
6.298321423064646
 21
40.761350981426553
 31
0.0
  0
LINE
  5
16419
  8
0
 62
     0
 10
3.235342846868245
 20
38.411044856309687
 30
0.0
 11
3.235342846868245
 21
38.411044856309687
 31
0.0
  0
LINE
  5
1641A
  8
0
 62
     0
 10
3.0753397172696859
 20
43.305177229602961
 30
0.0
 11
3.0753397172696859
 21
43.305177229602961
 31
0.0
  0
ENDBLK
  5
1641C
  8
0
  0
BLOCK
  8
0
  2
*U72
 70
     1
 10
0.0
 20
0.0
 30
0.0
  3
*U72
  1

  0
SOLID
  5
1641E
  8
1DIM
 10
12.044443127533439
 20
38.649918419518762
 30
0.0
 11
13.168864624287609
 21
36.962675873603018
 31
0.0
 12
11.55800886922316
 22
38.194038877548998
 32
0.0
 13
11.55800886922316
 23
38.194038877548998
 33
0.0
  0
POLYLINE
  5
1641F
  8
1DIM
 66
     1
 10
0.0
 20
0.0
 30
0.0
  0
VERTEX
  5
16420
  8
1DIM
 10
11.8012259983783
 20
38.42197864853388
 30
0.0
  0
VERTEX
  5
16421
  8
1DIM
 10
-2.0871988093631888
 20
53.241256546509689
 30
0.0
  0
VERTEX
  5
16422
  8
1DIM
 10
-31.153865476029861
 20
53.241256546509689
 30
0.0
  0
SEQEND
  5
16423
  8
1DIM
  0
ENDBLK
  5
16425
  8
0
  0
BLOCK
  8
0
  2
*U73
 70
     1
 10
0.0
 20
0.0
 30
0.0
  3
*U73
  1

  0
TEXT
  5
16427
  8
1DIM
 62
   201
 10
-31.153865476029861
 20
53.941256546509692
 30
0.0
 40
3.5
  1
裏板9mm以上
  0
ENDBLK
  5
16429
  8
0
  0
BLOCK
  8
0
  2
*U74
 70
     1
 10
0.0
 20
0.0
 30
0.0
  3
*U74
  1

  0
LINE
  5
1642B
  8
0
 10
-29.999999999837598
 20
0.0000465358979227
 30
0.0
 11
-24.700003489975941
 21
-1.4999534641020771
 31
0.0
  0
LINE
  5
1642C
  8
0
 10
-24.700003489975941
 20
-1.4999534641020771
 30
0.0
 11
-0.0000034900840618
 21
-1.499953464101849
 31
0.0
  0
LINE
  5
1642D
  8
0
 10
-29.999999999837598
 20
0.0000465358979227
 30
0.0
 11
-24.6999965095923
 21
1.5000465358980359
 31
0.0
  0
LINE
  5
1642E
  8
0
 10
-0.0000081437821464
 20
-3.4999999999998859
 30
0.0
 11
-0.0000034900840618
 21
-1.499953464101849
 31
0.0
  0
LINE
  5
1642F
  8
0
 10
-24.6999965095923
 20
1.5000465358980359
 30
0.0
 11
0.0000034903006139
 21
1.500046535897922
 31
0.0
  0
LINE
  5
16430
  8
0
 10
-0.0000081437821464
 20
-3.4999999999998859
 30
0.0
 11
1.0999953464131731
 21
-3.5
 31
0.0
  0
LINE
  5
16431
  8
0
 10
0.0000034903006139
 20
1.500046535897922
 30
0.0
 11
0.0000081437821322
 21
3.5
 31
0.0
  0
ARC
  5
16432
  8
0
 10
1.0999953464131731
 20
-2.0
 30
0.0
 40
1.5
 50
270.0
 51
359.99986668447059
  0
LINE
  5
16433
  8
0
 10
0.0000081437821322
 20
3.5
 30
0.0
 11
1.100004653592769
 21
3.5
 31
0.0
  0
LINE
  5
16434
  8
0
 10
2.5999953464091159
 20
-2.0000034901923982
 30
0.0
 11
2.6000046535887051
 21
1.9999965098076009
 31
0.0
  0
ARC
  5
16435
  8
0
 10
1.100004653592769
 20
2.0
 30
0.0
 40
1.5
 50
359.99986668447059
 51
90.0
  0
ENDBLK
  5
16437
  8
0
  0
BLOCK
  8
0
  2
*U75
 70
     1
 10
0.0
 20
0.0
 30
0.0
  3
*U75
  1

  0
LINE
  5
16439
  8
0
 10
-9.6499999999999773
 20
2.0
 30
0.0
 11
-0.0000000000000284
 21
2.0
 31
0.0
  0
LINE
  5
1643A
  8
0
 10
-9.6499999999999773
 20
2.0
 30
0.0
 11
-10.0
 21
1.649999999999977
 31
0.0
  0
LINE
  5
1643B
  8
0
 10
0.0
 20
3.4999999999999432
 30
0.0
 11
-0.0000000000000284
 21
2.0
 31
0.0
  0
LINE
  5
1643C
  8
0
 10
-10.0
 20
1.649999999999977
 30
0.0
 11
-10.0
 21
-1.6499999999998629
 31
0.0
  0
LINE
  5
1643D
  8
0
 10
0.0
 20
3.4999999999999432
 30
0.0
 11
0.5999999999999375
 21
3.4999999999999432
 31
0.0
  0
LINE
  5
1643E
  8
0
 10
-10.0
 20
-1.6499999999998629
 30
0.0
 11
-9.6499999999999773
 21
-2.0
 31
0.0
  0
ARC
  5
1643F
  8
0
 10
0.5999999999999944
 20
1.4999999999999429
 30
0.0
 40
2.0
 50
0.0
 51
90.000000000001606
  0
LINE
  5
16440
  8
0
 10
-9.6499999999999773
 20
-2.0
 30
0.0
 11
0.0000000000000568
 21
-2.0
 31
0.0
  0
LINE
  5
16441
  8
0
 10
2.5999999999999939
 20
1.4999999999999429
 30
0.0
 11
2.5999999999999939
 21
-1.5
 31
0.0
  0
LINE
  5
16442
  8
0
 10
0.0000000000000568
 20
-2.0
 30
0.0
 11
0.0
 21
-3.5
 31
0.0
  0
ARC
  5
16443
  8
0
 10
0.5999999999999944
 20
-1.5
 30
0.0
 40
2.0
 50
270.0
 51
0.0
  0
LINE
  5
16444
  8
0
 10
0.0
 20
-3.5
 30
0.0
 11
0.5999999999999944
 21
-3.5
 31
0.0
  0
ENDBLK
  5
16446
  8
0
  0
BLOCK
  8
0
  2
*U76
 70
     1
 10
0.0
 20
0.0
 30
0.0
  3
*U76
  1

  0
LINE
  5
1646C
  8
0
 10
-24.650013959859319
 20
-1.9997699899806769
 30
0.0
 11
-2.3000325751651469
 21
-1.999978593270384
 31
0.0
  0
LINE
  5
1646D
  8
0
 10
-0.3000279215265778
 20
-3.9999972077595198
 30
0.0
 11
-2.3000325751651469
 21
-1.999978593270384
 31
0.0
  0
LINE
  5
1646E
  8
0
 10
-25.000011516714508
 20
-1.649767320475461
 30
0.0
 11
-24.650013959859319
 21
-1.9997699899806769
 31
0.0
  0
LINE
  5
1646F
  8
0
 10
-0.3000279215265778
 20
-3.9999972077595198
 30
0.0
 11
-0.0000279215387877
 21
-3.9999999999133702
 31
0.0
  0
LINE
  5
16470
  8
0
 10
-24.999988481445051
 20
1.650232679454916
 30
0.0
 11
-25.000011516714508
 21
-1.649767320475461
 31
0.0
  0
LINE
  5
16471
  8
0
 10
0.0000279215387877
 20
3.9999999999134839
 30
0.0
 11
-0.0000279215387877
 21
-3.9999999999133702
 31
0.0
  0
LINE
  5
16472
  8
0
 10
-24.999988481445051
 20
1.650232679454916
 30
0.0
 11
-24.649986038320591
 21
2.0002300099321242
 31
0.0
  0
LINE
  5
16473
  8
0
 10
-0.299972078449116
 20
4.0000027920673338
 30
0.0
 11
0.0000279215387877
 21
3.9999999999134839
 31
0.0
  0
LINE
  5
16474
  8
0
 10
-24.649986038320591
 20
2.0002300099321242
 30
0.0
 11
-2.299976732000899
 21
2.0000214063830981
 31
0.0
  0
LINE
  5
16475
  8
0
 10
-0.299972078449116
 20
4.0000027920673338
 30
0.0
 11
-2.299976732000899
 21
2.0000214063830981
 31
0.0
  0
ENDBLK
  5
16477
  8
0
  0
BLOCK
  8
0
  2
*X77
 70
     1
 10
0.0
 20
0.0
 30
0.0
  3
*X77
  1

  0
LINE
  5
16479
  8
0
 62
     0
 10
16.671990294007681
 20
-61.391691274362131
 30
0.0
 11
18.0
 21
-60.063681568369759
 31
0.0
  0
LINE
  5
1647A
  8
0
 62
     0
 10
14.42692626374037
 20
-61.391691274362131
 30
0.0
 11
17.99999999999994
 21
-57.818617538102501
 31
0.0
  0
LINE
  5
1647B
  8
0
 62
     0
 10
12.18186223347311
 20
-61.391691274362131
 30
0.0
 11
18.0
 21
-55.573553507835179
 31
0.0
  0
LINE
  5
1647C
  8
0
 62
     0
 10
9.9367982032057398
 20
-61.391691274362181
 30
0.0
 11
18.0
 21
-53.328489477567928
 31
0.0
  0
LINE
  5
1647D
  8
0
 62
     0
 10
9.0000000000001137
 20
-60.083425447300549
 30
0.0
 11
18.0
 21
-51.083425447300669
 31
0.0
  0
LINE
  5
1647E
  8
0
 62
     0
 10
9.0000000000000568
 20
-57.83836141703329
 30
0.0
 11
17.99999999999994
 21
-48.838361417033411
 31
0.0
  0
LINE
  5
1647F
  8
0
 62
     0
 10
9.0000000000000568
 20
-55.593297386765919
 30
0.0
 11
17.99999999999994
 21
-46.593297386766032
 31
0.0
  0
LINE
  5
16480
  8
0
 62
     0
 10
9.0000000000000568
 20
-53.348233356498667
 30
0.0
 11
17.99999999999994
 21
-44.348233356498781
 31
0.0
  0
LINE
  5
16481
  8
0
 62
     0
 10
9.0000000000000568
 20
-51.103169326231409
 30
0.0
 11
18.00000000000006
 21
-42.103169326231459
 31
0.0
  0
LINE
  5
16482
  8
0
 62
     0
 10
9.0000000000000568
 20
-48.858105295964087
 30
0.0
 11
18.0
 21
-39.858105295964208
 31
0.0
  0
LINE
  5
16483
  8
0
 62
     0
 10
9.0000000000000568
 20
-46.613041265696722
 30
0.0
 11
18.0
 21
-37.613041265696843
 31
0.0
  0
LINE
  5
16484
  8
0
 62
     0
 10
9.0000000000000568
 20
-44.367977235429457
 30
0.0
 11
18.0
 21
-35.367977235429578
 31
0.0
  0
LINE
  5
16485
  8
0
 62
     0
 10
9.0000000000000568
 20
-42.122913205162213
 30
0.0
 11
18.0
 21
-33.12291320516232
 31
0.0
  0
LINE
  5
16486
  8
0
 62
     0
 10
9.0
 20
-39.877849174894948
 30
0.0
 11
17.99999999999994
 21
-30.877849174895061
 31
0.0
  0
LINE
  5
16487
  8
0
 62
     0
 10
9.0
 20
-37.63278514462769
 30
0.0
 11
18.0
 21
-28.63278514462769
 31
0.0
  0
LINE
  5
16488
  8
0
 62
     0
 10
9.0
 20
-35.387721114360431
 30
0.0
 11
18.0
 21
-26.387721114360431
 31
0.0
  0
LINE
  5
16489
  8
0
 62
     0
 10
8.9999999999999432
 20
-33.14265708409318
 30
0.0
 11
17.99999999999994
 21
-24.14265708409317
 31
0.0
  0
LINE
  5
1648A
  8
0
 62
     0
 10
8.9999999999999432
 20
-30.897593053825918
 30
0.0
 11
17.99999999999994
 21
-21.897593053825918
 31
0.0
  0
LINE
  5
1648B
  8
0
 62
     0
 10
8.9999999999999432
 20
-28.65252902355866
 30
0.0
 11
17.99999999999994
 21
-19.65252902355866
 31
0.0
  0
LINE
  5
1648C
  8
0
 62
     0
 10
8.9999999999999432
 20
-26.407464993291399
 30
0.0
 11
18.0
 21
-17.407464993291342
 31
0.0
  0
LINE
  5
1648D
  8
0
 62
     0
 10
9.0
 20
-24.16240096302403
 30
0.0
 11
17.99999999999994
 21
-15.16240096302403
 31
0.0
  0
LINE
  5
1648E
  8
0
 62
     0
 10
8.9999999999999432
 20
-21.917336932756712
 30
0.0
 11
17.99999999999994
 21
-12.91733693275671
 31
0.0
  0
LINE
  5
1648F
  8
0
 62
     0
 10
8.9999999999999432
 20
-19.67227290248945
 30
0.0
 11
17.99999999999994
 21
-10.67227290248945
 31
0.0
  0
LINE
  5
16490
  8
0
 62
     0
 10
8.9999999999999432
 20
-17.427208872222192
 30
0.0
 11
15.821190608570189
 21
-10.606018263652
 31
0.0
  0
LINE
  5
16491
  8
0
 62
     0
 10
16.78433035397688
 20
-7.3978144879779393
 30
0.0
 11
18.0
 21
-6.1821448419548801
 31
0.0
  0
LINE
  5
16492
  8
0
 62
     0
 10
8.9999999999998863
 20
-15.182144841954941
 30
0.0
 11
13.682098306056441
 21
-10.500046535898431
 31
0.0
  0
LINE
  5
16493
  8
0
 62
     0
 10
11.14073620626419
 20
-10.796344605423309
 30
0.0
 11
11.437034275789189
 21
-10.50004653589837
 31
0.0
  0
LINE
  5
16494
  8
0
 62
     0
 10
14.437034275789189
 20
-7.5000465358983197
 30
0.0
 11
18.00000000000006
 21
-3.9370808116874509
 31
0.0
  0
LINE
  5
16495
  8
0
 62
     0
 10
8.9999999999998863
 20
-12.93708081168762
 30
0.0
 11
11.072835431113271
 21
-10.86424538057423
 31
0.0
  0
LINE
  5
16496
  8
0
 62
     0
 10
12.191970245521761
 20
-7.5000465358984911
 30
0.0
 11
18.00000000000006
 21
-1.692016781420193
 31
0.0
  0
LINE
  5
16497
  8
0
 62
     0
 10
9.0
 20
-10.69201678142031
 30
0.0
 11
9.1919702455219294
 21
-10.50004653589837
 31
0.0
  0
LINE
  5
16498
  8
0
 62
     0
 10
10.32448800965261
 20
-7.1224647415003801
 30
0.0
 11
18.00000000000006
 21
0.5530472488470651
 31
0.0
  0
LINE
  5
16499
  8
0
 62
     0
 10
9.9469062152545007
 20
-7.5000465358984911
 30
0.0
 11
10.26327872882478
 21
-7.1836740223282041
 31
0.0
  0
LINE
  5
1649A
  8
0
 62
     0
 10
8.9999999999999432
 20
-6.2018887208857896
 30
0.0
 11
18.0
 21
2.7981112791143228
 31
0.0
  0
LINE
  5
1649B
  8
0
 62
     0
 10
8.9999999999999432
 20
-3.956824690618475
 30
0.0
 11
18.00000000000006
 21
5.0431753093816951
 31
0.0
  0
LINE
  5
1649C
  8
0
 62
     0
 10
8.9999999999999432
 20
-1.711760660351217
 30
0.0
 11
18.00000000000006
 21
7.2882393396489533
 31
0.0
  0
LINE
  5
1649D
  8
0
 62
     0
 10
8.9999999999999432
 20
0.533303369916041
 30
0.0
 11
15.827771837741579
 21
7.3610752076577342
 31
0.0
  0
LINE
  5
1649E
  8
0
 62
     0
 10
16.79123737884305
 20
10.56960477902652
 30
0.0
 11
18.0
 21
11.778367400183519
 31
0.0
  0
LINE
  5
1649F
  8
0
 62
     0
 10
8.9999999999999432
 20
2.7783674001834688
 30
0.0
 11
13.721586063918149
 21
7.4999534641016794
 31
0.0
  0
LINE
  5
164A0
  8
0
 62
     0
 10
11.13086412323616
 20
7.154295553686949
 30
0.0
 11
11.47652203365084
 21
7.4999534641015648
 31
0.0
  0
LINE
  5
164A1
  8
0
 62
     0
 10
14.47652203365084
 20
10.499953464101621
 30
0.0
 11
18.0
 21
14.023431430450779
 31
0.0
  0
LINE
  5
164A2
  8
0
 62
     0
 10
8.9999999999999432
 20
5.023431430450727
 30
0.0
 11
11.079416660284719
 21
7.102848090735506
 31
0.0
  0
LINE
  5
164A3
  8
0
 62
     0
 10
12.231458003383411
 20
10.49995346410145
 30
0.0
 11
18.00000000000006
 21
16.268495460718039
 31
0.0
  0
LINE
  5
164A4
  8
0
 62
     0
 10
8.9999999999999432
 20
7.2684954607179861
 30
0.0
 11
9.2314580033835796
 21
7.4999534641015648
 31
0.0
  0
LINE
  5
164A5
  8
0
 62
     0
 10
10.33106923882394
 20
10.844628729809241
 30
0.0
 11
18.00000000000006
 21
18.513559490985411
 31
0.0
  0
LINE
  5
164A6
  8
0
 62
     0
 10
9.9863939731161508
 20
10.49995346410145
 30
0.0
 11
10.25340664579676
 21
10.766966136782059
 31
0.0
  0
LINE
  5
164A7
  8
0
 62
     0
 10
9.0000000000000568
 20
11.75862352125273
 30
0.0
 11
18.0
 21
20.75862352125273
 31
0.0
  0
LINE
  5
164A8
  8
0
 62
     0
 10
9.0000000000000568
 20
14.003687551519929
 30
0.0
 11
18.0
 21
23.003687551519992
 31
0.0
  0
LINE
  5
164A9
  8
0
 62
     0
 10
9.0000000000000568
 20
16.248751581787189
 30
0.0
 11
18.0
 21
25.24875158178725
 31
0.0
  0
LINE
  5
164AA
  8
0
 62
     0
 10
9.0000000000000568
 20
18.493815612054561
 30
0.0
 11
17.99999999999994
 21
27.493815612054512
 31
0.0
  0
LINE
  5
164AB
  8
0
 62
     0
 10
9.0000000000000568
 20
20.73887964232188
 30
0.0
 11
18.00000000000006
 21
29.73887964232182
 31
0.0
  0
LINE
  5
164AC
  8
0
 62
     0
 10
9.0000000000000568
 20
22.983943672589131
 30
0.0
 11
18.00000000000006
 21
31.983943672589081
 31
0.0
  0
LINE
  5
164AD
  8
0
 62
     0
 10
9.0000000000000568
 20
25.22900770285634
 30
0.0
 11
18.00000000000006
 21
34.229007702856343
 31
0.0
  0
LINE
  5
164AE
  8
0
 62
     0
 10
9.0
 20
27.474071733123591
 30
0.0
 11
18.0
 21
36.474071733123587
 31
0.0
  0
LINE
  5
164AF
  8
0
 62
     0
 10
9.0000000000001137
 20
29.71913576339103
 30
0.0
 11
18.0
 21
38.719135763390909
 31
0.0
  0
LINE
  5
164B0
  8
0
 62
     0
 10
9.0000000000001137
 20
31.964199793658281
 30
0.0
 11
18.0
 21
40.96419979365816
 31
0.0
  0
LINE
  5
164B1
  8
0
 62
     0
 10
9.0000000000001137
 20
34.209263823925539
 30
0.0
 11
18.0
 21
43.209263823925419
 31
0.0
  0
LINE
  5
164B2
  8
0
 62
     0
 10
9.0000000000000568
 20
36.454327854192861
 30
0.0
 11
17.245208523150549
 21
44.699536377343343
 31
0.0
  0
LINE
  5
164B3
  8
0
 62
     0
 10
9.0000000000000568
 20
38.699391884460113
 30
0.0
 11
15.00014449288329
 21
44.699536377343343
 31
0.0
  0
LINE
  5
164B4
  8
0
 62
     0
 10
9.0000000000000568
 20
40.944455914727477
 30
0.0
 11
12.75508046261592
 21
44.699536377343229
 31
0.0
  0
LINE
  5
164B5
  8
0
 62
     0
 10
9.0000000000001137
 20
43.189519944994743
 30
0.0
 11
10.510016432348721
 21
44.699536377343229
 31
0.0
  0
ENDBLK
  5
164B7
  8
0
  0
BLOCK
  8
0
  2
*X78
 70
     1
 10
0.0
 20
0.0
 30
0.0
  3
*X78
  1

  0
LINE
  5
164B9
  8
0
 62
     0
 10
4.719668856187476
 20
-60.905108537765202
 30
0.0
 11
4.719668856187476
 21
-60.905108537765202
 31
0.0
  0
LINE
  5
164BA
  8
0
 62
     0
 10
2.5099012223001722
 20
-58.880229567499541
 30
0.0
 11
2.5099012223001722
 21
-58.880229567499541
 31
0.0
  0
LINE
  5
164BB
  8
0
 62
     0
 10
2.0417301134257442
 20
-58.4512297856636
 30
0.0
 11
2.0417301134257442
 21
-58.4512297856636
 31
0.0
  0
LINE
  5
164BC
  8
0
 62
     0
 10
7.1491706502268144
 20
-53.905337731177347
 30
0.0
 11
7.1491706502268144
 21
-53.905337731177347
 31
0.0
  0
LINE
  5
164BD
  8
0
 62
     0
 10
4.9394030163395106
 20
-51.880458760911701
 30
0.0
 11
4.9394030163395106
 21
-51.880458760911701
 31
0.0
  0
LINE
  5
164BE
  8
0
 62
     0
 10
4.471231907465083
 20
-51.451458979075753
 30
0.0
 11
4.471231907465083
 21
-51.451458979075753
 31
0.0
  0
LINE
  5
164BF
  8
0
 62
     0
 10
1.943107919543168
 20
-49.134860157161647
 30
0.0
 11
1.943107919543168
 21
-49.134860157161647
 31
0.0
  0
LINE
  5
164C0
  8
0
 62
     0
 10
7.3689048103787469
 20
-44.880687954323847
 30
0.0
 11
7.3689048103787469
 21
-44.880687954323847
 31
0.0
  0
LINE
  5
164C1
  8
0
 62
     0
 10
6.9007337015043193
 20
-44.451688172487913
 30
0.0
 11
6.9007337015043193
 21
-44.451688172487913
 31
0.0
  0
LINE
  5
164C2
  8
0
 62
     0
 10
4.3726097135824036
 20
-42.135089350573821
 30
0.0
 11
4.3726097135824036
 21
-42.135089350573821
 31
0.0
  0
LINE
  5
164C3
  8
0
 62
     0
 10
2.1628420796950998
 20
-40.11021038030816
 30
0.0
 11
2.1628420796950998
 21
-40.11021038030816
 31
0.0
  0
LINE
  5
164C4
  8
0
 62
     0
 10
1.694670970820672
 20
-39.681210598472219
 30
0.0
 11
1.694670970820672
 21
-39.681210598472219
 31
0.0
  0
LINE
  5
164C5
  8
0
 62
     0
 10
6.8021115076217677
 20
-35.135318543985953
 30
0.0
 11
6.8021115076217677
 21
-35.135318543985953
 31
0.0
  0
LINE
  5
164C6
  8
0
 62
     0
 10
4.592343873734464
 20
-33.110439573720278
 30
0.0
 11
4.592343873734464
 21
-33.110439573720278
 31
0.0
  0
LINE
  5
164C7
  8
0
 62
     0
 10
4.1241727648600364
 20
-32.681439791884351
 30
0.0
 11
4.1241727648600364
 21
-32.681439791884351
 31
0.0
  0
LINE
  5
164C8
  8
0
 62
     0
 10
1.5960487769381211
 20
-30.364840969970238
 30
0.0
 11
1.5960487769381211
 21
-30.364840969970238
 31
0.0
  0
LINE
  5
164C9
  8
0
 62
     0
 10
7.0218456677738237
 20
-26.110668767132399
 30
0.0
 11
7.0218456677738237
 21
-26.110668767132399
 31
0.0
  0
LINE
  5
164CA
  8
0
 62
     0
 10
6.5536745588993961
 20
-25.681668985296461
 30
0.0
 11
6.5536745588993961
 21
-25.681668985296461
 31
0.0
  0
LINE
  5
164CB
  8
0
 62
     0
 10
4.0255505709774813
 20
-23.365070163382359
 30
0.0
 11
4.0255505709774813
 21
-23.365070163382359
 31
0.0
  0
LINE
  5
164CC
  8
0
 62
     0
 10
1.8157829370901779
 20
-21.340191193116699
 30
0.0
 11
1.8157829370901779
 21
-21.340191193116699
 31
0.0
  0
LINE
  5
164CD
  8
0
 62
     0
 10
1.347611828215749
 20
-20.911191411280761
 30
0.0
 11
1.347611828215749
 21
-20.911191411280761
 31
0.0
  0
LINE
  5
164CE
  8
0
 62
     0
 10
8.9831763529386919
 20
-18.681898178708529
 30
0.0
 11
8.9831763529386919
 21
-18.681898178708529
 31
0.0
  0
LINE
  5
164CF
  8
0
 62
     0
 10
6.4550523650167762
 20
-16.365299356794441
 30
0.0
 11
6.4550523650167762
 21
-16.365299356794441
 31
0.0
  0
LINE
  5
164D0
  8
0
 62
     0
 10
4.2452847311294732
 20
-14.34042038652878
 30
0.0
 11
4.2452847311294732
 21
-14.34042038652878
 31
0.0
  0
LINE
  5
164D1
  8
0
 62
     0
 10
3.7771136222550439
 20
-13.911420604692839
 30
0.0
 11
3.7771136222550439
 21
-13.911420604692839
 31
0.0
  0
LINE
  5
164D2
  8
0
 62
     0
 10
1.248989634333129
 20
-11.59482178277873
 30
0.0
 11
1.248989634333129
 21
-11.59482178277873
 31
0.0
  0
LINE
  5
164D3
  8
0
 62
     0
 10
6.6747865251688028
 20
-7.340649579940961
 30
0.0
 11
6.6747865251688028
 21
-7.340649579940961
 31
0.0
  0
LINE
  5
164D4
  8
0
 62
     0
 10
6.2066154162943752
 20
-6.9116497981050173
 30
0.0
 11
6.2066154162943752
 21
-6.9116497981050173
 31
0.0
  0
LINE
  5
164D5
  8
0
 62
     0
 10
3.6784914283724599
 20
-4.5950509761909171
 30
0.0
 11
3.6784914283724599
 21
-4.5950509761909171
 31
0.0
  0
LINE
  5
164D6
  8
0
 62
     0
 10
1.468723794485157
 20
-2.5701720059252589
 30
0.0
 11
1.468723794485157
 21
-2.5701720059252589
 31
0.0
  0
LINE
  5
164D7
  8
0
 62
     0
 10
1.0005526856107281
 20
-2.1411722240893152
 30
0.0
 11
1.0005526856107281
 21
-2.1411722240893152
 31
0.0
  0
LINE
  5
164D8
  8
0
 62
     0
 10
8.6361172103337154
 20
0.0881210084828284
 30
0.0
 11
8.6361172103337154
 21
0.0881210084828284
 31
0.0
  0
LINE
  5
164D9
  8
0
 62
     0
 10
6.1079932224118014
 20
2.4047198303969282
 30
0.0
 11
6.1079932224118014
 21
2.4047198303969282
 31
0.0
  0
LINE
  5
164DA
  8
0
 62
     0
 10
3.8982255885244972
 20
4.4295988006625846
 30
0.0
 11
3.8982255885244972
 21
4.4295988006625846
 31
0.0
  0
LINE
  5
164DB
  8
0
 62
     0
 10
3.4300544796500692
 20
4.85859858249853
 30
0.0
 11
3.4300544796500692
 21
4.85859858249853
 31
0.0
  0
LINE
  5
164DC
  8
0
 62
     0
 10
0.9019304917281541
 20
7.1751974044126294
 30
0.0
 11
0.9019304917281541
 21
7.1751974044126294
 31
0.0
  0
LINE
  5
164DD
  8
0
 62
     0
 10
6.3277273825637756
 20
11.42936960725048
 30
0.0
 11
6.3277273825637756
 21
11.42936960725048
 31
0.0
  0
LINE
  5
164DE
  8
0
 62
     0
 10
5.8595562736893481
 20
11.85836938908642
 30
0.0
 11
5.8595562736893481
 21
11.85836938908642
 31
0.0
  0
LINE
  5
164DF
  8
0
 62
     0
 10
3.3314322857674332
 20
14.17496821100052
 30
0.0
 11
3.3314322857674332
 21
14.17496821100052
 31
0.0
  0
LINE
  5
164E0
  8
0
 62
     0
 10
1.121664651880129
 20
16.199847181266179
 30
0.0
 11
1.121664651880129
 21
16.199847181266179
 31
0.0
  0
LINE
  5
164E1
  8
0
 62
     0
 10
0.6534935430057013
 20
16.628846963102131
 30
0.0
 11
0.6534935430057013
 21
16.628846963102131
 31
0.0
  0
LINE
  5
164E2
  8
0
 62
     0
 10
8.757229176603154
 20
18.429140413838351
 30
0.0
 11
8.757229176603154
 21
18.429140413838351
 31
0.0
  0
LINE
  5
164E3
  8
0
 62
     0
 10
8.2890580677287247
 20
18.858140195674299
 30
0.0
 11
8.2890580677287247
 21
18.858140195674299
 31
0.0
  0
LINE
  5
164E4
  8
0
 62
     0
 10
5.7609340798068081
 20
21.174739017588401
 30
0.0
 11
5.7609340798068081
 21
21.174739017588401
 31
0.0
  0
LINE
  5
164E5
  8
0
 62
     0
 10
3.5511664459195051
 20
23.199617987854051
 30
0.0
 11
3.5511664459195051
 21
23.199617987854051
 31
0.0
  0
LINE
  5
164E6
  8
0
 62
     0
 10
3.0829953370450758
 20
23.628617769689999
 30
0.0
 11
3.0829953370450758
 21
23.628617769689999
 31
0.0
  0
LINE
  5
164E7
  8
0
 62
     0
 10
0.5548713491231618
 20
25.945216591604101
 30
0.0
 11
0.5548713491231618
 21
25.945216591604101
 31
0.0
  0
LINE
  5
164E8
  8
0
 62
     0
 10
8.1904358738460896
 20
28.17450982417618
 30
0.0
 11
8.1904358738460896
 21
28.17450982417618
 31
0.0
  0
LINE
  5
164E9
  8
0
 62
     0
 10
5.9806682399587858
 20
30.199388794441841
 30
0.0
 11
5.9806682399587858
 21
30.199388794441841
 31
0.0
  0
LINE
  5
164EA
  8
0
 62
     0
 10
5.5124971310843582
 20
30.628388576277789
 30
0.0
 11
5.5124971310843582
 21
30.628388576277789
 31
0.0
  0
LINE
  5
164EB
  8
0
 62
     0
 10
2.984373143162443
 20
32.944987398191877
 30
0.0
 11
2.984373143162443
 21
32.944987398191877
 31
0.0
  0
LINE
  5
164EC
  8
0
 62
     0
 10
0.7746055092751402
 20
34.969866368457538
 30
0.0
 11
0.7746055092751402
 21
34.969866368457538
 31
0.0
  0
LINE
  5
164ED
  8
0
 62
     0
 10
0.3064344004007115
 20
35.398866150293493
 30
0.0
 11
0.3064344004007115
 21
35.398866150293493
 31
0.0
  0
LINE
  5
164EE
  8
0
 62
     0
 10
8.41017003399811
 20
37.199159601029763
 30
0.0
 11
8.41017003399811
 21
37.199159601029763
 31
0.0
  0
LINE
  5
164EF
  8
0
 62
     0
 10
7.9419989251236807
 20
37.628159382865697
 30
0.0
 11
7.9419989251236807
 21
37.628159382865697
 31
0.0
  0
LINE
  5
164F0
  8
0
 62
     0
 10
5.4138749372017658
 20
39.944758204779802
 30
0.0
 11
5.4138749372017658
 21
39.944758204779802
 31
0.0
  0
LINE
  5
164F1
  8
0
 62
     0
 10
3.204107303314462
 20
41.969637175045463
 30
0.0
 11
3.204107303314462
 21
41.969637175045463
 31
0.0
  0
LINE
  5
164F2
  8
0
 62
     0
 10
2.735936194440034
 20
42.398636956881397
 30
0.0
 11
2.735936194440034
 21
42.398636956881397
 31
0.0
  0
LINE
  5
164F3
  8
0
 62
     0
 10
3.8802392881250851
 20
-61.296643484138428
 30
0.0
 11
3.8802392881250851
 21
-61.296643484138428
 31
0.0
  0
LINE
  5
164F4
  8
0
 62
     0
 10
6.7559594504826217
 20
-58.075130275130718
 30
0.0
 11
6.7559594504826217
 21
-58.075130275130718
 31
0.0
  0
LINE
  5
164F5
  8
0
 62
     0
 10
2.8999737602261102
 20
-55.618596465769052
 30
0.0
 11
2.8999737602261102
 21
-55.618596465769052
 31
0.0
  0
LINE
  5
164F6
  8
0
 62
     0
 10
1.8288666240437459
 20
-54.936225963168582
 30
0.0
 11
1.8288666240437459
 21
-54.936225963168582
 31
0.0
  0
LINE
  5
164F7
  8
0
 62
     0
 10
4.7045867864011877
 20
-51.714712754160921
 30
0.0
 11
4.7045867864011877
 21
-51.714712754160921
 31
0.0
  0
LINE
  5
164F8
  8
0
 62
     0
 10
0.8486010961446758
 20
-49.258178944799241
 30
0.0
 11
0.8486010961446758
 21
-49.258178944799241
 31
0.0
  0
LINE
  5
164F9
  8
0
 62
     0
 10
8.7585247985592201
 20
-49.243807098013797
 30
0.0
 11
8.7585247985592201
 21
-49.243807098013797
 31
0.0
  0
LINE
  5
164FA
  8
0
 62
     0
 10
7.6874176623768546
 20
-48.561436595413333
 30
0.0
 11
7.6874176623768546
 21
-48.561436595413333
 31
0.0
  0
LINE
  5
164FB
  8
0
 62
     0
 10
2.6532141223197412
 20
-45.354295233191131
 30
0.0
 11
2.6532141223197412
 21
-45.354295233191131
 31
0.0
  0
LINE
  5
164FC
  8
0
 62
     0
 10
6.7071521344778677
 20
-42.883389577044078
 30
0.0
 11
6.7071521344778677
 21
-42.883389577044078
 31
0.0
  0
LINE
  5
164FD
  8
0
 62
     0
 10
5.6360449982955041
 20
-42.201019074443607
 30
0.0
 11
5.6360449982955041
 21
-42.201019074443607
 31
0.0
  0
LINE
  5
164FE
  8
0
 62
     0
 10
0.6018414582383905
 20
-38.993877712221433
 30
0.0
 11
0.6018414582383905
 21
-38.993877712221433
 31
0.0
  0
LINE
  5
164FF
  8
0
 62
     0
 10
8.5117651606529581
 20
-38.97950586543589
 30
0.0
 11
8.5117651606529581
 21
-38.97950586543589
 31
0.0
  0
LINE
  5
16500
  8
0
 62
     0
 10
4.6557794703964452
 20
-36.522972056074209
 30
0.0
 11
4.6557794703964452
 21
-36.522972056074209
 31
0.0
  0
LINE
  5
16501
  8
0
 62
     0
 10
3.5846723342140798
 20
-35.840601553473739
 30
0.0
 11
3.5846723342140798
 21
-35.840601553473739
 31
0.0
  0
LINE
  5
16502
  8
0
 62
     0
 10
6.4603924965714628
 20
-32.619088344466078
 30
0.0
 11
6.4603924965714628
 21
-32.619088344466078
 31
0.0
  0
LINE
  5
16503
  8
0
 62
     0
 10
2.6044068063149499
 20
-30.162554535104402
 30
0.0
 11
2.6044068063149499
 21
-30.162554535104402
 31
0.0
  0
LINE
  5
16504
  8
0
 62
     0
 10
1.5332996701325861
 20
-29.480184032503931
 30
0.0
 11
1.5332996701325861
 21
-29.480184032503931
 31
0.0
  0
LINE
  5
16505
  8
0
 62
     0
 10
4.4090198324901886
 20
-26.258670823496349
 30
0.0
 11
4.4090198324901886
 21
-26.258670823496349
 31
0.0
  0
LINE
  5
16506
  8
0
 62
     0
 10
0.5530341422336775
 20
-23.802137014134669
 30
0.0
 11
0.5530341422336775
 21
-23.802137014134669
 31
0.0
  0
LINE
  5
16507
  8
0
 62
     0
 10
8.4629578446482672
 20
-23.78776516734921
 30
0.0
 11
8.4629578446482672
 21
-23.78776516734921
 31
0.0
  0
LINE
  5
16508
  8
0
 62
     0
 10
7.3918507084659044
 20
-23.105394664748751
 30
0.0
 11
7.3918507084659044
 21
-23.105394664748751
 31
0.0
  0
LINE
  5
16509
  8
0
 62
     0
 10
2.3576471684087901
 20
-19.898253302526548
 30
0.0
 11
2.3576471684087901
 21
-19.898253302526548
 31
0.0
  0
LINE
  5
1650A
  8
0
 62
     0
 10
6.4115851805667248
 20
-17.427347646379371
 30
0.0
 11
6.4115851805667248
 21
-17.427347646379371
 31
0.0
  0
LINE
  5
1650B
  8
0
 62
     0
 10
5.3404780443843611
 20
-16.7449771437789
 30
0.0
 11
5.3404780443843611
 21
-16.7449771437789
 31
0.0
  0
LINE
  5
1650C
  8
0
 62
     0
 10
0.3062745043272478
 20
-13.53783578155671
 30
0.0
 11
0.3062745043272478
 21
-13.53783578155671
 31
0.0
  0
LINE
  5
1650D
  8
0
 62
     0
 10
8.2161982067418311
 20
-13.52346393477128
 30
0.0
 11
8.2161982067418311
 21
-13.52346393477128
 31
0.0
  0
LINE
  5
1650E
  8
0
 62
     0
 10
4.3602125164853183
 20
-11.0669301254096
 30
0.0
 11
4.3602125164853183
 21
-11.0669301254096
 31
0.0
  0
LINE
  5
1650F
  8
0
 62
     0
 10
6.1648255426604877
 20
-7.1630464138015846
 30
0.0
 11
6.1648255426604877
 21
-7.1630464138015846
 31
0.0
  0
LINE
  5
16510
  8
0
 62
     0
 10
2.3088398524039762
 20
-4.7065126044399053
 30
0.0
 11
2.3088398524039762
 21
-4.7065126044399053
 31
0.0
  0
LINE
  5
16511
  8
0
 62
     0
 10
1.237732716221611
 20
-4.0241421018394377
 30
0.0
 11
1.237732716221611
 21
-4.0241421018394377
 31
0.0
  0
LINE
  5
16512
  8
0
 62
     0
 10
4.1134528785791007
 20
-0.802628892831747
 30
0.0
 11
4.1134528785791007
 21
-0.802628892831747
 31
0.0
  0
LINE
  5
16513
  8
0
 62
     0
 10
0.2574671883225893
 20
1.6539049165299331
 30
0.0
 11
0.2574671883225893
 21
1.6539049165299331
 31
0.0
  0
LINE
  5
16514
  8
0
 62
     0
 10
8.1673908907370851
 20
1.6682767633154569
 30
0.0
 11
8.1673908907370851
 21
1.6682767633154569
 31
0.0
  0
LINE
  5
16515
  8
0
 62
     0
 10
7.0962837545547197
 20
2.350647265915923
 30
0.0
 11
7.0962837545547197
 21
2.350647265915923
 31
0.0
  0
LINE
  5
16516
  8
0
 62
     0
 10
2.0620802144976071
 20
5.557788628138117
 30
0.0
 11
2.0620802144976071
 21
5.557788628138117
 31
0.0
  0
LINE
  5
16517
  8
0
 62
     0
 10
0.0107075504163213
 20
11.91820614910781
 30
0.0
 11
0.0107075504163213
 21
11.91820614910781
 31
0.0
  0
LINE
  5
16518
  8
0
 62
     0
 10
7.9206312528308631
 20
11.932577995893361
 30
0.0
 11
7.9206312528308631
 21
11.932577995893361
 31
0.0
  0
LINE
  5
16519
  8
0
 62
     0
 10
4.0646455625743521
 20
14.389111805255039
 30
0.0
 11
4.0646455625743521
 21
14.389111805255039
 31
0.0
  0
LINE
  5
1651A
  8
0
 62
     0
 10
2.9935384263919871
 20
15.07148230785551
 30
0.0
 11
2.9935384263919871
 21
15.07148230785551
 31
0.0
  0
LINE
  5
1651B
  8
0
 62
     0
 10
5.8692585887494468
 20
18.292995516863161
 30
0.0
 11
5.8692585887494468
 21
18.292995516863161
 31
0.0
  0
LINE
  5
1651C
  8
0
 62
     0
 10
2.0132728984929349
 20
20.749529326224842
 30
0.0
 11
2.0132728984929349
 21
20.749529326224842
 31
0.0
  0
LINE
  5
1651D
  8
0
 62
     0
 10
0.9421657623105714
 20
21.431899828825308
 30
0.0
 11
0.9421657623105714
 21
21.431899828825308
 31
0.0
  0
LINE
  5
1651E
  8
0
 62
     0
 10
8.8520894647250579
 20
21.44627167561082
 30
0.0
 11
8.8520894647250579
 21
21.44627167561082
 31
0.0
  0
LINE
  5
1651F
  8
0
 62
     0
 10
3.817885924667944
 20
24.653413037833008
 30
0.0
 11
3.817885924667944
 21
24.653413037833008
 31
0.0
  0
LINE
  5
16520
  8
0
 62
     0
 10
7.8718239368261278
 20
27.124318693980069
 30
0.0
 11
7.8718239368261278
 21
27.124318693980069
 31
0.0
  0
LINE
  5
16521
  8
0
 62
     0
 10
6.8007168006437642
 20
27.806689196580539
 30
0.0
 11
6.8007168006437642
 21
27.806689196580539
 31
0.0
  0
LINE
  5
16522
  8
0
 62
     0
 10
1.76651326058665
 20
31.013830558802731
 30
0.0
 11
1.76651326058665
 21
31.013830558802731
 31
0.0
  0
LINE
  5
16523
  8
0
 62
     0
 10
5.8204512727446627
 20
33.484736214949912
 30
0.0
 11
5.8204512727446627
 21
33.484736214949912
 31
0.0
  0
LINE
  5
16524
  8
0
 62
     0
 10
4.749344136562299
 20
34.167106717550368
 30
0.0
 11
4.749344136562299
 21
34.167106717550368
 31
0.0
  0
LINE
  5
16525
  8
0
 62
     0
 10
7.6250642989196979
 20
37.388619926558029
 30
0.0
 11
7.6250642989196979
 21
37.388619926558029
 31
0.0
  0
LINE
  5
16526
  8
0
 62
     0
 10
3.769078608663186
 20
39.845153735919709
 30
0.0
 11
3.769078608663186
 21
39.845153735919709
 31
0.0
  0
LINE
  5
16527
  8
0
 62
     0
 10
2.697971472480821
 20
40.527524238520179
 30
0.0
 11
2.697971472480821
 21
40.527524238520179
 31
0.0
  0
LINE
  5
16528
  8
0
 62
     0
 10
5.5736916348382826
 20
43.749037447527833
 30
0.0
 11
5.5736916348382826
 21
43.749037447527833
 31
0.0
  0
LINE
  5
16529
  8
0
 62
     0
 10
8.5586983347236512
 20
-60.733363906378372
 30
0.0
 11
8.5586983347236512
 21
-60.733363906378372
 31
0.0
  0
LINE
  5
1652A
  8
0
 62
     0
 10
6.4937169774542811
 20
-61.00522385953429
 30
0.0
 11
6.4937169774542811
 21
-61.00522385953429
 31
0.0
  0
LINE
  5
1652B
  8
0
 62
     0
 10
5.1716252548123052
 20
-61.179280536859729
 30
0.0
 11
5.1716252548123052
 21
-61.179280536859729
 31
0.0
  0
LINE
  5
1652C
  8
0
 62
     0
 10
6.2168282575837468
 20
-54.465234574863508
 30
0.0
 11
6.2168282575837468
 21
-54.465234574863508
 31
0.0
  0
LINE
  5
1652D
  8
0
 62
     0
 10
4.151846900314375
 20
-54.737094528019441
 30
0.0
 11
4.151846900314375
 21
-54.737094528019441
 31
0.0
  0
LINE
  5
1652E
  8
0
 62
     0
 10
2.829755177672399
 20
-54.911151205344872
 30
0.0
 11
2.829755177672399
 21
-54.911151205344872
 31
0.0
  0
LINE
  5
1652F
  8
0
 62
     0
 10
8.6470797316944097
 20
-47.568843522335911
 30
0.0
 11
8.6470797316944097
 21
-47.568843522335911
 31
0.0
  0
LINE
  5
16530
  8
0
 62
     0
 10
7.324988009052432
 20
-47.742900199661349
 30
0.0
 11
7.324988009052432
 21
-47.742900199661349
 31
0.0
  0
LINE
  5
16531
  8
0
 62
     0
 10
3.8749581804438469
 20
-48.197105243348688
 30
0.0
 11
3.8749581804438469
 21
-48.197105243348688
 31
0.0
  0
LINE
  5
16532
  8
0
 62
     0
 10
1.8099768231744751
 20
-48.468965196504612
 30
0.0
 11
1.8099768231744751
 21
-48.468965196504612
 31
0.0
  0
LINE
  5
16533
  8
0
 62
     0
 10
0.4878851005324989
 20
-48.643021873830051
 30
0.0
 11
0.4878851005324989
 21
-48.643021873830051
 31
0.0
  0
LINE
  5
16534
  8
0
 62
     0
 10
8.3701910118238132
 20
-41.028854237665151
 30
0.0
 11
8.3701910118238132
 21
-41.028854237665151
 31
0.0
  0
LINE
  5
16535
  8
0
 62
     0
 10
6.3052096545544423
 20
-41.300714190821083
 30
0.0
 11
6.3052096545544423
 21
-41.300714190821083
 31
0.0
  0
LINE
  5
16536
  8
0
 62
     0
 10
4.9831179319124663
 20
-41.474770868146521
 30
0.0
 11
4.9831179319124663
 21
-41.474770868146521
 31
0.0
  0
LINE
  5
16537
  8
0
 62
     0
 10
1.5330881033038799
 20
-41.928975911833859
 30
0.0
 11
1.5330881033038799
 21
-41.928975911833859
 31
0.0
  0
LINE
  5
16538
  8
0
 62
     0
 10
6.0283209346837987
 20
-34.76072490615033
 30
0.0
 11
6.0283209346837987
 21
-34.76072490615033
 31
0.0
  0
LINE
  5
16539
  8
0
 62
     0
 10
3.9633395774144269
 20
-35.032584859306262
 30
0.0
 11
3.9633395774144269
 21
-35.032584859306262
 31
0.0
  0
LINE
  5
1653A
  8
0
 62
     0
 10
2.6412478547724509
 20
-35.206641536631693
 30
0.0
 11
2.6412478547724509
 21
-35.206641536631693
 31
0.0
  0
LINE
  5
1653B
  8
0
 62
     0
 10
8.4585724087945735
 20
-27.8643338536227
 30
0.0
 11
8.4585724087945735
 21
-27.8643338536227
 31
0.0
  0
LINE
  5
1653C
  8
0
 62
     0
 10
7.1364806861525958
 20
-28.038390530948138
 30
0.0
 11
7.1364806861525958
 21
-28.038390530948138
 31
0.0
  0
LINE
  5
1653D
  8
0
 62
     0
 10
3.6864508575440111
 20
-28.49259557463547
 30
0.0
 11
3.6864508575440111
 21
-28.49259557463547
 31
0.0
  0
LINE
  5
1653E
  8
0
 62
     0
 10
1.621469500274638
 20
-28.764455527791402
 30
0.0
 11
1.621469500274638
 21
-28.764455527791402
 31
0.0
  0
LINE
  5
1653F
  8
0
 62
     0
 10
0.2993777776326627
 20
-28.93851220511683
 30
0.0
 11
0.2993777776326627
 21
-28.93851220511683
 31
0.0
  0
LINE
  5
16540
  8
0
 62
     0
 10
8.1816836889240907
 20
-21.324344568951911
 30
0.0
 11
8.1816836889240907
 21
-21.324344568951911
 31
0.0
  0
LINE
  5
16541
  8
0
 62
     0
 10
6.116702331654718
 20
-21.596204522107829
 30
0.0
 11
6.116702331654718
 21
-21.596204522107829
 31
0.0
  0
LINE
  5
16542
  8
0
 62
     0
 10
4.7946106090127421
 20
-21.770261199433271
 30
0.0
 11
4.7946106090127421
 21
-21.770261199433271
 31
0.0
  0
LINE
  5
16543
  8
0
 62
     0
 10
1.3445807804041561
 20
-22.224466243120609
 30
0.0
 11
1.3445807804041561
 21
-22.224466243120609
 31
0.0
  0
LINE
  5
16544
  8
0
 62
     0
 10
5.8398136117840771
 20
-15.05621523743708
 30
0.0
 11
5.8398136117840771
 21
-15.05621523743708
 31
0.0
  0
LINE
  5
16545
  8
0
 62
     0
 10
3.7748322545147039
 20
-15.328075190592999
 30
0.0
 11
3.7748322545147039
 21
-15.328075190592999
 31
0.0
  0
LINE
  5
16546
  8
0
 62
     0
 10
2.452740531872728
 20
-15.50213186791844
 30
0.0
 11
2.452740531872728
 21
-15.50213186791844
 31
0.0
  0
LINE
  5
16547
  8
0
 62
     0
 10
7.9931763660241417
 20
-1.61983490023871
 30
0.0
 11
7.9931763660241417
 21
-1.61983490023871
 31
0.0
  0
LINE
  5
16548
  8
0
 62
     0
 10
5.9281950087547699
 20
-1.8916948533946341
 30
0.0
 11
5.9281950087547699
 21
-1.8916948533946341
 31
0.0
  0
LINE
  5
16549
  8
0
 62
     0
 10
4.606103286112794
 20
-2.065751530720072
 30
0.0
 11
4.606103286112794
 21
-2.065751530720072
 31
0.0
  0
LINE
  5
1654A
  8
0
 62
     0
 10
1.1560734575042091
 20
-2.5199565744074079
 30
0.0
 11
1.1560734575042091
 21
-2.5199565744074079
 31
0.0
  0
LINE
  5
1654B
  8
0
 62
     0
 10
5.6513062888843519
 20
4.648294431276164
 30
0.0
 11
5.6513062888843519
 21
4.648294431276164
 31
0.0
  0
LINE
  5
1654C
  8
0
 62
     0
 10
3.586324931614981
 20
4.3764344781202409
 30
0.0
 11
3.586324931614981
 21
4.3764344781202409
 31
0.0
  0
LINE
  5
1654D
  8
0
 62
     0
 10
2.2642332089730042
 20
4.2023778007948032
 30
0.0
 11
2.2642332089730042
 21
4.2023778007948032
 31
0.0
  0
LINE
  5
1654E
  8
0
 62
     0
 10
3.3094362117444769
 20
10.916423762791
 30
0.0
 11
3.3094362117444769
 21
10.916423762791
 31
0.0
  0
LINE
  5
1654F
  8
0
 62
     0
 10
1.2444548544750369
 20
10.644563809635081
 30
0.0
 11
1.2444548544750369
 21
10.644563809635081
 31
0.0
  0
LINE
  5
16550
  8
0
 62
     0
 10
8.081557762995029
 20
11.54468548380378
 30
0.0
 11
8.081557762995029
 21
11.54468548380378
 31
0.0
  0
LINE
  5
16551
  8
0
 62
     0
 10
6.7594660403530522
 20
11.37062880647834
 30
0.0
 11
6.7594660403530522
 21
11.37062880647834
 31
0.0
  0
LINE
  5
16552
  8
0
 62
     0
 10
7.8046690431244183
 20
18.084674768474539
 30
0.0
 11
7.8046690431244183
 21
18.084674768474539
 31
0.0
  0
LINE
  5
16553
  8
0
 62
     0
 10
5.7396876858550456
 20
17.812814815318621
 30
0.0
 11
5.7396876858550456
 21
17.812814815318621
 31
0.0
  0
LINE
  5
16554
  8
0
 62
     0
 10
4.4175959632130697
 20
17.638758137993179
 30
0.0
 11
4.4175959632130697
 21
17.638758137993179
 31
0.0
  0
LINE
  5
16555
  8
0
 62
     0
 10
0.9675661346044847
 20
17.184553094305841
 30
0.0
 11
0.9675661346044847
 21
17.184553094305841
 31
0.0
  0
LINE
  5
16556
  8
0
 62
     0
 10
8.9128287945932172
 20
24.807009143676751
 30
0.0
 11
8.9128287945932172
 21
24.807009143676751
 31
0.0
  0
LINE
  5
16557
  8
0
 62
     0
 10
5.4627989659846303
 20
24.35280409998941
 30
0.0
 11
5.4627989659846303
 21
24.35280409998941
 31
0.0
  0
LINE
  5
16558
  8
0
 62
     0
 10
3.3978176087152572
 20
24.080944146833492
 30
0.0
 11
3.3978176087152572
 21
24.080944146833492
 31
0.0
  0
LINE
  5
16559
  8
0
 62
     0
 10
2.0757258860732808
 20
23.90688746950805
 30
0.0
 11
2.0757258860732808
 21
23.90688746950805
 31
0.0
  0
LINE
  5
1655A
  8
0
 62
     0
 10
7.8930504400952897
 20
31.249195152517011
 30
0.0
 11
7.8930504400952897
 21
31.249195152517011
 31
0.0
  0
LINE
  5
1655B
  8
0
 62
     0
 10
6.5709587174533137
 20
31.075138475191579
 30
0.0
 11
6.5709587174533137
 21
31.075138475191579
 31
0.0
  0
LINE
  5
1655C
  8
0
 62
     0
 10
3.1209288888447282
 20
30.620933431504241
 30
0.0
 11
3.1209288888447282
 21
30.620933431504241
 31
0.0
  0
LINE
  5
1655D
  8
0
 62
     0
 10
1.0559475315753559
 20
30.34907347834832
 30
0.0
 11
1.0559475315753559
 21
30.34907347834832
 31
0.0
  0
LINE
  5
1655E
  8
0
 62
     0
 10
7.6161617202245822
 20
37.789184437187778
 30
0.0
 11
7.6161617202245822
 21
37.789184437187778
 31
0.0
  0
LINE
  5
1655F
  8
0
 62
     0
 10
5.5511803629552103
 20
37.517324484031853
 30
0.0
 11
5.5511803629552103
 21
37.517324484031853
 31
0.0
  0
LINE
  5
16560
  8
0
 62
     0
 10
4.2290886403132344
 20
37.343267806706422
 30
0.0
 11
4.2290886403132344
 21
37.343267806706422
 31
0.0
  0
LINE
  5
16561
  8
0
 62
     0
 10
0.7790588117046485
 20
36.889062763019083
 30
0.0
 11
0.7790588117046485
 21
36.889062763019083
 31
0.0
  0
LINE
  5
16562
  8
0
 62
     0
 10
8.7243214716932656
 20
44.511518812389951
 30
0.0
 11
8.7243214716932656
 21
44.511518812389951
 31
0.0
  0
LINE
  5
16563
  8
0
 62
     0
 10
5.2742916430846796
 20
44.05731376870262
 30
0.0
 11
5.2742916430846796
 21
44.05731376870262
 31
0.0
  0
LINE
  5
16564
  8
0
 62
     0
 10
3.2093102858153082
 20
43.785453815546688
 30
0.0
 11
3.2093102858153082
 21
43.785453815546688
 31
0.0
  0
LINE
  5
16565
  8
0
 62
     0
 10
1.887218563173332
 20
43.61139713822125
 30
0.0
 11
1.887218563173332
 21
43.61139713822125
 31
0.0
  0
LINE
  5
16566
  8
0
 62
     0
 10
8.2992554627513542
 20
-60.099467008910338
 30
0.0
 11
8.2992554627513542
 21
-60.099467008910338
 31
0.0
  0
LINE
  5
16567
  8
0
 62
     0
 10
8.1392523331527933
 20
-55.205334635616893
 30
0.0
 11
8.1392523331527933
 21
-55.205334635616893
 31
0.0
  0
LINE
  5
16568
  8
0
 62
     0
 10
5.0762737569563923
 20
-57.555640760733759
 30
0.0
 11
5.0762737569563923
 21
-57.555640760733759
 31
0.0
  0
LINE
  5
16569
  8
0
 62
     0
 10
1.801707844904318
 20
-60.068303558967251
 30
0.0
 11
1.801707844904318
 21
-60.068303558967251
 31
0.0
  0
LINE
  5
1656A
  8
0
 62
     0
 10
7.9792492035542066
 20
-50.31120226232369
 30
0.0
 11
7.9792492035542066
 21
-50.31120226232369
 31
0.0
  0
LINE
  5
1656B
  8
0
 62
     0
 10
4.9162706273578047
 20
-52.661508387440563
 30
0.0
 11
4.9162706273578047
 21
-52.661508387440563
 31
0.0
  0
LINE
  5
1656C
  8
0
 62
     0
 10
1.6417047153057309
 20
-55.174171185674041
 30
0.0
 11
1.6417047153057309
 21
-55.174171185674041
 31
0.0
  0
LINE
  5
1656D
  8
0
 62
     0
 10
7.8192460739559184
 20
-45.417069889030152
 30
0.0
 11
7.8192460739559184
 21
-45.417069889030152
 31
0.0
  0
LINE
  5
1656E
  8
0
 62
     0
 10
4.7562674977595156
 20
-47.767376014146997
 30
0.0
 11
4.7562674977595156
 21
-47.767376014146997
 31
0.0
  0
LINE
  5
1656F
  8
0
 62
     0
 10
1.4817015857074429
 20
-50.280038812380504
 30
0.0
 11
1.4817015857074429
 21
-50.280038812380504
 31
0.0
  0
LINE
  5
16570
  8
0
 62
     0
 10
7.6592429443577439
 20
-40.522937515736587
 30
0.0
 11
7.6592429443577439
 21
-40.522937515736587
 31
0.0
  0
LINE
  5
16571
  8
0
 62
     0
 10
4.596264368161342
 20
-42.87324364085346
 30
0.0
 11
4.596264368161342
 21
-42.87324364085346
 31
0.0
  0
LINE
  5
16572
  8
0
 62
     0
 10
1.3216984561092691
 20
-45.385906439086959
 30
0.0
 11
1.3216984561092691
 21
-45.385906439086959
 31
0.0
  0
LINE
  5
16573
  8
0
 62
     0
 10
7.4992398147591617
 20
-35.628805142443262
 30
0.0
 11
7.4992398147591617
 21
-35.628805142443262
 31
0.0
  0
LINE
  5
16574
  8
0
 62
     0
 10
4.4362612385627598
 20
-37.979111267560121
 30
0.0
 11
4.4362612385627598
 21
-37.979111267560121
 31
0.0
  0
LINE
  5
16575
  8
0
 62
     0
 10
1.1616953265106871
 20
-40.491774065793606
 30
0.0
 11
1.1616953265106871
 21
-40.491774065793606
 31
0.0
  0
LINE
  5
16576
  8
0
 62
     0
 10
7.3392366851608069
 20
-30.734672769149899
 30
0.0
 11
7.3392366851608069
 21
-30.734672769149899
 31
0.0
  0
LINE
  5
16577
  8
0
 62
     0
 10
4.2762581089644049
 20
-33.084978894266769
 30
0.0
 11
4.2762581089644049
 21
-33.084978894266769
 31
0.0
  0
LINE
  5
16578
  8
0
 62
     0
 10
1.001692196912332
 20
-35.597641692500261
 30
0.0
 11
1.001692196912332
 21
-35.597641692500261
 31
0.0
  0
LINE
  5
16579
  8
0
 62
     0
 10
7.1792335555622246
 20
-25.84054039585655
 30
0.0
 11
7.1792335555622246
 21
-25.84054039585655
 31
0.0
  0
LINE
  5
1657A
  8
0
 62
     0
 10
4.1162549793658227
 20
-28.190846520973409
 30
0.0
 11
4.1162549793658227
 21
-28.190846520973409
 31
0.0
  0
LINE
  5
1657B
  8
0
 62
     0
 10
0.8416890673137499
 20
-30.703509319206908
 30
0.0
 11
0.8416890673137499
 21
-30.703509319206908
 31
0.0
  0
LINE
  5
1657C
  8
0
 62
     0
 10
7.0192304259641167
 20
-20.94640802256292
 30
0.0
 11
7.0192304259641167
 21
-20.94640802256292
 31
0.0
  0
LINE
  5
1657D
  8
0
 62
     0
 10
3.9562518497677148
 20
-23.29671414767979
 30
0.0
 11
3.9562518497677148
 21
-23.29671414767979
 31
0.0
  0
LINE
  5
1657E
  8
0
 62
     0
 10
0.6816859377156425
 20
-25.809376945913289
 30
0.0
 11
0.6816859377156425
 21
-25.809376945913289
 31
0.0
  0
LINE
  5
1657F
  8
0
 62
     0
 10
6.8592272963656491
 20
-16.052275649269511
 30
0.0
 11
6.8592272963656491
 21
-16.052275649269511
 31
0.0
  0
LINE
  5
16580
  8
0
 62
     0
 10
3.7962487201692472
 20
-18.40258177438638
 30
0.0
 11
3.7962487201692472
 21
-18.40258177438638
 31
0.0
  0
LINE
  5
16581
  8
0
 62
     0
 10
0.5216828081171739
 20
-20.91524457261988
 30
0.0
 11
0.5216828081171739
 21
-20.91524457261988
 31
0.0
  0
LINE
  5
16582
  8
0
 62
     0
 10
6.6992241667671131
 20
-11.15814327597624
 30
0.0
 11
6.6992241667671131
 21
-11.15814327597624
 31
0.0
  0
LINE
  5
16583
  8
0
 62
     0
 10
3.6362455905707121
 20
-13.50844940109311
 30
0.0
 11
3.6362455905707121
 21
-13.50844940109311
 31
0.0
  0
LINE
  5
16584
  8
0
 62
     0
 10
0.3616796785186386
 20
-16.021112199326609
 30
0.0
 11
0.3616796785186386
 21
-16.021112199326609
 31
0.0
  0
LINE
  5
16585
  8
0
 62
     0
 10
6.5392210371686241
 20
-6.2640109026828332
 30
0.0
 11
6.5392210371686241
 21
-6.2640109026828332
 31
0.0
  0
LINE
  5
16586
  8
0
 62
     0
 10
0.2016765489202371
 20
-11.12697982603312
 30
0.0
 11
0.2016765489202371
 21
-11.12697982603312
 31
0.0
  0
LINE
  5
16587
  8
0
 62
     0
 10
6.37921790757047
 20
-1.3698785293892941
 30
0.0
 11
6.37921790757047
 21
-1.3698785293892941
 31
0.0
  0
LINE
  5
16588
  8
0
 62
     0
 10
3.316239331374069
 20
-3.7201846545061632
 30
0.0
 11
3.316239331374069
 21
-3.7201846545061632
 31
0.0
  0
LINE
  5
16589
  8
0
 62
     0
 10
0.041673419321996
 20
-6.2328474527396569
 30
0.0
 11
0.041673419321996
 21
-6.2328474527396569
 31
0.0
  0
LINE
  5
1658A
  8
0
 62
     0
 10
6.2192147779717084
 20
3.5242538439039168
 30
0.0
 11
6.2192147779717084
 21
3.5242538439039168
 31
0.0
  0
LINE
  5
1658B
  8
0
 62
     0
 10
3.1562362017753061
 20
1.173947718787048
 30
0.0
 11
3.1562362017753061
 21
1.173947718787048
 31
0.0
  0
LINE
  5
1658C
  8
0
 62
     0
 10
2.9962330721770849
 20
6.068080092080617
 30
0.0
 11
2.9962330721770849
 21
6.068080092080617
 31
0.0
  0
LINE
  5
1658D
  8
0
 62
     0
 10
5.8992085187751311
 20
13.31251859049098
 30
0.0
 11
5.8992085187751311
 21
13.31251859049098
 31
0.0
  0
LINE
  5
1658E
  8
0
 62
     0
 10
2.8362299425787301
 20
10.96221246537411
 30
0.0
 11
2.8362299425787301
 21
10.96221246537411
 31
0.0
  0
LINE
  5
1658F
  8
0
 62
     0
 10
5.7392053891767301
 20
18.20665096378444
 30
0.0
 11
5.7392053891767301
 21
18.20665096378444
 31
0.0
  0
LINE
  5
16590
  8
0
 62
     0
 10
2.6762268129803291
 20
15.856344838667569
 30
0.0
 11
2.6762268129803291
 21
15.856344838667569
 31
0.0
  0
LINE
  5
16591
  8
0
 62
     0
 10
5.5792022595783752
 20
23.10078333707779
 30
0.0
 11
5.5792022595783752
 21
23.10078333707779
 31
0.0
  0
LINE
  5
16592
  8
0
 62
     0
 10
2.5162236833819742
 20
20.75047721196092
 30
0.0
 11
2.5162236833819742
 21
20.75047721196092
 31
0.0
  0
LINE
  5
16593
  8
0
 62
     0
 10
8.8448988533575275
 20
30.623547560830929
 30
0.0
 11
8.8448988533575275
 21
30.623547560830929
 31
0.0
  0
LINE
  5
16594
  8
0
 62
     0
 10
5.4191991299799742
 20
27.994915710371281
 30
0.0
 11
5.4191991299799742
 21
27.994915710371281
 31
0.0
  0
LINE
  5
16595
  8
0
 62
     0
 10
2.3562205537835719
 20
25.644609585254411
 30
0.0
 11
2.3562205537835719
 21
25.644609585254411
 31
0.0
  0
LINE
  5
16596
  8
0
 62
     0
 10
8.6848957237589453
 20
35.517679934124338
 30
0.0
 11
8.6848957237589453
 21
35.517679934124338
 31
0.0
  0
LINE
  5
16597
  8
0
 62
     0
 10
5.259196000381392
 20
32.889048083664683
 30
0.0
 11
5.259196000381392
 21
32.889048083664683
 31
0.0
  0
LINE
  5
16598
  8
0
 62
     0
 10
2.1962174241849901
 20
30.538741958547821
 30
0.0
 11
2.1962174241849901
 21
30.538741958547821
 31
0.0
  0
LINE
  5
16599
  8
0
 62
     0
 10
8.5248925941604092
 20
40.411812307417549
 30
0.0
 11
8.5248925941604092
 21
40.411812307417549
 31
0.0
  0
LINE
  5
1659A
  8
0
 62
     0
 10
5.0991928707828551
 20
37.783180456957894
 30
0.0
 11
5.0991928707828551
 21
37.783180456957894
 31
0.0
  0
LINE
  5
1659B
  8
0
 62
     0
 10
2.0362142945864541
 20
35.432874331841028
 30
0.0
 11
2.0362142945864541
 21
35.432874331841028
 31
0.0
  0
LINE
  5
1659C
  8
0
 62
     0
 10
4.9391897411846823
 20
42.677312830251438
 30
0.0
 11
4.9391897411846823
 21
42.677312830251438
 31
0.0
  0
LINE
  5
1659D
  8
0
 62
     0
 10
1.87621116498828
 20
40.327006705134572
 30
0.0
 11
1.87621116498828
 21
40.327006705134572
 31
0.0
  0
ENDBLK
  5
1659F
  8
0
  0
BLOCK
  8
0
  2
*U79
 70
     1
 10
0.0
 20
0.0
 30
0.0
  3
*U79
  1

  0
TEXT
  5
165A1
  8
1DIM
 62
   201
 10
-31.153865476029861
 20
54.018296023885341
 30
0.0
 40
3.5
  1
裏板9mm以上
  0
ENDBLK
  5
165A3
  8
0
  0
BLOCK
  8
0
  2
*U80
 70
     1
 10
0.0
 20
0.0
 30
0.0
  3
*U80
  1

  0
SOLID
  5
165A5
  8
1DIM
 10
12.044443127533439
 20
38.726957896894412
 30
0.0
 11
13.168864624287609
 21
37.039715350978668
 31
0.0
 12
11.55800886922316
 22
38.271078354924647
 32
0.0
 13
11.55800886922316
 23
38.271078354924647
 33
0.0
  0
POLYLINE
  5
165A6
  8
1DIM
 66
     1
 10
0.0
 20
0.0
 30
0.0
  0
VERTEX
  5
165A7
  8
1DIM
 10
11.8012259983783
 20
38.499018125909529
 30
0.0
  0
VERTEX
  5
165A8
  8
1DIM
 10
-2.0871988093631888
 20
53.318296023885338
 30
0.0
  0
VERTEX
  5
165A9
  8
1DIM
 10
-31.153865476029861
 20
53.318296023885338
 30
0.0
  0
SEQEND
  5
165AA
  8
1DIM
  0
ENDBLK
  5
165AC
  8
0
  0
BLOCK
  8
0
  2
*U81
 70
     1
 10
0.0
 20
0.0
 30
0.0
  3
*U81
  1

  0
LINE
  5
165AE
  8
0
 10
-0.3500000000000227
 20
2.0
 30
0.0
 11
0.0
 21
1.649999999999977
 31
0.0
  0
LINE
  5
165AF
  8
0
 10
-10.20000000000004
 20
2.0
 30
0.0
 11
-0.3500000000000227
 21
2.0
 31
0.0
  0
LINE
  5
165B0
  8
0
 10
0.0
 20
1.649999999999977
 30
0.0
 11
0.0
 21
-1.6499999999998629
 31
0.0
  0
LINE
  5
165B1
  8
0
 10
-12.0
 20
0.2000000000000028
 30
0.0
 11
-10.20000000000004
 21
2.0
 31
0.0
  0
LINE
  5
165B2
  8
0
 10
0.0
 20
-1.6499999999998629
 30
0.0
 11
-0.3500000000000227
 21
-2.0
 31
0.0
  0
LINE
  5
165B3
  8
0
 10
-12.0
 20
0.2000000000000028
 30
0.0
 11
-12.0
 21
-0.200000000000017
 31
0.0
  0
LINE
  5
165B4
  8
0
 10
-10.19999999999999
 20
-1.9999999999999849
 30
0.0
 11
-0.3500000000000227
 21
-2.0
 31
0.0
  0
LINE
  5
165B5
  8
0
 10
-12.0
 20
-0.200000000000017
 30
0.0
 11
-10.19999999999999
 21
-1.9999999999999849
 31
0.0
  0
ENDBLK
  5
165B7
  8
0
  0
BLOCK
  8
0
  2
*U82
 70
     1
 10
0.0
 20
0.0
 30
0.0
  3
*U82
  1

  0
LINE
  5
165B9
  8
0
 10
-7.9999999999999991
 20
2.5
 30
0.0
 11
-7.9999978000002088
 21
2.4999999999999432
 31
0.0
  0
LINE
  5
165BA
  8
0
 10
-7.9999999999999991
 20
-2.4999999999999432
 30
0.0
 11
-7.9999999999999991
 21
2.5
 31
0.0
  0
LINE
  5
165BB
  8
0
 10
-7.9999978000002088
 20
2.4999999999999432
 30
0.0
 11
-7.4999979000001629
 21
3.0
 31
0.0
  0
LINE
  5
165BC
  8
0
 10
-8.0000021000010921
 20
-2.4999999999999432
 30
0.0
 11
-7.9999999999999991
 21
-2.4999999999999432
 31
0.0
  0
LINE
  5
165BD
  8
0
 10
-7.4999979000001629
 20
3.0
 30
0.0
 11
-1.999998199999983
 21
3.0
 31
0.0
  0
LINE
  5
165BE
  8
0
 10
-7.5000018999986429
 20
-3.000000000000056
 30
0.0
 11
-8.0000021000010921
 21
-2.4999999999999432
 31
0.0
  0
LINE
  5
165BF
  8
0
 10
-1.999998199999983
 20
3.0
 30
0.0
 11
-1.49999999999998
 21
2.0
 31
0.0
  0
LINE
  5
165C0
  8
0
 10
-1.999998199999959
 20
-2.9999999999999432
 30
0.0
 11
-7.5000018999986429
 21
-3.000000000000056
 31
0.0
  0
LINE
  5
165C1
  8
0
 10
-1.49999999999998
 20
2.0
 30
0.0
 11
-0.5000000000000004
 21
2.0
 31
0.0
  0
LINE
  5
165C2
  8
0
 10
-1.50000000000001
 20
-2.0
 30
0.0
 11
-1.999998199999959
 21
-2.9999999999999432
 31
0.0
  0
ARC
  5
165C3
  8
0
 10
-0.5000000000000006
 20
1.5
 30
0.0
 40
0.5000000000000004
 50
0.0
 51
90.0
  0
LINE
  5
165C4
  8
0
 10
-0.5
 20
-2.0
 30
0.0
 11
-1.50000000000001
 21
-2.0
 31
0.0
  0
LINE
  5
165C5
  8
0
 10
-0.0000000000000001
 20
1.5
 30
0.0
 11
-0.0000000000000001
 21
-1.5
 31
0.0
  0
ARC
  5
165C6
  8
0
 10
-0.5
 20
-1.5
 30
0.0
 40
0.5
 50
270.0
 51
0.0
  0
ENDBLK
  5
165C8
  8
0
  0
BLOCK
  8
0
  2
*U83
 70
     1
 10
0.0
 20
0.0
 30
0.0
  3
*U83
  1

  0
LINE
  5
165CA
  8
1HATCH
 10
-1.5
 20
2.000000000000056
 30
0.0
 11
-1.7499990999999879
 21
2.5
 31
0.0
  0
LINE
  5
165CB
  8
1HATCH
 10
-1.7499990999999879
 20
2.5
 30
0.0
 11
-7.999997800000223
 21
2.5
 31
0.0
  0
LINE
  5
165CC
  8
1HATCH
 10
-1.5
 20
-2.000000000000056
 30
0.0
 11
-1.5
 21
2.000000000000056
 31
0.0
  0
LINE
  5
165CD
  8
1HATCH
 10
-7.999997800000223
 20
2.5
 30
0.0
 11
-7.9999999999999991
 21
2.4999977999997318
 31
0.0
  0
LINE
  5
165CE
  8
1HATCH
 10
-1.749999099999981
 20
-2.5
 30
0.0
 11
-1.5
 21
-2.000000000000056
 31
0.0
  0
LINE
  5
165CF
  8
1HATCH
 10
-7.9999999999999991
 20
2.4999977999997318
 30
0.0
 11
-7.9999999999999991
 21
-2.5
 31
0.0
  0
LINE
  5
165D0
  8
1HATCH
 10
-7.9999999999999991
 20
-2.5
 30
0.0
 11
-1.749999099999981
 21
-2.5
 31
0.0
  0
ENDBLK
  5
165D2
  8
0
  0
BLOCK
  8
0
  2
*U84
 70
     1
 10
0.0
 20
0.0
 30
0.0
  3
*U84
  1

  0
LINE
  5
165D4
  8
1HATCH
 10
-1.9999981999999989
 20
3.000000000000056
 30
0.0
 11
-7.4999979000001362
 21
3.0
 31
0.0
  0
LINE
  5
165D5
  8
1HATCH
 10
-7.4999979000001362
 20
3.0
 30
0.0
 11
-7.999997800000143
 21
2.5
 31
0.0
  0
LINE
  5
165D6
  8
1HATCH
 10
-1.749999099999983
 20
2.5
 30
0.0
 11
-1.9999981999999989
 21
3.000000000000056
 31
0.0
  0
LINE
  5
165D7
  8
1HATCH
 10
-7.999997800000143
 20
2.5
 30
0.0
 11
-1.749999099999983
 21
2.5
 31
0.0
  0
ENDBLK
  5
165D9
  8
0
  0
BLOCK
  8
0
  2
*U85
 70
     1
 10
0.0
 20
0.0
 30
0.0
  3
*U85
  1

  0
ARC
  5
165DB
  8
1HATCH
 10
-0.5000000000000002
 20
1.5
 30
0.0
 40
0.5000000000000002
 50
0.0
 51
90.0
  0
LINE
  5
165DC
  8
1HATCH
 10
-0.5000000000000004
 20
2.0
 30
0.0
 11
-1.5
 21
2.0
 31
0.0
  0
LINE
  5
165DD
  8
1HATCH
 10
0.0
 20
-1.5
 30
0.0
 11
0.0
 21
1.5
 31
0.0
  0
LINE
  5
165DE
  8
1HATCH
 10
-1.5
 20
2.0
 30
0.0
 11
-1.5
 21
-2.0
 31
0.0
  0
ARC
  5
165DF
  8
1HATCH
 10
-0.5
 20
-1.5
 30
0.0
 40
0.5
 50
270.0
 51
0.0
  0
LINE
  5
165E0
  8
1HATCH
 10
-1.5
 20
-2.0
 30
0.0
 11
-0.5
 21
-2.0
 31
0.0
  0
ENDBLK
  5
165E2
  8
0
  0
BLOCK
  8
0
  2
*U86
 70
     1
 10
0.0
 20
0.0
 30
0.0
  3
*U86
  1

  0
LINE
  5
165E4
  8
0
 10
-14.649999999999981
 20
2.0
 30
0.0
 11
-0.0000000000000284
 21
2.0
 31
0.0
  0
LINE
  5
165E5
  8
0
 10
-14.649999999999981
 20
2.0
 30
0.0
 11
-15.0
 21
1.649999999999977
 31
0.0
  0
LINE
  5
165E6
  8
0
 10
0.0
 20
3.4999999999999432
 30
0.0
 11
-0.0000000000000284
 21
2.0
 31
0.0
  0
LINE
  5
165E7
  8
0
 10
-15.0
 20
1.649999999999977
 30
0.0
 11
-15.0
 21
-1.6499999999998629
 31
0.0
  0
LINE
  5
165E8
  8
0
 10
0.0
 20
3.4999999999999432
 30
0.0
 11
0.5999999999999375
 21
3.4999999999999432
 31
0.0
  0
LINE
  5
165E9
  8
0
 10
-15.0
 20
-1.6499999999998629
 30
0.0
 11
-14.649999999999981
 21
-2.0
 31
0.0
  0
ARC
  5
165EA
  8
0
 10
0.5999999999999944
 20
1.4999999999999429
 30
0.0
 40
2.0
 50
0.0
 51
90.000000000001606
  0
LINE
  5
165EB
  8
0
 10
-14.649999999999981
 20
-2.0
 30
0.0
 11
0.0000000000000568
 21
-2.0
 31
0.0
  0
LINE
  5
165EC
  8
0
 10
2.5999999999999939
 20
1.4999999999999429
 30
0.0
 11
2.5999999999999939
 21
-1.5
 31
0.0
  0
LINE
  5
165ED
  8
0
 10
0.0000000000000568
 20
-2.0
 30
0.0
 11
0.0
 21
-3.5
 31
0.0
  0
ARC
  5
165EE
  8
0
 10
0.5999999999999944
 20
-1.5
 30
0.0
 40
2.0
 50
270.0
 51
0.0
  0
LINE
  5
165EF
  8
0
 10
0.0
 20
-3.5
 30
0.0
 11
0.5999999999999944
 21
-3.5
 31
0.0
  0
ENDBLK
  5
165F1
  8
0
  0
BLOCK
  8
0
  2
*U87
 70
     1
 10
0.0
 20
0.0
 30
0.0
  3
*U87
  1

  0
ARC
  5
165F3
  8
0
 10
-0.5000000000000006
 20
-1.499999999992212
 30
0.0
 40
0.5
 50
269.99968004273472
 51
0.0
  0
LINE
  5
165F4
  8
0
 10
0.0
 20
1.499999999992212
 30
0.0
 11
0.0
 21
-1.499999999992212
 31
0.0
  0
LINE
  5
165F5
  8
0
 10
-0.500002792153873
 20
-1.999999999984424
 30
0.0
 11
-2.9999999999350222
 21
-1.9999860392306339
 31
0.0
  0
ARC
  5
165F6
  8
0
 10
-0.5
 20
1.499999999992212
 30
0.0
 40
0.5000000000000001
 50
0.0
 51
89.999680042734667
  0
LINE
  5
165F7
  8
0
 10
-2.9999999999350222
 20
-1.9999860392306339
 30
0.0
 11
-3.49999819993592
 21
-2.9999860392323958
 31
0.0
  0
LINE
  5
165F8
  8
0
 10
-2.9999999999350848
 20
2.000013960769365
 30
0.0
 11
-0.499997207846127
 21
1.999999999984424
 31
0.0
  0
LINE
  5
165F9
  8
0
 10
-3.49999819993592
 20
-2.9999860392323958
 30
0.0
 11
-10.50000189991937
 21
-2.999979058844076
 31
0.0
  0
LINE
  5
165FA
  8
0
 10
-3.4999981999341561
 20
3.000013960767546
 30
0.0
 11
-2.9999999999350848
 21
2.000013960769365
 31
0.0
  0
LINE
  5
165FB
  8
0
 10
-10.50000189991937
 20
-2.999979058844076
 30
0.0
 11
-11.000002099921749
 21
-2.4999790588440192
 31
0.0
  0
LINE
  5
165FC
  8
0
 10
-10.499997899921031
 20
3.0000209411519441
 30
0.0
 11
-3.4999981999341561
 21
3.000013960767546
 31
0.0
  0
LINE
  5
165FD
  8
0
 10
-11.000002099921749
 20
-2.4999790588440192
 30
0.0
 11
-10.99999999991879
 21
-2.499979058845951
 31
0.0
  0
LINE
  5
165FE
  8
0
 10
-10.99999779992098
 20
2.500020941152115
 30
0.0
 11
-10.499997899921031
 21
3.0000209411519441
 31
0.0
  0
LINE
  5
165FF
  8
0
 10
-10.99999999991879
 20
-2.499979058845951
 30
0.0
 11
-10.99999999991879
 21
2.500020941154105
 31
0.0
  0
LINE
  5
16600
  8
0
 10
-10.99999999991879
 20
2.500020941154105
 30
0.0
 11
-10.99999779992098
 21
2.500020941152115
 31
0.0
  0
ENDBLK
  5
16602
  8
0
  0
BLOCK
  8
0
  2
*U88
 70
     1
 10
0.0
 20
0.0
 30
0.0
  3
*U88
  1

  0
LINE
  5
16604
  8
0
 10
-34.700003489976531
 20
-1.4999534641020771
 30
0.0
 11
-2.8000383918526941
 21
-1.4999534641020771
 31
0.0
  0
LINE
  5
16605
  8
0
 10
-0.3000093071805736
 20
-4.0
 30
0.0
 11
-2.8000383918526941
 21
-1.4999534641020771
 31
0.0
  0
LINE
  5
16606
  8
0
 10
-39.99999999983757
 20
0.0000465358979227
 30
0.0
 11
-34.700003489976531
 21
-1.4999534641020771
 31
0.0
  0
LINE
  5
16607
  8
0
 10
-0.3000093071805736
 20
-4.0
 30
0.0
 11
-0.0000093071795959
 21
-4.0
 31
0.0
  0
LINE
  5
16608
  8
0
 10
-39.99999999983757
 20
0.0000465358979227
 30
0.0
 11
-34.699996509592239
 21
1.500046535897922
 31
0.0
  0
LINE
  5
16609
  8
0
 10
-0.0000093071795959
 20
-4.0
 30
0.0
 11
0.0000093071795959
 21
4.0
 31
0.0
  0
LINE
  5
1660A
  8
0
 10
-34.699996509592239
 20
1.500046535897922
 30
0.0
 11
-2.7999732414874918
 21
1.500046535897922
 31
0.0
  0
LINE
  5
1660B
  8
0
 10
-0.2999906928214955
 20
4.0
 30
0.0
 11
0.0000093071795959
 21
4.0
 31
0.0
  0
LINE
  5
1660C
  8
0
 10
-0.2999906928214955
 20
4.0
 30
0.0
 11
-2.7999732414874918
 21
1.500046535897922
 31
0.0
  0
ENDBLK
  5
1660E
  8
0
  0
BLOCK
  8
0
  2
*U89
 70
     1
 10
0.0
 20
0.0
 30
0.0
  3
*U89
  1

  0
LINE
  5
16610
  8
0
 10
-24.649999999999981
 20
2.0
 30
0.0
 11
-0.0000000000000284
 21
2.0
 31
0.0
  0
LINE
  5
16611
  8
0
 10
-24.649999999999981
 20
2.0
 30
0.0
 11
-25.0
 21
1.649999999999977
 31
0.0
  0
LINE
  5
16612
  8
0
 10
0.0
 20
3.4999999999999432
 30
0.0
 11
-0.0000000000000284
 21
2.0
 31
0.0
  0
LINE
  5
16613
  8
0
 10
-25.0
 20
1.649999999999977
 30
0.0
 11
-25.0
 21
-1.6499999999998629
 31
0.0
  0
LINE
  5
16614
  8
0
 10
0.0
 20
3.4999999999999432
 30
0.0
 11
0.5999999999999375
 21
3.4999999999999432
 31
0.0
  0
LINE
  5
16615
  8
0
 10
-25.0
 20
-1.6499999999998629
 30
0.0
 11
-24.649999999999981
 21
-2.0
 31
0.0
  0
ARC
  5
16616
  8
0
 10
0.5999999999999944
 20
1.4999999999999429
 30
0.0
 40
2.0
 50
0.0
 51
90.000000000001606
  0
LINE
  5
16617
  8
0
 10
-24.649999999999981
 20
-2.0
 30
0.0
 11
0.0000000000000568
 21
-2.0
 31
0.0
  0
LINE
  5
16618
  8
0
 10
2.5999999999999939
 20
1.4999999999999429
 30
0.0
 11
2.5999999999999939
 21
-1.5
 31
0.0
  0
LINE
  5
16619
  8
0
 10
0.0000000000000568
 20
-2.0
 30
0.0
 11
0.0
 21
-3.5
 31
0.0
  0
ARC
  5
1661A
  8
0
 10
0.5999999999999944
 20
-1.5
 30
0.0
 40
2.0
 50
270.0
 51
0.0
  0
LINE
  5
1661B
  8
0
 10
0.0
 20
-3.5
 30
0.0
 11
0.5999999999999944
 21
-3.5
 31
0.0
  0
ENDBLK
  5
1661D
  8
0
  0
BLOCK
  8
0
  2
*U90
 70
     1
 10
0.0
 20
0.0
 30
0.0
  3
*U90
  1

  0
LINE
  5
1661F
  8
0
 10
-7.2499999999999432
 20
-1.500000000000113
 30
0.0
 11
-0.25
 21
-1.5
 31
0.0
  0
LINE
  5
16620
  8
0
 10
-0.0000000000000568
 20
-1.250000000000113
 30
0.0
 11
-0.25
 21
-1.5
 31
0.0
  0
LINE
  5
16621
  8
0
 10
-8.0000000000000568
 20
-0.75
 30
0.0
 11
-7.2499999999999432
 21
-1.500000000000113
 31
0.0
  0
LINE
  5
16622
  8
0
 10
-0.0000000000000568
 20
-1.250000000000113
 30
0.0
 11
0.0
 21
1.25
 31
0.0
  0
LINE
  5
16623
  8
0
 10
-8.0000000000000568
 20
-0.75
 30
0.0
 11
-7.9999999999999432
 21
0.75
 31
0.0
  0
LINE
  5
16624
  8
0
 10
-0.25
 20
1.5
 30
0.0
 11
0.0
 21
1.25
 31
0.0
  0
LINE
  5
16625
  8
0
 10
-7.9999999999999432
 20
0.75
 30
0.0
 11
-7.2499999999998863
 21
1.5
 31
0.0
  0
LINE
  5
16626
  8
0
 10
-7.2499999999998863
 20
1.5
 30
0.0
 11
-0.25
 21
1.5
 31
0.0
  0
ENDBLK
  5
16628
  8
0
  0
BLOCK
  8
0
  2
*U91
 70
     1
 10
0.0
 20
0.0
 30
0.0
  3
*U91
  1

  0
LINE
  5
1662A
  8
0
 10
-11.649999999999981
 20
-2.0
 30
0.0
 11
-0.0000000000000284
 21
-2.0
 31
0.0
  0
LINE
  5
1662B
  8
0
 10
-0.0000000000000284
 20
-2.0
 30
0.0
 11
0.0
 21
-3.5
 31
0.0
  0
LINE
  5
1662C
  8
0
 10
-12.0
 20
-1.6499999999998629
 30
0.0
 11
-11.649999999999981
 21
-2.0
 31
0.0
  0
LINE
  5
1662D
  8
0
 10
0.0
 20
-3.5
 30
0.0
 11
0.5999999999999944
 21
-3.5
 31
0.0
  0
LINE
  5
1662E
  8
0
 10
-12.0
 20
1.649999999999977
 30
0.0
 11
-12.0
 21
-1.6499999999998629
 31
0.0
  0
ARC
  5
1662F
  8
0
 10
0.5999999999999944
 20
-1.5
 30
0.0
 40
2.0
 50
270.0
 51
0.0
  0
LINE
  5
16630
  8
0
 10
-11.649999999999981
 20
2.0
 30
0.0
 11
-12.0
 21
1.649999999999977
 31
0.0
  0
LINE
  5
16631
  8
0
 10
2.5999999999999939
 20
1.4999999999999429
 30
0.0
 11
2.5999999999999939
 21
-1.5
 31
0.0
  0
LINE
  5
16632
  8
0
 10
-11.649999999999981
 20
2.0
 30
0.0
 11
-0.0000000000000284
 21
2.0000000000001128
 31
0.0
  0
ARC
  5
16633
  8
0
 10
0.5999999999999944
 20
1.4999999999999429
 30
0.0
 40
2.0
 50
0.0
 51
90.00000000000081
  0
LINE
  5
16634
  8
0
 10
0.0
 20
3.4999999999999432
 30
0.0
 11
-0.0000000000000284
 21
2.0000000000001128
 31
0.0
  0
LINE
  5
16635
  8
0
 10
0.0
 20
3.4999999999999432
 30
0.0
 11
0.5999999999999659
 21
3.4999999999999432
 31
0.0
  0
ENDBLK
  5
16637
  8
0
  0
BLOCK
  8
0
  2
*U92
 70
     1
 10
0.0
 20
0.0
 30
0.0
  3
*U92
  1

  0
TEXT
  5
16639
  8
1DIM
 62
   201
 10
-639.30367069560646
 20
-996.34792366416514
 30
0.0
 40
3.5
  1
144
  0
ENDBLK
  5
1663B
  8
0
  0
BLOCK
  8
0
  2
*U93
 70
     1
 10
0.0
 20
0.0
 30
0.0
  3
*U93
  1

  0
TEXT
  5
1663D
  8
1DIM
 62
   201
 10
-639.01200402893983
 20
-919.34328350453075
 30
0.0
 40
3.5
  1
130
  0
ENDBLK
  5
1663F
  8
0
  0
BLOCK
  8
0
  2
*U94
 70
     1
 10
0.0
 20
0.0
 30
0.0
  3
*U94
  1

  0
TEXT
  5
16641
  8
1DIM
 62
   201
 10
-543.92033736227302
 20
-882.55161683786412
 30
0.0
 40
3.5
  1
109 （ペーパー無し最小値）
 50
90.0
  0
ENDBLK
  5
16643
  8
0
  0
BLOCK
  8
0
  2
*U95
 70
     1
 10
0.0
 20
0.0
 30
0.0
  3
*U95
  1

  0
TEXT
  5
16645
  8
1DIM
 62
   201
 10
-358.47983233666668
 20
-981.75625698683621
 30
0.0
 40
3.5
  1
20.5
 50
90.0
  0
ENDBLK
  5
16647
  8
0
  0
BLOCK
  8
0
  2
*U96
 70
     1
 10
0.0
 20
0.0
 30
0.0
  3
*U96
  1

  0
TEXT
  5
16649
  8
1DIM
 62
   201
 10
-348.47983233666662
 20
-975.9645903308317
 30
0.0
 40
3.5
  1
28
 50
90.0
  0
ENDBLK
  5
1664B
  8
0
  0
BLOCK
  8
0
  2
*U97
 70
     1
 10
0.0
 20
0.0
 30
0.0
  3
*U97
  1

  0
TEXT
  5
1664D
  8
1DIM
 62
   201
 10
-446.59727357265791
 20
-996.34792366416525
 30
0.0
 40
3.5
  1
92
  0
ENDBLK
  5
1664F
  8
0
  0
BLOCK
  8
0
  2
*U98
 70
     1
 10
0.0
 20
0.0
 30
0.0
  3
*U98
  1

  0
TEXT
  5
16651
  8
1DIM
 62
   201
 10
-628.13700402894005
 20
-790.34328350453063
 30
0.0
 40
3.5
  1
34
  0
ENDBLK
  5
16653
  8
0
  0
BLOCK
  8
0
  2
*U99
 70
     1
 10
0.0
 20
0.0
 30
0.0
  3
*U99
  1

  0
TEXT
  5
16658
  8
1DIM
 62
   201
 10
-490.42529855815491
 20
-919.34328350453075
 30
0.0
 40
3.5
  1
113 （ペーパー付き最大値）
  0
ENDBLK
  5
1665A
  8
0
  0
ENDSEC
  0
SECTION
  2
ENTITIES
  0
LINE
  5
153D6
  8
01
 10
-397.77983233666691
 20
-987.04792366416507
 30
0.0
 11
-397.77983233666691
 21
-959.04792366416495
 31
0.0
  0
LINE
  5
153D8
  8
01
 10
-402.77983233666691
 20
-971.54792366416518
 30
0.0
 11
-402.77983233666691
 21
-970.04792366416495
 31
0.0
  0
LINE
  5
153D9
  8
01
 10
-400.77983228026687
 20
-972.04792366416507
 30
0.0
 11
-397.77983233666691
 21
-972.04792366416507
 31
0.0
  0
LINE
  5
153DA
  8
01
 10
-417.9798323366669
 20
-962.04792366416495
 30
0.0
 11
-410.77983233666691
 21
-962.04792366416495
 31
0.0
  0
ARC
  5
153DB
  8
01
 10
-417.9798323366669
 20
-960.04792366416495
 30
0.0
 40
2.0
 50
180.0
 51
270.0
  0
ARC
  5
153DC
  8
01
 10
-410.77983233666691
 20
-970.04792366416495
 30
0.0
 40
8.0
 50
0.0
 51
90.0
  0
LINE
  5
153DD
  8
01
 10
-405.57983233666681
 20
-959.04792366416518
 30
0.0
 11
-397.77983233666691
 21
-959.04792366416518
 31
0.0
  0
LINE
  5
153DF
  8
01
 10
-400.77983228026687
 20
-987.04792366416507
 30
0.0
 11
-397.77983233666691
 21
-987.04792366416507
 31
0.0
  0
LINE
  5
153E0
  8
01
 10
-400.77983228026687
 20
-971.54792366416518
 30
0.0
 11
-400.77983228026687
 21
-987.04792366416507
 31
0.0
  0
LINE
  5
153E5
  8
01
 10
-400.77983203985423
 20
-974.24792362280391
 30
0.0
 11
-400.97983228026692
 21
-974.24792362280391
 31
0.0
  0
CIRCLE
  5
153F1
  8
01
 10
-412.7798323366668
 20
-951.04792366416518
 30
0.0
 40
4.0999999999999988
  0
ARC
  5
153F5
  8
01
 10
-412.7798323366668
 20
-951.04792366416518
 30
0.0
 40
7.2000000000000002
 50
0.0
 51
180.0
  0
LINE
  5
153F6
  8
01
 10
-405.57983233666681
 20
-951.04792366416518
 30
0.0
 11
-405.57983233666681
 21
-959.04792366416518
 31
0.0
  0
LINE
  5
15404
  8
01
 10
-419.9798323366669
 20
-960.04792366416495
 30
0.0
 11
-419.9798323366669
 21
-951.04792366416518
 31
0.0
  0
CIRCLE
  5
15405
  8
01
 10
-412.7798323366668
 20
-951.04792366416518
 30
0.0
 40
4.0
  0
LINE
  5
15409
  8
01
 10
-400.97983228026692
 20
-972.04792362280375
 30
0.0
 11
-489.08138147531571
 21
-972.04792362280375
 31
0.0
  0
LINE
  5
1540A
  8
01
 10
-400.97983228026669
 20
-987.04792362280386
 30
0.0
 11
-489.08138147531571
 21
-987.04792362280386
 31
0.0
  0
LINE
  5
1540D
  8
01
 10
-489.58138147531571
 20
-972.54792362280375
 30
0.0
 11
-489.58138147531571
 21
-986.54792362280432
 31
0.0
  0
ARC
  5
15411
  8
01
 10
-489.08138147531571
 20
-986.54792362280432
 30
0.0
 40
0.5
 50
180.0
 51
270.0
  0
ARC
  5
15412
  8
01
 10
-489.08138147531571
 20
-972.54792362280375
 30
0.0
 40
0.5
 50
90.0
 51
180.0
  0
LINE
  5
15413
  8
01
 10
-459.77983228026687
 20
-972.54792362280375
 30
0.0
 11
-459.77983228026687
 21
-986.54792362280432
 31
0.0
  0
ARC
  5
15414
  8
01
 10
-460.27983228026682
 20
-986.54792362280432
 30
0.0
 40
0.5
 50
270.0
 51
0.0
  0
ARC
  5
15415
  8
01
 10
-460.27983228026682
 20
-972.54792362280375
 30
0.0
 40
0.5
 50
0.0
 51
90.0
  0
LINE
  5
15418
  8
01
 10
-400.97983228026692
 20
-972.04792362280375
 30
0.0
 11
-400.97983228026669
 21
-987.04792362280386
 31
0.0
  0
LINE
  5
15424
  8
01
 10
-406.08062222061011
 20
-948.40963182645601
 30
0.0
 11
-405.20574174410137
 21
-939.75220980024255
 31
0.0
  0
LINE
  5
15425
  8
01
 10
-407.10548007283182
 20
-946.61602493044973
 30
0.0
 11
-406.52031309709372
 21
-940.82547684897372
 31
0.0
  0
CIRCLE
  5
15432
  8
01
 10
-412.7798323366668
 20
-951.04792366416518
 30
0.0
 40
4.2000000000000002
  0
LINE
  5
15433
  8
01
 10
-707.22033736227309
 20
-972.5479236641653
 30
0.0
 11
-707.22033736227309
 21
-986.54792366416541
 31
0.0
  0
LINE
  5
15434
  8
1CENTER
 10
-635.2203373622732
 20
-955.1710398978073
 30
0.0
 11
-635.2203373622732
 21
-989.43988836204517
 31
0.0
  0
LINE
  5
15435
  8
01
 10
-616.42033736227324
 20
-943.84792366416514
 30
0.0
 11
-616.42033736227302
 21
-958.54792366416564
 31
0.0
  0
ARC
  5
15436
  8
01
 10
-616.92033736227302
 20
-958.54792366416564
 30
0.0
 40
0.5
 50
270.0
 51
0.0
  0
LINE
  5
15437
  8
01
 10
-610.42033736227324
 20
-943.84792366416514
 30
0.0
 11
-610.4203373622737
 21
-971.54792366416518
 31
0.0
  0
ARC
  5
15438
  8
01
 10
-610.9203373622737
 20
-961.54792366416518
 30
0.0
 40
0.5
 50
270.0
 51
0.0
  0
LINE
  5
15439
  8
01
 10
-654.02033736227293
 20
-943.84792366416514
 30
0.0
 11
-654.0203373622727
 21
-958.54792366416507
 31
0.0
  0
LINE
  5
1543A
  8
01
 10
-660.02033736227315
 20
-943.84792366416514
 30
0.0
 11
-660.02033736227349
 21
-971.54792366416518
 31
0.0
  0
ARC
  5
1543B
  8
01
 10
-659.52033736227361
 20
-961.54792366416518
 30
0.0
 40
0.5
 50
180.0
 51
270.0
  0
LINE
  5
1543C
  8
01
 10
-706.72033736227309
 20
-987.04792366416552
 30
0.0
 11
-563.7203373622732
 21
-987.04792366416507
 31
0.0
  0
ARC
  5
1543E
  8
01
 10
-706.72033736227309
 20
-986.54792366416541
 30
0.0
 40
0.5
 50
180.0
 51
270.0
  0
LINE
  5
1543F
  8
01
 10
-563.2203373622732
 20
-986.54792366416518
 30
0.0
 11
-563.2203373622732
 21
-972.54792366416518
 31
0.0
  0
ARC
  5
15440
  8
01
 10
-563.7203373622732
 20
-986.54792366416518
 30
0.0
 40
0.5
 50
270.0
 51
0.0
  0
LINE
  5
15441
  8
01
 10
-563.7203373622732
 20
-972.04792366416507
 30
0.0
 11
-706.72033736227309
 21
-972.04792366416541
 31
0.0
  0
ARC
  5
15442
  8
01
 10
-563.7203373622732
 20
-972.54792366416518
 30
0.0
 40
0.5
 50
0.0
 51
90.0
  0
ARC
  5
15443
  8
01
 10
-706.72033736227309
 20
-972.5479236641653
 30
0.0
 40
0.5
 50
90.0
 51
180.0
  0
LINE
  5
15444
  8
01
 10
-610.42033736227336
 20
-971.54792366416518
 30
0.0
 11
-660.02033736227338
 21
-971.54792366416518
 31
0.0
  0
LINE
  5
15445
  8
01
 10
-610.9203373622737
 20
-962.04792366416507
 30
0.0
 11
-659.52033736227361
 21
-962.04792366416507
 31
0.0
  0
LINE
  5
15446
  8
01
 10
-616.92033736227302
 20
-959.04792366416552
 30
0.0
 11
-653.5203373622727
 21
-959.04792366416518
 31
0.0
  0
ARC
  5
15447
  8
01
 10
-653.5203373622727
 20
-958.54792366416507
 30
0.0
 40
0.5
 50
180.0
 51
270.0
  0
CIRCLE
  5
1545E
  8
01
 10
-652.2203373622732
 20
-966.54792366416507
 30
0.0
 40
4.0
  0
CIRCLE
  5
1545F
  8
01
 10
-618.2203373622732
 20
-966.54792366416507
 30
0.0
 40
4.0
  0
CIRCLE
  5
15460
  8
01
 10
-652.2203373622732
 20
-966.54792366416507
 30
0.0
 40
2.1000000000000001
  0
CIRCLE
  5
15461
  8
01
 10
-618.2203373622732
 20
-966.54792366416507
 30
0.0
 40
2.1000000000000001
  0
LINE
  5
15466
  8
01
 10
-700.2203373622732
 20
-930.04328350453056
 30
0.0
 11
-570.22033736227309
 21
-930.04328350453056
 31
0.0
  0
LINE
  5
15467
  8
01
 10
-700.2203373622732
 20
-930.04328350453056
 30
0.0
 11
-700.2203373622732
 21
-932.19788826122328
 31
0.0
  0
LINE
  5
15468
  8
1CENTER
 10
-635.2203373622732
 20
-936.49731846099257
 30
0.0
 11
-635.2203373622732
 21
-962.44792366416505
 31
0.0
  0
LINE
  5
15469
  8
01
 10
-617.7203373622732
 20
-945.24792366416523
 30
0.0
 11
-617.7203373622732
 21
-957.44792366416505
 31
0.0
  0
LINE
  5
1546A
  8
01
 10
-652.72033736227365
 20
-940.82547684897372
 30
0.0
 11
-652.72033736227365
 21
-957.44792366416505
 31
0.0
  0
LINE
  5
1546B
  8
01
 10
-570.22033736227309
 20
-930.04328350453056
 30
0.0
 11
-570.22033736227365
 21
-932.19788826122328
 31
0.0
  0
LINE
  5
1546C
  8
01
 10
-652.72033736227365
 20
-957.44792366416505
 30
0.0
 11
-617.7203373622732
 21
-957.44792366416505
 31
0.0
  0
ARC
  5
1546D
  8
01
 10
-697.2203373622732
 20
-932.39788826122322
 30
0.0
 40
3.0
 50
180.0
 51
270.0
  0
LINE
  5
1546E
  8
01
 10
-697.2203373622732
 20
-935.3978882612231
 30
0.0
 11
-573.22033736227365
 21
-935.3978882612231
 31
0.0
  0
ARC
  5
1546F
  8
01
 10
-573.22033736227365
 20
-932.39788826122322
 30
0.0
 40
3.0
 50
270.0
 51
0.0000000000130276
  0
LINE
  5
15470
  8
01
 10
-700.2203373622732
 20
-930.04328350453079
 30
0.0
 11
-700.2203373622732
 21
-932.39788826122344
 31
0.0
  0
LINE
  5
15471
  8
01
 10
-570.22033736227365
 20
-932.19788826122328
 30
0.0
 11
-570.22033736227365
 21
-932.39788826122265
 31
0.0
  0
LINE
  5
15472
  8
01
 10
-660.2203373622732
 20
-947.54792366416518
 30
0.0
 11
-660.2203373622732
 21
-954.54792366416518
 31
0.0
  0
LINE
  5
15473
  8
1CENTER
 10
-635.2203373622732
 20
-942.43142830066336
 30
0.0
 11
-635.2203373622732
 21
-959.69795412161977
 31
0.0
  0
ARC
  5
15474
  8
01
 10
-659.7203373622732
 20
-954.54792366416518
 30
0.0
 40
0.5
 50
180.0
 51
233.1301023540934
  0
LINE
  5
15475
  8
01
 10
-616.72033736227365
 20
-955.04792366416541
 30
0.0
 11
-616.42033736227324
 21
-955.04792366416541
 31
0.0
  0
LINE
  5
15476
  8
01
 10
-610.2203373622732
 20
-954.54792366416518
 30
0.0
 11
-610.2203373622732
 21
-947.54792366416518
 31
0.0
  0
ARC
  5
15477
  8
01
 10
-610.7203373622732
 20
-954.54792366416518
 30
0.0
 40
0.5
 50
306.86989764580488
 51
0.0
  0
ARC
  5
15478
  8
01
 10
-610.7203373622732
 20
-947.54792366416518
 30
0.0
 40
0.5
 50
0.0
 51
53.130102354166411
  0
LINE
  5
15479
  8
01
 10
-616.42033736227347
 20
-947.04792366416507
 30
0.0
 11
-616.72033736227365
 21
-947.04792366416495
 31
0.0
  0
ARC
  5
1547A
  8
01
 10
-659.7203373622732
 20
-947.54792366416518
 30
0.0
 40
0.5
 50
126.86989764587
 51
180.0
  0
LINE
  5
1547B
  8
01
 10
-652.72033736227365
 20
-946.52244026457129
 30
0.0
 11
-617.72033736227343
 21
-946.52244026457129
 31
0.0
  0
LINE
  5
1547C
  8
01
 10
-400.77983228026687
 20
-971.54792366416518
 30
0.0
 11
-402.77983233666691
 21
-971.54792366416518
 31
0.0
  0
LINE
  5
1547D
  8
01
 10
-563.2203373622732
 20
-910.04328350453068
 30
0.0
 11
-687.22033736227309
 21
-910.04328350452977
 31
0.0
  0
LINE
  5
1547E
  8
01
 10
-560.22033736227343
 20
-809.64328350453047
 30
0.0
 11
-690.22033736227343
 21
-809.64328350453047
 31
0.0
  0
LINE
  5
1547F
  8
01
 10
-560.22033736227331
 20
-907.04328350453068
 30
0.0
 11
-560.2203373622732
 21
-809.6432835045307
 31
0.0
  0
ARC
  5
15480
  8
01
 10
-563.2203373622732
 20
-907.04328350453068
 30
0.0
 40
3.0
 50
270.0
 51
0.0
  0
LINE
  5
15481
  8
01
 10
-690.22033736227309
 20
-907.04328350452965
 30
0.0
 11
-690.22033736227343
 21
-809.64328350453036
 31
0.0
  0
ARC
  5
15482
  8
01
 10
-687.22033736227309
 20
-907.04328350452965
 30
0.0
 40
3.0
 50
180.0
 51
270.0
  0
LINE
  5
15484
  8
01
 10
-560.22033736227343
 20
-812.04328344813075
 30
0.0
 11
-554.22033736227434
 21
-812.04328344813075
 31
0.0
  0
LINE
  5
15485
  8
01
 10
-697.22033736227343
 20
-804.24328344813057
 30
0.0
 11
-697.22033736227434
 21
-884.0432834481303
 31
0.0
  0
ARC
  5
15486
  8
01
 10
-688.22033736227434
 20
-884.0432834481303
 30
0.0
 40
9.0
 50
180.0
 51
257.16041159309867
  0
LINE
  5
15487
  8
01
 10
-553.22033736227377
 20
-884.04328344813075
 30
0.0
 11
-553.22033736227377
 21
-883.54712643341975
 31
0.0
  0
LINE
  5
15488
  8
01
 10
-553.22033736227343
 20
-884.04328344813075
 30
0.0
 11
-553.22033736227343
 21
-863.54328344813075
 31
0.0
  0
ARC
  5
15489
  8
01
 10
-562.22033736227377
 20
-884.04328344813075
 30
0.0
 40
9.0
 50
282.83958840690133
 51
0.0
  0
LINE
  5
1548A
  8
01
 10
-553.72033736227343
 20
-863.04328344813086
 30
0.0
 11
-560.22033736227343
 21
-863.04328344813086
 31
0.0
  0
LINE
  5
1548B
  8
01
 10
-697.22033736227343
 20
-804.24328344813057
 30
0.0
 11
-650.02033736227327
 21
-804.24328344813057
 31
0.0
  0
LINE
  5
1548C
  8
01
 10
-600.42033736227324
 20
-804.24328344813057
 30
0.0
 11
-553.72033736227468
 21
-804.24328344813057
 31
0.0
  0
LINE
  5
1548D
  8
01
 10
-553.72033736227468
 20
-804.24328344813057
 30
0.0
 11
-553.72033736227434
 21
-811.54328344813086
 31
0.0
  0
ARC
  5
1548E
  8
01
 10
-554.22033736227434
 20
-811.54328344813086
 30
0.0
 40
0.5
 50
270.0
 51
0.0
  0
ARC
  5
1548F
  8
01
 10
-553.72033736227343
 20
-863.54328344813075
 30
0.0
 40
0.5
 50
0.0
 51
90.0
  0
LINE
  5
15490
  8
01
 10
-697.22033736227343
 20
-801.04328350453068
 30
0.0
 11
-697.22033736227343
 21
-804.04328350453056
 31
0.0
  0
LINE
  5
15491
  8
01
 10
-553.22033736227343
 20
-801.04328350453068
 30
0.0
 11
-553.22033736227343
 21
-804.04328350453056
 31
0.0
  0
LINE
  5
15492
  8
01
 10
-697.22033736227343
 20
-801.04328350453068
 30
0.0
 11
-553.22033736227343
 21
-801.04328350453068
 31
0.0
  0
LINE
  5
15493
  8
01
 10
-650.02033736227327
 20
-808.84328350453075
 30
0.0
 11
-644.02033736227327
 21
-808.84328350453075
 31
0.0
  0
LINE
  5
15494
  8
01
 10
-697.22033736227343
 20
-804.04328350453056
 30
0.0
 11
-650.02033736227327
 21
-804.04328350453056
 31
0.0
  0
LINE
  5
15495
  8
01
 10
-600.42033736227336
 20
-804.04328350453056
 30
0.0
 11
-553.22033736227343
 21
-804.04328350453056
 31
0.0
  0
LINE
  5
15497
  8
01
 10
-650.02033736227327
 20
-809.64328350453036
 30
0.0
 11
-650.02033736227327
 21
-801.04328350453068
 31
0.0
  0
LINE
  5
15498
  8
01
 10
-644.02033736227327
 20
-808.84328350453075
 30
0.0
 11
-644.02033736227361
 21
-809.64328350453047
 31
0.0
  0
LINE
  5
15499
  8
01
 10
-606.42033736227336
 20
-808.84328350453097
 30
0.0
 11
-606.42033736227336
 21
-809.64328350453047
 31
0.0
  0
LINE
  5
1549A
  8
01
 10
-600.42033736227359
 20
-809.64328350453036
 30
0.0
 11
-600.42033736227336
 21
-801.04328350453068
 31
0.0
  0
LINE
  5
1549B
  8
01
 10
-606.42033736227336
 20
-808.84328350453097
 30
0.0
 11
-600.42033736227336
 21
-808.84328350453075
 31
0.0
  0
LINE
  5
154B0
  8
01
 10
-617.72033736227343
 20
-940.82547684897372
 30
0.0
 11
-617.72033736227343
 21
-946.52244026457129
 31
0.0
  0
LINE
  5
154B1
  8
01
 10
-616.7203373622732
 20
-944.89792366416464
 30
0.0
 11
-616.72033736227343
 21
-957.19792366416516
 31
0.0
  0
LINE
  5
154B2
  8
01
 10
-617.72033736227343
 20
-957.19792366416516
 30
0.0
 11
-616.72033736227343
 21
-957.19792366416516
 31
0.0
  0
LINE
  5
154B3
  8
01
 10
-617.72033736227343
 20
-951.04792366416518
 30
0.0
 11
-617.72033736227343
 21
-957.19792366416516
 31
0.0
  0
LINE
  5
154B4
  8
01
 10
-653.72033736227252
 20
-955.04792366416541
 30
0.0
 11
-654.02033736227293
 21
-955.04792366416541
 31
0.0
  0
LINE
  5
154B5
  8
01
 10
-654.0203373622727
 20
-947.04792366416507
 30
0.0
 11
-653.72033736227252
 21
-947.04792366416495
 31
0.0
  0
LINE
  5
154B6
  8
01
 10
-653.72033736227252
 20
-944.89792366416475
 30
0.0
 11
-653.72033736227274
 21
-957.19792366416516
 31
0.0
  0
LINE
  5
154B7
  8
01
 10
-652.72033736227274
 20
-957.19792366416516
 30
0.0
 11
-653.72033736227274
 21
-957.19792366416516
 31
0.0
  0
LINE
  5
15754
  8
01
 10
-400.97983228026641
 20
-984.8479234235275
 30
0.0
 11
-400.77983203985423
 21
-984.8479234235275
 31
0.0
  0
LINE
  5
15883
  8
01
 10
-646.02033740491709
 20
-804.54328350453068
 30
0.0
 11
-646.02033740491709
 21
-803.54328350453068
 31
0.0
  0
LINE
  5
15884
  8
01
 10
-638.42033740491706
 20
-804.54328350453068
 30
0.0
 11
-638.42033740491706
 21
-803.54328350453068
 31
0.0
  0
LINE
  5
15885
  8
01
 10
-638.42033740491706
 20
-804.54328350453068
 30
0.0
 11
-646.02033740491709
 21
-804.54328350453068
 31
0.0
  0
LINE
  5
15886
  8
01
 10
-638.42033740491706
 20
-803.54328350453068
 30
0.0
 11
-646.02033740491709
 21
-803.54328350453068
 31
0.0
  0
LINE
  5
15887
  8
01
 10
-612.02033736227941
 20
-804.54328350453068
 30
0.0
 11
-612.02033736227941
 21
-803.54328350453068
 31
0.0
  0
LINE
  5
15888
  8
01
 10
-604.42033736227961
 20
-804.54328350453068
 30
0.0
 11
-604.42033736227961
 21
-803.54328350453068
 31
0.0
  0
LINE
  5
15889
  8
01
 10
-604.42033736227961
 20
-804.54328350453068
 30
0.0
 11
-612.02033736227941
 21
-804.54328350453068
 31
0.0
  0
LINE
  5
1588A
  8
01
 10
-604.42033736227961
 20
-803.54328350453068
 30
0.0
 11
-612.02033736227941
 21
-803.54328350453068
 31
0.0
  0
LINE
  5
1588C
  8
01
 10
-401.27983231534171
 20
-962.74792361841128
 30
0.0
 11
-400.27983231534182
 21
-962.74792361841128
 31
0.0
  0
LINE
  5
1588D
  8
01
 10
-401.27983231534171
 20
-970.34792361841119
 30
0.0
 11
-400.27983231534182
 21
-970.34792361841119
 31
0.0
  0
LINE
  5
1588E
  8
01
 10
-401.27983231534171
 20
-970.34792361841119
 30
0.0
 11
-401.27983231534171
 21
-962.74792361841128
 31
0.0
  0
LINE
  5
1588F
  8
01
 10
-400.27983231534182
 20
-970.34792361841119
 30
0.0
 11
-400.27983231534182
 21
-962.74792361841128
 31
0.0
  0
LINE
  5
15890
  8
1PHANTOM
 10
-578.76834478044941
 20
-933.20095699980004
 30
0.0
 11
-578.76834478044975
 21
-1048.2009569997999
 31
0.0
  0
LINE
  5
15891
  8
1PHANTOM
 10
-692.7683447804493
 20
-933.20095699980004
 30
0.0
 11
-692.76834478044896
 21
-1048.2009569997999
 31
0.0
  0
LINE
  5
15892
  8
1PHANTOM
 10
-578.76834478044941
 20
-933.20095699980004
 30
0.0
 11
-692.7683447804493
 21
-933.20095699980004
 31
0.0
  0
LINE
  5
15893
  8
1PHANTOM
 10
-578.76834478044975
 20
-1048.2009569997999
 30
0.0
 11
-692.76834478044896
 21
-1048.2009569997999
 31
0.0
  0
CIRCLE
  5
15895
  8
1PHANTOM
 10
-485.72033736227309
 20
-990.70095699979993
 30
0.0
 40
18.5
  0
CIRCLE
  5
15896
  8
1PHANTOM
 10
-485.72033736227309
 20
-990.70095699979993
 30
0.0
 40
57.5
  0
LINE
  5
1589A
  8
01
 10
-699.72033736227309
 20
-940.82547684897372
 30
0.0
 11
-570.72033736227309
 21
-940.82547684897372
 31
0.0
  0
LINE
  5
1589C
  8
01
 10
-570.22033736227309
 20
-930.04328350453056
 30
0.0
 11
-570.22033736227309
 21
-940.32547684897361
 31
0.0
  0
LINE
  5
1589D
  8
01
 10
-700.2203373622732
 20
-930.04328350453079
 30
0.0
 11
-700.2203373622732
 21
-940.32547684897384
 31
0.0
  0
LINE
  5
158A5
  8
01
 10
-660.02033736227315
 20
-943.84792366416514
 30
0.0
 11
-654.02033736227293
 21
-943.84792366416514
 31
0.0
  0
LINE
  5
158A7
  8
01
 10
-616.42033736227347
 20
-943.84792366416525
 30
0.0
 11
-610.42033736227324
 21
-943.84792366416514
 31
0.0
  0
ARC
  5
158A9
  8
01
 10
-699.72033736227309
 20
-940.32547684897384
 30
0.0
 40
0.5
 50
180.0
 51
270.0
  0
ARC
  5
158AA
  8
01
 10
-570.72033736227309
 20
-940.32547684897361
 30
0.0
 40
0.5
 50
270.0
 51
0.0
  0
LINE
  5
158AB
  8
01
 10
-653.72033736227274
 20
-944.89792366416475
 30
0.0
 11
-652.72033736227343
 21
-944.89792366416418
 31
0.0
  0
LINE
  5
158AC
  8
01
 10
-616.72033736227365
 20
-944.89792366416475
 30
0.0
 11
-617.72033736227286
 21
-944.89792366416418
 31
0.0
  0
LINE
  5
158AD
  8
1CENTER
 10
-652.2203373622732
 20
-972.54792366416518
 30
0.0
 11
-652.2203373622732
 21
-960.54792366416518
 31
0.0
  0
LINE
  5
158AE
  8
1CENTER
 10
-658.2203373622732
 20
-966.54792366416507
 30
0.0
 11
-646.2203373622732
 21
-966.54792366416507
 31
0.0
  0
LINE
  5
158AF
  8
1CENTER
 10
-618.2203373622732
 20
-972.54792366416518
 30
0.0
 11
-618.2203373622732
 21
-960.54792366416518
 31
0.0
  0
LINE
  5
158B0
  8
1CENTER
 10
-624.22033736227309
 20
-966.54792366416507
 30
0.0
 11
-612.22033736227309
 21
-966.54792366416507
 31
0.0
  0
LINE
  5
158B2
  8
1CENTER
 10
-400.20490816893152
 20
-951.04792366416518
 30
0.0
 11
-425.35475650440179
 21
-951.04792366416518
 31
0.0
  0
LINE
  5
158B3
  8
1CENTER
 10
-412.77983233666669
 20
-938.47299949643025
 30
0.0
 11
-412.77983233666669
 21
-963.62284783190012
 31
0.0
  0
LINE
  5
15ACB
  8
01
 10
-388.77983233666691
 20
-933.26555370874996
 30
0.0
 11
-388.77983233666691
 21
-1013.2655537087491
 31
0.0
  0
LINE
  5
15ACC
  8
01
 10
-379.7798323366668
 20
-933.26555370874996
 30
0.0
 11
-379.77983233666691
 21
-1013.2655537087491
 31
0.0
  0
LINE
  5
15ACD
  8
01
 10
-397.77983233666691
 20
-933.26555370874996
 30
0.0
 11
-397.77983233666691
 21
-1013.2655537087491
 31
0.0
  0
LINE
  5
15E6D
  8
01
 10
-405.20574174410137
 20
-939.75220980024255
 30
0.0
 11
-500.71927781304072
 21
-930.10003762982137
 31
0.0
  0
LINE
  5
15E6E
  8
01
 10
-406.52031309709372
 20
-940.82547684897372
 30
0.0
 11
-500.839929965171
 21
-931.29395683068287
 31
0.0
  0
ARC
  5
15E6F
  8
01
 10
-501.84536456625642
 20
-941.24328350453061
 30
0.0
 40
10.0
 50
84.22953382426833
 51
144.22953382427099
  0
ARC
  5
15E70
  8
01
 10
-501.84536456625642
 20
-941.24328350453061
 30
0.0
 40
11.199999999999999
 50
84.22953382426833
 51
144.22953382427099
  0
LINE
  5
15E71
  8
01
 10
-509.95901691581611
 20
-935.39788826122276
 30
0.0
 11
-510.93265519776378
 21
-934.69644083202604
 31
0.0
  0
TEXT
  5
15F1C
  8
1TEXT
 10
-448.6464990033333
 20
-831.54328350453068
 30
0.0
 40
4.0
  1
表面処理：本体
 72
     1
 11
-432.3798323366666
 21
-831.54328350453068
 31
0.0
  0
TEXT
  5
15F1D
  8
1TEXT
 10
-441.71316567000002
 20
-841.87857216405507
 30
0.0
 40
4.0
  1
クローム
 72
     1
 11
-432.3798323366666
 21
-841.87857216405507
 31
0.0
  0
LINE
  5
15F1E
  8
1DIM
 10
-449.7798323366668
 20
-826.04328350453068
 30
0.0
 11
-344.7798323366668
 21
-826.04328350453068
 31
0.0
  0
LINE
  5
15F1F
  8
1DIM
 10
-449.7798323366668
 20
-833.04328350453068
 30
0.0
 11
-344.7798323366668
 21
-833.04328350453068
 31
0.0
  0
LINE
  5
15F20
  8
1DIM
 10
-414.7798323366668
 20
-826.04328350453068
 30
0.0
 11
-414.7798323366668
 21
-847.04328350453079
 31
0.0
  0
TEXT
  5
15F21
  8
1TEXT
 10
-377.67983233666632
 20
-838.75764048817996
 30
0.0
 40
4.0
  1
SC-09M-XC
 41
0.9
 72
     1
 11
-362.37983233666631
 21
-838.75764048817996
 31
0.0
  0
TEXT
  5
15F22
  8
1TEXT
 10
-369.17983233666672
 20
-831.54328350453068
 30
0.0
 40
4.0
  1
コード
 72
     1
 11
-362.37983233666671
 21
-831.54328350453068
 31
0.0
  0
LINE
  5
15F23
  8
1DIM
 10
-414.7798323366668
 20
-840.04328350453068
 30
0.0
 11
-344.7798323366668
 21
-840.04328350453056
 31
0.0
  0
LINE
  5
15F24
  8
1DIM
 10
-449.7798323366668
 20
-847.04328350453079
 30
0.0
 11
-449.7798323366668
 21
-826.04328350453068
 31
0.0
  0
LINE
  5
15F25
  8
1DIM
 10
-379.77983233666691
 20
-847.04328350453079
 30
0.0
 11
-379.7798323366668
 21
-826.04328350453068
 31
0.0
  0
TEXT
  5
15F26
  8
1TEXT
 10
-449.7798323366668
 20
-821.04328350453056
 30
0.0
 40
8.0
  1
SC-09M-X
  0
TEXT
  5
15F2A
  8
1TEXT
 10
-377.67983233666632
 20
-845.75764048817996
 30
0.0
 40
4.0
  1
SC-09M-CT
 41
0.9
 72
     1
 11
-362.37983233666631
 21
-845.75764048817996
 31
0.0
  0
LINE
  5
15F2B
  8
1DIM
 10
-449.7798323366668
 20
-847.04328350453056
 30
0.0
 11
-344.77983233666691
 21
-847.04328350453056
 31
0.0
  0
TEXT
  5
16043
  8
1TEXT
 10
-412.09983233666662
 20
-831.54328350453068
 30
0.0
 40
4.0
  1
表面処理：カバー
 41
0.8
 72
     1
 11
-397.37983233666671
 21
-831.54328350453068
 31
0.0
  0
TEXT
  5
16044
  8
1TEXT
 10
-401.6464990033333
 20
-838.37857216405507
 30
0.0
 40
4.0
  1
鏡面
 72
     1
 11
-397.37983233666671
 21
-838.37857216405507
 31
0.0
  0
LINE
  5
16045
  8
1DIM
 10
-344.77983233666691
 20
-847.04328350453079
 30
0.0
 11
-344.7798323366668
 21
-826.04328350453068
 31
0.0
  0
TEXT
  5
16046
  8
1TEXT
 10
-408.84649900333329
 20
-845.37857216405507
 30
0.0
 40
4.0
  1
ヘアライン
 72
     1
 11
-397.37983233666671
 21
-845.37857216405507
 31
0.0
  0
TEXT
  5
160E2
  8
1DIM
 10
-420.63659517828359
 20
-897.11318591622205
 30
0.0
 40
3.5
  1
材質：ステンレス
  0
TEXT
  5
160E3
  8
1DIM
 10
-420.63659517828359
 20
-902.94651924955531
 30
0.0
 40
3.5
  1
仕上げ：各種仕上げ
  0
SOLID
  5
160E4
  8
1DIM
 10
-436.26221833275463
 20
-934.79469163065255
 30
0.0
 11
-437.35360185219992
 21
-936.5034903679516
 31
0.0
 12
-436.87541703238918
 22
-934.53309690744334
 32
0.0
 13
-436.87541703238918
 23
-934.53309690744334
 33
0.0
  0
TEXT
  5
160E6
  8
1DIM
 10
-605.29768113307955
 20
-1006.83730711585
 30
0.0
 40
3.5
  1
材質：亜鉛ダイキャスト
  0
TEXT
  5
160E7
  8
1DIM
 10
-605.29768113307955
 20
-1012.670640449183
 30
0.0
 40
3.5
  1
仕上げ：クローム
  0
SOLID
  5
160E8
  8
1DIM
 10
-624.59327996251773
 20
-985.05368858358588
 30
0.0
 11
-625.29768113307955
 21
-983.15239163097112
 31
0.0
 12
-624.01471885197031
 22
-984.72246134164084
 32
0.0
 13
-624.01471885197031
 23
-984.72246134164084
 33
0.0
  0
LINE
  5
160EA
  8
1DIM
 10
-489.58138147531571
 20
-986.54792362280432
 30
0.0
 11
-489.58138147531571
 21
-998.04792366416541
 31
0.0
  0
LINE
  5
160EB
  8
1DIM
 10
-397.77983233666691
 20
-987.04792366416507
 30
0.0
 11
-397.77983233666691
 21
-998.04792366416541
 31
0.0
  0
LINE
  5
160EC
  8
1DIM
 10
-487.58138147531571
 20
-997.04792366416541
 30
0.0
 11
-399.77983233666691
 21
-997.04792366416541
 31
0.0
  0
LINE
  5
160F0
  8
1DIM
 10
-357.77983233666691
 20
-987.04792366416507
 30
0.0
 11
-346.7798323366668
 21
-987.04792366416507
 31
0.0
  0
LINE
  5
160F1
  8
1DIM
 10
-397.77983233666691
 20
-959.04792366416518
 30
0.0
 11
-346.7798323366668
 21
-959.04792366416518
 31
0.0
  0
LINE
  5
160F2
  8
1DIM
 10
-347.7798323366668
 20
-985.04792366416495
 30
0.0
 11
-347.7798323366668
 21
-961.04792366416507
 31
0.0
  0
LINE
  5
160F6
  8
1DIM
 10
-397.77983233666691
 20
-987.04792366416507
 30
0.0
 11
-356.77983233666691
 21
-987.04792366416507
 31
0.0
  0
LINE
  5
160F7
  8
1DIM
 10
-368.31891772419573
 20
-966.54792364284026
 30
0.0
 11
-356.77983233666691
 21
-966.54792364284026
 31
0.0
  0
LINE
  5
160F8
  8
1DIM
 10
-357.77983233666691
 20
-985.04792366416518
 30
0.0
 11
-357.77983233666691
 21
-968.54792364284026
 31
0.0
  0
LINE
  5
160FC
  8
1DIM
 10
-510.93265519776378
 20
-934.69644083202604
 30
0.0
 11
-510.93265519776378
 21
-919.04328350453068
 31
0.0
  0
LINE
  5
160FD
  8
1DIM
 10
-397.77983233666691
 20
-933.26555370874996
 30
0.0
 11
-397.77983233666691
 21
-919.04328350453068
 31
0.0
  0
LINE
  5
160FE
  8
1DIM
 10
-508.93265519776372
 20
-920.04328350453056
 30
0.0
 11
-399.77983233666691
 21
-920.04328350453056
 31
0.0
  0
LINE
  5
16102
  8
1DIM
 10
-553.22033736227343
 20
-801.04328350453068
 30
0.0
 11
-542.22033736227331
 21
-801.04328350453068
 31
0.0
  0
LINE
  5
16103
  8
1DIM
 10
-563.2203373622732
 20
-910.04328350453068
 30
0.0
 11
-542.22033736227331
 21
-910.04328350453068
 31
0.0
  0
LINE
  5
16104
  8
1DIM
 10
-543.22033736227331
 20
-803.04328350453056
 30
0.0
 11
-543.22033736227331
 21
-908.04328350453068
 31
0.0
  0
LINE
  5
16108
  8
1DIM
 10
-642.2203373835921
 20
-801.04328350453068
 30
0.0
 11
-642.2203373835921
 21
-790.04328350453068
 31
0.0
  0
LINE
  5
16109
  8
1DIM
 10
-608.22033734095464
 20
-801.04328350453068
 30
0.0
 11
-608.22033734095464
 21
-790.04328350453068
 31
0.0
  0
LINE
  5
1610A
  8
1DIM
 10
-640.22033738359221
 20
-791.04328350453056
 30
0.0
 11
-610.22033734095464
 21
-791.04328350453056
 31
0.0
  0
LINE
  5
1610E
  8
1DIM
 10
-700.2203373622732
 20
-930.04328350453056
 30
0.0
 11
-700.2203373622732
 21
-919.04328350453068
 31
0.0
  0
LINE
  5
1610F
  8
1DIM
 10
-570.22033736227309
 20
-930.04328350453056
 30
0.0
 11
-570.22033736227309
 21
-919.04328350453068
 31
0.0
  0
LINE
  5
16110
  8
1DIM
 10
-698.2203373622732
 20
-920.04328350453056
 30
0.0
 11
-572.2203373622732
 21
-920.04328350453056
 31
0.0
  0
LINE
  5
16114
  8
1DIM
 10
-707.22033736227309
 20
-986.54792366416541
 30
0.0
 11
-707.22033736227309
 21
-998.04792366416518
 31
0.0
  0
LINE
  5
16115
  8
1DIM
 10
-563.2203373622732
 20
-986.54792366416518
 30
0.0
 11
-563.2203373622732
 21
-998.04792366416518
 31
0.0
  0
LINE
  5
16116
  8
1DIM
 10
-705.2203373622732
 20
-997.04792366416507
 30
0.0
 11
-565.22033736227309
 21
-997.04792366416507
 31
0.0
  0
TEXT
  5
1611A
  8
1HATCH
 10
-394.124731094276
 20
-912.97371090208605
 30
0.0
 40
3.5
  1
PB
  0
SOLID
  5
1611B
  8
1HATCH
 10
-393.22020098263312
 20
-932.12647190577582
 30
0.0
 11
-393.1998637145889
 21
-934.15395741907537
 31
0.0
 12
-393.87666454002522
 22
-932.24266158802254
 32
0.0
 13
-393.87666454002522
 23
-932.24266158802254
 33
0.0
  0
SOLID
  5
1611D
  8
1DIM
 10
-385.15668017010228
 20
-932.13085843587487
 30
0.0
 11
-384.70188150064769
 21
-934.10678082336221
 31
0.0
 12
-385.77293615147897
 22
-932.38516732258915
 32
0.0
 13
-385.77293615147897
 23
-932.38516732258915
 33
0.0
  0
TEXT
  5
1611F
  8
1DIM
 10
-387.95738659973728
 20
-918.97505691920992
 30
0.0
 40
3.5
  1
合板9mm以上
  0
LINE
  5
16121
  8
1CENTER
 10
-608.22033734095464
 20
-771.58236891338458
 30
0.0
 11
-608.22033734095464
 21
-808.21355991383939
 31
0.0
  0
LINE
  5
16122
  8
0
 10
-607.12601352695958
 20
-776.64328095837084
 30
0.0
 11
-609.08834861583489
 21
-775.84328552431975
 31
0.0
  0
LINE
  5
16123
  8
0
 10
-609.08834861583489
 20
-775.84328552431975
 30
0.0
 11
-608.50007204079259
 21
-775.53151566806775
 31
0.0
  0
LINE
  5
16124
  8
0
 10
-606.22038387685245
 20
-799.04327885116084
 30
0.0
 11
-610.22038387685257
 21
-798.24328815834258
 31
0.0
  0
LINE
  5
16125
  8
0
 10
-606.22038387685245
 20
-787.84327885115636
 30
0.0
 11
-610.22038387685257
 21
-787.04328815833378
 31
0.0
  0
LINE
  5
16126
  8
0
 10
-606.22038387685245
 20
-784.64327885115642
 30
0.0
 11
-610.22038387685257
 21
-783.84328815833385
 31
0.0
  0
LINE
  5
16127
  8
0
 10
-610.22038387685257
 20
-783.84328815833385
 30
0.0
 11
-609.72038387685257
 21
-783.74328699493662
 31
0.0
  0
LINE
  5
16128
  8
0
 10
-606.72038387685245
 20
-783.14328001455351
 30
0.0
 11
-606.22038387685245
 21
-783.0432788511564
 31
0.0
  0
LINE
  5
16129
  8
0
 10
-610.22038387685257
 20
-787.04328815833378
 30
0.0
 11
-609.72038387685257
 21
-786.94328699493656
 31
0.0
  0
LINE
  5
1612A
  8
0
 10
-610.22038387685257
 20
-785.44328815833364
 30
0.0
 11
-609.72038387685257
 21
-785.34328699493665
 31
0.0
  0
LINE
  5
1612B
  8
0
 10
-606.72038387685245
 20
-784.74328001455353
 30
0.0
 11
-606.22038387685245
 21
-784.64327885115642
 31
0.0
  0
LINE
  5
1612C
  8
0
 10
-606.72038387685245
 20
-786.34328001455344
 30
0.0
 11
-606.22038387685245
 21
-786.24327885115633
 31
0.0
  0
LINE
  5
1612D
  8
0
 10
-606.22038387685245
 20
-786.24327885115633
 30
0.0
 11
-610.22038387685257
 21
-785.44328815833364
 31
0.0
  0
LINE
  5
1612E
  8
0
 10
-609.5411627202418
 20
-777.44328657792551
 30
0.0
 11
-608.98941325643852
 21
-777.26052243529739
 31
0.0
  0
LINE
  5
1612F
  8
0
 10
-610.22038387685257
 20
-780.64328815833369
 30
0.0
 11
-609.72038387685257
 21
-780.54328699493669
 31
0.0
  0
LINE
  5
16130
  8
0
 10
-610.22038387685257
 20
-782.24328815833383
 30
0.0
 11
-609.72038387685257
 21
-782.14328699493683
 31
0.0
  0
LINE
  5
16131
  8
0
 10
-609.99397682464848
 20
-779.04328763153114
 30
0.0
 11
-609.45738308937734
 21
-778.91401693390117
 31
0.0
  0
LINE
  5
16132
  8
0
 10
-607.14129847406127
 20
-778.35604941711665
 30
0.0
 11
-606.67320001891119
 21
-778.24327990476661
 31
0.0
  0
LINE
  5
16133
  8
0
 10
-606.72038387685245
 20
-781.54328001455349
 30
0.0
 11
-606.22038387685245
 21
-781.44327885115626
 31
0.0
  0
LINE
  5
16134
  8
0
 10
-606.72038387685245
 20
-779.94328001455347
 30
0.0
 11
-606.22038387685245
 21
-779.84327885115636
 31
0.0
  0
LINE
  5
16135
  8
0
 10
-607.58318536759054
 20
-776.79471675481125
 30
0.0
 11
-607.12601352695958
 21
-776.64328095837084
 31
0.0
  0
LINE
  5
16136
  8
0
 10
-606.67320001891119
 20
-778.24327990476661
 30
0.0
 11
-609.5411627202418
 21
-777.44328657792551
 31
0.0
  0
LINE
  5
16137
  8
0
 10
-606.22038387685245
 20
-781.44327885115626
 30
0.0
 11
-610.22038387685257
 21
-780.64328815833369
 31
0.0
  0
LINE
  5
16138
  8
0
 10
-606.22038387685245
 20
-779.84327885115636
 30
0.0
 11
-609.99397682464848
 21
-779.04328763153114
 31
0.0
  0
LINE
  5
16139
  8
0
 10
-606.22038387685245
 20
-783.0432788511564
 30
0.0
 11
-610.22038387685257
 21
-782.24328815833383
 31
0.0
  0
LINE
  5
1613A
  8
0
 10
-606.22038387685245
 20
-795.84327885116079
 30
0.0
 11
-610.22038387685257
 21
-795.04328815834253
 31
0.0
  0
LINE
  5
1613B
  8
0
 10
-610.22038387685257
 20
-795.04328815834253
 30
0.0
 11
-609.72038387685257
 21
-794.94328699494486
 31
0.0
  0
LINE
  5
1613C
  8
0
 10
-606.72038387685245
 20
-794.34328001455413
 30
0.0
 11
-606.22038387685245
 21
-794.24327885115645
 31
0.0
  0
LINE
  5
1613D
  8
0
 10
-610.22038387685257
 20
-796.64328815834256
 30
0.0
 11
-609.72038387685257
 21
-796.54328699494499
 31
0.0
  0
LINE
  5
1613E
  8
0
 10
-610.22038387685257
 20
-798.24328815834258
 30
0.0
 11
-609.72038387685257
 21
-798.1432869949449
 31
0.0
  0
LINE
  5
1613F
  8
0
 10
-606.72038387685245
 20
-795.94328001455835
 30
0.0
 11
-606.22038387685245
 21
-795.84327885116079
 31
0.0
  0
LINE
  5
16140
  8
0
 10
-606.72038387685245
 20
-797.54328001455849
 30
0.0
 11
-606.22038387685245
 21
-797.44327885116093
 31
0.0
  0
LINE
  5
16141
  8
0
 10
-606.22038387685245
 20
-797.44327885116093
 30
0.0
 11
-610.22038387685257
 21
-796.64328815834256
 31
0.0
  0
LINE
  5
16142
  8
0
 10
-610.22038387685257
 20
-790.24328815833815
 30
0.0
 11
-609.72038387685257
 21
-790.14328699494035
 31
0.0
  0
LINE
  5
16143
  8
0
 10
-610.22038387685257
 20
-788.64328815833369
 30
0.0
 11
-609.72038387685257
 21
-788.54328699493669
 31
0.0
  0
LINE
  5
16144
  8
0
 10
-610.22038387685257
 20
-793.44328815833819
 30
0.0
 11
-609.72038387685257
 21
-793.34328699494051
 31
0.0
  0
LINE
  5
16145
  8
0
 10
-610.22038387685257
 20
-791.84328815833828
 30
0.0
 11
-609.72038387685257
 21
-791.7432869949406
 31
0.0
  0
LINE
  5
16146
  8
0
 10
-606.72038387685245
 20
-787.94328001455358
 30
0.0
 11
-606.22038387685245
 21
-787.84327885115636
 31
0.0
  0
LINE
  5
16147
  8
0
 10
-606.72038387685245
 20
-789.54328001455417
 30
0.0
 11
-606.22038387685245
 21
-789.44327885115626
 31
0.0
  0
LINE
  5
16148
  8
0
 10
-606.72038387685245
 20
-792.74328001455422
 30
0.0
 11
-606.22038387685245
 21
-792.64327885115654
 31
0.0
  0
LINE
  5
16149
  8
0
 10
-606.72038387685245
 20
-791.14328001455408
 30
0.0
 11
-606.22038387685245
 21
-791.0432788511564
 31
0.0
  0
LINE
  5
1614A
  8
0
 10
-606.22038387685245
 20
-791.0432788511564
 30
0.0
 11
-610.22038387685257
 21
-790.24328815833815
 31
0.0
  0
LINE
  5
1614B
  8
0
 10
-606.22038387685245
 20
-789.44327885115626
 30
0.0
 11
-610.22038387685257
 21
-788.64328815833369
 31
0.0
  0
LINE
  5
1614C
  8
0
 10
-606.22038387685245
 20
-792.64327885115654
 30
0.0
 11
-610.22038387685257
 21
-791.84328815833828
 31
0.0
  0
LINE
  5
1614D
  8
0
 10
-606.22038387685245
 20
-794.24327885115645
 30
0.0
 11
-610.22038387685257
 21
-793.44328815833819
 31
0.0
  0
LINE
  5
1614E
  8
0
 10
-609.72038387685257
 20
-804.54328699483119
 30
0.0
 11
-606.72038387685268
 21
-804.54328001444662
 31
0.0
  0
LINE
  5
1614F
  8
0
 10
-606.72038387685245
 20
-803.94328001456267
 30
0.0
 11
-606.22038387685245
 21
-803.843278851165
 31
0.0
  0
LINE
  5
16150
  8
0
 10
-606.22038387685245
 20
-803.843278851165
 30
0.0
 11
-610.22038387685257
 21
-803.04328815834663
 31
0.0
  0
LINE
  5
16151
  8
0
 10
-610.22038387685257
 20
-803.04328815834663
 30
0.0
 11
-609.72038387685257
 21
-802.94328699494895
 31
0.0
  0
LINE
  5
16152
  8
0
 10
-606.72038387685245
 20
-802.34328001456265
 30
0.0
 11
-606.22038387685245
 21
-802.24327885116497
 31
0.0
  0
LINE
  5
16153
  8
0
 10
-606.72038387685245
 20
-800.74328001456286
 30
0.0
 11
-606.22038387685245
 21
-800.64327885116518
 31
0.0
  0
LINE
  5
16154
  8
0
 10
-606.22038387685245
 20
-800.64327885116518
 30
0.0
 11
-610.22038387685257
 21
-799.84328815834692
 31
0.0
  0
LINE
  5
16155
  8
0
 10
-610.22038387685257
 20
-801.44328815834683
 30
0.0
 11
-609.72038387685257
 21
-801.34328699494915
 31
0.0
  0
LINE
  5
16156
  8
0
 10
-610.22038387685257
 20
-799.84328815834692
 30
0.0
 11
-609.72038387685257
 21
-799.74328699494924
 31
0.0
  0
LINE
  5
16157
  8
0
 10
-606.22038387685245
 20
-802.24327885116497
 30
0.0
 11
-610.22038387685257
 21
-801.44328815834683
 31
0.0
  0
LINE
  5
16158
  8
0
 10
-606.72038387685245
 20
-799.1432800145584
 30
0.0
 11
-606.22038387685245
 21
-799.04327885116084
 31
0.0
  0
LINE
  5
1615A
  8
1CENTER
 10
-642.2203373835921
 20
-771.58236891338458
 30
0.0
 11
-642.2203373835921
 21
-808.21355991383939
 31
0.0
  0
LINE
  5
1615B
  8
0
 10
-643.31466119758716
 20
-776.64328095837084
 30
0.0
 11
-641.35232610871185
 21
-775.84328552431975
 31
0.0
  0
LINE
  5
1615C
  8
0
 10
-641.35232610871185
 20
-775.84328552431975
 30
0.0
 11
-641.94060268375415
 21
-775.53151566806775
 31
0.0
  0
LINE
  5
1615D
  8
0
 10
-644.22029084769429
 20
-799.04327885116084
 30
0.0
 11
-640.22029084769429
 21
-798.24328815834258
 31
0.0
  0
LINE
  5
1615E
  8
0
 10
-644.22029084769429
 20
-787.84327885115636
 30
0.0
 11
-640.22029084769429
 21
-787.04328815833378
 31
0.0
  0
LINE
  5
1615F
  8
0
 10
-644.22029084769429
 20
-784.64327885115642
 30
0.0
 11
-640.22029084769429
 21
-783.84328815833385
 31
0.0
  0
LINE
  5
16160
  8
0
 10
-640.22029084769429
 20
-783.84328815833385
 30
0.0
 11
-640.72029084769429
 21
-783.74328699493662
 31
0.0
  0
LINE
  5
16161
  8
0
 10
-643.72029084769417
 20
-783.14328001455351
 30
0.0
 11
-644.22029084769429
 21
-783.0432788511564
 31
0.0
  0
LINE
  5
16162
  8
0
 10
-640.22029084769429
 20
-787.04328815833378
 30
0.0
 11
-640.72029084769429
 21
-786.94328699493656
 31
0.0
  0
LINE
  5
16163
  8
0
 10
-640.22029084769429
 20
-785.44328815833364
 30
0.0
 11
-640.72029084769429
 21
-785.34328699493665
 31
0.0
  0
LINE
  5
16164
  8
0
 10
-643.72029084769417
 20
-784.74328001455353
 30
0.0
 11
-644.22029084769429
 21
-784.64327885115642
 31
0.0
  0
LINE
  5
16165
  8
0
 10
-643.72029084769417
 20
-786.34328001455344
 30
0.0
 11
-644.22029084769429
 21
-786.24327885115633
 31
0.0
  0
LINE
  5
16166
  8
0
 10
-644.22029084769429
 20
-786.24327885115633
 30
0.0
 11
-640.22029084769429
 21
-785.44328815833364
 31
0.0
  0
LINE
  5
16167
  8
0
 10
-640.89951200430505
 20
-777.44328657792551
 30
0.0
 11
-641.45126146810833
 21
-777.26052243529739
 31
0.0
  0
LINE
  5
16168
  8
0
 10
-640.22029084769429
 20
-780.64328815833369
 30
0.0
 11
-640.72029084769429
 21
-780.54328699493669
 31
0.0
  0
LINE
  5
16169
  8
0
 10
-640.22029084769429
 20
-782.24328815833383
 30
0.0
 11
-640.72029084769429
 21
-782.14328699493683
 31
0.0
  0
LINE
  5
1616A
  8
0
 10
-640.44669789989825
 20
-779.04328763153114
 30
0.0
 11
-640.98329163516928
 21
-778.91401693390117
 31
0.0
  0
LINE
  5
1616B
  8
0
 10
-643.29937625048558
 20
-778.35604941711665
 30
0.0
 11
-643.76747470563555
 21
-778.24327990476661
 31
0.0
  0
LINE
  5
1616C
  8
0
 10
-643.72029084769417
 20
-781.54328001455349
 30
0.0
 11
-644.22029084769429
 21
-781.44327885115626
 31
0.0
  0
LINE
  5
1616D
  8
0
 10
-643.72029084769417
 20
-779.94328001455347
 30
0.0
 11
-644.22029084769429
 21
-779.84327885115636
 31
0.0
  0
LINE
  5
1616E
  8
0
 10
-642.85748935695608
 20
-776.79471675481125
 30
0.0
 11
-643.31466119758716
 21
-776.64328095837084
 31
0.0
  0
LINE
  5
1616F
  8
0
 10
-643.76747470563555
 20
-778.24327990476661
 30
0.0
 11
-640.89951200430505
 21
-777.44328657792551
 31
0.0
  0
LINE
  5
16170
  8
0
 10
-644.22029084769429
 20
-781.44327885115626
 30
0.0
 11
-640.22029084769429
 21
-780.64328815833369
 31
0.0
  0
LINE
  5
16171
  8
0
 10
-644.22029084769429
 20
-779.84327885115636
 30
0.0
 11
-640.44669789989825
 21
-779.04328763153114
 31
0.0
  0
LINE
  5
16172
  8
0
 10
-644.22029084769429
 20
-783.0432788511564
 30
0.0
 11
-640.22029084769429
 21
-782.24328815833383
 31
0.0
  0
LINE
  5
16173
  8
0
 10
-644.22029084769429
 20
-795.84327885116079
 30
0.0
 11
-640.22029084769429
 21
-795.04328815834253
 31
0.0
  0
LINE
  5
16174
  8
0
 10
-640.22029084769429
 20
-795.04328815834253
 30
0.0
 11
-640.72029084769429
 21
-794.94328699494486
 31
0.0
  0
LINE
  5
16175
  8
0
 10
-643.72029084769417
 20
-794.34328001455413
 30
0.0
 11
-644.22029084769429
 21
-794.24327885115645
 31
0.0
  0
LINE
  5
16176
  8
0
 10
-640.22029084769429
 20
-796.64328815834256
 30
0.0
 11
-640.72029084769429
 21
-796.54328699494499
 31
0.0
  0
LINE
  5
16177
  8
0
 10
-640.22029084769429
 20
-798.24328815834258
 30
0.0
 11
-640.72029084769429
 21
-798.1432869949449
 31
0.0
  0
LINE
  5
16178
  8
0
 10
-643.72029084769417
 20
-795.94328001455835
 30
0.0
 11
-644.22029084769429
 21
-795.84327885116079
 31
0.0
  0
LINE
  5
16179
  8
0
 10
-643.72029084769417
 20
-797.54328001455849
 30
0.0
 11
-644.22029084769429
 21
-797.44327885116093
 31
0.0
  0
LINE
  5
1617A
  8
0
 10
-644.22029084769429
 20
-797.44327885116093
 30
0.0
 11
-640.22029084769429
 21
-796.64328815834256
 31
0.0
  0
LINE
  5
1617B
  8
0
 10
-640.22029084769429
 20
-790.24328815833815
 30
0.0
 11
-640.72029084769429
 21
-790.14328699494035
 31
0.0
  0
LINE
  5
1617C
  8
0
 10
-640.22029084769429
 20
-788.64328815833369
 30
0.0
 11
-640.72029084769429
 21
-788.54328699493669
 31
0.0
  0
LINE
  5
1617D
  8
0
 10
-640.22029084769429
 20
-793.44328815833819
 30
0.0
 11
-640.72029084769429
 21
-793.34328699494051
 31
0.0
  0
LINE
  5
1617E
  8
0
 10
-640.22029084769429
 20
-791.84328815833828
 30
0.0
 11
-640.72029084769429
 21
-791.7432869949406
 31
0.0
  0
LINE
  5
1617F
  8
0
 10
-643.72029084769417
 20
-787.94328001455358
 30
0.0
 11
-644.22029084769429
 21
-787.84327885115636
 31
0.0
  0
LINE
  5
16180
  8
0
 10
-643.72029084769417
 20
-789.54328001455417
 30
0.0
 11
-644.22029084769429
 21
-789.44327885115626
 31
0.0
  0
LINE
  5
16181
  8
0
 10
-643.72029084769417
 20
-792.74328001455422
 30
0.0
 11
-644.22029084769429
 21
-792.64327885115654
 31
0.0
  0
LINE
  5
16182
  8
0
 10
-643.72029084769417
 20
-791.14328001455408
 30
0.0
 11
-644.22029084769429
 21
-791.0432788511564
 31
0.0
  0
LINE
  5
16183
  8
0
 10
-644.22029084769429
 20
-791.0432788511564
 30
0.0
 11
-640.22029084769429
 21
-790.24328815833815
 31
0.0
  0
LINE
  5
16184
  8
0
 10
-644.22029084769429
 20
-789.44327885115626
 30
0.0
 11
-640.22029084769429
 21
-788.64328815833369
 31
0.0
  0
LINE
  5
16185
  8
0
 10
-644.22029084769429
 20
-792.64327885115654
 30
0.0
 11
-640.22029084769429
 21
-791.84328815833828
 31
0.0
  0
LINE
  5
16186
  8
0
 10
-644.22029084769429
 20
-794.24327885115645
 30
0.0
 11
-640.22029084769429
 21
-793.44328815833819
 31
0.0
  0
LINE
  5
16187
  8
0
 10
-640.72029084769429
 20
-804.54328699483119
 30
0.0
 11
-643.72029084769395
 21
-804.54328001444662
 31
0.0
  0
LINE
  5
16188
  8
0
 10
-643.72029084769417
 20
-803.94328001456267
 30
0.0
 11
-644.22029084769429
 21
-803.843278851165
 31
0.0
  0
LINE
  5
16189
  8
0
 10
-644.22029084769429
 20
-803.843278851165
 30
0.0
 11
-640.22029084769429
 21
-803.04328815834663
 31
0.0
  0
LINE
  5
1618A
  8
0
 10
-640.22029084769429
 20
-803.04328815834663
 30
0.0
 11
-640.72029084769429
 21
-802.94328699494895
 31
0.0
  0
LINE
  5
1618B
  8
0
 10
-643.72029084769417
 20
-802.34328001456265
 30
0.0
 11
-644.22029084769429
 21
-802.24327885116497
 31
0.0
  0
LINE
  5
1618C
  8
0
 10
-643.72029084769417
 20
-800.74328001456286
 30
0.0
 11
-644.22029084769429
 21
-800.64327885116518
 31
0.0
  0
LINE
  5
1618D
  8
0
 10
-644.22029084769429
 20
-800.64327885116518
 30
0.0
 11
-640.22029084769429
 21
-799.84328815834692
 31
0.0
  0
LINE
  5
1618E
  8
0
 10
-640.22029084769429
 20
-801.44328815834683
 30
0.0
 11
-640.72029084769429
 21
-801.34328699494915
 31
0.0
  0
LINE
  5
1618F
  8
0
 10
-640.22029084769429
 20
-799.84328815834692
 30
0.0
 11
-640.72029084769429
 21
-799.74328699494924
 31
0.0
  0
LINE
  5
16190
  8
0
 10
-644.22029084769429
 20
-802.24327885116497
 30
0.0
 11
-640.22029084769429
 21
-801.44328815834683
 31
0.0
  0
LINE
  5
16191
  8
0
 10
-643.72029084769417
 20
-799.1432800145584
 30
0.0
 11
-644.22029084769429
 21
-799.04327885116084
 31
0.0
  0
LINE
  5
16193
  8
1CENTER
 10
-368.31891772419573
 20
-966.54792364284026
 30
0.0
 11
-404.95010872465059
 21
-966.54792364284026
 31
0.0
  0
LINE
  5
16194
  8
0
 10
-373.37982976918198
 20
-965.45359982884509
 30
0.0
 11
-372.57983433513101
 21
-967.41593491772051
 31
0.0
  0
LINE
  5
16195
  8
0
 10
-372.57983433513101
 20
-967.41593491772051
 30
0.0
 11
-372.2680644788789
 21
-966.82765834267821
 31
0.0
  0
LINE
  5
16196
  8
0
 10
-395.77982766197198
 20
-964.54797017873807
 30
0.0
 11
-394.97983696915372
 21
-968.54797017873818
 31
0.0
  0
LINE
  5
16197
  8
0
 10
-384.57982766196761
 20
-964.54797017873807
 30
0.0
 11
-383.77983696914509
 21
-968.54797017873818
 31
0.0
  0
LINE
  5
16198
  8
0
 10
-381.37982766196762
 20
-964.54797017873807
 30
0.0
 11
-380.57983696914499
 21
-968.54797017873818
 31
0.0
  0
LINE
  5
16199
  8
0
 10
-380.57983696914499
 20
-968.54797017873818
 30
0.0
 11
-380.47983580574783
 21
-968.04797017873818
 31
0.0
  0
LINE
  5
1619A
  8
0
 10
-379.87982882536483
 20
-965.04797017873818
 30
0.0
 11
-379.77982766196749
 21
-964.54797017873807
 31
0.0
  0
LINE
  5
1619B
  8
0
 10
-383.77983696914509
 20
-968.54797017873818
 30
0.0
 11
-383.67983580574781
 21
-968.04797017873818
 31
0.0
  0
LINE
  5
1619C
  8
0
 10
-382.1798369691449
 20
-968.54797017873818
 30
0.0
 11
-382.07983580574779
 21
-968.04797017873818
 31
0.0
  0
LINE
  5
1619D
  8
0
 10
-381.47982882536468
 20
-965.04797017873818
 30
0.0
 11
-381.37982766196762
 21
-964.54797017873807
 31
0.0
  0
LINE
  5
1619E
  8
0
 10
-383.07982882536459
 20
-965.04797017873818
 30
0.0
 11
-382.97982766196748
 21
-964.54797017873807
 31
0.0
  0
LINE
  5
1619F
  8
0
 10
-382.97982766196748
 20
-964.54797017873807
 30
0.0
 11
-382.1798369691449
 21
-968.54797017873818
 31
0.0
  0
LINE
  5
161A0
  8
0
 10
-374.17983538873671
 20
-967.86874902212753
 30
0.0
 11
-373.9970712461087
 21
-967.31699955832426
 31
0.0
  0
LINE
  5
161A1
  8
0
 10
-377.379836969145
 20
-968.54797017873818
 30
0.0
 11
-377.27983580574789
 21
-968.04797017873818
 31
0.0
  0
LINE
  5
161A2
  8
0
 10
-378.97983696914503
 20
-968.54797017873818
 30
0.0
 11
-378.87983580574797
 21
-968.04797017873818
 31
0.0
  0
LINE
  5
161A3
  8
0
 10
-375.77983644234229
 20
-968.32156312653422
 30
0.0
 11
-375.65056574471242
 21
-967.78496939126296
 31
0.0
  0
LINE
  5
161A4
  8
0
 10
-375.09259822792779
 20
-965.46888477594689
 30
0.0
 11
-374.97982871557781
 21
-965.00078632079692
 31
0.0
  0
LINE
  5
161A5
  8
0
 10
-378.27982882536458
 20
-965.04797017873818
 30
0.0
 11
-378.17982766196752
 21
-964.54797017873807
 31
0.0
  0
LINE
  5
161A6
  8
0
 10
-376.67982882536472
 20
-965.04797017873818
 30
0.0
 11
-376.57982766196761
 21
-964.54797017873807
 31
0.0
  0
LINE
  5
161A7
  8
0
 10
-373.53126556562239
 20
-965.91077166947616
 30
0.0
 11
-373.37982976918198
 21
-965.45359982884509
 31
0.0
  0
LINE
  5
161A8
  8
0
 10
-374.97982871557781
 20
-965.00078632079692
 30
0.0
 11
-374.17983538873671
 21
-967.86874902212753
 31
0.0
  0
LINE
  5
161A9
  8
0
 10
-378.17982766196752
 20
-964.54797017873807
 30
0.0
 11
-377.379836969145
 21
-968.54797017873818
 31
0.0
  0
LINE
  5
161AA
  8
0
 10
-376.57982766196761
 20
-964.54797017873807
 30
0.0
 11
-375.77983644234229
 21
-968.32156312653422
 31
0.0
  0
LINE
  5
161AB
  8
0
 10
-379.77982766196749
 20
-964.54797017873807
 30
0.0
 11
-378.97983696914503
 21
-968.54797017873818
 31
0.0
  0
LINE
  5
161AC
  8
0
 10
-392.57982766197188
 20
-964.54797017873807
 30
0.0
 11
-391.77983696915368
 21
-968.54797017873818
 31
0.0
  0
LINE
  5
161AD
  8
0
 10
-391.77983696915368
 20
-968.54797017873818
 30
0.0
 11
-391.679835805756
 21
-968.04797017873818
 31
0.0
  0
LINE
  5
161AE
  8
0
 10
-391.07982882536533
 20
-965.04797017873818
 30
0.0
 11
-390.97982766196759
 21
-964.54797017873807
 31
0.0
  0
LINE
  5
161AF
  8
0
 10
-393.37983696915381
 20
-968.54797017873818
 30
0.0
 11
-393.27983580575608
 21
-968.04797017873818
 31
0.0
  0
LINE
  5
161B0
  8
0
 10
-394.97983696915372
 20
-968.54797017873818
 30
0.0
 11
-394.87983580575599
 21
-968.04797017873818
 31
0.0
  0
LINE
  5
161B1
  8
0
 10
-392.67982882536961
 20
-965.04797017873818
 30
0.0
 11
-392.57982766197188
 21
-964.54797017873807
 31
0.0
  0
LINE
  5
161B2
  8
0
 10
-394.2798288253698
 20
-965.04797017873818
 30
0.0
 11
-394.17982766197213
 21
-964.54797017873807
 31
0.0
  0
LINE
  5
161B3
  8
0
 10
-394.17982766197213
 20
-964.54797017873807
 30
0.0
 11
-393.37983696915381
 21
-968.54797017873818
 31
0.0
  0
LINE
  5
161B4
  8
0
 10
-386.97983696914929
 20
-968.54797017873818
 30
0.0
 11
-386.87983580575161
 21
-968.04797017873818
 31
0.0
  0
LINE
  5
161B5
  8
0
 10
-385.379836969145
 20
-968.54797017873818
 30
0.0
 11
-385.27983580574778
 21
-968.04797017873818
 31
0.0
  0
LINE
  5
161B6
  8
0
 10
-390.17983696914928
 20
-968.54797017873818
 30
0.0
 11
-390.0798358057516
 21
-968.04797017873818
 31
0.0
  0
LINE
  5
161B7
  8
0
 10
-388.57983696914943
 20
-968.54797017873818
 30
0.0
 11
-388.47983580575169
 21
-968.04797017873818
 31
0.0
  0
LINE
  5
161B8
  8
0
 10
-384.67982882536472
 20
-965.04797017873818
 30
0.0
 11
-384.57982766196761
 21
-964.54797017873807
 31
0.0
  0
LINE
  5
161B9
  8
0
 10
-386.27982882536531
 20
-965.04797017873818
 30
0.0
 11
-386.17982766196752
 21
-964.54797017873807
 31
0.0
  0
LINE
  5
161BA
  8
0
 10
-389.4798288253653
 20
-965.04797017873818
 30
0.0
 11
-389.37982766196768
 21
-964.54797017873807
 31
0.0
  0
LINE
  5
161BB
  8
0
 10
-387.87982882536522
 20
-965.04797017873818
 30
0.0
 11
-387.77982766196749
 21
-964.54797017873807
 31
0.0
  0
LINE
  5
161BC
  8
0
 10
-387.77982766196749
 20
-964.54797017873807
 30
0.0
 11
-386.97983696914929
 21
-968.54797017873818
 31
0.0
  0
LINE
  5
161BD
  8
0
 10
-386.17982766196752
 20
-964.54797017873807
 30
0.0
 11
-385.379836969145
 21
-968.54797017873818
 31
0.0
  0
LINE
  5
161BE
  8
0
 10
-389.37982766196768
 20
-964.54797017873807
 30
0.0
 11
-388.57983696914943
 21
-968.54797017873818
 31
0.0
  0
LINE
  5
161BF
  8
0
 10
-390.97982766196759
 20
-964.54797017873807
 30
0.0
 11
-390.17983696914928
 21
-968.54797017873818
 31
0.0
  0
LINE
  5
161C0
  8
0
 10
-401.27983580564228
 20
-968.04797017873818
 30
0.0
 11
-401.27982882525771
 21
-965.04797017873841
 31
0.0
  0
LINE
  5
161C1
  8
0
 10
-400.67982882537382
 20
-965.04797017873818
 30
0.0
 11
-400.57982766197608
 21
-964.54797017873807
 31
0.0
  0
LINE
  5
161C2
  8
0
 10
-400.57982766197608
 20
-964.54797017873807
 30
0.0
 11
-399.77983696915788
 21
-968.54797017873818
 31
0.0
  0
LINE
  5
161C3
  8
0
 10
-399.77983696915788
 20
-968.54797017873818
 30
0.0
 11
-399.67983580576021
 21
-968.04797017873818
 31
0.0
  0
LINE
  5
161C4
  8
0
 10
-399.07982882537391
 20
-965.04797017873818
 30
0.0
 11
-398.97982766197629
 21
-964.54797017873807
 31
0.0
  0
LINE
  5
161C5
  8
0
 10
-397.479828825374
 20
-965.04797017873818
 30
0.0
 11
-397.37982766197632
 21
-964.54797017873807
 31
0.0
  0
LINE
  5
161C6
  8
0
 10
-397.37982766197632
 20
-964.54797017873807
 30
0.0
 11
-396.57983696915812
 21
-968.54797017873818
 31
0.0
  0
LINE
  5
161C7
  8
0
 10
-398.17983696915798
 20
-968.54797017873818
 30
0.0
 11
-398.0798358057603
 21
-968.04797017873818
 31
0.0
  0
LINE
  5
161C8
  8
0
 10
-396.57983696915812
 20
-968.54797017873818
 30
0.0
 11
-396.47983580576039
 21
-968.04797017873818
 31
0.0
  0
LINE
  5
161C9
  8
0
 10
-398.97982766197629
 20
-964.54797017873807
 30
0.0
 11
-398.17983696915798
 21
-968.54797017873818
 31
0.0
  0
LINE
  5
161CA
  8
0
 10
-395.87982882536971
 20
-965.04797017873818
 30
0.0
 11
-395.77982766197198
 21
-964.54797017873807
 31
0.0
  0
LINE
  5
161CB
  8
0
 10
-371.27983231550422
 20
-966.54797017873807
 30
0.0
 11
-376.57982882536578
 21
-965.04797017873818
 31
0.0
  0
LINE
  5
161CC
  8
0
 10
-376.57982882536578
 20
-965.04797017873818
 30
0.0
 11
-401.27982882525771
 21
-965.04797017873841
 31
0.0
  0
LINE
  5
161CD
  8
0
 10
-371.27983231550422
 20
-966.54797017873807
 30
0.0
 11
-376.57983580574938
 21
-968.0479701787383
 31
0.0
  0
LINE
  5
161CE
  8
0
 10
-401.2798241715596
 20
-963.04792364284026
 30
0.0
 11
-401.27982882525771
 21
-965.04797017873841
 31
0.0
  0
LINE
  5
161CF
  8
0
 10
-376.57983580574938
 20
-968.0479701787383
 30
0.0
 11
-401.27983580564228
 21
-968.04797017873818
 31
0.0
  0
LINE
  5
161D0
  8
0
 10
-401.2798241715596
 20
-963.04792364284026
 30
0.0
 11
-402.37982766175492
 21
-963.04792364284026
 31
0.0
  0
LINE
  5
161D1
  8
0
 10
-401.27983580564228
 20
-968.04797017873818
 30
0.0
 11
-401.27984045912382
 21
-970.04792364284026
 31
0.0
  0
ARC
  5
161D2
  8
0
 10
-402.37982766175492
 20
-964.54792364284015
 30
0.0
 40
1.5
 50
90.0
 51
179.99986668447059
  0
LINE
  5
161D3
  8
0
 10
-401.27984045912382
 20
-970.04792364284026
 30
0.0
 11
-402.37983696893451
 21
-970.04792364284026
 31
0.0
  0
LINE
  5
161D4
  8
0
 10
-403.87982766175088
 20
-964.54792015264775
 30
0.0
 11
-403.87983696893042
 21
-968.54792015264775
 31
0.0
  0
ARC
  5
161D5
  8
0
 10
-402.37983696893451
 20
-968.54792364284026
 30
0.0
 40
1.5
 50
179.99986668447059
 51
270.0
  0
LINE
  5
161D6
  8
0
 10
-642.22029084769417
 20
-774.54328350469302
 30
0.0
 11
-643.72029084769417
 21
-779.84328001455469
 31
0.0
  0
LINE
  5
161D7
  8
0
 10
-643.72029084769417
 20
-779.84328001455469
 30
0.0
 11
-643.72029084769395
 21
-804.54328001444662
 31
0.0
  0
LINE
  5
161D8
  8
0
 10
-642.22029084769417
 20
-774.54328350469302
 30
0.0
 11
-640.72029084769406
 21
-779.84328699493835
 31
0.0
  0
LINE
  5
161D9
  8
0
 10
-645.7203373835921
 20
-804.54327536074845
 30
0.0
 11
-643.72029084769395
 21
-804.54328001444662
 31
0.0
  0
LINE
  5
161DA
  8
0
 10
-640.72029084769406
 20
-779.84328699493835
 30
0.0
 11
-640.72029084769429
 21
-804.54328699483119
 31
0.0
  0
LINE
  5
161DB
  8
0
 10
-645.7203373835921
 20
-804.54327536074845
 30
0.0
 11
-645.72033738359221
 21
-805.64327885094383
 31
0.0
  0
LINE
  5
161DC
  8
0
 10
-640.72029084769429
 20
-804.54328699483119
 30
0.0
 11
-638.72033738359221
 21
-804.54329164831267
 31
0.0
  0
ARC
  5
161DD
  8
0
 10
-644.22033738359221
 20
-805.64327885094383
 30
0.0
 40
1.5
 50
180.0
 51
269.99986668447059
  0
LINE
  5
161DE
  8
0
 10
-638.72033738359221
 20
-804.54329164831267
 30
0.0
 11
-638.72033738359221
 21
-805.64328815812348
 31
0.0
  0
LINE
  5
161DF
  8
0
 10
-644.22034087378461
 20
-807.14327885093974
 30
0.0
 11
-640.22034087378461
 21
-807.14328815811928
 31
0.0
  0
ARC
  5
161E0
  8
0
 10
-640.22033738359221
 20
-805.64328815812348
 30
0.0
 40
1.5
 50
269.99986668447059
 51
0.0
  0
LINE
  5
161E1
  8
0
 10
-608.22038387685245
 20
-774.54328350469302
 30
0.0
 11
-606.72038387685245
 21
-779.84328001455469
 31
0.0
  0
LINE
  5
161E2
  8
0
 10
-608.22038387685245
 20
-774.54328350469302
 30
0.0
 11
-609.72038387685268
 21
-779.84328699493835
 31
0.0
  0
LINE
  5
161E3
  8
0
 10
-606.72038387685245
 20
-779.84328001455469
 30
0.0
 11
-606.72038387685268
 21
-804.54328001444662
 31
0.0
  0
LINE
  5
161E4
  8
0
 10
-609.72038387685268
 20
-779.84328699493835
 30
0.0
 11
-609.72038387685257
 21
-804.54328699483119
 31
0.0
  0
LINE
  5
161E5
  8
0
 10
-604.72033734095476
 20
-804.54327536074845
 30
0.0
 11
-606.72038387685268
 21
-804.54328001444662
 31
0.0
  0
LINE
  5
161E6
  8
0
 10
-609.72038387685257
 20
-804.54328699483119
 30
0.0
 11
-611.72033734095464
 21
-804.54329164831267
 31
0.0
  0
LINE
  5
161E7
  8
0
 10
-604.72033734095476
 20
-804.54327536074845
 30
0.0
 11
-604.72033734095464
 21
-805.64327885094383
 31
0.0
  0
LINE
  5
161E8
  8
0
 10
-611.72033734095464
 20
-804.54329164831267
 30
0.0
 11
-611.72033734095464
 21
-805.64328815812348
 31
0.0
  0
ARC
  5
161E9
  8
0
 10
-606.22033734095464
 20
-805.64327885094383
 30
0.0
 40
1.5
 50
270.00013331552941
 51
0.0
  0
ARC
  5
161EA
  8
0
 10
-610.22033734095464
 20
-805.64328815812348
 30
0.0
 40
1.5
 50
180.0
 51
270.00013331552941
  0
LINE
  5
161EB
  8
0
 10
-606.22033385076224
 20
-807.14327885093974
 30
0.0
 11
-610.22033385076224
 21
-807.14328815811928
 31
0.0
  0
LINE
  5
161EC
  8
1DIM
 10
-385.46480816079071
 20
-932.25801287923207
 30
0.0
 11
-390.65738659973732
 21
-919.67505691920985
 31
0.0
  0
LINE
  5
161ED
  8
1DIM
 10
-390.65738659973732
 20
-919.67505691920985
 30
0.0
 11
-358.7573865997374
 21
-919.67505691920985
 31
0.0
  0
LINE
  5
161EE
  8
1HATCH
 10
-393.54843276132908
 20
-932.18456674689912
 30
0.0
 11
-396.82473109427588
 21
-913.67371090208599
 31
0.0
  0
LINE
  5
161EF
  8
1HATCH
 10
-396.82473109427588
 20
-913.67371090208599
 30
0.0
 11
-388.29139776094257
 21
-913.67371090208599
 31
0.0
  0
TEXT
  5
161F0
  8
1DIM
 10
-639.30367069560646
 20
-996.34792366416514
 30
0.0
 40
3.5
  1
144
  0
LINE
  5
161F1
  8
0
  6
BYBLOCK
 10
-565.22033736227309
 20
-996.51202528416525
 30
0.0
 11
-563.2203373622732
 21
-997.04792366416507
 31
0.0
  0
LINE
  5
161F2
  8
0
  6
BYBLOCK
 10
-563.2203373622732
 20
-997.04792366416507
 30
0.0
 11
-565.22033736227309
 21
-997.58382204416523
 31
0.0
  0
LINE
  5
161F3
  8
0
  6
BYBLOCK
 10
-563.2203373622732
 20
-997.04792366416507
 30
0.0
 11
-565.22033736227309
 21
-997.04792366416507
 31
0.0
  0
LINE
  5
161F4
  8
0
  6
BYBLOCK
 10
-705.2203373622732
 20
-997.58382204416523
 30
0.0
 11
-707.22033736227309
 21
-997.04792366416507
 31
0.0
  0
LINE
  5
161F5
  8
0
  6
BYBLOCK
 10
-707.22033736227309
 20
-997.04792366416507
 30
0.0
 11
-705.2203373622732
 21
-996.51202528416525
 31
0.0
  0
LINE
  5
161F6
  8
0
  6
BYBLOCK
 10
-707.22033736227309
 20
-997.04792366416507
 30
0.0
 11
-705.2203373622732
 21
-997.04792366416507
 31
0.0
  0
TEXT
  5
161F7
  8
1DIM
 10
-639.01200402893983
 20
-919.34328350453075
 30
0.0
 40
3.5
  1
130
  0
LINE
  5
161F8
  8
0
  6
BYBLOCK
 10
-572.2203373622732
 20
-919.50738512453063
 30
0.0
 11
-570.22033736227309
 21
-920.04328350453056
 31
0.0
  0
LINE
  5
161F9
  8
0
  6
BYBLOCK
 10
-570.22033736227309
 20
-920.04328350453056
 30
0.0
 11
-572.2203373622732
 21
-920.57918188453073
 31
0.0
  0
LINE
  5
161FA
  8
0
  6
BYBLOCK
 10
-570.22033736227309
 20
-920.04328350453056
 30
0.0
 11
-572.2203373622732
 21
-920.04328350453056
 31
0.0
  0
LINE
  5
161FB
  8
0
  6
BYBLOCK
 10
-698.2203373622732
 20
-920.57918188453073
 30
0.0
 11
-700.2203373622732
 21
-920.04328350453056
 31
0.0
  0
LINE
  5
161FC
  8
0
  6
BYBLOCK
 10
-700.2203373622732
 20
-920.04328350453056
 30
0.0
 11
-698.2203373622732
 21
-919.50738512453063
 31
0.0
  0
LINE
  5
161FD
  8
0
  6
BYBLOCK
 10
-700.2203373622732
 20
-920.04328350453056
 30
0.0
 11
-698.2203373622732
 21
-920.04328350453056
 31
0.0
  0
TEXT
  5
161FE
  8
1DIM
 10
-628.13700402894005
 20
-790.34328350453063
 30
0.0
 40
3.5
  1
34
  0
LINE
  5
161FF
  8
0
  6
BYBLOCK
 10
-610.22033734095464
 20
-790.50738512453063
 30
0.0
 11
-608.22033734095464
 21
-791.04328350453056
 31
0.0
  0
LINE
  5
16200
  8
0
  6
BYBLOCK
 10
-608.22033734095464
 20
-791.04328350453056
 30
0.0
 11
-610.22033734095464
 21
-791.57918188453073
 31
0.0
  0
LINE
  5
16201
  8
0
  6
BYBLOCK
 10
-608.22033734095464
 20
-791.04328350453056
 30
0.0
 11
-610.22033734095464
 21
-791.04328350453056
 31
0.0
  0
LINE
  5
16202
  8
0
  6
BYBLOCK
 10
-640.22033738359221
 20
-791.57918188453073
 30
0.0
 11
-642.2203373835921
 21
-791.04328350453056
 31
0.0
  0
LINE
  5
16203
  8
0
  6
BYBLOCK
 10
-642.2203373835921
 20
-791.04328350453056
 30
0.0
 11
-640.22033738359221
 21
-790.50738512453063
 31
0.0
  0
LINE
  5
16204
  8
0
  6
BYBLOCK
 10
-642.2203373835921
 20
-791.04328350453056
 30
0.0
 11
-640.22033738359221
 21
-791.04328350453056
 31
0.0
  0
TEXT
  5
16205
  8
1DIM
 10
-543.92033736227302
 20
-882.55161683786412
 30
0.0
 40
3.5
  1
109 （ペーパー無し最小値）
 50
90.0
  0
LINE
  5
16206
  8
0
  6
BYBLOCK
 10
-542.68443898227315
 20
-908.04328350453068
 30
0.0
 11
-543.22033736227331
 21
-910.04328350453068
 31
0.0
  0
LINE
  5
16207
  8
0
  6
BYBLOCK
 10
-543.22033736227331
 20
-910.04328350453068
 30
0.0
 11
-543.75623574227325
 21
-908.04328350453068
 31
0.0
  0
LINE
  5
16208
  8
0
  6
BYBLOCK
 10
-543.22033736227331
 20
-910.04328350453068
 30
0.0
 11
-543.22033736227331
 21
-908.04328350453068
 31
0.0
  0
LINE
  5
16209
  8
0
  6
BYBLOCK
 10
-543.75623574227325
 20
-803.04328350453056
 30
0.0
 11
-543.22033736227331
 21
-801.04328350453068
 31
0.0
  0
LINE
  5
1620A
  8
0
  6
BYBLOCK
 10
-543.22033736227331
 20
-801.04328350453068
 30
0.0
 11
-542.68443898227315
 21
-803.04328350453056
 31
0.0
  0
LINE
  5
1620B
  8
0
  6
BYBLOCK
 10
-543.22033736227331
 20
-801.04328350453068
 30
0.0
 11
-543.22033736227331
 21
-803.04328350453056
 31
0.0
  0
TEXT
  5
1620C
  8
1DIM
 10
-490.42529855815491
 20
-919.34328350453075
 30
0.0
 40
3.5
  1
113 （ペーパー付き最大値）
  0
LINE
  5
1620D
  8
0
  6
BYBLOCK
 10
-399.77983233666691
 20
-919.50738512453063
 30
0.0
 11
-397.77983233666691
 21
-920.04328350453056
 31
0.0
  0
LINE
  5
1620E
  8
0
  6
BYBLOCK
 10
-397.77983233666691
 20
-920.04328350453056
 30
0.0
 11
-399.77983233666691
 21
-920.57918188453073
 31
0.0
  0
LINE
  5
1620F
  8
0
  6
BYBLOCK
 10
-397.77983233666691
 20
-920.04328350453056
 30
0.0
 11
-399.77983233666691
 21
-920.04328350453056
 31
0.0
  0
LINE
  5
16210
  8
0
  6
BYBLOCK
 10
-508.93265519776372
 20
-920.57918188453073
 30
0.0
 11
-510.93265519776378
 21
-920.04328350453056
 31
0.0
  0
LINE
  5
16211
  8
0
  6
BYBLOCK
 10
-510.93265519776378
 20
-920.04328350453056
 30
0.0
 11
-508.93265519776372
 21
-919.50738512453063
 31
0.0
  0
LINE
  5
16212
  8
0
  6
BYBLOCK
 10
-510.93265519776378
 20
-920.04328350453056
 30
0.0
 11
-508.93265519776372
 21
-920.04328350453056
 31
0.0
  0
TEXT
  5
16213
  8
1DIM
 10
-358.47983233666668
 20
-981.75625698683621
 30
0.0
 40
3.5
  1
20.5
 50
90.0
  0
LINE
  5
16214
  8
0
  6
BYBLOCK
 10
-358.31573071666679
 20
-968.54792364284026
 30
0.0
 11
-357.77983233666691
 21
-966.54792364284026
 31
0.0
  0
LINE
  5
16215
  8
0
  6
BYBLOCK
 10
-357.77983233666691
 20
-966.54792364284026
 30
0.0
 11
-357.24393395666692
 21
-968.54792364284026
 31
0.0
  0
LINE
  5
16216
  8
0
  6
BYBLOCK
 10
-357.77983233666691
 20
-966.54792364284026
 30
0.0
 11
-357.77983233666691
 21
-968.54792364284026
 31
0.0
  0
LINE
  5
16217
  8
0
  6
BYBLOCK
 10
-357.24393395666692
 20
-985.04792366416518
 30
0.0
 11
-357.77983233666691
 21
-987.04792366416507
 31
0.0
  0
LINE
  5
16218
  8
0
  6
BYBLOCK
 10
-357.77983233666691
 20
-987.04792366416507
 30
0.0
 11
-358.31573071666679
 21
-985.04792366416518
 31
0.0
  0
LINE
  5
16219
  8
0
  6
BYBLOCK
 10
-357.77983233666691
 20
-987.04792366416507
 30
0.0
 11
-357.77983233666691
 21
-985.04792366416518
 31
0.0
  0
TEXT
  5
1621A
  8
1DIM
 10
-348.47983233666662
 20
-975.9645903308317
 30
0.0
 40
3.5
  1
28
 50
90.0
  0
LINE
  5
1621B
  8
0
  6
BYBLOCK
 10
-348.31573071666679
 20
-961.04792366416507
 30
0.0
 11
-347.7798323366668
 21
-959.04792366416518
 31
0.0
  0
LINE
  5
1621C
  8
0
  6
BYBLOCK
 10
-347.7798323366668
 20
-959.04792366416518
 30
0.0
 11
-347.24393395666681
 21
-961.04792366416507
 31
0.0
  0
LINE
  5
1621D
  8
0
  6
BYBLOCK
 10
-347.7798323366668
 20
-959.04792366416518
 30
0.0
 11
-347.7798323366668
 21
-961.04792366416507
 31
0.0
  0
LINE
  5
1621E
  8
0
  6
BYBLOCK
 10
-347.24393395666681
 20
-985.04792366416495
 30
0.0
 11
-347.7798323366668
 21
-987.04792366416507
 31
0.0
  0
LINE
  5
1621F
  8
0
  6
BYBLOCK
 10
-347.7798323366668
 20
-987.04792366416507
 30
0.0
 11
-348.31573071666679
 21
-985.04792366416495
 31
0.0
  0
LINE
  5
16220
  8
0
  6
BYBLOCK
 10
-347.7798323366668
 20
-987.04792366416507
 30
0.0
 11
-347.7798323366668
 21
-985.04792366416495
 31
0.0
  0
TEXT
  5
16221
  8
1DIM
 10
-446.59727357265791
 20
-996.34792366416525
 30
0.0
 40
3.5
  1
92
  0
LINE
  5
16222
  8
0
  6
BYBLOCK
 10
-399.77983233666691
 20
-996.51202528416536
 30
0.0
 11
-397.77983233666691
 21
-997.04792366416541
 31
0.0
  0
LINE
  5
16223
  8
0
  6
BYBLOCK
 10
-397.77983233666691
 20
-997.04792366416541
 30
0.0
 11
-399.77983233666691
 21
-997.58382204416546
 31
0.0
  0
LINE
  5
16224
  8
0
  6
BYBLOCK
 10
-397.77983233666691
 20
-997.04792366416541
 30
0.0
 11
-399.77983233666691
 21
-997.04792366416541
 31
0.0
  0
LINE
  5
16225
  8
0
  6
BYBLOCK
 10
-487.58138147531571
 20
-997.58382204416546
 30
0.0
 11
-489.58138147531571
 21
-997.04792366416541
 31
0.0
  0
LINE
  5
16226
  8
0
  6
BYBLOCK
 10
-489.58138147531571
 20
-997.04792366416541
 30
0.0
 11
-487.58138147531571
 21
-996.51202528416536
 31
0.0
  0
LINE
  5
16227
  8
0
  6
BYBLOCK
 10
-489.58138147531571
 20
-997.04792366416541
 30
0.0
 11
-487.58138147531571
 21
-997.04792366416541
 31
0.0
  0
LINE
  5
16228
  8
1DIM
 10
-624.30399940724385
 20
-984.88807496261325
 30
0.0
 11
-607.99768113307948
 21
-1013.370640449183
 31
0.0
  0
LINE
  5
16229
  8
1DIM
 10
-607.99768113307948
 20
-1013.370640449183
 30
0.0
 11
-560.73101446641294
 21
-1013.370640449183
 31
0.0
  0
LINE
  5
1622A
  8
1DIM
 10
-436.56881768257188
 20
-934.663894269048
 30
0.0
 11
-423.33659517828357
 21
-903.64651924955547
 31
0.0
  0
LINE
  5
1622B
  8
1DIM
 10
-423.33659517828357
 20
-903.64651924955547
 30
0.0
 11
-383.76992851161691
 21
-903.64651924955547
 31
0.0
  0
VIEWPORT
  5
57
 67
     1
  8
0
 10
-12.71820606546882
 20
21.100743352132159
 30
0.0
 40
430.6145627080009
 41
304.89048948878991
 68
     1
 69
     1
1001
ACAD
1000
MVIEW
1002
{
1070
    16
1010
0.0
1020
0.0
1030
0.0
1010
0.0
1020
0.0
1030
1.0
1040
0.0
1040
304.89048948878991
1040
-12.71820606546882
1040
21.100743352132159
1040
50.0
1040
0.0
1040
0.0
1070
     0
1070
   100
1070
     1
1070
     1
1070
     0
1070
     0
1070
     0
1070
     0
1040
0.0
1040
0.0
1040
0.0
1040
10.0
1040
10.0
1040
10.0
1040
10.0
1070
     0
1002
{
1002
}
1002
}
  0
ENDSEC
  0
EOF
