  0
SECTION
  2
HEADER
  9
$ACADVER
  1
AC1009
  9
$INSBASE
 10
0.0
 20
0.0
 30
0.0
  9
$EXTMIN
 10
564.83730567658904
 20
-1535.5541125819559
 30
0.0
  9
$EXTMAX
 10
871.17408518088644
 20
-1361.580195325259
 30
0.0
  9
$LIMMIN
 10
0.0
 20
0.0
  9
$LIMMAX
 10
420.0
 20
297.0
  9
$ORTHOMODE
 70
     0
  9
$REGENMODE
 70
     1
  9
$FILLMODE
 70
     1
  9
$QTEXTMODE
 70
     0
  9
$MIRRTEXT
 70
     0
  9
$DRAGMODE
 70
     2
  9
$LTSCALE
 40
0.5
  9
$OSMODE
 70
   127
  9
$ATTMODE
 70
     1
  9
$TEXTSIZE
 40
4.0
  9
$TRACEWID
 40
1.0
  9
$TEXTSTYLE
  7
STANDARD
  9
$CLAYER
  8
1TEXT
  9
$CELTYPE
  6
BYLAYER
  9
$CECOLOR
 62
   256
  9
$DIMSCALE
 40
1.0
  9
$DIMASZ
 40
2.0
  9
$DIMEXO
 40
0.0
  9
$DIMDLI
 40
7.0
  9
$DIMRND
 40
0.0
  9
$DIMDLE
 40
0.0
  9
$DIMEXE
 40
1.0
  9
$DIMTP
 40
0.0
  9
$DIMTM
 40
0.0
  9
$DIMTXT
 40
3.5
  9
$DIMCEN
 40
0.0
  9
$DIMTSZ
 40
0.0
  9
$DIMTOL
 70
     0
  9
$DIMLIM
 70
     0
  9
$DIMTIH
 70
     0
  9
$DIMTOH
 70
     0
  9
$DIMSE1
 70
     0
  9
$DIMSE2
 70
     0
  9
$DIMTAD
 70
     1
  9
$DIMZIN
 70
     8
  9
$DIMBLK
  1

  9
$DIMASO
 70
     1
  9
$DIMSHO
 70
     1
  9
$DIMPOST
  1
 
  9
$DIMAPOST
  1

  9
$DIMALT
 70
     0
  9
$DIMALTD
 70
     2
  9
$DIMALTF
 40
25.399999999999999
  9
$DIMLFAC
 40
1.0
  9
$DIMTOFL
 70
     1
  9
$DIMTVP
 40
0.0
  9
$DIMTIX
 70
     0
  9
$DIMSOXD
 70
     0
  9
$DIMSAH
 70
     1
  9
$DIMBLK1
  1
OPEN30
  9
$DIMBLK2
  1
OPEN30
  9
$DIMSTYLE
  2
NEWX10
  9
$DIMCLRD
 70
   256
  9
$DIMCLRE
 70
   256
  9
$DIMCLRT
 70
   201
  9
$DIMTFAC
 40
0.7
  9
$DIMGAP
 40
0.7
  9
$LUNITS
 70
     2
  9
$LUPREC
 70
     4
  9
$SKETCHINC
 40
1.0
  9
$FILLETRAD
 40
0.0
  9
$AUNITS
 70
     0
  9
$AUPREC
 70
     2
  9
$MENU
  1
acad
  9
$ELEVATION
 40
0.0
  9
$PELEVATION
 40
0.0
  9
$THICKNESS
 40
0.0
  9
$LIMCHECK
 70
     0
  9
$BLIPMODE
 70
     0
  9
$CHAMFERA
 40
1.0
  9
$CHAMFERB
 40
1.0
  9
$SKPOLY
 70
     0
  9
$TDCREATE
 40
2453033.7326634838
  9
$TDUPDATE
 40
2453769.7774037849
  9
$TDINDWG
 40
1.7554370832999999
  9
$TDUSRTIMER
 40
1.7554370832999999
  9
$USRTIMER
 70
     1
  9
$ANGBASE
 50
0.0
  9
$ANGDIR
 70
     0
  9
$PDMODE
 70
     0
  9
$PDSIZE
 40
0.0
  9
$PLINEWID
 40
0.0
  9
$COORDS
 70
     2
  9
$SPLFRAME
 70
     0
  9
$SPLINETYPE
 70
     6
  9
$SPLINESEGS
 70
     8
  9
$ATTDIA
 70
     0
  9
$ATTREQ
 70
     1
  9
$HANDLING
 70
     1
  9
$HANDSEED
  5
19817
  9
$SURFTAB1
 70
     6
  9
$SURFTAB2
 70
     6
  9
$SURFTYPE
 70
     6
  9
$SURFU
 70
     6
  9
$SURFV
 70
     6
  9
$UCSNAME
  2

  9
$UCSORG
 10
0.0
 20
0.0
 30
0.0
  9
$UCSXDIR
 10
1.0
 20
0.0
 30
0.0
  9
$UCSYDIR
 10
0.0
 20
1.0
 30
0.0
  9
$PUCSNAME
  2

  9
$PUCSORG
 10
0.0
 20
0.0
 30
0.0
  9
$PUCSXDIR
 10
1.0
 20
0.0
 30
0.0
  9
$PUCSYDIR
 10
0.0
 20
1.0
 30
0.0
  9
$USERI1
 70
     0
  9
$USERI2
 70
     0
  9
$USERI3
 70
     0
  9
$USERI4
 70
     0
  9
$USERI5
 70
     0
  9
$USERR1
 40
0.0
  9
$USERR2
 40
0.0
  9
$USERR3
 40
0.0
  9
$USERR4
 40
0.0
  9
$USERR5
 40
0.0
  9
$WORLDVIEW
 70
     1
  9
$SHADEDGE
 70
     3
  9
$SHADEDIF
 70
    70
  9
$TILEMODE
 70
     1
  9
$MAXACTVP
 70
    48
  9
$PLIMCHECK
 70
     0
  9
$PEXTMIN
 10
1.0000000000000000E+020
 20
1.0000000000000000E+020
 30
1.0000000000000000E+020
  9
$PEXTMAX
 10
-1.0000000000000000E+020
 20
-1.0000000000000000E+020
 30
-1.0000000000000000E+020
  9
$PLIMMIN
 10
0.0
 20
0.0
  9
$PLIMMAX
 10
420.0
 20
297.0
  9
$UNITMODE
 70
     0
  9
$VISRETAIN
 70
     1
  9
$PLINEGEN
 70
     0
  9
$PSLTSCALE
 70
     1
  0
ENDSEC
  0
SECTION
  2
TABLES
  0
TABLE
  2
VPORT
 70
     4
  0
VPORT
  2
*ACTIVE
 70
     0
 10
0.0
 20
0.0
 11
1.0
 21
1.0
 12
717.99813869250625
 22
-1448.576576822355
 13
0.0
 23
0.0
 14
10.0
 24
10.0
 15
10.0
 25
10.0
 16
0.0
 26
0.0
 36
1.0
 17
0.0
 27
0.0
 37
0.0
 40
215.01337592862831
 41
1.508086253369272
 42
50.0
 43
0.0
 44
0.0
 50
0.0
 51
0.0
 71
     0
 72
   100
 73
     1
 74
     1
 75
     0
 76
     0
 77
     0
 78
     0
  0
ENDTAB
  0
TABLE
  2
LTYPE
 70
    17
  0
LTYPE
  2
CONTINUOUS
 70
     0
  3
Solid line
 72
    65
 73
     0
 40
0.0
  0
LTYPE
  2
CENTER2
 70
     0
  3
Center (.5x) ___ _ ___ _ ___ _ ___ _ ___ _ ___
 72
    65
 73
     4
 40
28.574999999999999
 49
19.050000000000001
 49
-3.1749999999999989
 49
3.1749999999999989
 49
-3.1749999999999989
  0
LTYPE
  2
PHANTOM2
 70
     0
  3
Phantom (.5x) ___ _ _ ___ _ _ ___ _ _ ___ _ _
 72
    65
 73
     6
 40
31.75
 49
15.875
 49
-3.1749999999999989
 49
3.1749999999999989
 49
-3.1749999999999989
 49
3.1749999999999989
 49
-3.1749999999999989
  0
ENDTAB
  0
TABLE
  2
LAYER
 70
    44
  0
LAYER
  2
0
 70
     0
 62
     7
  6
CONTINUOUS
  0
LAYER
  2
1CENTER
 70
     0
 62
     7
  6
CENTER2
  0
LAYER
  2
1TEXT
 70
     0
 62
     7
  6
CONTINUOUS
  0
LAYER
  2
1DIM
 70
     0
 62
     7
  6
CONTINUOUS
  0
LAYER
  2
1PHANTOM
 70
     0
 62
     7
  6
PHANTOM2
  0
LAYER
  2
01
 70
     0
 62
     1
  6
CONTINUOUS
  0
LAYER
  2
1HATCH
 70
     0
 62
     7
  6
CONTINUOUS
  0
ENDTAB
  0
TABLE
  2
STYLE
 70
    22
  0
STYLE
  2
STANDARD
 70
     0
 40
0.0
 41
1.0
 50
0.0
 71
     0
 42
4.0
  3
txt.shx
  4
extfont.shx
  0
ENDTAB
  0
TABLE
  2
VIEW
 70
     0
  0
ENDTAB
  0
TABLE
  2
UCS
 70
     0
  0
ENDTAB
  0
TABLE
  2
APPID
 70
     9
  0
APPID
  2
ACAD
 70
     0
  0
APPID
  2
DRAWINGVARIABLESXDATA
 70
     0
  0
APPID
  2
CONTENTTABDATA
 70
     0
  0
APPID
  2
CONTENTCURRENTTAB
 70
     0
  0
APPID
  2
CONTENTBLOCKDESCRIPTION
 70
     0
  0
APPID
  2
CONTENTBLOCKICON
 70
     0
  0
APPID
  2
CONTENTLONGBLOCKNAME
 70
     0
  0
APPID
  2
ACAD_PSEXT
 70
     0
  0
APPID
  2
ACAD_DSTYLE_DIMTEXT_FILL
 70
     0
  0
ENDTAB
  0
TABLE
  2
DIMSTYLE
 70
     9
  0
DIMSTYLE
  2
NEWX10
 70
     0
  3
 
  4

  5

  6
OPEN30
  7
OPEN30
 40
1.0
 41
2.0
 42
0.0
 43
7.0
 44
1.0
 45
0.0
 46
0.0
 47
0.0
 48
0.0
140
3.5
141
0.0
142
0.0
143
25.399999999999999
144
1.0
145
0.0
146
0.7
147
0.7
 71
     0
 72
     0
 73
     0
 74
     0
 75
     0
 76
     0
 77
     1
 78
     8
170
     0
171
     2
172
     1
173
     1
174
     0
175
     0
176
   256
177
   256
178
   201
  0
ENDTAB
  0
ENDSEC
  0
SECTION
  2
BLOCKS
  0
BLOCK
  8
0
  2
$MODEL_SPACE
 70
     0
 10
0.0
 20
0.0
 30
0.0
  3
$MODEL_SPACE
  1

  0
ENDBLK
  5
1A
  8
0
  0
BLOCK
 67
     1
  8
0
  2
$PAPER_SPACE
 70
     0
 10
0.0
 20
0.0
 30
0.0
  3
$PAPER_SPACE
  1

  0
ENDBLK
  5
17
 67
     1
  8
0
  0
BLOCK
  8
0
  2
_OPEN30
 70
     0
 10
0.0
 20
0.0
 30
0.0
  3
_OPEN30
  1

  0
LINE
  5
44
  8
0
  6
BYBLOCK
 62
     0
 10
-1.0
 20
0.26794919
 30
0.0
 11
0.0
 21
0.0
 31
0.0
  0
LINE
  5
45
  8
0
  6
BYBLOCK
 62
     0
 10
0.0
 20
0.0
 30
0.0
 11
-1.0
 21
-0.26794919
 31
0.0
  0
LINE
  5
46
  8
0
  6
BYBLOCK
 62
     0
 10
0.0
 20
0.0
 30
0.0
 11
-1.0
 21
0.0
 31
0.0
  0
ENDBLK
  5
47
  8
0
  0
BLOCK
  8
0
  2
*X16
 70
     1
 10
0.0
 20
0.0
 30
0.0
  3
*X16
  1

  0
LINE
  5
19653
  8
0
 62
     0
 10
9.7770988726544417
 20
7.7925254709365284
 30
0.0
 11
9.0307181557708205
 21
8.5389061878201495
 31
0.0
  0
LINE
  5
19654
  8
0
 62
     0
 10
10.32225133259751
 20
6.5738538019132733
 30
0.0
 11
8.8225373759713612
 21
8.0735677585394257
 31
0.0
  0
LINE
  5
19655
  8
0
 62
     0
 10
10.86740379254058
 20
5.3551821328900182
 30
0.0
 11
8.6143565961718984
 21
7.6082293292587053
 31
0.0
  0
LINE
  5
19656
  8
0
 62
     0
 10
11.41255625248365
 20
4.1365104638667631
 30
0.0
 11
8.4061758163724356
 21
7.1428908999779814
 31
0.0
  0
LINE
  5
19657
  8
0
 62
     0
 10
6.291128629247523
 20
8.5844188780227064
 30
0.0
 11
6.1124475072790112
 21
8.7630999999912191
 31
0.0
  0
LINE
  5
19658
  8
0
 62
     0
 10
11.957708712426721
 20
2.9178387948435041
 30
0.0
 11
8.1979950365729728
 21
6.6775524706972567
 31
0.0
  0
LINE
  5
19659
  8
0
 62
     0
 10
9.0654651928517787
 20
5.1365631053382614
 30
0.0
 11
7.989814256773502
 21
6.2122140414165399
 31
0.0
  0
LINE
  5
1965A
  8
0
 62
     0
 10
5.9930398744017381
 20
8.2089884237883055
 30
0.0
 11
5.438928298198813
 21
8.7630999999912262
 31
0.0
  0
LINE
  5
1965B
  8
0
 62
     0
 10
12.502861172369791
 20
1.699167125820249
 30
0.0
 11
9.6861187725028373
 21
4.5159095256872019
 31
0.0
  0
LINE
  5
1965C
  8
0
 62
     0
 10
8.8573263393301183
 20
4.6711827497797378
 30
0.0
 11
7.7816334769740427
 21
5.7468756121358133
 31
0.0
  0
LINE
  5
1965D
  8
0
 62
     0
 10
5.6949511195559523
 20
7.8335579695539037
 30
0.0
 11
4.7654090891186343
 21
8.7630999999912227
 31
0.0
  0
LINE
  5
1965E
  8
0
 62
     0
 10
13.048013632312861
 20
0.4804954567969944
 30
0.0
 11
9.8575090891135488
 21
3.6709999999963081
 31
0.0
  0
LINE
  5
1965F
  8
0
 62
     0
 10
8.6491874858084685
 20
4.2058023942212079
 30
0.0
 11
7.5734526971745799
 21
5.2815371828550921
 31
0.0
  0
LINE
  5
19660
  8
0
 62
     0
 10
10.486589880032049
 20
2.368399999997624
 30
0.0
 11
9.1839898800333621
 21
3.6709999999963112
 31
0.0
  0
LINE
  5
19661
  8
0
 62
     0
 10
5.3968623647101772
 20
7.4581275153194957
 30
0.0
 11
4.3851460338715276
 21
8.4698438461581453
 31
0.0
  0
LINE
  5
19662
  8
0
 62
     0
 10
12.85498988002967
 20
0.0
 30
0.0
 11
10.77672456435344
 21
2.0782653156762332
 31
0.0
  0
LINE
  5
19663
  8
0
 62
     0
 10
8.4410486322868046
 20
3.740422038662675
 30
0.0
 11
7.3652719173751144
 21
4.8161987535743647
 31
0.0
  0
LINE
  5
19664
  8
0
 62
     0
 10
9.813070670951852
 20
2.3683999999976271
 30
0.0
 11
8.5104706709531701
 21
3.6709999999963081
 31
0.0
  0
LINE
  5
19665
  8
0
 62
     0
 10
5.0987736098643914
 20
7.0826970610850877
 30
0.0
 11
4.0870494697762574
 21
8.0944212011732262
 31
0.0
  0
LINE
  5
19666
  8
0
 62
     0
 10
12.18147067094948
 20
-0.0000000000000036
 30
0.0
 11
11.321403329084941
 21
0.8600673418645392
 31
0.0
  0
LINE
  5
19667
  8
0
 62
     0
 10
4.8006848550186119
 20
6.7072666068506797
 30
0.0
 11
3.788952905680989
 21
7.7189985561883034
 31
0.0
  0
LINE
  5
19668
  8
0
 62
     0
 10
9.1395514618716724
 20
2.36839999999762
 30
0.0
 11
7.1570911375756507
 21
4.3508603242936408
 31
0.0
  0
LINE
  5
19669
  8
0
 62
     0
 10
4.5025961001728341
 20
6.3318361526162761
 30
0.0
 11
3.490856341585725
 21
7.3435759112033869
 31
0.0
  0
LINE
  5
1966A
  8
0
 62
     0
 10
8.4660322527914893
 20
2.36839999999762
 30
0.0
 11
6.9489103577761879
 21
3.885521895012924
 31
0.0
  0
LINE
  5
1966B
  8
0
 62
     0
 10
4.2045073453270554
 20
5.9564056983818752
 30
0.0
 11
3.1927597774904579
 21
6.9681532662184678
 31
0.0
  0
LINE
  5
1966C
  8
0
 62
     0
 10
7.8163375605411778
 20
2.3445754831677479
 30
0.0
 11
6.7407295779767287
 21
3.420183465732197
 31
0.0
  0
LINE
  5
1966D
  8
0
 62
     0
 10
3.9064185904812798
 20
5.58097524414746
 30
0.0
 11
2.8946632133951939
 21
6.5927306212335486
 31
0.0
  0
LINE
  5
1966E
  8
0
 62
     0
 10
7.6081035335249894
 20
1.8792903011037541
 30
0.0
 11
6.5325487981772659
 21
2.9548450364514731
 31
0.0
  0
LINE
  5
1966F
  8
0
 62
     0
 10
3.6083298356355011
 20
5.2055447899130547
 30
0.0
 11
2.5965666492999229
 21
6.217307976248633
 31
0.0
  0
LINE
  5
19670
  8
0
 62
     0
 10
7.3998695065088027
 20
1.41400511903975
 30
0.0
 11
6.3243680183778066
 21
2.4895066071707461
 31
0.0
  0
LINE
  5
19671
  8
0
 62
     0
 10
3.3102410807897149
 20
4.8301143356786511
 30
0.0
 11
2.2984700852046518
 21
5.8418853312637111
 31
0.0
  0
LINE
  5
19672
  8
0
 62
     0
 10
7.1916354794926098
 20
0.9487199369757526
 30
0.0
 11
6.1161872385783367
 21
2.0241681778900249
 31
0.0
  0
LINE
  5
19673
  8
0
 62
     0
 10
3.978745891735417
 20
3.4880903156527618
 30
0.0
 11
2.0003735211093812
 21
5.4664626862787991
 31
0.0
  0
LINE
  5
19674
  8
0
 62
     0
 10
6.9834014524764241
 20
0.4834347549117553
 30
0.0
 11
5.9080064587788739
 21
1.558829748609309
 31
0.0
  0
LINE
  5
19675
  8
0
 62
     0
 10
5.3770634849624201
 20
1.4162535133455729
 30
0.0
 11
1.702276957014117
 21
5.091040041293879
 31
0.0
  0
LINE
  5
19676
  8
0
 62
     0
 10
6.7751674254602392
 20
0.0181495728477543
 30
0.0
 11
5.6998256789794146
 21
1.093491319328578
 31
0.0
  0
LINE
  5
19677
  8
0
 62
     0
 10
6.1197977892278033
 20
0.0
 30
0.0
 11
1.499896725642454
 21
4.619901063585349
 31
0.0
  0
LINE
  5
19678
  8
0
 62
     0
 10
5.4462785801476228
 20
-0.0000000000000071
 30
0.0
 11
2.8981959083356759
 21
2.5480826718119398
 31
0.0
  0
LINE
  5
19679
  8
0
 62
     0
 10
4.7727593710674334
 20
0.0
 30
0.0
 11
4.2964950910289046
 21
0.4762642800385315
 31
0.0
  0
LINE
  5
1967A
  8
0
 62
     0
 10
13.00415357385188
 20
0.0000000000000018
 30
0.0
 11
13.182966351006311
 21
0.1788127771544286
 31
0.0
  0
LINE
  5
1967B
  8
0
 62
     0
 10
12.33063436477169
 20
0.0
 30
0.0
 11
12.9747989676379
 21
0.6441646028662121
 31
0.0
  0
LINE
  5
1967C
  8
0
 62
     0
 10
11.690865076542529
 20
0.0337499208510312
 30
0.0
 11
12.766631584269501
 21
1.109516428577997
 31
0.0
  0
LINE
  5
1967D
  8
0
 62
     0
 10
11.482766800126511
 20
0.4991708535151976
 30
0.0
 11
12.55846420090109
 21
1.5748682542897781
 31
0.0
  0
LINE
  5
1967E
  8
0
 62
     0
 10
11.27466852371049
 20
0.9645917861793584
 30
0.0
 11
12.350296817532691
 21
2.040220080001562
 31
0.0
  0
LINE
  5
1967F
  8
0
 62
     0
 10
11.06657024729447
 20
1.4300127188435261
 30
0.0
 11
12.14212943416428
 21
2.5055719057133419
 31
0.0
  0
LINE
  5
19680
  8
0
 62
     0
 10
10.858471970878449
 20
1.8954336515076911
 30
0.0
 11
11.933962050795881
 21
2.970923731425124
 31
0.0
  0
LINE
  5
19681
  8
0
 62
     0
 10
10.650373694462431
 20
2.3608545841718591
 30
0.0
 11
11.725794667427479
 21
3.436275557136907
 31
0.0
  0
LINE
  5
19682
  8
0
 62
     0
 10
9.9843999012080111
 20
2.3683999999976271
 30
0.0
 11
11.517627284059071
 21
3.9016273828486869
 31
0.0
  0
LINE
  5
19683
  8
0
 62
     0
 10
9.3108806921278262
 20
2.3683999999976288
 30
0.0
 11
11.309459900690671
 21
4.3669792085604717
 31
0.0
  0
LINE
  5
19684
  8
0
 62
     0
 10
8.6373614830476377
 20
2.3683999999976271
 30
0.0
 11
9.9399614830463214
 21
3.670999999996309
 31
0.0
  0
LINE
  5
19685
  8
0
 62
     0
 10
10.02566815382858
 20
3.7567066707785708
 30
0.0
 11
11.101292517322261
 21
4.8323310342722516
 31
0.0
  0
LINE
  5
19686
  8
0
 62
     0
 10
6.2689614830500089
 20
0.0
 30
0.0
 11
7.1705359785639589
 21
0.9015744955139499
 31
0.0
  0
LINE
  5
19687
  8
0
 62
     0
 10
7.9638422739674519
 20
2.3683999999976288
 30
0.0
 11
9.2664422739661383
 21
3.670999999996313
 31
0.0
  0
LINE
  5
19688
  8
0
 62
     0
 10
9.8175293003069282
 20
4.2220870263371051
 30
0.0
 11
10.893125133953861
 21
5.2976828599840413
 31
0.0
  0
LINE
  5
19689
  8
0
 62
     0
 10
5.5954422739698302
 20
0.0000000000000036
 30
0.0
 11
7.7161457314298447
 21
2.1207034574600221
 31
0.0
  0
LINE
  5
1968A
  8
0
 62
     0
 10
9.6093904467852678
 20
4.6874673818956287
 30
0.0
 11
10.684957750585459
 21
5.763034685695823
 31
0.0
  0
LINE
  5
1968B
  8
0
 62
     0
 10
4.9219230648896364
 20
0.0
 30
0.0
 11
8.5929230648859498
 21
3.6709999999963112
 31
0.0
  0
LINE
  5
1968C
  8
0
 62
     0
 10
5.989586654606712
 20
1.741182798797259
 30
0.0
 11
8.8069504072332165
 21
4.5585465514237606
 31
0.0
  0
LINE
  5
1968D
  8
0
 62
     0
 10
9.4012515932636092
 20
5.1528477374541541
 30
0.0
 11
10.476790367217051
 21
6.2283865114075994
 31
0.0
  0
LINE
  5
1968E
  8
0
 62
     0
 10
4.4690293080327201
 20
0.2206254522232669
 30
0.0
 11
5.4929510052665789
 21
1.2445471494571221
 31
0.0
  0
LINE
  5
1968F
  8
0
 62
     0
 10
6.5348309996186984
 20
2.9599463528894332
 30
0.0
 11
10.268622983848649
 21
6.6937383371193837
 31
0.0
  0
LINE
  5
19690
  8
0
 62
     0
 10
4.197631771962274
 20
0.6227471252330084
 30
0.0
 11
5.2215527756531692
 21
1.646668128923906
 31
0.0
  0
LINE
  5
19691
  8
0
 62
     0
 10
7.0800753446306803
 20
4.1787099069815978
 30
0.0
 11
10.06045560048025
 21
7.1590901628311689
 31
0.0
  0
LINE
  5
19692
  8
0
 62
     0
 10
3.9262342358918261
 20
1.024868798242742
 30
0.0
 11
4.9501545460397622
 21
2.048789108390682
 31
0.0
  0
LINE
  5
19693
  8
0
 62
     0
 10
7.625319689642664
 20
5.3974734610737736
 30
0.0
 11
9.8522882171118429
 21
7.6244419885429506
 31
0.0
  0
LINE
  5
19694
  8
0
 62
     0
 10
3.6548366998213702
 20
1.4269904712524799
 30
0.0
 11
4.6787563164263579
 21
2.450910087857467
 31
0.0
  0
LINE
  5
19695
  8
0
 62
     0
 10
8.1705640346546442
 20
6.6162370151659369
 30
0.0
 11
9.6441208337434396
 21
8.0897938142547314
 31
0.0
  0
LINE
  5
19696
  8
0
 62
     0
 10
3.3834391637509209
 20
1.829112144262214
 30
0.0
 11
4.4073580868129483
 21
2.8530310673242401
 31
0.0
  0
LINE
  5
19697
  8
0
 62
     0
 10
8.7158083796666315
 20
7.8350005692581091
 30
0.0
 11
9.4359534503750364
 21
8.5551456399665131
 31
0.0
  0
LINE
  5
19698
  8
0
 62
     0
 10
3.1120416276804721
 20
2.2312338172719519
 30
0.0
 11
4.1359598571995457
 21
3.255152046791026
 31
0.0
  0
LINE
  5
19699
  8
0
 62
     0
 10
2.8406440916100202
 20
2.6333554902816871
 30
0.0
 11
3.864561627586137
 21
3.657273026257803
 31
0.0
  0
LINE
  5
1969A
  8
0
 62
     0
 10
2.569246555539574
 20
3.0354771632914281
 30
0.0
 11
3.59316339797273
 21
4.0593940057245836
 31
0.0
  0
LINE
  5
1969B
  8
0
 62
     0
 10
2.2978490194691221
 20
3.437598836301162
 30
0.0
 11
3.3217651683593221
 21
4.4615149851913598
 31
0.0
  0
LINE
  5
1969C
  8
0
 62
     0
 10
2.0264514833986729
 20
3.8397205093108968
 30
0.0
 11
4.4410409048521808
 21
6.2543099307644061
 31
0.0
  0
LINE
  5
1969D
  8
0
 62
     0
 10
1.755053947328221
 20
4.2418421823206307
 30
0.0
 11
6.2763117649988187
 21
8.7630999999912316
 31
0.0
  0
LINE
  5
1969E
  8
0
 62
     0
 10
1.483656411257769
 20
4.6439638553303686
 30
0.0
 11
5.6027925559186338
 21
8.7630999999912333
 31
0.0
  0
LINE
  5
1969F
  8
0
 62
     0
 10
3.4180230436980921
 20
7.2518496968508774
 30
0.0
 11
4.9292733468384444
 21
8.7630999999912316
 31
0.0
  0
ENDBLK
  5
196A1
  8
0
  0
BLOCK
  8
0
  2
*X17
 70
     1
 10
0.0
 20
0.0
 30
0.0
  3
*X17
  1

  0
LINE
  5
196A3
  8
0
 62
     0
 10
22.35085874201091
 20
8.6891497831837885
 30
0.0
 11
22.276908525203481
 21
8.7630999999912245
 31
0.0
  0
LINE
  5
196A4
  8
0
 62
     0
 10
22.151277991235791
 20
8.2152113248787302
 30
0.0
 11
21.603389316123291
 21
8.7630999999912298
 31
0.0
  0
LINE
  5
196A5
  8
0
 62
     0
 10
21.951697240460661
 20
7.7412728665736728
 30
0.0
 11
20.929870107043111
 21
8.7630999999912262
 31
0.0
  0
LINE
  5
196A6
  8
0
 62
     0
 10
21.75211648968552
 20
7.2673344082686171
 30
0.0
 11
20.702990440798828
 21
8.3164604571553156
 31
0.0
  0
LINE
  5
196A7
  8
0
 62
     0
 10
21.5525357389104
 20
6.7933959499635597
 30
0.0
 11
20.503465933167231
 21
7.842465755706729
 31
0.0
  0
LINE
  5
196A8
  8
0
 62
     0
 10
21.35295498813527
 20
6.3194574916584996
 30
0.0
 11
20.30394142553563
 21
7.3684710542581371
 31
0.0
  0
LINE
  5
196A9
  8
0
 62
     0
 10
21.15337423736014
 20
5.845519033353443
 30
0.0
 11
20.104416917904029
 21
6.8944763528095541
 31
0.0
  0
LINE
  5
196AA
  8
0
 62
     0
 10
20.95379348658501
 20
5.3715805750483874
 30
0.0
 11
19.904892410272431
 21
6.4204816513609648
 31
0.0
  0
LINE
  5
196AB
  8
0
 62
     0
 10
20.75421273580988
 20
4.8976421167433299
 30
0.0
 11
19.70536790264082
 21
5.9464869499123827
 31
0.0
  0
LINE
  5
196AC
  8
0
 62
     0
 10
16.751727645058011
 20
8.2266079984150142
 30
0.0
 11
16.329146420583751
 21
8.6491892228892837
 31
0.0
  0
LINE
  5
196AD
  8
0
 62
     0
 10
20.554631985034749
 20
4.4237036584382743
 30
0.0
 11
19.505843395009229
 21
5.472492248463797
 31
0.0
  0
LINE
  5
196AE
  8
0
 62
     0
 10
17.157498711507891
 20
7.1473177228849494
 30
0.0
 11
16.1451172495203
 21
8.1596991848725438
 31
0.0
  0
LINE
  5
196AF
  8
0
 62
     0
 10
20.355051234259619
 20
3.9497652001332169
 30
0.0
 11
19.306318887377628
 21
4.9984975470152051
 31
0.0
  0
LINE
  5
196B0
  8
0
 62
     0
 10
17.563269777957771
 20
6.0680274473548863
 30
0.0
 11
15.96108807845685
 21
7.6702091468558073
 31
0.0
  0
LINE
  5
196B1
  8
0
 62
     0
 10
20.1554704834845
 20
3.4758267418281572
 30
0.0
 11
19.106794379746042
 21
4.524502845566615
 31
0.0
  0
LINE
  5
196B2
  8
0
 62
     0
 10
17.96904084440764
 20
4.9887371718248232
 30
0.0
 11
15.777058907393389
 21
7.1807191088390736
 31
0.0
  0
LINE
  5
196B3
  8
0
 62
     0
 10
19.955889732709359
 20
3.0018882835231011
 30
0.0
 11
18.90726987211443
 21
4.0505081441180302
 31
0.0
  0
LINE
  5
196B4
  8
0
 62
     0
 10
18.37481191085752
 20
3.9094468962947602
 30
0.0
 11
15.593029736329941
 21
6.6912290708223408
 31
0.0
  0
LINE
  5
196B5
  8
0
 62
     0
 10
19.756308981934229
 20
2.5279498252180441
 30
0.0
 11
18.707745364482829
 21
3.576513442669444
 31
0.0
  0
LINE
  5
196B6
  8
0
 62
     0
 10
16.383620680228649
 20
5.2271189178434412
 30
0.0
 11
15.40900056526649
 21
6.2017390328056008
 31
0.0
  0
LINE
  5
196B7
  8
0
 62
     0
 10
19.556728231159099
 20
2.054011366912988
 30
0.0
 11
16.63151396416961
 21
4.9792256339024759
 31
0.0
  0
LINE
  5
196B8
  8
0
 62
     0
 10
16.199567903464452
 20
4.7376524855274553
 30
0.0
 11
15.22497139420304
 21
5.7122489947888724
 31
0.0
  0
LINE
  5
196B9
  8
0
 62
     0
 10
19.357147480383979
 20
1.580072908607931
 30
0.0
 11
17.037094792289281
 21
3.900125596702626
 31
0.0
  0
LINE
  5
196BA
  8
0
 62
     0
 10
16.015515126700251
 20
4.248186053211473
 30
0.0
 11
15.04094222313959
 21
5.2227589567721351
 31
0.0
  0
LINE
  5
196BB
  8
0
 62
     0
 10
12.41513331849073
 20
7.8485678614209924
 30
0.0
 11
11.500601179920491
 21
8.7630999999912298
 31
0.0
  0
LINE
  5
196BC
  8
0
 62
     0
 10
19.157566729608849
 20
1.1061344503028741
 30
0.0
 11
17.442675620408941
 21
2.821025559502778
 31
0.0
  0
LINE
  5
196BD
  8
0
 62
     0
 10
15.831462349936039
 20
3.7587196208954898
 30
0.0
 11
14.856913052076131
 21
4.7332689187553987
 31
0.0
  0
LINE
  5
196BE
  8
0
 62
     0
 10
12.905113043106191
 20
6.6850689277253457
 30
0.0
 11
10.827081970840309
 21
8.7630999999912262
 31
0.0
  0
LINE
  5
196BF
  8
0
 62
     0
 10
18.957985978833712
 20
0.6321959919978184
 30
0.0
 11
17.848256448528598
 21
1.7419255223029311
 31
0.0
  0
LINE
  5
196C0
  8
0
 62
     0
 10
15.64740957317184
 20
3.2692531885795111
 30
0.0
 11
14.67288388101268
 21
4.2437788807386658
 31
0.0
  0
LINE
  5
196C1
  8
0
 62
     0
 10
13.39509276772165
 20
5.5215699940296927
 30
0.0
 11
10.8193852462254
 21
8.0972775155259455
 31
0.0
  0
LINE
  5
196C2
  8
0
 62
     0
 10
18.758405228058582
 20
0.1582575336927654
 30
0.0
 11
18.253837276648269
 21
0.6628254851030812
 31
0.0
  0
LINE
  5
196C3
  8
0
 62
     0
 10
13.88507249233712
 20
4.3580710603340442
 30
0.0
 11
11.30933492039313
 21
6.933808632278029
 31
0.0
  0
LINE
  5
196C4
  8
0
 62
     0
 10
15.463356796407639
 20
2.7797867562635221
 30
0.0
 11
14.48885470994923
 21
3.7542888427219259
 31
0.0
  0
LINE
  5
196C5
  8
0
 62
     0
 10
15.279304019643421
 20
2.2903203239475429
 30
0.0
 11
11.799284594560859
 21
5.7703397490301072
 31
0.0
  0
LINE
  5
196C6
  8
0
 62
     0
 10
15.095251242879231
 20
1.800853891631554
 30
0.0
 11
12.28923426872859
 21
4.6068708657821951
 31
0.0
  0
LINE
  5
196C7
  8
0
 62
     0
 10
14.91119846611503
 20
1.3113874593155721
 30
0.0
 11
12.779183942896321
 21
3.443401982534279
 31
0.0
  0
LINE
  5
196C8
  8
0
 62
     0
 10
14.727145689350831
 20
0.8219210269995897
 30
0.0
 11
13.26913361706405
 21
2.2799330992863598
 31
0.0
  0
LINE
  5
196C9
  8
0
 62
     0
 10
14.543092912586619
 20
0.3324545946836075
 30
0.0
 11
13.759083291231789
 21
1.116464216038441
 31
0.0
  0
LINE
  5
196CA
  8
0
 62
     0
 10
14.35904013582242
 20
-0.1570118376323784
 30
0.0
 11
14.249032965399509
 21
-0.0470046672094746
 31
0.0
  0
LINE
  5
196CB
  8
0
 62
     0
 10
18.472732853319201
 20
0.0804256068258322
 30
0.0
 11
18.909598183420702
 21
0.5172909369273367
 31
0.0
  0
LINE
  5
196CC
  8
0
 62
     0
 10
18.28874282222624
 20
0.5699547848130671
 30
0.0
 11
19.399547857588441
 21
1.6807598201752549
 31
0.0
  0
LINE
  5
196CD
  8
0
 62
     0
 10
18.104752791133301
 20
1.0594839628003081
 30
0.0
 11
19.88949753175617
 21
2.8442287034231821
 31
0.0
  0
LINE
  5
196CE
  8
0
 62
     0
 10
17.920762760040351
 20
1.5490131407875449
 30
0.0
 11
20.37944720592391
 21
4.0076975866711031
 31
0.0
  0
LINE
  5
196CF
  8
0
 62
     0
 10
17.7367727289474
 20
2.0385423187747782
 30
0.0
 11
20.869396880091649
 21
5.1711664699190241
 31
0.0
  0
LINE
  5
196D0
  8
0
 62
     0
 10
18.78517998154943
 20
3.7604687804569981
 30
0.0
 11
21.359346554259389
 21
6.3346353531669521
 31
0.0
  0
LINE
  5
196D1
  8
0
 62
     0
 10
17.552782697854461
 20
2.5280714967620219
 30
0.0
 11
18.527644990681829
 21
3.5029337895893979
 31
0.0
  0
LINE
  5
196D2
  8
0
 62
     0
 10
17.368792666761511
 20
3.0176006747492572
 30
0.0
 11
18.343615819618378
 21
3.992423827606133
 31
0.0
  0
LINE
  5
196D3
  8
0
 62
     0
 10
19.274790844948871
 20
4.9235988529366237
 30
0.0
 11
21.849296228427121
 21
7.4981042364148713
 31
0.0
  0
LINE
  5
196D4
  8
0
 62
     0
 10
14.26537659496468
 20
-0.0858153970475755
 30
0.0
 11
14.45839043274014
 21
0.1071984407278865
 31
0.0
  0
LINE
  5
196D5
  8
0
 62
     0
 10
17.184802635668561
 20
3.5071298527364991
 30
0.0
 11
18.159586648554932
 21
4.481913865622869
 31
0.0
  0
LINE
  5
196D6
  8
0
 62
     0
 10
19.76440170834832
 20
6.0867289254162564
 30
0.0
 11
22.339245902594861
 21
8.6615731196627959
 31
0.0
  0
LINE
  5
196D7
  8
0
 62
     0
 10
14.065795844189539
 20
0.3881230612574846
 30
0.0
 11
14.86427628093929
 21
1.186603498007228
 31
0.0
  0
LINE
  5
196D8
  8
0
 62
     0
 10
17.000812604575611
 20
3.9966590307237349
 30
0.0
 11
17.975557477491481
 21
4.9714039036396001
 31
0.0
  0
LINE
  5
196D9
  8
0
 62
     0
 10
20.254012571747769
 20
7.2498589978958856
 30
0.0
 11
21.76725357384311
 21
8.763099999991228
 31
0.0
  0
LINE
  5
196DA
  8
0
 62
     0
 10
13.86621509341442
 20
0.8620615195625376
 30
0.0
 11
15.27016212913844
 21
2.2660085552865641
 31
0.0
  0
LINE
  5
196DB
  8
0
 62
     0
 10
16.816822573482661
 20
4.4861882087109741
 30
0.0
 11
17.791528306428031
 21
5.4608939416563391
 31
0.0
  0
LINE
  5
196DC
  8
0
 62
     0
 10
20.74362343514721
 20
8.4129890703755184
 30
0.0
 11
21.09373436476292
 21
8.7630999999912298
 31
0.0
  0
LINE
  5
196DD
  8
0
 62
     0
 10
13.66663434263929
 20
1.3359999778675991
 30
0.0
 11
15.6760479773376
 21
3.3454136125659089
 31
0.0
  0
LINE
  5
196DE
  8
0
 62
     0
 10
16.632832542389711
 20
4.9757173866982098
 30
0.0
 11
17.60749913536457
 21
5.9503839796730711
 31
0.0
  0
LINE
  5
196DF
  8
0
 62
     0
 10
13.467053591864159
 20
1.809938436172656
 30
0.0
 11
16.081933825536751
 21
4.424818669845247
 31
0.0
  0
LINE
  5
196E0
  8
0
 62
     0
 10
14.338823056022459
 20
3.355227109411147
 30
0.0
 11
17.42346996430113
 21
6.4398740176898102
 31
0.0
  0
LINE
  5
196E1
  8
0
 62
     0
 10
13.267472841089029
 20
2.2838768944777139
 30
0.0
 11
14.316709015467771
 21
3.3331130688564552
 31
0.0
  0
LINE
  5
196E2
  8
0
 62
     0
 10
14.744594122472339
 20
4.4345173849412101
 30
0.0
 11
17.239440793237669
 21
6.9293640557065439
 31
0.0
  0
LINE
  5
196E3
  8
0
 62
     0
 10
13.067892090313901
 20
2.7578153527827718
 30
0.0
 11
14.11712327849466
 21
3.807046540963527
 31
0.0
  0
LINE
  5
196E4
  8
0
 62
     0
 10
15.150365188922221
 20
5.5138076604712793
 30
0.0
 11
17.055411622174219
 21
7.4188540937232803
 31
0.0
  0
LINE
  5
196E5
  8
0
 62
     0
 10
12.868311339538771
 20
3.2317538110878341
 30
0.0
 11
13.91753754152154
 21
4.2809800130706028
 31
0.0
  0
LINE
  5
196E6
  8
0
 62
     0
 10
15.55613625537209
 20
6.593097936001338
 30
0.0
 11
16.871382451110769
 21
7.9083441317400167
 31
0.0
  0
LINE
  5
196E7
  8
0
 62
     0
 10
12.668730588763649
 20
3.7056922693928889
 30
0.0
 11
13.71795180454844
 21
4.7549134851776786
 31
0.0
  0
LINE
  5
196E8
  8
0
 62
     0
 10
15.961907321821981
 20
7.6723882115314073
 30
0.0
 11
16.687353280047319
 21
8.3978341697567522
 31
0.0
  0
LINE
  5
196E9
  8
0
 62
     0
 10
12.469149837988519
 20
4.1796307276979467
 30
0.0
 11
13.518366067575331
 21
5.2288469572847571
 31
0.0
  0
LINE
  5
196EA
  8
0
 62
     0
 10
16.367678388271852
 20
8.7516784870614721
 30
0.0
 11
16.503324108983868
 21
8.8873242077734851
 31
0.0
  0
LINE
  5
196EB
  8
0
 62
     0
 10
12.269569087213389
 20
4.6535691860030051
 30
0.0
 11
13.31878033060222
 21
5.7027804293918312
 31
0.0
  0
LINE
  5
196EC
  8
0
 62
     0
 10
12.069988336438261
 20
5.1275076443080616
 30
0.0
 11
13.1191945936291
 21
6.1767139014989052
 31
0.0
  0
LINE
  5
196ED
  8
0
 62
     0
 10
11.870407585663131
 20
5.6014461026131199
 30
0.0
 11
12.919608856655991
 21
6.6506473736059792
 31
0.0
  0
LINE
  5
196EE
  8
0
 62
     0
 10
11.670826834888
 20
6.0753845609181791
 30
0.0
 11
12.72002311968288
 21
7.1245808457130559
 31
0.0
  0
LINE
  5
196EF
  8
0
 62
     0
 10
11.471246084112879
 20
6.5493230192232392
 30
0.0
 11
12.520437382709771
 21
7.59851431782013
 31
0.0
  0
LINE
  5
196F0
  8
0
 62
     0
 10
11.271665333337751
 20
7.0232614775282931
 30
0.0
 11
12.32085164573666
 21
8.0724477899272031
 31
0.0
  0
LINE
  5
196F1
  8
0
 62
     0
 10
11.072084582562621
 20
7.4971999358333523
 30
0.0
 11
12.12126590876354
 21
8.5463812620342807
 31
0.0
  0
LINE
  5
196F2
  8
0
 62
     0
 10
10.87250383178749
 20
7.9711383941384097
 30
0.0
 11
11.66446543764031
 21
8.763099999991228
 31
0.0
  0
LINE
  5
196F3
  8
0
 62
     0
 10
10.67292308101235
 20
8.4450768524434654
 30
0.0
 11
10.990946228560119
 21
8.7630999999912298
 31
0.0
  0
ENDBLK
  5
196F5
  8
0
  0
BLOCK
  8
0
  2
*X18
 70
     1
 10
0.0
 20
0.0
 30
0.0
  3
*X18
  1

  0
LINE
  5
196F7
  8
0
 62
     0
 10
30.741999999969249
 20
8.3802390341876851
 30
0.0
 11
30.359139034165722
 21
8.7630999999912262
 31
0.0
  0
LINE
  5
196F8
  8
0
 62
     0
 10
30.741999999969249
 20
7.7067198251075029
 30
0.0
 11
29.685619825085531
 21
8.763099999991228
 31
0.0
  0
LINE
  5
196F9
  8
0
 62
     0
 10
30.741999999969249
 20
7.0332006160273224
 30
0.0
 11
29.30199999996929
 21
8.4732006160272775
 31
0.0
  0
LINE
  5
196FA
  8
0
 62
     0
 10
30.741999999969241
 20
6.3596814069471366
 30
0.0
 11
29.30199999996929
 21
7.7996814069470917
 31
0.0
  0
LINE
  5
196FB
  8
0
 62
     0
 10
30.741999999969241
 20
5.6861621978669517
 30
0.0
 11
29.30199999996929
 21
7.1261621978669041
 31
0.0
  0
LINE
  5
196FC
  8
0
 62
     0
 10
30.741999999969241
 20
5.0126429887867721
 30
0.0
 11
29.30199999996929
 21
6.45264298878672
 31
0.0
  0
LINE
  5
196FD
  8
0
 62
     0
 10
30.741999999969241
 20
4.3391237797065862
 30
0.0
 11
29.301999999969301
 21
5.7791237797065298
 31
0.0
  0
LINE
  5
196FE
  8
0
 62
     0
 10
30.741999999969231
 20
3.6656045706264031
 30
0.0
 11
29.30199999996929
 21
5.1056045706263466
 31
0.0
  0
LINE
  5
196FF
  8
0
 62
     0
 10
30.741999999969231
 20
2.9920853615462208
 30
0.0
 11
29.30199999996929
 21
4.4320853615461591
 31
0.0
  0
LINE
  5
19700
  8
0
 62
     0
 10
30.74137885356642
 20
2.3191872988688451
 30
0.0
 11
29.30199999996929
 21
3.7585661524659741
 31
0.0
  0
LINE
  5
19701
  8
0
 62
     0
 10
23.710791431224369
 20
8.6762555121307106
 30
0.0
 11
23.510711655846698
 21
8.8763352875083843
 31
0.0
  0
LINE
  5
19702
  8
0
 62
     0
 10
30.653036364041888
 20
1.7340105793131939
 30
0.0
 11
29.301999999969301
 21
3.0850469433857848
 31
0.0
  0
LINE
  5
19703
  8
0
 62
     0
 10
24.25604244399905
 20
7.45748529027584
 30
0.0
 11
23.302508550376061
 21
8.4110191838988264
 31
0.0
  0
LINE
  5
19704
  8
0
 62
     0
 10
30.457920628587861
 20
1.2556071056870299
 30
0.0
 11
29.30199999996929
 21
2.4115277343055999
 31
0.0
  0
LINE
  5
19705
  8
0
 62
     0
 10
24.801293456773731
 20
6.2387150684209782
 30
0.0
 11
23.09430544490543
 21
7.9457030802892721
 31
0.0
  0
LINE
  5
19706
  8
0
 62
     0
 10
30.183774082486231
 20
0.8562344427084749
 30
0.0
 11
29.190608894965969
 21
1.8493996302287361
 31
0.0
  0
LINE
  5
19707
  8
0
 62
     0
 10
25.346544469548409
 20
5.0199448465661076
 30
0.0
 11
22.8861023394348
 21
7.4803869766797142
 31
0.0
  0
LINE
  5
19708
  8
0
 62
     0
 10
29.839662784186881
 20
0.526826531927636
 30
0.0
 11
28.85882922779124
 21
1.5076600883232769
 31
0.0
  0
LINE
  5
19709
  8
0
 62
     0
 10
25.89179548232309
 20
3.8011746247112468
 30
0.0
 11
22.677899233964169
 21
7.0150708730701608
 31
0.0
  0
LINE
  5
1970A
  8
0
 62
     0
 10
29.42460021066384
 20
0.2683698963704924
 30
0.0
 11
28.30987010704311
 21
1.383099999991223
 31
0.0
  0
LINE
  5
1970B
  8
0
 62
     0
 10
26.437046495097771
 20
2.5824044028563762
 30
0.0
 11
23.61992702019738
 21
5.3995238777567627
 31
0.0
  0
LINE
  5
1970C
  8
0
 62
     0
 10
23.545403308011299
 20
5.4740475899428453
 30
0.0
 11
22.469696128493538
 21
6.5497547694606011
 31
0.0
  0
LINE
  5
1970D
  8
0
 62
     0
 10
28.926753096604909
 20
0.0926978013492281
 30
0.0
 11
27.636350897962942
 21
1.383099999991195
 31
0.0
  0
LINE
  5
1970E
  8
0
 62
     0
 10
23.337264454489642
 20
5.008667234384319
 30
0.0
 11
22.261493023022911
 21
6.0844386658510494
 31
0.0
  0
LINE
  5
1970F
  8
0
 62
     0
 10
28.312831688882731
 20
0.0330999999912241
 30
0.0
 11
24.16488385994823
 21
4.1810478289257311
 31
0.0
  0
LINE
  5
19710
  8
0
 62
     0
 10
23.129125600967981
 20
4.5432868788257892
 30
0.0
 11
22.053289917552281
 21
5.6191225622414933
 31
0.0
  0
LINE
  5
19711
  8
0
 62
     0
 10
27.639312479802548
 20
0.0330999999912223
 30
0.0
 11
24.001412479797459
 21
3.6709999999963112
 31
0.0
  0
LINE
  5
19712
  8
0
 62
     0
 10
24.63049327071597
 20
2.36839999999762
 30
0.0
 11
23.327893270717269
 21
3.6709999999963112
 31
0.0
  0
LINE
  5
19713
  8
0
 62
     0
 10
22.920986747446321
 20
4.077906523267262
 30
0.0
 11
21.84508681208165
 21
5.1538064586319372
 31
0.0
  0
LINE
  5
19714
  8
0
 62
     0
 10
26.965793270722369
 20
0.0330999999912187
 30
0.0
 11
25.255413231197149
 21
1.743480039516438
 31
0.0
  0
LINE
  5
19715
  8
0
 62
     0
 10
23.95697406163578
 20
2.3683999999976169
 30
0.0
 11
21.63688370661102
 21
4.6884903550223767
 31
0.0
  0
LINE
  5
19716
  8
0
 62
     0
 10
26.292274061642178
 20
0.0330999999912187
 30
0.0
 11
25.800091995928671
 21
0.5252820657047295
 31
0.0
  0
LINE
  5
19717
  8
0
 62
     0
 10
23.28345485255559
 20
2.36839999999762
 30
0.0
 11
21.428680601140389
 21
4.2231742514128214
 31
0.0
  0
LINE
  5
19718
  8
0
 62
     0
 10
22.609935643475399
 20
2.368399999997624
 30
0.0
 11
21.220477495669758
 21
3.757858147803268
 31
0.0
  0
LINE
  5
19719
  8
0
 62
     0
 10
22.088110666590779
 20
2.2167057678020639
 30
0.0
 11
21.012274390199131
 21
3.2925420441937092
 31
0.0
  0
LINE
  5
1971A
  8
0
 62
     0
 10
21.87987663957459
 20
1.7514205857380669
 30
0.0
 11
20.804071284728501
 21
2.8272259405841531
 31
0.0
  0
LINE
  5
1971B
  8
0
 62
     0
 10
21.67164261255839
 20
1.2861354036740691
 30
0.0
 11
20.59586817925787
 21
2.3619098369745961
 31
0.0
  0
LINE
  5
1971C
  8
0
 62
     0
 10
21.463408585542211
 20
0.8208502216100725
 30
0.0
 11
20.38766507378724
 21
1.89659373336504
 31
0.0
  0
LINE
  5
1971D
  8
0
 62
     0
 10
21.255174558526019
 20
0.3555650395460681
 30
0.0
 11
20.179461968316609
 21
1.4312776297554839
 31
0.0
  0
LINE
  5
1971E
  8
0
 62
     0
 10
20.937220388991911
 20
0.0
 30
0.0
 11
19.971258862845978
 21
0.9659615261459322
 31
0.0
  0
LINE
  5
1971F
  8
0
 62
     0
 10
20.263701179911731
 20
-0.0000000000000036
 30
0.0
 11
19.763055757375351
 21
0.5006454225363726
 31
0.0
  0
LINE
  5
19720
  8
0
 62
     0
 10
19.59018197083153
 20
-0.0000000000000036
 30
0.0
 11
19.55485265190471
 21
0.0353293189268165
 31
0.0
  0
LINE
  5
19721
  8
0
 62
     0
 10
29.449030297223398
 20
0.2804157054470497
 30
0.0
 11
30.494684294513409
 21
1.326069702737052
 31
0.0
  0
LINE
  5
19722
  8
0
 62
     0
 10
28.531798056793392
 20
0.0367026740972145
 30
0.0
 11
30.738397325863239
 21
2.2433019431670731
 31
0.0
  0
LINE
  5
19723
  8
0
 62
     0
 10
27.854676173607199
 20
0.0330999999912241
 30
0.0
 11
30.741999999969231
 21
2.9204238263532498
 31
0.0
  0
LINE
  5
19724
  8
0
 62
     0
 10
29.291023385505738
 20
2.1429664209699419
 30
0.0
 11
30.741999999969231
 21
3.5939430354334361
 31
0.0
  0
LINE
  5
19725
  8
0
 62
     0
 10
27.18115696452702
 20
0.0330999999912232
 30
0.0
 11
28.542133578990569
 21
1.3940766144547789
 31
0.0
  0
LINE
  5
19726
  8
0
 62
     0
 10
29.30199999996929
 20
2.8274622445136832
 30
0.0
 11
30.741999999969241
 21
4.2674622445136272
 31
0.0
  0
LINE
  5
19727
  8
0
 62
     0
 10
26.507637755446829
 20
0.0330999999912249
 30
0.0
 11
27.85763775544682
 21
1.383099999991209
 31
0.0
  0
LINE
  5
19728
  8
0
 62
     0
 10
29.30199999996929
 20
3.5009814535938681
 30
0.0
 11
30.741999999969241
 21
4.9409814535938157
 31
0.0
  0
LINE
  5
19729
  8
0
 62
     0
 10
25.962675489584221
 20
0.1616569432088069
 30
0.0
 11
27.184118546366602
 21
1.3830999999911839
 31
0.0
  0
LINE
  5
1972A
  8
0
 62
     0
 10
29.30199999996929
 20
4.1745006626740571
 30
0.0
 11
30.741999999969241
 21
5.6145006626740059
 31
0.0
  0
LINE
  5
1972B
  8
0
 62
     0
 10
25.754577213168201
 20
0.6270778758729714
 30
0.0
 11
26.830480932483631
 21
1.7029815951884011
 31
0.0
  0
LINE
  5
1972C
  8
0
 62
     0
 10
29.30199999996929
 20
4.8480198717542411
 30
0.0
 11
30.741999999969241
 21
6.2880198717541953
 31
0.0
  0
LINE
  5
1972D
  8
0
 62
     0
 10
25.54647893675218
 20
1.092498808537133
 30
0.0
 11
26.622299180662889
 21
2.1683190524478411
 31
0.0
  0
LINE
  5
1972E
  8
0
 62
     0
 10
29.30199999996929
 20
5.5215390808344296
 30
0.0
 11
30.741999999969241
 21
6.9615390808343864
 31
0.0
  0
LINE
  5
1972F
  8
0
 62
     0
 10
25.33838066033616
 20
1.5579197412012971
 30
0.0
 11
26.41411742884214
 21
2.6336565097072828
 31
0.0
  0
LINE
  5
19730
  8
0
 62
     0
 10
29.301999999969301
 20
6.1950582899146154
 30
0.0
 11
30.741999999969249
 21
7.6350582899145758
 31
0.0
  0
LINE
  5
19731
  8
0
 62
     0
 10
25.130282383920139
 20
2.0233406738654578
 30
0.0
 11
26.205935677021401
 21
3.0989939669667241
 31
0.0
  0
LINE
  5
19732
  8
0
 62
     0
 10
29.30199999996929
 20
6.8685774989948021
 30
0.0
 11
30.741999999969249
 21
8.3085774989947634
 31
0.0
  0
LINE
  5
19733
  8
0
 62
     0
 10
24.801822500972111
 20
2.3683999999976271
 30
0.0
 11
25.997753925200652
 21
3.5643314242261681
 31
0.0
  0
LINE
  5
19734
  8
0
 62
     0
 10
29.30199999996929
 20
7.542096708074987
 30
0.0
 11
30.52300329188553
 21
8.7630999999912298
 31
0.0
  0
LINE
  5
19735
  8
0
 62
     0
 10
24.128303291891928
 20
2.368399999997624
 30
0.0
 11
25.789572173379909
 21
4.0296688814856063
 31
0.0
  0
LINE
  5
19736
  8
0
 62
     0
 10
23.454784082811742
 20
2.3683999999976262
 30
0.0
 11
25.581390421559171
 21
4.4950063387450481
 31
0.0
  0
LINE
  5
19737
  8
0
 62
     0
 10
29.30199999996929
 20
8.2156159171551746
 30
0.0
 11
29.84948408280535
 21
8.7630999999912316
 31
0.0
  0
LINE
  5
19738
  8
0
 62
     0
 10
21.08638408281411
 20
0.0000000000000036
 30
0.0
 11
21.103870746784171
 21
0.0174866639700593
 31
0.0
  0
LINE
  5
19739
  8
0
 62
     0
 10
22.781264873731551
 20
2.368399999997624
 30
0.0
 11
24.083864873730239
 21
3.6709999999963099
 31
0.0
  0
LINE
  5
1973A
  8
0
 62
     0
 10
24.297467415466471
 20
3.8846025417325389
 30
0.0
 11
25.373208669738421
 21
4.960343796004488
 31
0.0
  0
LINE
  5
1973B
  8
0
 62
     0
 10
20.41286487373393
 20
0.0000000000000018
 30
0.0
 11
21.64948049965005
 21
1.2366156259161221
 31
0.0
  0
LINE
  5
1973C
  8
0
 62
     0
 10
24.089328561944811
 20
4.3499828972910661
 30
0.0
 11
25.165026917917672
 21
5.4256812532639316
 31
0.0
  0
LINE
  5
1973D
  8
0
 62
     0
 10
19.73934566465374
 20
0.0000000000000036
 30
0.0
 11
23.410345664650059
 21
3.6709999999963152
 31
0.0
  0
LINE
  5
1973E
  8
0
 62
     0
 10
23.88118970842314
 20
4.8153632528495844
 30
0.0
 11
24.956845166096929
 21
5.8910187105233707
 31
0.0
  0
LINE
  5
1973F
  8
0
 62
     0
 10
19.922244030410099
 20
0.8564175748365414
 30
0.0
 11
22.740758654927738
 21
3.6749321993541808
 31
0.0
  0
LINE
  5
19740
  8
0
 62
     0
 10
23.673050854901479
 20
5.2807436084081081
 30
0.0
 11
24.74866341427618
 21
6.3563561677828124
 31
0.0
  0
LINE
  5
19741
  8
0
 62
     0
 10
20.467641547998252
 20
2.0753343015048831
 30
0.0
 11
23.285715494678549
 21
4.8934082481851826
 31
0.0
  0
LINE
  5
19742
  8
0
 62
     0
 10
21.013039065586408
 20
3.2942510281732198
 30
0.0
 11
24.540481662455441
 21
6.8216936250422533
 31
0.0
  0
LINE
  5
19743
  8
0
 62
     0
 10
21.558436583174561
 20
4.5131677548415627
 30
0.0
 11
24.332299910634688
 21
7.2870310823016951
 31
0.0
  0
LINE
  5
19744
  8
0
 62
     0
 10
22.103834100762711
 20
5.7320844815099008
 30
0.0
 11
24.124118158813939
 21
7.7523685395611333
 31
0.0
  0
LINE
  5
19745
  8
0
 62
     0
 10
22.649231618350861
 20
6.9510012081782362
 30
0.0
 11
23.9159364069932
 21
8.2177059968205732
 31
0.0
  0
LINE
  5
19746
  8
0
 62
     0
 10
23.194629135939021
 20
8.1699179348465787
 30
0.0
 11
23.707754655172451
 21
8.6830434540800159
 31
0.0
  0
ENDBLK
  5
19748
  8
0
  0
BLOCK
  8
0
  2
*X19
 70
     1
 10
0.0
 20
0.0
 30
0.0
  3
*X19
  1

  0
LINE
  5
1974A
  8
0
 62
     0
 10
37.671999999968321
 20
8.1854311249904832
 30
0.0
 11
37.094331124967553
 21
8.7630999999912547
 31
0.0
  0
LINE
  5
1974B
  8
0
 62
     0
 10
37.671999999968321
 20
7.5119119159102921
 30
0.0
 11
36.420811915887363
 21
8.7630999999912547
 31
0.0
  0
LINE
  5
1974C
  8
0
 62
     0
 10
37.671999999968321
 20
6.8383927068301062
 30
0.0
 11
36.231999999968373
 21
8.2783927068300578
 31
0.0
  0
LINE
  5
1974D
  8
0
 62
     0
 10
37.671999999968328
 20
6.1648734977499142
 30
0.0
 11
36.231999999968373
 21
7.6048734977498764
 31
0.0
  0
LINE
  5
1974E
  8
0
 62
     0
 10
37.671999999968328
 20
5.4913542886697231
 30
0.0
 11
36.231999999968359
 21
6.9313542886696951
 31
0.0
  0
LINE
  5
1974F
  8
0
 62
     0
 10
37.671999999968328
 20
4.8178350795895302
 30
0.0
 11
36.231999999968352
 21
6.2578350795895128
 31
0.0
  0
LINE
  5
19750
  8
0
 62
     0
 10
33.081999999968353
 20
8.7343158705093451
 30
0.0
 11
33.053215870486461
 21
8.7630999999912262
 31
0.0
  0
LINE
  5
19751
  8
0
 62
     0
 10
37.671999999968342
 20
4.1443158705093452
 30
0.0
 11
36.231999999968352
 21
5.5843158705093368
 31
0.0
  0
LINE
  5
19752
  8
0
 62
     0
 10
33.081999999968353
 20
8.0607966614291566
 30
0.0
 11
32.379696661406257
 21
8.7630999999912458
 31
0.0
  0
LINE
  5
19753
  8
0
 62
     0
 10
37.671999999968342
 20
3.4707966614291581
 30
0.0
 11
36.231999999968352
 21
4.9107966614291536
 31
0.0
  0
LINE
  5
19754
  8
0
 62
     0
 10
33.081999999968339
 20
7.3872774523489682
 30
0.0
 11
31.706177452326049
 21
8.7630999999912582
 31
0.0
  0
LINE
  5
19755
  8
0
 62
     0
 10
37.671999999968342
 20
2.7972774523489661
 30
0.0
 11
36.23199999996833
 21
4.2372774523489776
 31
0.0
  0
LINE
  5
19756
  8
0
 62
     0
 10
33.081999999968353
 20
6.7137582432687832
 30
0.0
 11
31.641999999968348
 21
8.1537582432687792
 31
0.0
  0
LINE
  5
19757
  8
0
 62
     0
 10
37.65026559515578
 20
2.1454926480813441
 30
0.0
 11
36.231999999968323
 21
3.5637582432687971
 31
0.0
  0
LINE
  5
19758
  8
0
 62
     0
 10
33.081999999968353
 20
6.0402390341885939
 30
0.0
 11
31.641999999968348
 21
7.4802390341885916
 31
0.0
  0
LINE
  5
19759
  8
0
 62
     0
 10
37.519554401194739
 20
1.6026846329622011
 30
0.0
 11
36.231999999968323
 21
2.8902390341886131
 31
0.0
  0
LINE
  5
1975A
  8
0
 62
     0
 10
33.081999999968353
 20
5.3667198251084089
 30
0.0
 11
31.641999999968348
 21
6.806719825108404
 31
0.0
  0
LINE
  5
1975B
  8
0
 62
     0
 10
37.303753463824641
 20
1.144966361252125
 30
0.0
 11
36.207116671148931
 21
2.2416031539278261
 31
0.0
  0
LINE
  5
1975C
  8
0
 62
     0
 10
33.081999999968353
 20
4.6932006160282231
 30
0.0
 11
31.641999999968348
 21
6.1332006160282191
 31
0.0
  0
LINE
  5
1975D
  8
0
 62
     0
 10
37.019703335426037
 20
0.755497280570534
 30
0.0
 11
35.996962457455652
 21
1.7782381585409219
 31
0.0
  0
LINE
  5
1975E
  8
0
 62
     0
 10
33.081999999968353
 20
4.0196814069480364
 30
0.0
 11
31.641999999968348
 21
5.4596814069480297
 31
0.0
  0
LINE
  5
1975F
  8
0
 62
     0
 10
36.673303541984843
 20
0.4283778649315338
 30
0.0
 11
35.638303382158099
 21
1.463378024758281
 31
0.0
  0
LINE
  5
19760
  8
0
 62
     0
 10
33.081999999968353
 20
3.3461621978678489
 30
0.0
 11
31.641999999968348
 21
4.7861621978678448
 31
0.0
  0
LINE
  5
19761
  8
0
 62
     0
 10
36.263996276060482
 20
0.1641659217757088
 30
0.0
 11
35.160083583595231
 21
1.2680786142409679
 31
0.0
  0
LINE
  5
19762
  8
0
 62
     0
 10
33.081999999968353
 20
2.672642988787663
 30
0.0
 11
31.641999999968348
 21
4.1126429887876617
 31
0.0
  0
LINE
  5
19763
  8
0
 62
     0
 10
35.796224120707834
 20
-0.0415811319518227
 30
0.0
 11
34.548571908367997
 21
1.2060710803880119
 31
0.0
  0
LINE
  5
19764
  8
0
 62
     0
 10
33.38374578259382
 20
1.697377997082012
 30
0.0
 11
31.641999999968348
 21
3.4391237797074741
 31
0.0
  0
LINE
  5
19765
  8
0
 62
     0
 10
35.2637678033404
 20
-0.1826440236645759
 30
0.0
 11
33.467758574123401
 21
1.613365205552423
 31
0.0
  0
LINE
  5
19766
  8
0
 62
     0
 10
34.644481659876348
 20
-0.2368770892807159
 30
0.0
 11
31.641999999968341
 21
2.7656045706272891
 31
0.0
  0
LINE
  5
19767
  8
0
 62
     0
 10
33.882022784935067
 20
-0.1479374234196289
 30
0.0
 11
31.6767103736743
 21
2.05737498784115
 31
0.0
  0
LINE
  5
19768
  8
0
 62
     0
 10
32.597736685481571
 20
0.4628294669536928
 30
0.0
 11
32.233210043993921
 21
0.8273561084413412
 31
0.0
  0
LINE
  5
19769
  8
0
 62
     0
 10
35.901292898140767
 20
-0.0025137844374479
 30
0.0
 11
37.526682373606427
 21
1.6228756910282169
 31
0.0
  0
LINE
  5
1976A
  8
0
 62
     0
 10
35.011846013067
 20
-0.2184414604310318
 30
0.0
 11
37.671690137183113
 21
2.4414026636850732
 31
0.0
  0
LINE
  5
1976B
  8
0
 62
     0
 10
34.335055261422497
 20
-0.22171300299535
 30
0.0
 11
37.671999999968349
 21
3.115231735550505
 31
0.0
  0
LINE
  5
1976C
  8
0
 62
     0
 10
36.22341799578475
 20
2.3401689404470809
 30
0.0
 11
37.671999999968349
 21
3.7887509446306851
 31
0.0
  0
LINE
  5
1976D
  8
0
 62
     0
 10
33.764781759205142
 20
-0.1184672961325273
 30
0.0
 11
35.14826070499295
 21
1.2650116496552899
 31
0.0
  0
LINE
  5
1976E
  8
0
 62
     0
 10
36.23199999996833
 20
3.0222701537108598
 30
0.0
 11
37.671999999968342
 21
4.4622701537108709
 31
0.0
  0
LINE
  5
1976F
  8
0
 62
     0
 10
33.267721159564204
 20
0.0579913133067347
 30
0.0
 11
34.426314137477831
 21
1.216584291220361
 31
0.0
  0
LINE
  5
19770
  8
0
 62
     0
 10
36.231999999968338
 20
3.6957893627910519
 30
0.0
 11
37.671999999968328
 21
5.1357893627910522
 31
0.0
  0
LINE
  5
19771
  8
0
 62
     0
 10
32.829526961020242
 20
0.2933163238429546
 30
0.0
 11
33.892750351957297
 21
1.356539714780016
 31
0.0
  0
LINE
  5
19772
  8
0
 62
     0
 10
36.231999999968352
 20
4.3693085718712412
 30
0.0
 11
37.671999999968328
 21
5.8093085718712336
 31
0.0
  0
LINE
  5
19773
  8
0
 62
     0
 10
32.453183968618852
 20
0.5904925405217476
 30
0.0
 11
33.472128987242357
 21
1.6094375591452561
 31
0.0
  0
LINE
  5
19774
  8
0
 62
     0
 10
36.231999999968352
 20
5.0428277809514324
 30
0.0
 11
37.671999999968328
 21
6.482827780951415
 31
0.0
  0
LINE
  5
19775
  8
0
 62
     0
 10
32.138870317392751
 20
0.9496980983758444
 30
0.0
 11
33.186799660921331
 21
1.997627441904422
 31
0.0
  0
LINE
  5
19776
  8
0
 62
     0
 10
36.231999999968352
 20
5.7163469900316271
 30
0.0
 11
37.671999999968321
 21
7.1563469900315999
 31
0.0
  0
LINE
  5
19777
  8
0
 62
     0
 10
31.888990894616189
 20
1.373337884679465
 30
0.0
 11
33.081999999968353
 21
2.5663469900316191
 31
0.0
  0
LINE
  5
19778
  8
0
 62
     0
 10
36.231999999968359
 20
6.3898661991118191
 30
0.0
 11
37.671999999968328
 21
7.8298661991117848
 31
0.0
  0
LINE
  5
19779
  8
0
 62
     0
 10
31.714181567551108
 20
1.8720477666945701
 30
0.0
 11
33.081999999968353
 21
3.2398661991118058
 31
0.0
  0
LINE
  5
1977A
  8
0
 62
     0
 10
36.231999999968373
 20
7.0633854081920129
 30
0.0
 11
37.671999999968321
 21
8.5033854081919671
 31
0.0
  0
LINE
  5
1977B
  8
0
 62
     0
 10
31.642012947499701
 20
2.4733983557233419
 30
0.0
 11
33.081999999968353
 21
3.9133854081919921
 31
0.0
  0
LINE
  5
1977C
  8
0
 62
     0
 10
36.231999999968373
 20
7.736904617272204
 30
0.0
 11
37.258195382687433
 21
8.7630999999912582
 31
0.0
  0
LINE
  5
1977D
  8
0
 62
     0
 10
31.641999999968348
 20
3.1469046172721811
 30
0.0
 11
33.081999999968353
 21
4.5869046172721779
 31
0.0
  0
LINE
  5
1977E
  8
0
 62
     0
 10
36.231999999968373
 20
8.4104238263523978
 30
0.0
 11
36.584676173607242
 21
8.7630999999912564
 31
0.0
  0
LINE
  5
1977F
  8
0
 62
     0
 10
31.641999999968348
 20
3.8204238263523682
 30
0.0
 11
33.081999999968353
 21
5.2604238263523646
 31
0.0
  0
LINE
  5
19780
  8
0
 62
     0
 10
31.641999999968348
 20
4.4939430354325527
 30
0.0
 11
33.081999999968353
 21
5.9339430354325504
 31
0.0
  0
LINE
  5
19781
  8
0
 62
     0
 10
31.641999999968348
 20
5.1674622445127412
 30
0.0
 11
33.081999999968353
 21
6.607462244512738
 31
0.0
  0
LINE
  5
19782
  8
0
 62
     0
 10
31.641999999968341
 20
5.8409814535929261
 30
0.0
 11
33.081999999968339
 21
7.280981453592922
 31
0.0
  0
LINE
  5
19783
  8
0
 62
     0
 10
31.641999999968348
 20
6.5145006626731119
 30
0.0
 11
33.081999999968339
 21
7.9545006626731096
 31
0.0
  0
LINE
  5
19784
  8
0
 62
     0
 10
31.641999999968348
 20
7.1880198717532986
 30
0.0
 11
33.081999999968353
 21
8.6280198717532954
 31
0.0
  0
LINE
  5
19785
  8
0
 62
     0
 10
31.641999999968348
 20
7.8615390808334862
 30
0.0
 11
32.543560919126101
 21
8.7630999999912405
 31
0.0
  0
LINE
  5
19786
  8
0
 62
     0
 10
31.641999999968348
 20
8.5350582899136711
 30
0.0
 11
31.870041710045928
 21
8.7630999999912529
 31
0.0
  0
ENDBLK
  5
19788
  8
0
  0
BLOCK
  8
0
  2
*X20
 70
     1
 10
0.0
 20
0.0
 30
0.0
  3
*X20
  1

  0
LINE
  5
1978A
  8
0
 62
     0
 10
44.999999999955008
 20
8.2661424248858442
 30
0.0
 11
44.503042424849617
 21
8.763099999991228
 31
0.0
  0
LINE
  5
1978B
  8
0
 62
     0
 10
44.999999999955008
 20
7.5926232158056566
 30
0.0
 11
43.829523215769441
 21
8.7630999999912316
 31
0.0
  0
LINE
  5
1978C
  8
0
 62
     0
 10
44.999999999955008
 20
6.9191040067254699
 30
0.0
 11
43.578999999956388
 21
8.3401040067240864
 31
0.0
  0
LINE
  5
1978D
  8
0
 62
     0
 10
44.999999999955008
 20
6.2455847976452858
 30
0.0
 11
43.578999999956388
 21
7.6665847976438997
 31
0.0
  0
LINE
  5
1978E
  8
0
 62
     0
 10
44.999999999955008
 20
5.5720655885651
 30
0.0
 11
43.578999999956388
 21
6.993065588563713
 31
0.0
  0
LINE
  5
1978F
  8
0
 62
     0
 10
44.999999999955008
 20
4.8985463794849107
 30
0.0
 11
43.578999999956388
 21
6.3195463794835272
 31
0.0
  0
LINE
  5
19790
  8
0
 62
     0
 10
44.999999999955008
 20
4.2250271704047258
 30
0.0
 11
43.578999999956388
 21
5.6460271704033396
 31
0.0
  0
LINE
  5
19791
  8
0
 62
     0
 10
44.999999999955008
 20
3.5515079613245391
 30
0.0
 11
43.578999999956388
 21
4.9725079613231529
 31
0.0
  0
LINE
  5
19792
  8
0
 62
     0
 10
44.999999999955008
 20
2.8779887522443541
 30
0.0
 11
43.578999999956388
 21
4.2989887522429671
 31
0.0
  0
LINE
  5
19793
  8
0
 62
     0
 10
41.898767309847742
 20
5.3057022332714272
 30
0.0
 11
38.604999999961379
 21
8.5994695431577952
 31
0.0
  0
LINE
  5
19794
  8
0
 62
     0
 10
44.999999999955008
 20
2.204469543164167
 30
0.0
 11
43.578999999956388
 21
3.625469543162783
 31
0.0
  0
LINE
  5
19795
  8
0
 62
     0
 10
44.999999999955008
 20
1.5309503340839821
 30
0.0
 11
38.604999999961393
 21
7.9259503340776041
 31
0.0
  0
LINE
  5
19796
  8
0
 62
     0
 10
44.999999999955008
 20
0.8574311250037949
 30
0.0
 11
38.604999999961379
 21
7.2524311249974209
 31
0.0
  0
LINE
  5
19797
  8
0
 62
     0
 10
40.025999999959957
 20
5.1579119159186551
 30
0.0
 11
38.604999999961379
 21
6.5789119159172351
 31
0.0
  0
LINE
  5
19798
  8
0
 62
     0
 10
44.999999999955008
 20
0.1839119159236082
 30
0.0
 11
41.538583645063312
 21
3.645328270815305
 31
0.0
  0
LINE
  5
19799
  8
0
 62
     0
 10
40.025999999959957
 20
4.4843927068384657
 30
0.0
 11
38.604999999961393
 21
5.9053927068370484
 31
0.0
  0
LINE
  5
1979A
  8
0
 62
     0
 10
40.025999999959957
 20
3.810873497758279
 30
0.0
 11
38.604999999961393
 21
5.2318734977568608
 31
0.0
  0
LINE
  5
1979B
  8
0
 62
     0
 10
40.025999999959957
 20
3.1373542886780941
 30
0.0
 11
38.604999999961379
 21
4.558354288676675
 31
0.0
  0
LINE
  5
1979C
  8
0
 62
     0
 10
40.025999999959957
 20
2.463835079597906
 30
0.0
 11
38.604999999961379
 21
3.884835079596491
 31
0.0
  0
LINE
  5
1979D
  8
0
 62
     0
 10
40.025999999959957
 20
1.7903158705177209
 30
0.0
 11
38.604999999961379
 21
3.2113158705163061
 31
0.0
  0
LINE
  5
1979E
  8
0
 62
     0
 10
40.025999999959957
 20
1.116796661437534
 30
0.0
 11
38.604999999961379
 21
2.5377966614361198
 31
0.0
  0
LINE
  5
1979F
  8
0
 62
     0
 10
40.025999999959957
 20
0.4432774523573482
 30
0.0
 11
38.604999999961372
 21
1.8642774523559349
 31
0.0
  0
LINE
  5
197A0
  8
0
 62
     0
 10
39.795758243237131
 20
-0.0000000000000036
 30
0.0
 11
38.604999999961379
 21
1.190758243275748
 31
0.0
  0
LINE
  5
197A1
  8
0
 62
     0
 10
39.122239034156941
 20
-0.0000000000000018
 30
0.0
 11
38.604999999961379
 21
0.5172390341955621
 31
0.0
  0
LINE
  5
197A2
  8
0
 62
     0
 10
44.727869922999538
 20
0.0683135223788991
 30
0.0
 11
44.999999999955008
 21
0.3404435993343693
 31
0.0
  0
LINE
  5
197A3
  8
0
 62
     0
 10
44.410407610419362
 20
0.4243704188789046
 30
0.0
 11
44.999999999955008
 21
1.0139628084145551
 31
0.0
  0
LINE
  5
197A4
  8
0
 62
     0
 10
44.092945297839179
 20
0.7804273153789127
 30
0.0
 11
44.999999999955008
 21
1.6874820174947409
 31
0.0
  0
LINE
  5
197A5
  8
0
 62
     0
 10
43.775482985258989
 20
1.136484211878916
 30
0.0
 11
44.999999999955008
 21
2.3610012265749258
 31
0.0
  0
LINE
  5
197A6
  8
0
 62
     0
 10
43.458020672678813
 20
1.492541108378926
 30
0.0
 11
44.999999999955008
 21
3.034520435655113
 31
0.0
  0
LINE
  5
197A7
  8
0
 62
     0
 10
43.140558360098638
 20
1.848598004878935
 30
0.0
 11
44.999999999955008
 21
3.7080396447352988
 31
0.0
  0
LINE
  5
197A8
  8
0
 62
     0
 10
42.823096047518462
 20
2.2046549013789392
 30
0.0
 11
44.999999999955008
 21
4.381558853815485
 31
0.0
  0
LINE
  5
197A9
  8
0
 62
     0
 10
42.505633734938279
 20
2.5607117978789482
 30
0.0
 11
43.478660230526117
 21
3.533738293466774
 31
0.0
  0
LINE
  5
197AA
  8
0
 62
     0
 10
43.578999999956388
 20
3.634078062897057
 30
0.0
 11
44.999999999955008
 21
5.0550780628956717
 31
0.0
  0
LINE
  5
197AB
  8
0
 62
     0
 10
39.944921937059341
 20
-0.0000000000000009
 30
0.0
 11
40.025999999959957
 21
0.0810780629006273
 31
0.0
  0
LINE
  5
197AC
  8
0
 62
     0
 10
42.188171422358103
 20
2.9167686943789528
 30
0.0
 11
43.161197917945927
 21
3.8897951899667791
 31
0.0
  0
LINE
  5
197AD
  8
0
 62
     0
 10
43.578999999956388
 20
4.3075972719772428
 30
0.0
 11
44.999999999955008
 21
5.7285972719758584
 31
0.0
  0
LINE
  5
197AE
  8
0
 62
     0
 10
39.271402727979151
 20
0.0000000000000008
 30
0.0
 11
40.025999999959957
 21
0.7545972719808141
 31
0.0
  0
LINE
  5
197AF
  8
0
 62
     0
 10
41.870709109777927
 20
3.2728255908789619
 30
0.0
 11
42.843735605365737
 21
4.2458520864667886
 31
0.0
  0
LINE
  5
197B0
  8
0
 62
     0
 10
43.578999999956388
 20
4.9811164810574304
 30
0.0
 11
44.999999999955008
 21
6.4021164810560451
 31
0.0
  0
LINE
  5
197B1
  8
0
 62
     0
 10
38.604999999961379
 20
0.0071164810624176
 30
0.0
 11
40.025999999959957
 21
1.4281164810610001
 31
0.0
  0
LINE
  5
197B2
  8
0
 62
     0
 10
41.553246797197737
 20
3.6288824873789669
 30
0.0
 11
42.526273292785568
 21
4.6019089829667976
 31
0.0
  0
LINE
  5
197B3
  8
0
 62
     0
 10
43.578999999956388
 20
5.6546356901376171
 30
0.0
 11
44.999999999955008
 21
7.0756356901362301
 31
0.0
  0
LINE
  5
197B4
  8
0
 62
     0
 10
38.604999999961379
 20
0.6806356901426044
 30
0.0
 11
40.025999999959957
 21
2.1016356901411859
 31
0.0
  0
LINE
  5
197B5
  8
0
 62
     0
 10
41.235784484617547
 20
3.9849393838789751
 30
0.0
 11
42.208810980205392
 21
4.957965879466804
 31
0.0
  0
LINE
  5
197B6
  8
0
 62
     0
 10
43.57899999995638
 20
6.3281548992178029
 30
0.0
 11
44.999999999955001
 21
7.7491548992164168
 31
0.0
  0
LINE
  5
197B7
  8
0
 62
     0
 10
38.604999999961379
 20
1.3541548992227901
 30
0.0
 11
40.025999999959957
 21
2.775154899221373
 31
0.0
  0
LINE
  5
197B8
  8
0
 62
     0
 10
40.918322172037378
 20
4.3409962803789801
 30
0.0
 11
41.891348667625209
 21
5.3140227759668131
 31
0.0
  0
LINE
  5
197B9
  8
0
 62
     0
 10
43.578999999956388
 20
7.0016741082979914
 30
0.0
 11
44.999999999955008
 21
8.4226741082966026
 31
0.0
  0
LINE
  5
197BA
  8
0
 62
     0
 10
38.604999999961379
 20
2.027674108302977
 30
0.0
 11
40.025999999959957
 21
3.4486741083015588
 31
0.0
  0
LINE
  5
197BB
  8
0
 62
     0
 10
40.600859859457209
 20
4.6970531768789909
 30
0.0
 11
41.57388635504504
 21
5.670079672466823
 31
0.0
  0
LINE
  5
197BC
  8
0
 62
     0
 10
43.578999999956388
 20
7.6751933173781781
 30
0.0
 11
44.66690668256944
 21
8.7630999999912298
 31
0.0
  0
LINE
  5
197BD
  8
0
 62
     0
 10
38.604999999961379
 20
2.7011933173831641
 30
0.0
 11
40.025999999959957
 21
4.1221933173817451
 31
0.0
  0
LINE
  5
197BE
  8
0
 62
     0
 10
40.283397546877019
 20
5.0531100733789946
 30
0.0
 11
41.256424042464857
 21
6.0261365689668294
 31
0.0
  0
LINE
  5
197BF
  8
0
 62
     0
 10
43.578999999956388
 20
8.3487125264583621
 30
0.0
 11
43.993387473489257
 21
8.7630999999912316
 31
0.0
  0
LINE
  5
197C0
  8
0
 62
     0
 10
38.604999999961379
 20
3.37471252646335
 30
0.0
 11
40.025999999959957
 21
4.7957125264619309
 31
0.0
  0
LINE
  5
197C1
  8
0
 62
     0
 10
38.604999999961393
 20
4.0482317355435367
 30
0.0
 11
40.938961729884667
 21
6.3821934654668366
 31
0.0
  0
LINE
  5
197C2
  8
0
 62
     0
 10
38.6049999999614
 20
4.7217509446237278
 30
0.0
 11
40.621499417304513
 21
6.7382503619668492
 31
0.0
  0
LINE
  5
197C3
  8
0
 62
     0
 10
38.604999999961393
 20
5.3952701537039127
 30
0.0
 11
40.30403710472433
 21
7.0943072584668574
 31
0.0
  0
LINE
  5
197C4
  8
0
 62
     0
 10
38.604999999961393
 20
6.0687893627841003
 30
0.0
 11
39.986574792144147
 21
7.450364154966862
 31
0.0
  0
LINE
  5
197C5
  8
0
 62
     0
 10
38.604999999961393
 20
6.742308571864287
 30
0.0
 11
39.669112479563971
 21
7.8064210514668719
 31
0.0
  0
LINE
  5
197C6
  8
0
 62
     0
 10
38.604999999961379
 20
7.415827780944471
 30
0.0
 11
39.351650166983788
 21
8.1624779479668792
 31
0.0
  0
LINE
  5
197C7
  8
0
 62
     0
 10
38.604999999961393
 20
8.0893469900246604
 30
0.0
 11
39.034187854403612
 21
8.5185348444668865
 31
0.0
  0
LINE
  5
197C8
  8
0
 62
     0
 10
38.604999999961393
 20
8.7628661991048453
 30
0.0
 11
38.716725541823443
 21
8.8745917409668955
 31
0.0
  0
ENDBLK
  5
197CA
  8
0
  0
BLOCK
  8
0
  2
*X21
 70
     1
 10
0.0
 20
0.0
 30
0.0
  3
*X21
  1

  0
LINE
  5
197CC
  8
0
 62
     0
 10
1.420999999998571
 20
8.7399130437103523
 30
0.0
 11
1.3978130437177041
 21
8.7630999999912262
 31
0.0
  0
LINE
  5
197CD
  8
0
 62
     0
 10
1.4209999999985781
 20
8.0663938346301656
 30
0.0
 11
0.7242938346375141
 21
8.7630999999912227
 31
0.0
  0
LINE
  5
197CE
  8
0
 62
     0
 10
1.4209999999985781
 20
7.392874625549978
 30
0.0
 11
0.0507746255573309
 21
8.7630999999912262
 31
0.0
  0
LINE
  5
197CF
  8
0
 62
     0
 10
1.420999999998571
 20
6.7193554164697877
 30
0.0
 11
0.0
 21
8.1403554164683651
 31
0.0
  0
LINE
  5
197D0
  8
0
 62
     0
 10
1.4209999999985781
 20
6.0458362073896046
 30
0.0
 11
0.0
 21
7.4668362073881829
 31
0.0
  0
LINE
  5
197D1
  8
0
 62
     0
 10
1.4209999999985781
 20
5.3723169983094179
 30
0.0
 11
0.0
 21
6.7933169983079891
 31
0.0
  0
LINE
  5
197D2
  8
0
 62
     0
 10
1.420999999998571
 20
4.6987977892292321
 30
0.0
 11
0.0
 21
6.1197977892278059
 31
0.0
  0
LINE
  5
197D3
  8
0
 62
     0
 10
1.4209999999985741
 20
4.0252785801490454
 30
0.0
 11
0.0
 21
5.4462785801476201
 31
0.0
  0
LINE
  5
197D4
  8
0
 62
     0
 10
1.4209999999985741
 20
3.3517593710688578
 30
0.0
 11
0.0
 21
4.7727593710674361
 31
0.0
  0
LINE
  5
197D5
  8
0
 62
     0
 10
1.4209999999985781
 20
2.6782401619886711
 30
0.0
 11
0.0000000000000036
 21
4.0992401619872458
 31
0.0
  0
LINE
  5
197D6
  8
0
 62
     0
 10
1.4209999999985741
 20
2.0047209529084848
 30
0.0
 11
-0.0000000000000036
 21
3.4257209529070671
 31
0.0
  0
LINE
  5
197D7
  8
0
 62
     0
 10
1.4209999999985781
 20
1.3312017438283019
 30
0.0
 11
0.0000000000000036
 21
2.752201743826876
 31
0.0
  0
LINE
  5
197D8
  8
0
 62
     0
 10
1.4209999999985741
 20
0.6576825347481119
 30
0.0
 11
-0.0000000000000036
 21
2.0786825347466928
 31
0.0
  0
LINE
  5
197D9
  8
0
 62
     0
 10
1.405163325666507
 20
-0.0000000000000036
 30
0.0
 11
0.0000000000000036
 21
1.405163325666503
 31
0.0
  0
LINE
  5
197DA
  8
0
 62
     0
 10
0.7316441165863168
 20
-0.0000000000000036
 30
0.0
 11
-0.0000000000000036
 21
0.7316441165863205
 31
0.0
  0
LINE
  5
197DB
  8
0
 62
     0
 10
0.0581249075061337
 20
-0.0000000000000036
 30
0.0
 11
-0.0000000000000036
 21
0.0581249075061337
 31
0.0
  0
LINE
  5
197DC
  8
0
 62
     0
 10
0.8808078104085197
 20
0.0
 30
0.0
 11
1.4209999999985741
 21
0.540192189590055
 31
0.0
  0
LINE
  5
197DD
  8
0
 62
     0
 10
0.2072886013283366
 20
0.0000000000000036
 30
0.0
 11
1.4209999999985741
 21
1.213711398670241
 31
0.0
  0
LINE
  5
197DE
  8
0
 62
     0
 10
0.0
 20
0.4662306077518537
 30
0.0
 11
1.4209999999985741
 21
1.8872306077504279
 31
0.0
  0
LINE
  5
197DF
  8
0
 62
     0
 10
0.0
 20
1.1397498168320399
 30
0.0
 11
1.4209999999985741
 21
2.5607498168306151
 31
0.0
  0
LINE
  5
197E0
  8
0
 62
     0
 10
0.0
 20
1.8132690259122271
 30
0.0
 11
1.4209999999985741
 21
3.2342690259108009
 31
0.0
  0
LINE
  5
197E1
  8
0
 62
     0
 10
0.0
 20
2.4867882349924129
 30
0.0
 11
1.4209999999985741
 21
3.907788234990988
 31
0.0
  0
LINE
  5
197E2
  8
0
 62
     0
 10
0.0
 20
3.1603074440726
 30
0.0
 11
1.4209999999985781
 21
4.5813074440711752
 31
0.0
  0
LINE
  5
197E3
  8
0
 62
     0
 10
0.0
 20
3.8338266531527871
 30
0.0
 11
1.4209999999985741
 21
5.254826653151361
 31
0.0
  0
LINE
  5
197E4
  8
0
 62
     0
 10
0.0
 20
4.507345862232973
 30
0.0
 11
1.4209999999985761
 21
5.9283458622315504
 31
0.0
  0
LINE
  5
197E5
  8
0
 62
     0
 10
-0.0000000000000036
 20
5.1808650713131534
 30
0.0
 11
1.4209999999985721
 21
6.6018650713117282
 31
0.0
  0
LINE
  5
197E6
  8
0
 62
     0
 10
0.0
 20
5.8543842803933472
 30
0.0
 11
1.4209999999985741
 21
7.2753842803919202
 31
0.0
  0
LINE
  5
197E7
  8
0
 62
     0
 10
0.0
 20
6.5279034894735259
 30
0.0
 11
1.4209999999985761
 21
7.9489034894721051
 31
0.0
  0
LINE
  5
197E8
  8
0
 62
     0
 10
0.0
 20
7.2014226985537126
 30
0.0
 11
1.4209999999985781
 21
8.62242269855229
 31
0.0
  0
LINE
  5
197E9
  8
0
 62
     0
 10
-0.0000000000000053
 20
7.8749419076338976
 30
0.0
 11
0.8881580923573295
 21
8.7630999999912316
 31
0.0
  0
LINE
  5
197EA
  8
0
 62
     0
 10
-0.0000000000000018
 20
8.5484611167140905
 30
0.0
 11
0.2146388832771393
 21
8.7630999999912316
 31
0.0
  0
ENDBLK
  5
197EC
  8
0
  0
BLOCK
  8
0
  2
*U22
 70
     1
 10
0.0
 20
0.0
 30
0.0
  3
*U22
  1

  0
LINE
  5
197EE
  8
0
 10
-23.468911086754559
 20
-1.75
 30
0.0
 11
0.0000000000000284
 21
-1.75
 31
0.0
  0
LINE
  5
197EF
  8
0
 10
0.0000000000000284
 20
-1.75
 30
0.0
 11
0.0000000000000284
 21
-4.5
 31
0.0
  0
LINE
  5
197F0
  8
0
 10
-29.999999999999972
 20
0.0
 30
0.0
 11
-23.468911086754559
 21
-1.75
 31
0.0
  0
LINE
  5
197F1
  8
0
 10
0.0000000000000284
 20
-4.5
 30
0.0
 11
0.7999999999998125
 21
-4.5
 31
0.0
  0
LINE
  5
197F2
  8
0
 10
-29.999999999999972
 20
0.0
 30
0.0
 11
-23.468911086754499
 21
1.75
 31
0.0
  0
ARC
  5
197F3
  8
0
 10
0.8000000000000113
 20
-2.0
 30
0.0
 40
2.5
 50
269.9999999999954
 51
0.0
  0
LINE
  5
197F4
  8
0
 10
-23.468911086754499
 20
1.75
 30
0.0
 11
0.0000000000000284
 21
1.75
 31
0.0
  0
LINE
  5
197F5
  8
0
 10
3.3000000000000389
 20
2.0
 30
0.0
 11
3.3000000000000109
 21
-2.0
 31
0.0
  0
LINE
  5
197F6
  8
0
 10
0.0000000000000284
 20
4.5
 30
0.0
 11
0.0000000000000284
 21
1.75
 31
0.0
  0
ARC
  5
197F7
  8
0
 10
0.8000000000000397
 20
2.0
 30
0.0
 40
2.5
 50
0.0
 51
90.0
  0
LINE
  5
197F8
  8
0
 10
0.0000000000000284
 20
4.5
 30
0.0
 11
0.8000000000000397
 21
4.5
 31
0.0
  0
ENDBLK
  5
197FA
  8
0
  0
BLOCK
  8
0
  2
*U23
 70
     1
 10
0.0
 20
0.0
 30
0.0
  3
*U23
  1

  0
TEXT
  5
197FC
  8
1DIM
 62
   201
 10
860.41115990595688
 20
-1455.398198637786
 30
0.0
 40
3.5
  1
9 
 50
90.0
  0
ENDBLK
  5
197FE
  8
0
  0
BLOCK
  8
0
  2
*U24
 70
     1
 10
0.0
 20
0.0
 30
0.0
  3
*U24
  1

  0
TEXT
  5
19800
  8
1DIM
 62
   201
 10
860.41115990595688
 20
-1481.356531971119
 30
0.0
 40
3.5
  1
40 
 50
90.0
  0
ENDBLK
  5
19802
  8
0
  0
BLOCK
  8
0
  2
*U25
 70
     1
 10
0.0
 20
0.0
 30
0.0
  3
*U25
  1

  0
TEXT
  5
19804
  8
1DIM
 62
   201
 10
869.47408518088639
 20
-1491.1731986377861
 30
0.0
 40
3.5
  1
77 
 50
90.0
  0
ENDBLK
  5
19806
  8
0
  0
BLOCK
  8
0
  2
*U26
 70
     1
 10
0.0
 20
0.0
 30
0.0
  3
*U26
  1

  0
TEXT
  5
19808
  8
1DIM
 62
   201
 10
805.24562461015341
 20
-1439.854696040933
 30
0.0
 40
3.5
  1
29 
  0
ENDBLK
  5
1980A
  8
0
  0
BLOCK
  8
0
  2
*U27
 70
     1
 10
0.0
 20
0.0
 30
0.0
  3
*U27
  1

  0
TEXT
  5
1980C
  8
1DIM
 62
   201
 10
570.94085906718249
 20
-1365.944131071725
 30
0.0
 40
3.5
  1
22.5 
  0
ENDBLK
  5
1980E
  8
0
  0
BLOCK
  8
0
  2
*U28
 70
     1
 10
0.0
 20
0.0
 30
0.0
  3
*U28
  1

  0
TEXT
  5
19810
  8
1DIM
 62
   201
 10
652.0658590671826
 20
-1439.854696040933
 30
0.0
 40
3.5
  1
181 
  0
ENDBLK
  5
19812
  8
0
  0
BLOCK
  8
0
  2
*U29
 70
     1
 10
0.0
 20
0.0
 30
0.0
  3
*U29
  1

  0
TEXT
  5
19814
  8
1DIM
 62
   201
 10
657.3991924005162
 20
-1533.8541125819561
 30
0.0
 40
3.5
  1
170 
  0
ENDBLK
  5
19816
  8
0
  0
ENDSEC
  0
SECTION
  2
ENTITIES
  0
LINE
  5
191C1
  8
01
 10
800.78729127681993
 20
-1505.281531971119
 30
0.0
 11
800.78729127681993
 21
-1526.281531971119
 31
0.0
  0
LINE
  5
191C3
  8
01
 10
808.78729127682016
 20
-1505.281531971119
 30
0.0
 11
808.7872912768197
 21
-1526.281531971119
 31
0.0
  0
ARC
  5
191C4
  8
01
 10
808.2872912768197
 20
-1526.281531971119
 30
0.0
 40
0.5
 50
270.0
 51
0.0
  0
LINE
  5
191C5
  8
01
 10
587.44085906718249
 20
-1450.2315319711199
 30
0.0
 11
587.44085906718249
 21
-1451.231531971119
 31
0.0
  0
LINE
  5
191C6
  8
01
 10
587.44085906718249
 20
-1452.2315319711199
 30
0.0
 11
587.44085906718249
 21
-1505.231531971119
 31
0.0
  0
ARC
  5
191C7
  8
01
 10
586.94085906718249
 20
-1505.231531971119
 30
0.0
 40
0.5
 50
270.0
 51
0.0
  0
LINE
  5
191C8
  8
01
 10
564.94085906718237
 20
-1450.2315319711199
 30
0.0
 11
564.94085906718237
 21
-1451.231531971119
 31
0.0
  0
LINE
  5
191C9
  8
01
 10
564.94085906718237
 20
-1452.231531971119
 30
0.0
 11
564.94085906718237
 21
-1505.231531971119
 31
0.0
  0
ARC
  5
191CA
  8
01
 10
565.44085906718249
 20
-1451.231531971119
 30
0.0
 40
0.5
 50
180.0
 51
270.0
  0
ARC
  5
191CB
  8
01
 10
565.44085906718249
 20
-1505.231531971119
 30
0.0
 40
0.5
 50
180.0
 51
270.0
  0
LINE
  5
19238
  8
01
 10
815.03729127682016
 20
-1505.731531971119
 30
0.0
 11
814.17146003730238
 21
-1505.731531971119
 31
0.0
  0
ARC
  5
19249
  8
01
 10
794.03729127682016
 20
-1452.231531971119
 30
0.0
 40
0.5
 50
90.0
 51
180.0
  0
LINE
  5
1925D
  8
01
 10
793.53729127682016
 20
-1505.231531971119
 30
0.0
 11
793.53729127682016
 21
-1452.231531971119
 31
0.0
  0
ARC
  5
1925E
  8
01
 10
794.03729127682016
 20
-1505.231531971119
 30
0.0
 40
0.5
 50
180.0
 51
270.0
  0
LINE
  5
19269
  8
01
 10
822.28729127682016
 20
-1505.731531971119
 30
0.0
 11
808.78729127682016
 21
-1505.7315319711199
 31
0.0
  0
ARC
  5
1926A
  8
01
 10
822.28729127682016
 20
-1505.231531971119
 30
0.0
 40
0.5
 50
270.0
 51
0.0
  0
LINE
  5
1926D
  8
1PHANTOM
 10
819.78729127681993
 20
-1485.7315319711199
 30
0.0
 11
817.03729127682004
 21
-1485.7315319711199
 31
0.0
  0
ARC
  5
1926E
  8
1PHANTOM
 10
819.78729127681993
 20
-1486.7315319711199
 30
0.0
 40
1.0
 50
0.0
 51
90.0
  0
LINE
  5
19272
  8
1PHANTOM
 10
816.18373788622682
 20
-1471.885085361713
 30
0.0
 11
820.78729127682016
 21
-1467.281531971119
 31
0.0
  0
LINE
  5
19274
  8
01
 10
822.78729127682016
 20
-1452.2315319711199
 30
0.0
 11
822.78729127682016
 21
-1505.231531971119
 31
0.0
  0
ARC
  5
19275
  8
01
 10
822.28729127682016
 20
-1452.2315319711199
 30
0.0
 40
0.5
 50
0.0
 51
90.0
  0
LINE
  5
19276
  8
1PHANTOM
 10
820.78729127681981
 20
-1454.231531971119
 30
0.0
 11
820.78729127682016
 21
-1467.281531971119
 31
0.0
  0
ARC
  5
19277
  8
1PHANTOM
 10
820.28729127681993
 20
-1454.231531971119
 30
0.0
 40
0.5
 50
0.0
 51
90.0
  0
LINE
  5
19278
  8
1PHANTOM
 10
820.78729127681981
 20
-1486.7315319711199
 30
0.0
 11
820.78729127682016
 21
-1503.4815319711199
 31
0.0
  0
ARC
  5
19279
  8
1PHANTOM
 10
820.28729127682016
 20
-1503.4815319711199
 30
0.0
 40
0.5
 50
270.0
 51
0.0
  0
LINE
  5
1927A
  8
1PHANTOM
 10
816.03729127682016
 20
-1472.2386387523061
 30
0.0
 11
816.03729127682016
 21
-1484.7315319711199
 31
0.0
  0
ARC
  5
1927E
  8
1PHANTOM
 10
816.53729127682004
 20
-1472.2386387523061
 30
0.0
 40
0.5
 50
135.00000000000921
 51
180.0
  0
ARC
  5
1927F
  8
1PHANTOM
 10
817.03729127682004
 20
-1484.7315319711199
 30
0.0
 40
1.0
 50
180.0
 51
270.0
  0
LINE
  5
19284
  8
1PHANTOM
 10
815.53729127682016
 20
-1505.231531971119
 30
0.0
 11
815.53729127682016
 21
-1504.481531971119
 31
0.0
  0
ARC
  5
19285
  8
1PHANTOM
 10
816.03729127682016
 20
-1504.481531971119
 30
0.0
 40
0.5
 50
90.0
 51
180.0
  0
ARC
  5
19286
  8
1PHANTOM
 10
816.03729127682016
 20
-1505.231531971119
 30
0.0
 40
0.5
 50
180.0
 51
270.0
  0
LINE
  5
192A9
  8
01
 10
816.03729127681993
 20
-1450.2315319711199
 30
0.0
 11
816.03729127681993
 21
-1451.4315319711191
 31
0.0
  0
ARC
  5
192AA
  8
01
 10
815.73729127681986
 20
-1451.4315319711191
 30
0.0
 40
0.3
 50
270.0
 51
0.0
  0
ARC
  5
192AB
  8
01
 10
815.53729127681981
 20
-1450.2315319711199
 30
0.0
 40
0.5
 50
0.0
 51
90.0
  0
LINE
  5
192AC
  8
01
 10
815.73729127681986
 20
-1451.7315319711199
 30
0.0
 11
794.03729127682016
 21
-1451.731531971119
 31
0.0
  0
LINE
  5
192AE
  8
01
 10
815.53729127681981
 20
-1449.731531971119
 30
0.0
 11
794.03729127682016
 21
-1449.731531971119
 31
0.0
  0
ARC
  5
192AF
  8
01
 10
794.03729127682016
 20
-1450.2315319711199
 30
0.0
 40
0.5
 50
90.0
 51
180.0
  0
LINE
  5
192B2
  8
01
 10
793.53729127682016
 20
-1450.2315319711199
 30
0.0
 11
793.53729127682016
 21
-1451.4315319711191
 31
0.0
  0
ARC
  5
192B3
  8
01
 10
793.83729127682011
 20
-1451.4315319711191
 30
0.0
 40
0.3
 50
180.0
 51
270.0
  0
LINE
  5
192E7
  8
01
 10
822.28729127682016
 20
-1451.7315319711199
 30
0.0
 11
815.73729127681986
 21
-1451.7315319711199
 31
0.0
  0
LINE
  5
192EA
  8
1PHANTOM
 10
571.69085906718249
 20
-1402.576595202047
 30
0.0
 11
571.69085906718249
 21
-1401.3765952020469
 31
0.0
  0
LINE
  5
192EB
  8
1PHANTOM
 10
580.69085906718249
 20
-1402.576595202047
 30
0.0
 11
580.69085906718249
 21
-1401.3765952020469
 31
0.0
  0
LINE
  5
192EC
  8
1PHANTOM
 10
576.19085906718249
 20
-1402.576595202047
 30
0.0
 11
576.88367939020975
 21
-1401.3765952020469
 31
0.0
  0
LINE
  5
192EE
  8
1PHANTOM
 10
819.58729127682011
 20
-1494.231531971119
 30
0.0
 11
820.78729127681981
 21
-1494.231531971119
 31
0.0
  0
LINE
  5
192EF
  8
1PHANTOM
 10
819.58729127682011
 20
-1503.2315319711199
 30
0.0
 11
820.78729127681981
 21
-1503.2315319711199
 31
0.0
  0
LINE
  5
192F0
  8
1PHANTOM
 10
819.58729127682011
 20
-1498.7315319711199
 30
0.0
 11
820.78729127681981
 21
-1499.424352294147
 31
0.0
  0
LINE
  5
192F8
  8
01
 10
586.94085906718249
 20
-1505.731531971119
 30
0.0
 11
565.44085906718249
 21
-1505.731531971119
 31
0.0
  0
LINE
  5
192F9
  8
01
 10
586.94085906718249
 20
-1449.731531971119
 30
0.0
 11
565.44085906718249
 21
-1449.731531971119
 31
0.0
  0
ARC
  5
192FA
  8
01
 10
586.94085906718249
 20
-1450.2315319711199
 30
0.0
 40
0.5
 50
0.0
 51
90.0
  0
ARC
  5
192FB
  8
01
 10
565.44085906718249
 20
-1450.2315319711199
 30
0.0
 40
0.5
 50
90.0
 51
180.0
  0
LINE
  5
192FC
  8
01
 10
586.94085906718249
 20
-1451.7315319711199
 30
0.0
 11
565.44085906718249
 21
-1451.731531971119
 31
0.0
  0
ARC
  5
192FD
  8
01
 10
586.94085906718249
 20
-1451.231531971119
 30
0.0
 40
0.5
 50
270.0
 51
0.0
  0
ARC
  5
192FE
  8
01
 10
586.94085906718249
 20
-1452.2315319711199
 30
0.0
 40
0.5
 50
0.0
 51
90.0
  0
ARC
  5
192FF
  8
01
 10
565.44085906718249
 20
-1452.231531971119
 30
0.0
 40
0.5
 50
90.0
 51
180.0
  0
ARC
  5
19354
  8
01
 10
794.03729127682038
 20
-1506.281531971119
 30
0.0
 40
0.5
 50
90.0
 51
180.0
  0
LINE
  5
19360
  8
01
 10
815.53729127682016
 20
-1505.781531971119
 30
0.0
 11
808.78729127682016
 21
-1505.781531971119
 31
0.0
  0
ARC
  5
19362
  8
01
 10
815.53729127682016
 20
-1506.281531971119
 30
0.0
 40
0.5
 50
0.0
 51
90.0
  0
LINE
  5
19370
  8
01
 10
815.53729127681981
 20
-1510.281531971119
 30
0.0
 11
808.78729127682027
 21
-1510.281531971119
 31
0.0
  0
LINE
  5
19371
  8
01
 10
800.78729127681993
 20
-1510.281531971119
 30
0.0
 11
794.0372912768197
 21
-1510.281531971119
 31
0.0
  0
ARC
  5
19372
  8
01
 10
815.53729127681981
 20
-1509.781531971119
 30
0.0
 40
0.5
 50
270.0
 51
0.0
  0
ARC
  5
19376
  8
01
 10
794.0372912768197
 20
-1509.781531971119
 30
0.0
 40
0.5
 50
180.0
 51
270.0
  0
LINE
  5
19378
  8
01
 10
808.28729127682016
 20
-1504.781531971119
 30
0.0
 11
801.28729127681981
 21
-1504.781531971119
 31
0.0
  0
ARC
  5
19379
  8
01
 10
808.28729127682016
 20
-1505.281531971119
 30
0.0
 40
0.5
 50
0.0
 51
90.0
  0
LINE
  5
1937A
  8
01
 10
808.2872912768197
 20
-1526.7815319711201
 30
0.0
 11
801.28729127681981
 21
-1526.7815319711201
 31
0.0
  0
ARC
  5
1937B
  8
01
 10
801.28729127681981
 20
-1526.281531971119
 30
0.0
 40
0.5
 50
180.0
 51
270.0
  0
LINE
  5
1937D
  8
01
 10
811.53729127682016
 20
-1451.7315319711199
 30
0.0
 11
811.53729127682016
 21
-1505.781531971119
 31
0.0
  0
LINE
  5
1937E
  8
1PHANTOM
 10
820.28729127681993
 20
-1453.7315319711199
 30
0.0
 11
811.53729127682016
 21
-1453.7315319711199
 31
0.0
  0
LINE
  5
1937F
  8
1PHANTOM
 10
816.03729127682016
 20
-1503.9815319711199
 30
0.0
 11
820.28729127682016
 21
-1503.9815319711199
 31
0.0
  0
LINE
  5
19381
  8
01
 10
564.94085906718237
 20
-1506.281531971119
 30
0.0
 11
564.94085906718215
 21
-1526.2815319711201
 31
0.0
  0
ARC
  5
19382
  8
01
 10
565.44085906718215
 20
-1526.2815319711201
 30
0.0
 40
0.5
 50
180.0
 51
270.0
  0
LINE
  5
19383
  8
01
 10
587.44085906718215
 20
-1506.281531971119
 30
0.0
 11
587.44085906718215
 21
-1514.2815319711201
 31
0.0
  0
ARC
  5
19384
  8
01
 10
587.94085906718215
 20
-1514.2815319711201
 30
0.0
 40
0.5
 50
180.0
 51
270.0
  0
ARC
  5
19385
  8
01
 10
586.94085906718215
 20
-1506.281531971119
 30
0.0
 40
0.5
 50
0.000000000000007
 51
90.0
  0
LINE
  5
19386
  8
01
 10
746.19085906718271
 20
-1505.281531971119
 30
0.0
 11
746.19085906718306
 21
-1526.281531971119
 31
0.0
  0
LINE
  5
19387
  8
01
 10
736.19085906718226
 20
-1505.281531971119
 30
0.0
 11
736.19085906718271
 21
-1514.2815319711201
 31
0.0
  0
ARC
  5
19388
  8
01
 10
736.69085906718226
 20
-1505.281531971119
 30
0.0
 40
0.5
 50
90.0
 51
180.0
  0
ARC
  5
19389
  8
01
 10
745.69085906718271
 20
-1526.281531971119
 30
0.0
 40
0.5
 50
270.0
 51
0.000000000000007
  0
LINE
  5
1938A
  8
01
 10
565.44085906718215
 20
-1526.7815319711201
 30
0.0
 11
745.69085906718271
 21
-1526.7815319711201
 31
0.0
  0
ARC
  5
1938B
  8
01
 10
566.17598864477634
 20
-1526.2815319711201
 30
0.0
 40
0.5
 50
180.0
 51
270.0
  0
LINE
  5
1938C
  8
01
 10
587.20572948958875
 20
-1514.781531971119
 30
0.0
 11
735.69085906718271
 21
-1514.7815319711201
 31
0.0
  0
ARC
  5
1938D
  8
01
 10
587.20572948958875
 20
-1514.2815319711201
 30
0.0
 40
0.5
 50
180.0
 51
270.0
  0
ARC
  5
1938E
  8
01
 10
735.69085906718271
 20
-1514.2815319711201
 30
0.0
 40
0.5
 50
270.0
 51
0.000000000000007
  0
LINE
  5
1938F
  8
01
 10
736.69085906718226
 20
-1504.781531971119
 30
0.0
 11
745.69085906718271
 21
-1504.781531971119
 31
0.0
  0
ARC
  5
19390
  8
01
 10
745.69085906718271
 20
-1505.281531971119
 30
0.0
 40
0.5
 50
0.000000000000007
 51
90.0
  0
LINE
  5
19391
  8
01
 10
565.44085906718249
 20
-1505.781531971119
 30
0.0
 11
586.94085906718215
 21
-1505.781531971119
 31
0.0
  0
LINE
  5
19392
  8
01
 10
565.67598864477634
 20
-1510.281531971119
 30
0.0
 11
586.70572948958932
 21
-1510.281531971119
 31
0.0
  0
ARC
  5
19393
  8
01
 10
565.44085906718249
 20
-1506.281531971119
 30
0.0
 40
0.5
 50
90.0
 51
180.0
  0
LINE
  5
19394
  8
01
 10
586.70572948958932
 20
-1510.281531971119
 30
0.0
 11
586.70572948958886
 21
-1514.2815319711201
 31
0.0
  0
LINE
  5
19395
  8
01
 10
565.67598864477634
 20
-1510.281531971119
 30
0.0
 11
565.67598864477634
 21
-1526.2815319711201
 31
0.0
  0
LINE
  5
19396
  8
01
 10
800.78729127681993
 20
-1505.781531971119
 30
0.0
 11
794.03729127682038
 21
-1505.781531971119
 31
0.0
  0
LINE
  5
19397
  8
01
 10
800.78729127681993
 20
-1505.731531971119
 30
0.0
 11
794.03729127682016
 21
-1505.731531971119
 31
0.0
  0
LINE
  5
19398
  8
01
 10
793.5372912768197
 20
-1509.781531971119
 30
0.0
 11
793.5372912768197
 21
-1506.281531971119
 31
0.0
  0
LINE
  5
19399
  8
01
 10
816.03729127681993
 20
-1509.781531971119
 30
0.0
 11
816.03729127682016
 21
-1506.281531971119
 31
0.0
  0
LINE
  5
1939B
  8
01
 10
584.69085906718249
 20
-1399.3765952020469
 30
0.0
 11
567.69085906718249
 21
-1399.3765952020469
 31
0.0
  0
LINE
  5
1939C
  8
01
 10
585.19085906718249
 20
-1410.6265952020469
 30
0.0
 11
585.19085906718249
 21
-1399.8765952020469
 31
0.0
  0
ARC
  5
1939D
  8
01
 10
584.69085906718249
 20
-1399.8765952020469
 30
0.0
 40
0.5
 50
0.000000000000007
 51
90.0
  0
LINE
  5
1939E
  8
01
 10
567.19085906718249
 20
-1410.6265952020469
 30
0.0
 11
567.19085906718249
 21
-1399.8765952020469
 31
0.0
  0
ARC
  5
1939F
  8
01
 10
567.69085906718249
 20
-1399.8765952020469
 30
0.0
 40
0.5
 50
90.0
 51
180.0
  0
CIRCLE
  5
193A0
  8
01
 10
576.19085906718249
 20
-1417.3765952020469
 30
0.0
 40
11.25
  0
LINE
  5
193A1
  8
01
 10
746.19085906718271
 20
-1413.8765952020469
 30
0.0
 11
746.19085906718271
 21
-1420.8765952020469
 31
0.0
  0
LINE
  5
193A2
  8
01
 10
736.19085906718271
 20
-1413.8765952020469
 30
0.0
 11
736.19085906718271
 21
-1420.8765952020469
 31
0.0
  0
LINE
  5
193A3
  8
01
 10
586.70572948958898
 20
-1421.3765952020469
 30
0.0
 11
745.69085906718271
 21
-1421.3765952020469
 31
0.0
  0
ARC
  5
193A4
  8
01
 10
736.69085906718237
 20
-1420.8765952020469
 30
0.0
 40
0.5
 50
180.0
 51
270.0
  0
ARC
  5
193A5
  8
01
 10
745.69085906718271
 20
-1420.8765952020469
 30
0.0
 40
0.5
 50
270.0
 51
0.000000000000007
  0
LINE
  5
193A7
  8
01
 10
586.70572948958898
 20
-1413.3765952020469
 30
0.0
 11
745.69085906718271
 21
-1413.3765952020469
 31
0.0
  0
ARC
  5
193A8
  8
01
 10
736.69085906718237
 20
-1413.8765952020469
 30
0.0
 40
0.5
 50
90.0
 51
180.0
  0
ARC
  5
193A9
  8
01
 10
745.69085906718271
 20
-1413.8765952020469
 30
0.0
 40
0.5
 50
0.000000000000007
 51
90.0
  0
LINE
  5
193AC
  8
1PHANTOM
 10
583.19085906718226
 20
-1401.3765952020469
 30
0.0
 11
569.19085906718237
 21
-1401.3765952020469
 31
0.0
  0
LINE
  5
193AD
  8
1PHANTOM
 10
569.19085906718237
 20
-1408.5696377251429
 30
0.0
 11
569.19085906718237
 21
-1401.3765952020469
 31
0.0
  0
LINE
  5
193AE
  8
1PHANTOM
 10
583.19085906718237
 20
-1408.5696377251429
 30
0.0
 11
583.19085906718226
 21
-1401.3765952020469
 31
0.0
  0
CIRCLE
  5
193B1
  8
1PHANTOM
 10
576.19085906718249
 20
-1498.7315319711199
 30
0.0
 40
2.200000000055756
  0
LINE
  5
193B2
  8
1CENTER
 10
584.4158730685283
 20
-1498.7315319711199
 30
0.0
 11
567.96584506583656
 21
-1498.7315319711199
 31
0.0
  0
LINE
  5
193B3
  8
1CENTER
 10
576.19085906718249
 20
-1490.506517969774
 30
0.0
 11
576.19085906718249
 21
-1506.9565459724649
 31
0.0
  0
CIRCLE
  5
193B4
  8
1PHANTOM
 10
576.19085906718249
 20
-1458.731531971119
 30
0.0
 40
2.200000000055756
  0
LINE
  5
193B5
  8
1CENTER
 10
584.4158730685283
 20
-1458.731531971119
 30
0.0
 11
567.96584506583656
 21
-1458.731531971119
 31
0.0
  0
LINE
  5
193B6
  8
1CENTER
 10
576.19085906718249
 20
-1450.506517969774
 30
0.0
 11
576.19085906718249
 21
-1466.9565459724649
 31
0.0
  0
LINE
  5
193B9
  8
1PHANTOM
 10
819.58729127682011
 20
-1454.231531971119
 30
0.0
 11
820.78729127681981
 21
-1454.231531971119
 31
0.0
  0
LINE
  5
193BA
  8
1PHANTOM
 10
819.58729127682011
 20
-1463.231531971119
 30
0.0
 11
820.78729127681981
 21
-1463.231531971119
 31
0.0
  0
LINE
  5
193BB
  8
1PHANTOM
 10
819.58729127682011
 20
-1458.731531971119
 30
0.0
 11
820.78729127681981
 21
-1459.424352294147
 31
0.0
  0
LINE
  5
193BD
  8
01
 10
831.78729127681845
 20
-1434.4315361924359
 30
0.0
 11
831.78729127681845
 21
-1514.4315361924359
 31
0.0
  0
LINE
  5
193BE
  8
01
 10
840.78729127681834
 20
-1434.4315361924359
 30
0.0
 11
840.78729127681834
 21
-1514.4315361924359
 31
0.0
  0
LINE
  5
193BF
  8
01
 10
822.78729127681845
 20
-1434.4315361924359
 30
0.0
 11
822.78729127681845
 21
-1514.4315361924359
 31
0.0
  0
TEXT
  5
193C6
  8
1TEXT
 10
780.30478024342074
 20
-1380.080195325259
 30
0.0
 40
4.0
  1
表面処理：
 72
     1
 11
790.9523992910398
 21
-1380.080195325259
 31
0.0
  0
TEXT
  5
193C7
  8
1TEXT
 10
781.61906595770643
 20
-1386.9154839847829
 30
0.0
 40
4.0
  1
クローム
 72
     1
 11
790.9523992910398
 21
-1386.9154839847829
 31
0.0
  0
LINE
  5
193C8
  8
1DIM
 10
773.55239929103971
 20
-1374.580195325259
 30
0.0
 11
843.55239929103971
 21
-1374.580195325259
 31
0.0
  0
LINE
  5
193C9
  8
1DIM
 10
773.55239929103971
 20
-1388.580195325259
 30
0.0
 11
843.55239929103971
 21
-1388.580195325259
 31
0.0
  0
LINE
  5
193CA
  8
1DIM
 10
773.55239929103971
 20
-1381.580195325259
 30
0.0
 11
843.55239929103971
 21
-1381.580195325259
 31
0.0
  0
LINE
  5
193CB
  8
1DIM
 10
808.55239929103971
 20
-1374.580195325259
 30
0.0
 11
808.55239929103948
 21
-1388.580195325259
 31
0.0
  0
TEXT
  5
193CC
  8
1TEXT
 10
813.28573262437351
 20
-1387.2945523089079
 30
0.0
 40
4.0
  1
SC261XC
 72
     1
 11
825.95239929104025
 21
-1387.2945523089079
 31
0.0
  0
TEXT
  5
193CD
  8
1TEXT
 10
819.15239929103996
 20
-1380.080195325259
 30
0.0
 40
4.0
  1
コード
 72
     1
 11
825.9523992910398
 21
-1380.080195325259
 31
0.0
  0
LINE
  5
193CE
  8
1DIM
 10
773.55239929103959
 20
-1388.580195325259
 30
0.0
 11
773.55239929103971
 21
-1374.580195325259
 31
0.0
  0
LINE
  5
193CF
  8
1DIM
 10
843.55239929103948
 20
-1388.580195325259
 30
0.0
 11
843.55239929103971
 21
-1374.580195325259
 31
0.0
  0
TEXT
  5
193D0
  8
1TEXT
 10
773.55239929103971
 20
-1369.580195325259
 30
0.0
 40
8.0
  1
SC261XC
  0
LINE
  5
19521
  8
1DIM
 10
576.19085906718249
 20
-1506.9565459724649
 30
0.0
 11
576.19085906718249
 21
-1535.5541125819559
 31
0.0
  0
LINE
  5
19522
  8
1DIM
 10
746.19085906718306
 20
-1526.281531971119
 30
0.0
 11
746.19085906718306
 21
-1535.5541125819559
 31
0.0
  0
LINE
  5
19523
  8
1DIM
 10
578.19085906718237
 20
-1534.5541125819559
 30
0.0
 11
744.19085906718317
 21
-1534.5541125819559
 31
0.0
  0
TEXT
  5
19527
  8
1DIM
 10
654.24757227919736
 20
-1488.925716647316
 30
0.0
 40
3.5
  1
材質：亜鉛ダイキャスト
  0
TEXT
  5
19528
  8
1DIM
 10
654.24757227919736
 20
-1494.759049980649
 30
0.0
 40
3.5
  1
仕上げ：クローム
  0
SOLID
  5
19529
  8
1DIM
 10
635.82470838039114
 20
-1513.669699861573
 30
0.0
 11
634.24757227919736
 21
-1514.943965465528
 31
0.0
 12
635.32618244931427
 22
-1513.227075483022
 32
0.0
 13
635.32618244931427
 23
-1513.227075483022
 33
0.0
  0
TEXT
  5
1952B
  8
1DIM
 10
606.96503268108745
 20
-1452.59609298844
 30
0.0
 40
3.5
  1
材質：亜鉛ダイキャスト
  0
TEXT
  5
1952C
  8
1DIM
 10
606.96503268108745
 20
-1458.4294263217739
 30
0.0
 40
3.5
  1
仕上げ：クローム
  0
SOLID
  5
1952D
  8
1DIM
 10
588.54216878228135
 20
-1477.3400762026979
 30
0.0
 11
586.96503268108745
 21
-1478.614341806652
 31
0.0
 12
588.04364285120437
 22
-1476.8974518241459
 32
0.0
 13
588.04364285120437
 23
-1476.8974518241459
 33
0.0
  0
LINE
  5
1952F
  8
1DIM
 10
564.94085906718237
 20
-1417.3765952020469
 30
0.0
 11
564.94085906718237
 21
-1365.644131071725
 31
0.0
  0
LINE
  5
19530
  8
1DIM
 10
587.44085906718249
 20
-1417.3765952020469
 30
0.0
 11
587.44085906718249
 21
-1365.644131071725
 31
0.0
  0
LINE
  5
19531
  8
1DIM
 10
566.94085906718249
 20
-1366.644131071725
 30
0.0
 11
585.44085906718237
 21
-1366.644131071725
 31
0.0
  0
LINE
  5
19535
  8
1DIM
 10
808.2872912768197
 20
-1526.7815319711201
 30
0.0
 11
871.17408518088644
 21
-1526.7815319711201
 31
0.0
  0
LINE
  5
19536
  8
1DIM
 10
815.53729127681981
 20
-1449.731531971119
 30
0.0
 11
871.17408518088644
 21
-1449.731531971119
 31
0.0
  0
LINE
  5
19537
  8
1DIM
 10
870.17408518088621
 20
-1524.781531971119
 30
0.0
 11
870.17408518088621
 21
-1451.7315319711199
 31
0.0
  0
LINE
  5
1953B
  8
1DIM
 10
851.03364450736808
 20
-1458.731531971119
 30
0.0
 11
862.11115990595692
 21
-1458.731531971119
 31
0.0
  0
LINE
  5
1953C
  8
1DIM
 10
815.53729127681981
 20
-1449.731531971119
 30
0.0
 11
862.11115990595692
 21
-1449.731531971119
 31
0.0
  0
LINE
  5
1953D
  8
1DIM
 10
861.1111599059567
 20
-1456.7315319711199
 30
0.0
 11
861.1111599059567
 21
-1451.7315319711199
 31
0.0
  0
LINE
  5
19541
  8
1DIM
 10
851.03364450736808
 20
-1498.7315319711199
 30
0.0
 11
862.11115990595692
 21
-1498.7315319711199
 31
0.0
  0
LINE
  5
19542
  8
1DIM
 10
851.03364450736808
 20
-1458.731531971119
 30
0.0
 11
862.11115990595692
 21
-1458.731531971119
 31
0.0
  0
LINE
  5
19543
  8
1DIM
 10
861.1111599059567
 20
-1496.7315319711199
 30
0.0
 11
861.1111599059567
 21
-1460.7315319711199
 31
0.0
  0
LINE
  5
19547
  8
1DIM
 10
822.78729127682016
 20
-1452.2315319711199
 30
0.0
 11
822.78729127682016
 21
-1439.5546960409331
 31
0.0
  0
LINE
  5
19548
  8
1DIM
 10
793.53729127682016
 20
-1450.2315319711199
 30
0.0
 11
793.53729127682016
 21
-1439.5546960409331
 31
0.0
  0
LINE
  5
19549
  8
1DIM
 10
820.78729127682016
 20
-1440.5546960409331
 30
0.0
 11
795.53729127682016
 21
-1440.5546960409331
 31
0.0
  0
LINE
  5
1954D
  8
1DIM
 10
564.94085906718237
 20
-1450.2315319711199
 30
0.0
 11
564.94085906718237
 21
-1439.5546960409331
 31
0.0
  0
LINE
  5
1954E
  8
1DIM
 10
746.19085906718271
 20
-1505.281531971119
 30
0.0
 11
746.19085906718271
 21
-1439.5546960409331
 31
0.0
  0
LINE
  5
1954F
  8
1DIM
 10
566.94085906718249
 20
-1440.5546960409331
 30
0.0
 11
744.19085906718271
 21
-1440.5546960409331
 31
0.0
  0
TEXT
  5
19553
  8
1HATCH
 10
826.44239251920919
 20
-1414.139693385772
 30
0.0
 40
3.5
  1
PB
  0
SOLID
  5
19554
  8
1HATCH
 10
827.34692263085219
 20
-1433.2924543894619
 30
0.0
 11
827.36725989889624
 21
-1435.319939902761
 31
0.0
 12
826.69045907346015
 22
-1433.408644071709
 32
0.0
 13
826.69045907346015
 23
-1433.408644071709
 33
0.0
  0
SOLID
  5
19556
  8
1DIM
 10
835.41044344338297
 20
-1433.296840919561
 30
0.0
 11
835.86524211283745
 21
-1435.272763307049
 31
0.0
 12
834.79418746200622
 22
-1433.5511498062749
 32
0.0
 13
834.79418746200622
 23
-1433.5511498062749
 33
0.0
  0
TEXT
  5
19558
  8
1DIM
 10
832.6097370137478
 20
-1420.141039402896
 30
0.0
 40
3.5
  1
合板9mm以上
  0
LINE
  5
19559
  8
0
 10
825.70515686286592
 20
-1456.2315319711199
 30
0.0
 11
826.70515686286592
 21
-1461.2315319711199
 31
0.0
  0
LINE
  5
1955A
  8
1CENTER
 10
851.03364450736808
 20
-1458.731531971119
 30
0.0
 11
814.60433852667393
 21
-1458.731531971119
 31
0.0
  0
LINE
  5
1955C
  8
0
 10
847.9684007827625
 20
-1457.547751570602
 30
0.0
 11
847.81840078276252
 21
-1458.297751570602
 31
0.0
  0
LINE
  5
1955D
  8
0
 10
845.85515212871053
 20
-1456.981508300343
 30
0.0
 11
846.51955628556584
 21
-1460.303529084619
 31
0.0
  0
LINE
  5
1955E
  8
0
 10
847.9684007827625
 20
-1457.547751570602
 30
0.0
 11
848.41782820025469
 21
-1459.794888658063
 31
0.0
  0
LINE
  5
1955F
  8
0
 10
843.74190347465878
 20
-1456.4152650300839
 30
0.0
 11
844.62128437087688
 21
-1460.812169511174
 31
0.0
  0
LINE
  5
19560
  8
0
 10
845.85515212871053
 20
-1456.981508300343
 30
0.0
 11
845.70515212871067
 21
-1457.731508300343
 31
0.0
  0
LINE
  5
19561
  8
0
 10
843.74190347465878
 20
-1456.4152650300839
 30
0.0
 11
843.59190347465858
 21
-1457.1652650300839
 31
0.0
  0
LINE
  5
19562
  8
0
 10
848.56782820025467
 20
-1459.044888658063
 30
0.0
 11
848.41782820025469
 21
-1459.794888658063
 31
0.0
  0
LINE
  5
19563
  8
0
 10
844.77128437087686
 20
-1460.062169511174
 30
0.0
 11
844.62128437087688
 21
-1460.812169511174
 31
0.0
  0
LINE
  5
19564
  8
0
 10
846.66955628556582
 20
-1459.553529084619
 30
0.0
 11
846.51955628556584
 21
-1460.303529084619
 31
0.0
  0
LINE
  5
19565
  8
0
 10
834.8551568628659
 20
-1460.4815319711199
 30
0.0
 11
834.70515686286592
 21
-1461.2315319711199
 31
0.0
  0
LINE
  5
19566
  8
0
 10
835.70515686286592
 20
-1456.2315319711199
 30
0.0
 11
836.70515686286581
 21
-1461.2315319711199
 31
0.0
  0
LINE
  5
19567
  8
0
 10
841.70515686286592
 20
-1456.2315319711199
 30
0.0
 11
842.70515686286592
 21
-1461.2315319711199
 31
0.0
  0
LINE
  5
19568
  8
0
 10
839.70515686286592
 20
-1456.2315319711199
 30
0.0
 11
840.70515686286592
 21
-1461.2315319711199
 31
0.0
  0
LINE
  5
19569
  8
0
 10
837.70515686286581
 20
-1456.2315319711199
 30
0.0
 11
838.70515686286603
 21
-1461.2315319711199
 31
0.0
  0
LINE
  5
1956A
  8
0
 10
839.70515686286592
 20
-1456.2315319711199
 30
0.0
 11
839.55515686286594
 21
-1456.981531971119
 31
0.0
  0
LINE
  5
1956B
  8
0
 10
841.70515686286592
 20
-1456.2315319711199
 30
0.0
 11
841.55515686286594
 21
-1456.981531971119
 31
0.0
  0
LINE
  5
1956C
  8
0
 10
837.70515686286581
 20
-1456.2315319711199
 30
0.0
 11
837.55515686286606
 21
-1456.981531971119
 31
0.0
  0
LINE
  5
1956D
  8
0
 10
835.70515686286592
 20
-1456.2315319711199
 30
0.0
 11
835.55515686286583
 21
-1456.981531971119
 31
0.0
  0
LINE
  5
1956E
  8
0
 10
842.8551568628659
 20
-1460.4815319711199
 30
0.0
 11
842.70515686286592
 21
-1461.2315319711199
 31
0.0
  0
LINE
  5
1956F
  8
0
 10
840.8551568628659
 20
-1460.4815319711199
 30
0.0
 11
840.70515686286592
 21
-1461.2315319711199
 31
0.0
  0
LINE
  5
19570
  8
0
 10
836.85515686286578
 20
-1460.4815319711199
 30
0.0
 11
836.70515686286581
 21
-1461.2315319711199
 31
0.0
  0
LINE
  5
19571
  8
0
 10
838.85515686286578
 20
-1460.4815319711199
 30
0.0
 11
838.70515686286603
 21
-1461.2315319711199
 31
0.0
  0
LINE
  5
19572
  8
0
 10
833.70515686286592
 20
-1456.2315319711199
 30
0.0
 11
834.70515686286592
 21
-1461.2315319711199
 31
0.0
  0
LINE
  5
19573
  8
0
 10
831.70515686286592
 20
-1456.2315319711199
 30
0.0
 11
832.70515686286592
 21
-1461.2315319711199
 31
0.0
  0
LINE
  5
19574
  8
0
 10
829.70515686286581
 20
-1456.2315319711199
 30
0.0
 11
830.70515686286603
 21
-1461.2315319711199
 31
0.0
  0
LINE
  5
19575
  8
0
 10
827.70515686286581
 20
-1456.2315319711199
 30
0.0
 11
828.70515686286581
 21
-1461.2315319711199
 31
0.0
  0
LINE
  5
19576
  8
0
 10
831.70515686286592
 20
-1456.2315319711199
 30
0.0
 11
831.55515686286594
 21
-1456.981531971119
 31
0.0
  0
LINE
  5
19577
  8
0
 10
833.70515686286592
 20
-1456.2315319711199
 30
0.0
 11
833.55515686286594
 21
-1456.981531971119
 31
0.0
  0
LINE
  5
19578
  8
0
 10
827.70515686286581
 20
-1456.2315319711199
 30
0.0
 11
827.55515686286583
 21
-1456.981531971119
 31
0.0
  0
LINE
  5
19579
  8
0
 10
829.70515686286581
 20
-1456.2315319711199
 30
0.0
 11
829.55515686286606
 21
-1456.981531971119
 31
0.0
  0
LINE
  5
1957A
  8
0
 10
830.85515686286578
 20
-1460.4815319711199
 30
0.0
 11
830.70515686286603
 21
-1461.2315319711199
 31
0.0
  0
LINE
  5
1957B
  8
0
 10
832.8551568628659
 20
-1460.4815319711199
 30
0.0
 11
832.70515686286592
 21
-1461.2315319711199
 31
0.0
  0
LINE
  5
1957C
  8
0
 10
826.8551568628659
 20
-1460.4815319711199
 30
0.0
 11
826.70515686286592
 21
-1461.2315319711199
 31
0.0
  0
LINE
  5
1957D
  8
0
 10
828.85515686286578
 20
-1460.4815319711199
 30
0.0
 11
828.70515686286581
 21
-1461.2315319711199
 31
0.0
  0
LINE
  5
1957E
  8
0
 10
823.70515686286592
 20
-1456.2315319711199
 30
0.0
 11
824.70515686286592
 21
-1461.2315319711199
 31
0.0
  0
LINE
  5
1957F
  8
0
 10
821.70515686286581
 20
-1456.2315319711199
 30
0.0
 11
822.70515686286603
 21
-1461.2315319711199
 31
0.0
  0
LINE
  5
19580
  8
0
 10
819.70515686286581
 20
-1456.2315319711199
 30
0.0
 11
820.70515686286581
 21
-1461.2315319711199
 31
0.0
  0
LINE
  5
19581
  8
0
 10
819.58729127682011
 20
-1460.4815319711199
 30
0.0
 11
819.58729127682011
 21
-1456.981531971119
 31
0.0
  0
LINE
  5
19582
  8
0
 10
825.70515686286592
 20
-1456.2315319711199
 30
0.0
 11
825.55515686286594
 21
-1456.981531971119
 31
0.0
  0
LINE
  5
19583
  8
0
 10
823.70515686286592
 20
-1456.2315319711199
 30
0.0
 11
823.55515686286594
 21
-1456.981531971119
 31
0.0
  0
LINE
  5
19584
  8
0
 10
819.70515686286581
 20
-1456.2315319711199
 30
0.0
 11
819.55515686286583
 21
-1456.981531971119
 31
0.0
  0
LINE
  5
19585
  8
0
 10
821.70515686286581
 20
-1456.2315319711199
 30
0.0
 11
821.55515686286606
 21
-1456.981531971119
 31
0.0
  0
LINE
  5
19586
  8
0
 10
824.8551568628659
 20
-1460.4815319711199
 30
0.0
 11
824.70515686286592
 21
-1461.2315319711199
 31
0.0
  0
LINE
  5
19587
  8
0
 10
822.85515686286578
 20
-1460.4815319711199
 30
0.0
 11
822.70515686286603
 21
-1461.2315319711199
 31
0.0
  0
LINE
  5
19588
  8
0
 10
820.85515686286578
 20
-1460.4815319711199
 30
0.0
 11
820.70515686286581
 21
-1461.2315319711199
 31
0.0
  0
LINE
  5
19589
  8
0
 10
825.70515686286592
 20
-1496.231531971119
 30
0.0
 11
826.70515686286592
 21
-1501.2315319711199
 31
0.0
  0
LINE
  5
1958A
  8
1CENTER
 10
851.03364450736808
 20
-1498.7315319711199
 30
0.0
 11
814.60433852667393
 21
-1498.7315319711199
 31
0.0
  0
LINE
  5
1958C
  8
0
 10
847.9684007827625
 20
-1497.547751570602
 30
0.0
 11
847.81840078276252
 21
-1498.297751570602
 31
0.0
  0
LINE
  5
1958D
  8
0
 10
845.85515212871053
 20
-1496.981508300343
 30
0.0
 11
846.51955628556584
 21
-1500.303529084619
 31
0.0
  0
LINE
  5
1958E
  8
0
 10
847.9684007827625
 20
-1497.547751570602
 30
0.0
 11
848.41782820025469
 21
-1499.794888658063
 31
0.0
  0
LINE
  5
1958F
  8
0
 10
843.74190347465878
 20
-1496.4152650300839
 30
0.0
 11
844.62128437087688
 21
-1500.812169511174
 31
0.0
  0
LINE
  5
19590
  8
0
 10
845.85515212871053
 20
-1496.981508300343
 30
0.0
 11
845.70515212871067
 21
-1497.731508300343
 31
0.0
  0
LINE
  5
19591
  8
0
 10
843.74190347465878
 20
-1496.4152650300839
 30
0.0
 11
843.59190347465858
 21
-1497.1652650300839
 31
0.0
  0
LINE
  5
19592
  8
0
 10
848.56782820025467
 20
-1499.044888658063
 30
0.0
 11
848.41782820025469
 21
-1499.794888658063
 31
0.0
  0
LINE
  5
19593
  8
0
 10
844.77128437087686
 20
-1500.062169511174
 30
0.0
 11
844.62128437087688
 21
-1500.812169511174
 31
0.0
  0
LINE
  5
19594
  8
0
 10
846.66955628556582
 20
-1499.553529084619
 30
0.0
 11
846.51955628556584
 21
-1500.303529084619
 31
0.0
  0
LINE
  5
19595
  8
0
 10
834.8551568628659
 20
-1500.4815319711199
 30
0.0
 11
834.70515686286592
 21
-1501.2315319711199
 31
0.0
  0
LINE
  5
19596
  8
0
 10
835.70515686286592
 20
-1496.231531971119
 30
0.0
 11
836.70515686286581
 21
-1501.2315319711199
 31
0.0
  0
LINE
  5
19597
  8
0
 10
841.70515686286592
 20
-1496.231531971119
 30
0.0
 11
842.70515686286592
 21
-1501.2315319711199
 31
0.0
  0
LINE
  5
19598
  8
0
 10
839.70515686286592
 20
-1496.231531971119
 30
0.0
 11
840.70515686286592
 21
-1501.2315319711199
 31
0.0
  0
LINE
  5
19599
  8
0
 10
837.70515686286581
 20
-1496.231531971119
 30
0.0
 11
838.70515686286603
 21
-1501.2315319711199
 31
0.0
  0
LINE
  5
1959A
  8
0
 10
839.70515686286592
 20
-1496.231531971119
 30
0.0
 11
839.55515686286594
 21
-1496.981531971119
 31
0.0
  0
LINE
  5
1959B
  8
0
 10
841.70515686286592
 20
-1496.231531971119
 30
0.0
 11
841.55515686286594
 21
-1496.981531971119
 31
0.0
  0
LINE
  5
1959C
  8
0
 10
837.70515686286581
 20
-1496.231531971119
 30
0.0
 11
837.55515686286606
 21
-1496.981531971119
 31
0.0
  0
LINE
  5
1959D
  8
0
 10
835.70515686286592
 20
-1496.231531971119
 30
0.0
 11
835.55515686286583
 21
-1496.981531971119
 31
0.0
  0
LINE
  5
1959E
  8
0
 10
842.8551568628659
 20
-1500.4815319711199
 30
0.0
 11
842.70515686286592
 21
-1501.2315319711199
 31
0.0
  0
LINE
  5
1959F
  8
0
 10
840.8551568628659
 20
-1500.4815319711199
 30
0.0
 11
840.70515686286592
 21
-1501.2315319711199
 31
0.0
  0
LINE
  5
195A0
  8
0
 10
836.85515686286578
 20
-1500.4815319711199
 30
0.0
 11
836.70515686286581
 21
-1501.2315319711199
 31
0.0
  0
LINE
  5
195A1
  8
0
 10
838.85515686286578
 20
-1500.4815319711199
 30
0.0
 11
838.70515686286603
 21
-1501.2315319711199
 31
0.0
  0
LINE
  5
195A2
  8
0
 10
833.70515686286592
 20
-1496.231531971119
 30
0.0
 11
834.70515686286592
 21
-1501.2315319711199
 31
0.0
  0
LINE
  5
195A3
  8
0
 10
831.70515686286592
 20
-1496.231531971119
 30
0.0
 11
832.70515686286592
 21
-1501.2315319711199
 31
0.0
  0
LINE
  5
195A4
  8
0
 10
829.70515686286581
 20
-1496.231531971119
 30
0.0
 11
830.70515686286603
 21
-1501.2315319711199
 31
0.0
  0
LINE
  5
195A5
  8
0
 10
827.70515686286581
 20
-1496.231531971119
 30
0.0
 11
828.70515686286581
 21
-1501.2315319711199
 31
0.0
  0
LINE
  5
195A6
  8
0
 10
831.70515686286592
 20
-1496.231531971119
 30
0.0
 11
831.55515686286594
 21
-1496.981531971119
 31
0.0
  0
LINE
  5
195A7
  8
0
 10
833.70515686286592
 20
-1496.231531971119
 30
0.0
 11
833.55515686286594
 21
-1496.981531971119
 31
0.0
  0
LINE
  5
195A8
  8
0
 10
827.70515686286581
 20
-1496.231531971119
 30
0.0
 11
827.55515686286583
 21
-1496.981531971119
 31
0.0
  0
LINE
  5
195A9
  8
0
 10
829.70515686286581
 20
-1496.231531971119
 30
0.0
 11
829.55515686286606
 21
-1496.981531971119
 31
0.0
  0
LINE
  5
195AA
  8
0
 10
830.85515686286578
 20
-1500.4815319711199
 30
0.0
 11
830.70515686286603
 21
-1501.2315319711199
 31
0.0
  0
LINE
  5
195AB
  8
0
 10
832.8551568628659
 20
-1500.4815319711199
 30
0.0
 11
832.70515686286592
 21
-1501.2315319711199
 31
0.0
  0
LINE
  5
195AC
  8
0
 10
826.8551568628659
 20
-1500.4815319711199
 30
0.0
 11
826.70515686286592
 21
-1501.2315319711199
 31
0.0
  0
LINE
  5
195AD
  8
0
 10
828.85515686286578
 20
-1500.4815319711199
 30
0.0
 11
828.70515686286581
 21
-1501.2315319711199
 31
0.0
  0
LINE
  5
195AE
  8
0
 10
823.70515686286592
 20
-1496.231531971119
 30
0.0
 11
824.70515686286592
 21
-1501.2315319711199
 31
0.0
  0
LINE
  5
195AF
  8
0
 10
821.70515686286581
 20
-1496.231531971119
 30
0.0
 11
822.70515686286603
 21
-1501.2315319711199
 31
0.0
  0
LINE
  5
195B0
  8
0
 10
819.70515686286581
 20
-1496.231531971119
 30
0.0
 11
820.70515686286581
 21
-1501.2315319711199
 31
0.0
  0
LINE
  5
195B1
  8
0
 10
819.58729127682011
 20
-1500.4815319711199
 30
0.0
 11
819.58729127682011
 21
-1496.981531971119
 31
0.0
  0
LINE
  5
195B2
  8
0
 10
825.70515686286592
 20
-1496.231531971119
 30
0.0
 11
825.55515686286594
 21
-1496.981531971119
 31
0.0
  0
LINE
  5
195B3
  8
0
 10
823.70515686286592
 20
-1496.231531971119
 30
0.0
 11
823.55515686286594
 21
-1496.981531971119
 31
0.0
  0
LINE
  5
195B4
  8
0
 10
819.70515686286581
 20
-1496.231531971119
 30
0.0
 11
819.55515686286583
 21
-1496.981531971119
 31
0.0
  0
LINE
  5
195B5
  8
0
 10
821.70515686286581
 20
-1496.231531971119
 30
0.0
 11
821.55515686286606
 21
-1496.981531971119
 31
0.0
  0
LINE
  5
195B6
  8
0
 10
824.8551568628659
 20
-1500.4815319711199
 30
0.0
 11
824.70515686286592
 21
-1501.2315319711199
 31
0.0
  0
LINE
  5
195B7
  8
0
 10
822.85515686286578
 20
-1500.4815319711199
 30
0.0
 11
822.70515686286603
 21
-1501.2315319711199
 31
0.0
  0
LINE
  5
195B8
  8
0
 10
820.85515686286578
 20
-1500.4815319711199
 30
0.0
 11
820.70515686286581
 21
-1501.2315319711199
 31
0.0
  0
LINE
  5
195B9
  8
0
 10
573.69085906718237
 20
-1396.4587296160009
 30
0.0
 11
578.69085906718237
 21
-1395.4587296160009
 31
0.0
  0
LINE
  5
195BA
  8
1CENTER
 10
576.19085906718249
 20
-1371.1302419714989
 30
0.0
 11
576.19085906718249
 21
-1407.559547952193
 31
0.0
  0
LINE
  5
195BC
  8
0
 10
575.00707866666528
 20
-1374.1954856961049
 30
0.0
 11
575.75707866666528
 21
-1374.345485696105
 31
0.0
  0
LINE
  5
195BD
  8
0
 10
574.44083539640587
 20
-1376.3087343501561
 30
0.0
 11
577.76285618068175
 21
-1375.6443301933009
 31
0.0
  0
LINE
  5
195BE
  8
0
 10
575.00707866666528
 20
-1374.1954856961049
 30
0.0
 11
577.25421575412622
 21
-1373.7460582786121
 31
0.0
  0
LINE
  5
195BF
  8
0
 10
573.87459212614647
 20
-1378.4219830042091
 30
0.0
 11
578.2714966072374
 21
-1377.54260210799
 31
0.0
  0
LINE
  5
195C0
  8
0
 10
574.44083539640587
 20
-1376.3087343501561
 30
0.0
 11
575.19083539640599
 21
-1376.4587343501571
 31
0.0
  0
LINE
  5
195C1
  8
0
 10
573.87459212614658
 20
-1378.4219830042091
 30
0.0
 11
574.62459212614669
 21
-1378.5719830042081
 31
0.0
  0
LINE
  5
195C2
  8
0
 10
576.50421575412622
 20
-1373.5960582786131
 30
0.0
 11
577.25421575412622
 21
-1373.7460582786121
 31
0.0
  0
LINE
  5
195C3
  8
0
 10
577.5214966072374
 20
-1377.3926021079899
 30
0.0
 11
578.2714966072374
 21
-1377.54260210799
 31
0.0
  0
LINE
  5
195C4
  8
0
 10
577.01285618068175
 20
-1375.494330193301
 30
0.0
 11
577.76285618068175
 21
-1375.6443301933009
 31
0.0
  0
LINE
  5
195C5
  8
0
 10
577.94085906718249
 20
-1387.3087296160011
 30
0.0
 11
578.69085906718237
 21
-1387.4587296160009
 31
0.0
  0
LINE
  5
195C6
  8
0
 10
573.69085906718237
 20
-1386.4587296160009
 30
0.0
 11
578.69085906718237
 21
-1385.4587296160009
 31
0.0
  0
LINE
  5
195C7
  8
0
 10
573.69085906718237
 20
-1380.4587296160009
 30
0.0
 11
578.69085906718237
 21
-1379.4587296160009
 31
0.0
  0
LINE
  5
195C8
  8
0
 10
573.69085906718237
 20
-1382.4587296160009
 30
0.0
 11
578.69085906718237
 21
-1381.4587296160009
 31
0.0
  0
LINE
  5
195C9
  8
0
 10
573.69085906718237
 20
-1384.4587296160009
 30
0.0
 11
578.69085906718237
 21
-1383.4587296160009
 31
0.0
  0
LINE
  5
195CA
  8
0
 10
573.69085906718237
 20
-1382.4587296160009
 30
0.0
 11
574.44085906718249
 21
-1382.608729616001
 31
0.0
  0
LINE
  5
195CB
  8
0
 10
573.69085906718237
 20
-1380.4587296160009
 30
0.0
 11
574.44085906718249
 21
-1380.608729616001
 31
0.0
  0
LINE
  5
195CC
  8
0
 10
573.69085906718237
 20
-1384.4587296160009
 30
0.0
 11
574.44085906718249
 21
-1384.608729616001
 31
0.0
  0
LINE
  5
195CD
  8
0
 10
573.69085906718237
 20
-1386.4587296160009
 30
0.0
 11
574.44085906718249
 21
-1386.608729616001
 31
0.0
  0
LINE
  5
195CE
  8
0
 10
577.94085906718249
 20
-1379.3087296160011
 30
0.0
 11
578.69085906718237
 21
-1379.4587296160009
 31
0.0
  0
LINE
  5
195CF
  8
0
 10
577.94085906718249
 20
-1381.3087296160011
 30
0.0
 11
578.69085906718237
 21
-1381.4587296160009
 31
0.0
  0
LINE
  5
195D0
  8
0
 10
577.94085906718249
 20
-1385.3087296160011
 30
0.0
 11
578.69085906718237
 21
-1385.4587296160009
 31
0.0
  0
LINE
  5
195D1
  8
0
 10
577.94085906718249
 20
-1383.3087296160011
 30
0.0
 11
578.69085906718237
 21
-1383.4587296160009
 31
0.0
  0
LINE
  5
195D2
  8
0
 10
573.69085906718237
 20
-1388.4587296160009
 30
0.0
 11
578.69085906718237
 21
-1387.4587296160009
 31
0.0
  0
LINE
  5
195D3
  8
0
 10
573.69085906718237
 20
-1390.4587296160009
 30
0.0
 11
578.69085906718237
 21
-1389.4587296160009
 31
0.0
  0
LINE
  5
195D4
  8
0
 10
573.69085906718237
 20
-1392.4587296160009
 30
0.0
 11
578.69085906718237
 21
-1391.4587296160009
 31
0.0
  0
LINE
  5
195D5
  8
0
 10
573.69085906718237
 20
-1394.4587296160009
 30
0.0
 11
578.69085906718237
 21
-1393.4587296160009
 31
0.0
  0
LINE
  5
195D6
  8
0
 10
573.69085906718237
 20
-1390.4587296160009
 30
0.0
 11
574.44085906718249
 21
-1390.608729616001
 31
0.0
  0
LINE
  5
195D7
  8
0
 10
573.69085906718237
 20
-1388.4587296160009
 30
0.0
 11
574.44085906718249
 21
-1388.608729616001
 31
0.0
  0
LINE
  5
195D8
  8
0
 10
573.69085906718237
 20
-1394.4587296160009
 30
0.0
 11
574.44085906718249
 21
-1394.608729616001
 31
0.0
  0
LINE
  5
195D9
  8
0
 10
573.69085906718237
 20
-1392.4587296160009
 30
0.0
 11
574.44085906718249
 21
-1392.608729616001
 31
0.0
  0
LINE
  5
195DA
  8
0
 10
577.94085906718249
 20
-1391.3087296160011
 30
0.0
 11
578.69085906718237
 21
-1391.4587296160009
 31
0.0
  0
LINE
  5
195DB
  8
0
 10
577.94085906718249
 20
-1389.3087296160011
 30
0.0
 11
578.69085906718237
 21
-1389.4587296160009
 31
0.0
  0
LINE
  5
195DC
  8
0
 10
577.94085906718249
 20
-1395.3087296160011
 30
0.0
 11
578.69085906718237
 21
-1395.4587296160009
 31
0.0
  0
LINE
  5
195DD
  8
0
 10
577.94085906718249
 20
-1393.3087296160011
 30
0.0
 11
578.69085906718237
 21
-1393.4587296160009
 31
0.0
  0
LINE
  5
195DE
  8
0
 10
573.69085906718237
 20
-1398.4587296160009
 30
0.0
 11
578.69085906718237
 21
-1397.4587296160009
 31
0.0
  0
LINE
  5
195DF
  8
0
 10
573.69085906718237
 20
-1400.4587296160009
 30
0.0
 11
578.69085906718237
 21
-1399.4587296160009
 31
0.0
  0
LINE
  5
195E0
  8
0
 10
573.69085906718237
 20
-1402.4587296160009
 30
0.0
 11
578.69085906718237
 21
-1401.4587296160009
 31
0.0
  0
LINE
  5
195E1
  8
0
 10
577.94085906718249
 20
-1402.576595202047
 30
0.0
 11
574.44085906718249
 21
-1402.576595202047
 31
0.0
  0
LINE
  5
195E2
  8
0
 10
573.69085906718237
 20
-1396.4587296160009
 30
0.0
 11
574.44085906718249
 21
-1396.608729616001
 31
0.0
  0
LINE
  5
195E3
  8
0
 10
573.69085906718237
 20
-1398.4587296160009
 30
0.0
 11
574.44085906718249
 21
-1398.608729616001
 31
0.0
  0
LINE
  5
195E4
  8
0
 10
573.69085906718237
 20
-1402.4587296160009
 30
0.0
 11
574.44085906718249
 21
-1402.608729616001
 31
0.0
  0
LINE
  5
195E5
  8
0
 10
573.69085906718237
 20
-1400.4587296160009
 30
0.0
 11
574.44085906718249
 21
-1400.608729616001
 31
0.0
  0
LINE
  5
195E6
  8
0
 10
577.94085906718249
 20
-1397.3087296160011
 30
0.0
 11
578.69085906718237
 21
-1397.4587296160009
 31
0.0
  0
LINE
  5
195E7
  8
0
 10
577.94085906718249
 20
-1399.3087296160011
 30
0.0
 11
578.69085906718237
 21
-1399.4587296160009
 31
0.0
  0
LINE
  5
195E8
  8
0
 10
577.94085906718249
 20
-1401.3087296160011
 30
0.0
 11
578.69085906718237
 21
-1401.4587296160009
 31
0.0
  0
LINE
  5
195E9
  8
0
 10
574.44085906718249
 20
-1379.1076841152919
 30
0.0
 11
574.44085906718249
 21
-1402.576595202047
 31
0.0
  0
LINE
  5
195EA
  8
0
 10
574.44085906718249
 20
-1402.576595202047
 30
0.0
 11
571.69085906718249
 21
-1402.576595202047
 31
0.0
  0
LINE
  5
195EB
  8
0
 10
576.19085906718249
 20
-1372.576595202047
 30
0.0
 11
574.44085906718249
 21
-1379.1076841152919
 31
0.0
  0
LINE
  5
195EC
  8
0
 10
571.69085906718249
 20
-1402.576595202047
 30
0.0
 11
571.69085906718249
 21
-1403.3765952020469
 31
0.0
  0
LINE
  5
195ED
  8
0
 10
576.19085906718249
 20
-1372.576595202047
 30
0.0
 11
577.94085906718249
 21
-1379.1076841152919
 31
0.0
  0
ARC
  5
195EE
  8
0
 10
574.19085906718237
 20
-1403.3765952020469
 30
0.0
 40
2.5
 50
179.9999999999948
 51
270.0
  0
LINE
  5
195EF
  8
0
 10
577.94085906718249
 20
-1379.1076841152919
 30
0.0
 11
577.94085906718249
 21
-1402.576595202047
 31
0.0
  0
LINE
  5
195F0
  8
0
 10
578.19085906718237
 20
-1405.8765952020469
 30
0.0
 11
574.19085906718237
 21
-1405.8765952020469
 31
0.0
  0
LINE
  5
195F1
  8
0
 10
580.69085906718249
 20
-1402.576595202047
 30
0.0
 11
577.94085906718249
 21
-1402.576595202047
 31
0.0
  0
ARC
  5
195F2
  8
0
 10
578.19085906718237
 20
-1403.3765952020469
 30
0.0
 40
2.5
 50
270.0
 51
0.0
  0
LINE
  5
195F3
  8
0
 10
580.69085906718249
 20
-1402.576595202047
 30
0.0
 11
580.69085906718249
 21
-1403.3765952020469
 31
0.0
  0
LINE
  5
195F4
  8
0
 10
843.0562023635747
 20
-1496.981531971119
 30
0.0
 11
819.58729127682011
 21
-1496.981531971119
 31
0.0
  0
LINE
  5
195F5
  8
0
 10
819.58729127682011
 20
-1496.981531971119
 30
0.0
 11
819.58729127682011
 21
-1494.231531971119
 31
0.0
  0
LINE
  5
195F6
  8
0
 10
849.58729127682
 20
-1498.7315319711199
 30
0.0
 11
843.0562023635747
 21
-1496.981531971119
 31
0.0
  0
LINE
  5
195F7
  8
0
 10
819.58729127682011
 20
-1494.231531971119
 30
0.0
 11
818.78729127682016
 21
-1494.231531971119
 31
0.0
  0
LINE
  5
195F8
  8
0
 10
849.58729127682
 20
-1498.7315319711199
 30
0.0
 11
843.05620236357447
 21
-1500.4815319711199
 31
0.0
  0
ARC
  5
195F9
  8
0
 10
818.78729127682016
 20
-1496.7315319711199
 30
0.0
 40
2.5
 50
89.999999999997385
 51
180.0
  0
LINE
  5
195FA
  8
0
 10
843.05620236357447
 20
-1500.4815319711199
 30
0.0
 11
819.58729127682011
 21
-1500.4815319711199
 31
0.0
  0
LINE
  5
195FB
  8
0
 10
816.28729127682004
 20
-1500.731531971119
 30
0.0
 11
816.28729127682016
 21
-1496.7315319711199
 31
0.0
  0
LINE
  5
195FC
  8
0
 10
819.58729127682011
 20
-1503.2315319711199
 30
0.0
 11
819.58729127682011
 21
-1500.4815319711199
 31
0.0
  0
ARC
  5
195FD
  8
0
 10
818.78729127682016
 20
-1500.731531971119
 30
0.0
 40
2.5
 50
180.0
 51
270.0
  0
LINE
  5
195FE
  8
0
 10
819.58729127682011
 20
-1503.2315319711199
 30
0.0
 11
818.78729127682016
 21
-1503.2315319711199
 31
0.0
  0
LINE
  5
195FF
  8
0
 10
843.0562023635747
 20
-1456.981531971119
 30
0.0
 11
819.58729127682011
 21
-1456.981531971119
 31
0.0
  0
LINE
  5
19600
  8
0
 10
819.58729127682011
 20
-1456.981531971119
 30
0.0
 11
819.58729127682011
 21
-1454.231531971119
 31
0.0
  0
LINE
  5
19601
  8
0
 10
849.58729127682
 20
-1458.731531971119
 30
0.0
 11
843.0562023635747
 21
-1456.981531971119
 31
0.0
  0
LINE
  5
19602
  8
0
 10
819.58729127682011
 20
-1454.231531971119
 30
0.0
 11
818.78729127682016
 21
-1454.231531971119
 31
0.0
  0
LINE
  5
19603
  8
0
 10
849.58729127682
 20
-1458.731531971119
 30
0.0
 11
843.05620236357447
 21
-1460.4815319711199
 31
0.0
  0
ARC
  5
19604
  8
0
 10
818.78729127682016
 20
-1456.7315319711199
 30
0.0
 40
2.5
 50
89.999999999997385
 51
180.0
  0
LINE
  5
19605
  8
0
 10
843.05620236357447
 20
-1460.4815319711199
 30
0.0
 11
819.58729127682011
 21
-1460.4815319711199
 31
0.0
  0
LINE
  5
19606
  8
0
 10
816.28729127682004
 20
-1460.7315319711199
 30
0.0
 11
816.28729127682016
 21
-1456.7315319711199
 31
0.0
  0
LINE
  5
19607
  8
0
 10
819.58729127682011
 20
-1463.231531971119
 30
0.0
 11
819.58729127682011
 21
-1460.4815319711199
 31
0.0
  0
ARC
  5
19608
  8
0
 10
818.78729127682016
 20
-1460.7315319711199
 30
0.0
 40
2.5
 50
180.0
 51
270.0
  0
LINE
  5
19609
  8
0
 10
819.58729127682011
 20
-1463.231531971119
 30
0.0
 11
818.78729127682016
 21
-1463.231531971119
 31
0.0
  0
LINE
  5
1960A
  8
1DIM
 10
835.10231545269448
 20
-1433.423995362918
 30
0.0
 11
829.90973701374787
 21
-1420.8410394028961
 31
0.0
  0
LINE
  5
1960B
  8
1DIM
 10
829.90973701374787
 20
-1420.8410394028961
 30
0.0
 11
861.80973701374785
 21
-1420.8410394028961
 31
0.0
  0
LINE
  5
1960C
  8
1HATCH
 10
827.01869085215617
 20
-1433.3505492305851
 30
0.0
 11
823.74239251920926
 21
-1414.8396933857721
 31
0.0
  0
LINE
  5
1960D
  8
1HATCH
 10
823.74239251920926
 20
-1414.8396933857721
 30
0.0
 11
832.27572585254256
 21
-1414.8396933857721
 31
0.0
  0
TEXT
  5
1960E
  8
1DIM
 10
652.0658590671826
 20
-1439.854696040933
 30
0.0
 40
3.5
  1
181 
  0
LINE
  5
1960F
  8
0
  6
BYBLOCK
 10
744.19085906718271
 20
-1440.0187976609329
 30
0.0
 11
746.19085906718271
 21
-1440.5546960409331
 31
0.0
  0
LINE
  5
19610
  8
0
  6
BYBLOCK
 10
746.19085906718271
 20
-1440.5546960409331
 30
0.0
 11
744.19085906718271
 21
-1441.090594420933
 31
0.0
  0
LINE
  5
19611
  8
0
  6
BYBLOCK
 10
746.19085906718271
 20
-1440.5546960409331
 30
0.0
 11
744.19085906718271
 21
-1440.5546960409331
 31
0.0
  0
LINE
  5
19612
  8
0
  6
BYBLOCK
 10
566.94085906718249
 20
-1441.090594420933
 30
0.0
 11
564.94085906718237
 21
-1440.5546960409331
 31
0.0
  0
LINE
  5
19613
  8
0
  6
BYBLOCK
 10
564.94085906718237
 20
-1440.5546960409331
 30
0.0
 11
566.94085906718249
 21
-1440.0187976609329
 31
0.0
  0
LINE
  5
19614
  8
0
  6
BYBLOCK
 10
564.94085906718237
 20
-1440.5546960409331
 30
0.0
 11
566.94085906718249
 21
-1440.5546960409331
 31
0.0
  0
TEXT
  5
19615
  8
1DIM
 10
805.24562461015341
 20
-1439.854696040933
 30
0.0
 40
3.5
  1
29 
  0
LINE
  5
19616
  8
0
  6
BYBLOCK
 10
795.53729127682016
 20
-1441.090594420933
 30
0.0
 11
793.53729127682016
 21
-1440.5546960409331
 31
0.0
  0
LINE
  5
19617
  8
0
  6
BYBLOCK
 10
793.53729127682016
 20
-1440.5546960409331
 30
0.0
 11
795.53729127682016
 21
-1440.0187976609329
 31
0.0
  0
LINE
  5
19618
  8
0
  6
BYBLOCK
 10
793.53729127682016
 20
-1440.5546960409331
 30
0.0
 11
795.53729127682016
 21
-1440.5546960409331
 31
0.0
  0
LINE
  5
19619
  8
0
  6
BYBLOCK
 10
820.78729127682016
 20
-1440.0187976609329
 30
0.0
 11
822.78729127682016
 21
-1440.5546960409331
 31
0.0
  0
LINE
  5
1961A
  8
0
  6
BYBLOCK
 10
822.78729127682016
 20
-1440.5546960409331
 30
0.0
 11
820.78729127682016
 21
-1441.090594420933
 31
0.0
  0
LINE
  5
1961B
  8
0
  6
BYBLOCK
 10
822.78729127682016
 20
-1440.5546960409331
 30
0.0
 11
820.78729127682016
 21
-1440.5546960409331
 31
0.0
  0
TEXT
  5
1961C
  8
1DIM
 10
860.41115990595688
 20
-1481.356531971119
 30
0.0
 40
3.5
  1
40 
 50
90.0
  0
LINE
  5
1961D
  8
0
  6
BYBLOCK
 10
860.57526152595676
 20
-1460.7315319711199
 30
0.0
 11
861.1111599059567
 21
-1458.731531971119
 31
0.0
  0
LINE
  5
1961E
  8
0
  6
BYBLOCK
 10
861.1111599059567
 20
-1458.731531971119
 30
0.0
 11
861.64705828595675
 21
-1460.7315319711199
 31
0.0
  0
LINE
  5
1961F
  8
0
  6
BYBLOCK
 10
861.1111599059567
 20
-1458.731531971119
 30
0.0
 11
861.1111599059567
 21
-1460.7315319711199
 31
0.0
  0
LINE
  5
19620
  8
0
  6
BYBLOCK
 10
861.64705828595675
 20
-1496.7315319711199
 30
0.0
 11
861.1111599059567
 21
-1498.7315319711199
 31
0.0
  0
LINE
  5
19621
  8
0
  6
BYBLOCK
 10
861.1111599059567
 20
-1498.7315319711199
 30
0.0
 11
860.57526152595676
 21
-1496.7315319711199
 31
0.0
  0
LINE
  5
19622
  8
0
  6
BYBLOCK
 10
861.1111599059567
 20
-1498.7315319711199
 30
0.0
 11
861.1111599059567
 21
-1496.7315319711199
 31
0.0
  0
TEXT
  5
19623
  8
1DIM
 10
860.41115990595688
 20
-1455.398198637786
 30
0.0
 40
3.5
  1
9 
 50
90.0
  0
LINE
  5
19624
  8
0
  6
BYBLOCK
 10
860.57526152595676
 20
-1451.7315319711199
 30
0.0
 11
861.1111599059567
 21
-1449.731531971119
 31
0.0
  0
LINE
  5
19625
  8
0
  6
BYBLOCK
 10
861.1111599059567
 20
-1449.731531971119
 30
0.0
 11
861.64705828595675
 21
-1451.7315319711199
 31
0.0
  0
LINE
  5
19626
  8
0
  6
BYBLOCK
 10
861.1111599059567
 20
-1449.731531971119
 30
0.0
 11
861.1111599059567
 21
-1451.7315319711199
 31
0.0
  0
LINE
  5
19627
  8
0
  6
BYBLOCK
 10
861.64705828595675
 20
-1456.7315319711199
 30
0.0
 11
861.1111599059567
 21
-1458.731531971119
 31
0.0
  0
LINE
  5
19628
  8
0
  6
BYBLOCK
 10
861.1111599059567
 20
-1458.731531971119
 30
0.0
 11
860.57526152595676
 21
-1456.7315319711199
 31
0.0
  0
LINE
  5
19629
  8
0
  6
BYBLOCK
 10
861.1111599059567
 20
-1458.731531971119
 30
0.0
 11
861.1111599059567
 21
-1456.7315319711199
 31
0.0
  0
TEXT
  5
1962A
  8
1DIM
 10
869.47408518088639
 20
-1491.1731986377861
 30
0.0
 40
3.5
  1
77 
 50
90.0
  0
LINE
  5
1962B
  8
0
  6
BYBLOCK
 10
869.63818680088627
 20
-1451.7315319711199
 30
0.0
 11
870.17408518088621
 21
-1449.731531971119
 31
0.0
  0
LINE
  5
1962C
  8
0
  6
BYBLOCK
 10
870.17408518088621
 20
-1449.731531971119
 30
0.0
 11
870.70998356088626
 21
-1451.7315319711199
 31
0.0
  0
LINE
  5
1962D
  8
0
  6
BYBLOCK
 10
870.17408518088621
 20
-1449.731531971119
 30
0.0
 11
870.17408518088621
 21
-1451.7315319711199
 31
0.0
  0
LINE
  5
1962E
  8
0
  6
BYBLOCK
 10
870.70998356088626
 20
-1524.781531971119
 30
0.0
 11
870.17408518088621
 21
-1526.7815319711201
 31
0.0
  0
LINE
  5
1962F
  8
0
  6
BYBLOCK
 10
870.17408518088621
 20
-1526.7815319711201
 30
0.0
 11
869.63818680088627
 21
-1524.781531971119
 31
0.0
  0
LINE
  5
19630
  8
0
  6
BYBLOCK
 10
870.17408518088621
 20
-1526.7815319711201
 30
0.0
 11
870.17408518088621
 21
-1524.781531971119
 31
0.0
  0
TEXT
  5
19631
  8
1DIM
 10
570.94085906718249
 20
-1365.944131071725
 30
0.0
 40
3.5
  1
22.5 
  0
LINE
  5
19632
  8
0
  6
BYBLOCK
 10
585.44085906718237
 20
-1366.1082326917251
 30
0.0
 11
587.44085906718249
 21
-1366.644131071725
 31
0.0
  0
LINE
  5
19633
  8
0
  6
BYBLOCK
 10
587.44085906718249
 20
-1366.644131071725
 30
0.0
 11
585.44085906718237
 21
-1367.180029451725
 31
0.0
  0
LINE
  5
19634
  8
0
  6
BYBLOCK
 10
587.44085906718249
 20
-1366.644131071725
 30
0.0
 11
585.44085906718237
 21
-1366.644131071725
 31
0.0
  0
LINE
  5
19635
  8
0
  6
BYBLOCK
 10
566.94085906718249
 20
-1367.180029451725
 30
0.0
 11
564.94085906718237
 21
-1366.644131071725
 31
0.0
  0
LINE
  5
19636
  8
0
  6
BYBLOCK
 10
564.94085906718237
 20
-1366.644131071725
 30
0.0
 11
566.94085906718249
 21
-1366.1082326917251
 31
0.0
  0
LINE
  5
19637
  8
0
  6
BYBLOCK
 10
564.94085906718237
 20
-1366.644131071725
 30
0.0
 11
566.94085906718249
 21
-1366.644131071725
 31
0.0
  0
LINE
  5
19638
  8
1DIM
 10
588.29290581674286
 20
-1477.1187640134219
 30
0.0
 11
604.2650326810874
 21
-1459.1294263217731
 31
0.0
  0
LINE
  5
19639
  8
1DIM
 10
604.2650326810874
 20
-1459.1294263217731
 30
0.0
 11
652.2316993477541
 21
-1459.1294263217731
 31
0.0
  0
LINE
  5
1963A
  8
1DIM
 10
635.57544541485277
 20
-1513.4483876722979
 30
0.0
 11
651.54757227919731
 21
-1495.4590499806491
 31
0.0
  0
LINE
  5
1963B
  8
1DIM
 10
651.54757227919731
 20
-1495.4590499806491
 30
0.0
 11
699.51423894586389
 21
-1495.4590499806491
 31
0.0
  0
TEXT
  5
1963C
  8
1DIM
 10
657.3991924005162
 20
-1533.8541125819561
 30
0.0
 40
3.5
  1
170 
  0
LINE
  5
1963D
  8
0
  6
BYBLOCK
 10
744.19085906718317
 20
-1534.018214201956
 30
0.0
 11
746.19085906718306
 21
-1534.5541125819559
 31
0.0
  0
LINE
  5
1963E
  8
0
  6
BYBLOCK
 10
746.19085906718306
 20
-1534.5541125819559
 30
0.0
 11
744.19085906718317
 21
-1535.0900109619561
 31
0.0
  0
LINE
  5
1963F
  8
0
  6
BYBLOCK
 10
746.19085906718306
 20
-1534.5541125819559
 30
0.0
 11
744.19085906718317
 21
-1534.5541125819559
 31
0.0
  0
LINE
  5
19640
  8
0
  6
BYBLOCK
 10
578.19085906718237
 20
-1535.0900109619561
 30
0.0
 11
576.19085906718249
 21
-1534.5541125819559
 31
0.0
  0
LINE
  5
19641
  8
0
  6
BYBLOCK
 10
576.19085906718249
 20
-1534.5541125819559
 30
0.0
 11
578.19085906718237
 21
-1534.018214201956
 31
0.0
  0
LINE
  5
19642
  8
0
  6
BYBLOCK
 10
576.19085906718249
 20
-1534.5541125819559
 30
0.0
 11
578.19085906718237
 21
-1534.5541125819559
 31
0.0
  0
VIEWPORT
  5
57
 67
     1
  8
0
 10
-12.71820606546885
 20
94.5275841701866
 30
0.0
 40
738.67054823712158
 41
489.80656549771601
 68
     1
 69
     1
1001
ACAD
1000
MVIEW
1002
{
1070
    16
1010
0.0
1020
0.0
1030
0.0
1010
0.0
1020
0.0
1030
1.0
1040
0.0
1040
489.80656549771601
1040
-12.71820606546885
1040
94.5275841701866
1040
50.0
1040
0.0
1040
0.0
1070
     0
1070
   100
1070
     1
1070
     1
1070
     0
1070
     0
1070
     0
1070
     0
1040
0.0
1040
0.0
1040
0.0
1040
10.0
1040
10.0
1040
10.0
1040
10.0
1070
     0
1002
{
1002
}
1002
}
  0
ENDSEC
  0
EOF
