  0
SECTION
  2
HEADER
  9
$ACADVER
  1
AC1009
  9
$INSBASE
 10
0.0
 20
0.0
 30
0.0
  9
$EXTMIN
 10
-1648.1487202450321
 20
-1682.3206307851101
 30
0.0
  9
$EXTMAX
 10
-1285.2353079853749
 20
-1370.8042873212901
 30
0.0
  9
$LIMMIN
 10
0.0
 20
0.0
  9
$LIMMAX
 10
420.0
 20
297.0
  9
$ORTHOMODE
 70
     0
  9
$REGENMODE
 70
     1
  9
$FILLMODE
 70
     1
  9
$QTEXTMODE
 70
     0
  9
$MIRRTEXT
 70
     0
  9
$DRAGMODE
 70
     2
  9
$LTSCALE
 40
0.5
  9
$OSMODE
 70
  2175
  9
$ATTMODE
 70
     1
  9
$TEXTSIZE
 40
4.0
  9
$TRACEWID
 40
1.0
  9
$TEXTSTYLE
  7
STANDARD
  9
$CLAYER
  8
1TEXT
  9
$CELTYPE
  6
BYLAYER
  9
$CECOLOR
 62
   256
  9
$DIMSCALE
 40
1.0
  9
$DIMASZ
 40
2.0
  9
$DIMEXO
 40
0.0
  9
$DIMDLI
 40
7.0
  9
$DIMRND
 40
0.0
  9
$DIMDLE
 40
0.0
  9
$DIMEXE
 40
1.0
  9
$DIMTP
 40
0.0
  9
$DIMTM
 40
0.0
  9
$DIMTXT
 40
3.5
  9
$DIMCEN
 40
0.0
  9
$DIMTSZ
 40
0.0
  9
$DIMTOL
 70
     0
  9
$DIMLIM
 70
     0
  9
$DIMTIH
 70
     0
  9
$DIMTOH
 70
     0
  9
$DIMSE1
 70
     0
  9
$DIMSE2
 70
     0
  9
$DIMTAD
 70
     1
  9
$DIMZIN
 70
     8
  9
$DIMBLK
  1

  9
$DIMASO
 70
     1
  9
$DIMSHO
 70
     1
  9
$DIMPOST
  1
 
  9
$DIMAPOST
  1

  9
$DIMALT
 70
     0
  9
$DIMALTD
 70
     2
  9
$DIMALTF
 40
25.399999999999999
  9
$DIMLFAC
 40
1.0
  9
$DIMTOFL
 70
     1
  9
$DIMTVP
 40
0.0
  9
$DIMTIX
 70
     0
  9
$DIMSOXD
 70
     0
  9
$DIMSAH
 70
     1
  9
$DIMBLK1
  1
OPEN30
  9
$DIMBLK2
  1
OPEN30
  9
$DIMSTYLE
  2
NEWX10
  9
$DIMCLRD
 70
   256
  9
$DIMCLRE
 70
   256
  9
$DIMCLRT
 70
   201
  9
$DIMTFAC
 40
0.7
  9
$DIMGAP
 40
0.7
  9
$LUNITS
 70
     2
  9
$LUPREC
 70
     4
  9
$SKETCHINC
 40
1.0
  9
$FILLETRAD
 40
0.0
  9
$AUNITS
 70
     0
  9
$AUPREC
 70
     2
  9
$MENU
  1
acad
  9
$ELEVATION
 40
0.0
  9
$PELEVATION
 40
0.0
  9
$THICKNESS
 40
0.0
  9
$LIMCHECK
 70
     0
  9
$BLIPMODE
 70
     0
  9
$CHAMFERA
 40
10.0
  9
$CHAMFERB
 40
10.0
  9
$SKPOLY
 70
     0
  9
$TDCREATE
 40
2453033.7326634838
  9
$TDUPDATE
 40
2454049.7606586348
  9
$TDINDWG
 40
1.6299956712999999
  9
$TDUSRTIMER
 40
1.6299956712999999
  9
$USRTIMER
 70
     1
  9
$ANGBASE
 50
0.0
  9
$ANGDIR
 70
     0
  9
$PDMODE
 70
     0
  9
$PDSIZE
 40
0.0
  9
$PLINEWID
 40
0.0
  9
$COORDS
 70
     2
  9
$SPLFRAME
 70
     0
  9
$SPLINETYPE
 70
     6
  9
$SPLINESEGS
 70
     8
  9
$ATTDIA
 70
     0
  9
$ATTREQ
 70
     1
  9
$HANDLING
 70
     1
  9
$HANDSEED
  5
167D3
  9
$SURFTAB1
 70
     6
  9
$SURFTAB2
 70
     6
  9
$SURFTYPE
 70
     6
  9
$SURFU
 70
     6
  9
$SURFV
 70
     6
  9
$UCSNAME
  2

  9
$UCSORG
 10
0.0
 20
0.0
 30
0.0
  9
$UCSXDIR
 10
1.0
 20
0.0
 30
0.0
  9
$UCSYDIR
 10
0.0
 20
1.0
 30
0.0
  9
$PUCSNAME
  2

  9
$PUCSORG
 10
0.0
 20
0.0
 30
0.0
  9
$PUCSXDIR
 10
1.0
 20
0.0
 30
0.0
  9
$PUCSYDIR
 10
0.0
 20
1.0
 30
0.0
  9
$USERI1
 70
     0
  9
$USERI2
 70
     0
  9
$USERI3
 70
     0
  9
$USERI4
 70
     0
  9
$USERI5
 70
     0
  9
$USERR1
 40
0.0
  9
$USERR2
 40
0.0
  9
$USERR3
 40
0.0
  9
$USERR4
 40
0.0
  9
$USERR5
 40
0.0
  9
$WORLDVIEW
 70
     1
  9
$SHADEDGE
 70
     3
  9
$SHADEDIF
 70
    70
  9
$TILEMODE
 70
     1
  9
$MAXACTVP
 70
    48
  9
$PLIMCHECK
 70
     0
  9
$PEXTMIN
 10
1.0000000000000000E+020
 20
1.0000000000000000E+020
 30
1.0000000000000000E+020
  9
$PEXTMAX
 10
-1.0000000000000000E+020
 20
-1.0000000000000000E+020
 30
-1.0000000000000000E+020
  9
$PLIMMIN
 10
0.0
 20
0.0
  9
$PLIMMAX
 10
420.0
 20
297.0
  9
$UNITMODE
 70
     0
  9
$VISRETAIN
 70
     1
  9
$PLINEGEN
 70
     0
  9
$PSLTSCALE
 70
     1
  0
ENDSEC
  0
SECTION
  2
TABLES
  0
TABLE
  2
VPORT
 70
     4
  0
VPORT
  2
*ACTIVE
 70
     0
 10
0.0
 20
0.0
 11
1.0
 21
1.0
 12
-1466.6776285352071
 22
-1526.5385254996161
 13
0.0
 23
0.0
 14
10.0
 24
10.0
 15
10.0
 25
10.0
 16
0.0
 26
0.0
 36
1.0
 17
0.0
 27
0.0
 37
0.0
 40
330.7389276958657
 41
1.508086253369272
 42
50.0
 43
0.0
 44
0.0
 50
0.0
 51
0.0
 71
     0
 72
   100
 73
     1
 74
     1
 75
     0
 76
     0
 77
     0
 78
     0
  0
ENDTAB
  0
TABLE
  2
LTYPE
 70
    14
  0
LTYPE
  2
CONTINUOUS
 70
     0
  3
Solid line
 72
    65
 73
     0
 40
0.0
  0
LTYPE
  2
CENTER2
 70
     0
  3
Center (.5x) ___ _ ___ _ ___ _ ___ _ ___ _ ___
 72
    65
 73
     4
 40
28.574999999999999
 49
19.050000000000001
 49
-3.1749999999999989
 49
3.1749999999999989
 49
-3.1749999999999989
  0
LTYPE
  2
XREF1|CENTER2
 70
    48
  3
Center (.5x) ___ _ ___ _ ___ _ ___ _ ___ _ ___
 72
    65
 73
     4
 40
28.574999999999999
 49
19.050000000000001
 49
-3.1749999999999989
 49
3.1749999999999989
 49
-3.1749999999999989
  0
LTYPE
  2
PHANTOM2
 70
     0
  3
Phantom (.5x) ___ _ _ ___ _ _ ___ _ _ ___ _ _
 72
    65
 73
     6
 40
31.75
 49
15.875
 49
-3.1749999999999989
 49
3.1749999999999989
 49
-3.1749999999999989
 49
3.1749999999999989
 49
-3.1749999999999989
  0
LTYPE
  2
A3WAKUDAKE|CENTER2
 70
    48
  3
Center (.5x) ___ _ ___ _ ___ _ ___ _ ___ _ ___
 72
    65
 73
     4
 40
28.574999999999999
 49
19.050000000000001
 49
-3.1749999999999989
 49
3.1749999999999989
 49
-3.1749999999999989
  0
ENDTAB
  0
TABLE
  2
LAYER
 70
    41
  0
LAYER
  2
0
 70
     0
 62
     7
  6
CONTINUOUS
  0
LAYER
  2
1CENTER
 70
     0
 62
     7
  6
CENTER2
  0
LAYER
  2
1TEXT
 70
     0
 62
     7
  6
CONTINUOUS
  0
LAYER
  2
1DIM
 70
     0
 62
     7
  6
CONTINUOUS
  0
LAYER
  2
1PHANTOM
 70
     0
 62
     7
  6
PHANTOM2
  0
LAYER
  2
01
 70
     0
 62
     1
  6
CONTINUOUS
  0
LAYER
  2
1HATCH
 70
     0
 62
     7
  6
CONTINUOUS
  0
LAYER
  2
XREF1|1CENTER
 70
    48
 62
     7
  6
XREF1|CENTER2
  0
LAYER
  2
A3WAKUDAKE|THICK
 70
    48
 62
     7
  6
CONTINUOUS
  0
LAYER
  2
A3WAKUDAKE|POINT
 70
    48
 62
     7
  6
CONTINUOUS
  0
LAYER
  2
A3WAKUDAKE|1CENTER
 70
    48
 62
     7
  6
A3WAKUDAKE|CENTER2
  0
LAYER
  2
A3WAKUDAKE|0-6
 70
    48
 62
     7
  6
CONTINUOUS
  0
LAYER
  2
A3WAKUDAKE|1DIM
 70
    48
 62
     7
  6
CONTINUOUS
  0
ENDTAB
  0
TABLE
  2
STYLE
 70
    20
  0
STYLE
  2
STANDARD
 70
     0
 40
0.0
 41
1.0
 50
0.0
 71
     0
 42
4.0
  3
txt.shx
  4
extfont.shx
  0
ENDTAB
  0
TABLE
  2
VIEW
 70
     0
  0
ENDTAB
  0
TABLE
  2
UCS
 70
     0
  0
ENDTAB
  0
TABLE
  2
APPID
 70
     9
  0
APPID
  2
ACAD
 70
     0
  0
APPID
  2
DRAWINGVARIABLESXDATA
 70
     0
  0
APPID
  2
CONTENTTABDATA
 70
     0
  0
APPID
  2
CONTENTCURRENTTAB
 70
     0
  0
APPID
  2
CONTENTBLOCKDESCRIPTION
 70
     0
  0
APPID
  2
CONTENTBLOCKICON
 70
     0
  0
APPID
  2
CONTENTLONGBLOCKNAME
 70
     0
  0
APPID
  2
ACAD_PSEXT
 70
     0
  0
APPID
  2
ACAD_DSTYLE_DIMTEXT_FILL
 70
     0
  0
ENDTAB
  0
TABLE
  2
DIMSTYLE
 70
     5
  0
DIMSTYLE
  2
NEWX10
 70
     0
  3
 
  4

  5

  6
OPEN30
  7
OPEN30
 40
1.0
 41
2.0
 42
0.0
 43
7.0
 44
1.0
 45
0.0
 46
0.0
 47
0.0
 48
0.0
140
3.5
141
0.0
142
0.0
143
25.399999999999999
144
1.0
145
0.0
146
0.7
147
0.7
 71
     0
 72
     0
 73
     0
 74
     0
 75
     0
 76
     0
 77
     1
 78
     8
170
     0
171
     2
172
     1
173
     1
174
     0
175
     0
176
   256
177
   256
178
   201
  0
ENDTAB
  0
ENDSEC
  0
SECTION
  2
BLOCKS
  0
BLOCK
  8
0
  2
$MODEL_SPACE
 70
     0
 10
0.0
 20
0.0
 30
0.0
  3
$MODEL_SPACE
  1

  0
ENDBLK
  5
1A
  8
0
  0
BLOCK
 67
     1
  8
0
  2
$PAPER_SPACE
 70
     0
 10
0.0
 20
0.0
 30
0.0
  3
$PAPER_SPACE
  1

  0
ENDBLK
  5
17
 67
     1
  8
0
  0
BLOCK
  8
0
  2
_OPEN30
 70
     0
 10
0.0
 20
0.0
 30
0.0
  3
_OPEN30
  1

  0
LINE
  5
44
  8
0
  6
BYBLOCK
 62
     0
 10
-1.0
 20
0.26794919
 30
0.0
 11
0.0
 21
0.0
 31
0.0
  0
LINE
  5
45
  8
0
  6
BYBLOCK
 62
     0
 10
0.0
 20
0.0
 30
0.0
 11
-1.0
 21
-0.26794919
 31
0.0
  0
LINE
  5
46
  8
0
  6
BYBLOCK
 62
     0
 10
0.0
 20
0.0
 30
0.0
 11
-1.0
 21
0.0
 31
0.0
  0
ENDBLK
  5
47
  8
0
  0
BLOCK
  8
0
  2
XREF1
 70
    36
 10
0.0
 20
0.0
 30
0.0
  3
XREF1
  1
D:\ACLT\FORMAT\KAWAJUN(9)図面用.dwg
  0
ENDBLK
  5
5D
  8
0
  0
BLOCK
  8
0
  2
A3WAKUDAKE
 70
    36
 10
0.0
 20
0.0
 30
0.0
  3
A3WAKUDAKE
  1
D:\ACLT\FORMAT\A3WAKUdake.dwg
  0
ENDBLK
  5
6DC
  8
0
  0
BLOCK
  8
0
  2
*U14
 70
     1
 10
0.0
 20
0.0
 30
0.0
  3
*U14
  1

  0
LINE
  5
16182
  8
0
 10
-29.999999999837598
 20
0.0000465358979227
 30
0.0
 11
-24.700003489975941
 21
-1.4999534641020771
 31
0.0
  0
LINE
  5
16183
  8
0
 10
-24.700003489975941
 20
-1.4999534641020771
 30
0.0
 11
-0.0000034900840618
 21
-1.499953464101849
 31
0.0
  0
LINE
  5
16184
  8
0
 10
-29.999999999837598
 20
0.0000465358979227
 30
0.0
 11
-24.6999965095923
 21
1.5000465358980359
 31
0.0
  0
LINE
  5
16185
  8
0
 10
-0.0000081437821464
 20
-3.4999999999998859
 30
0.0
 11
-0.0000034900840618
 21
-1.499953464101849
 31
0.0
  0
LINE
  5
16186
  8
0
 10
-24.6999965095923
 20
1.5000465358980359
 30
0.0
 11
0.0000034903006139
 21
1.500046535897922
 31
0.0
  0
LINE
  5
16187
  8
0
 10
-0.0000081437821464
 20
-3.4999999999998859
 30
0.0
 11
1.0999953464131731
 21
-3.5
 31
0.0
  0
LINE
  5
16188
  8
0
 10
0.0000034903006139
 20
1.500046535897922
 30
0.0
 11
0.0000081437821322
 21
3.5
 31
0.0
  0
ARC
  5
16189
  8
0
 10
1.0999953464131731
 20
-2.0
 30
0.0
 40
1.5
 50
270.0
 51
359.99986668447059
  0
LINE
  5
1618A
  8
0
 10
0.0000081437821322
 20
3.5
 30
0.0
 11
1.100004653592769
 21
3.5
 31
0.0
  0
LINE
  5
1618B
  8
0
 10
2.5999953464091159
 20
-2.0000034901923982
 30
0.0
 11
2.6000046535887051
 21
1.9999965098076009
 31
0.0
  0
ARC
  5
1618C
  8
0
 10
1.100004653592769
 20
2.0
 30
0.0
 40
1.5
 50
359.99986668447059
 51
90.0
  0
ENDBLK
  5
1618E
  8
0
  0
BLOCK
  8
0
  2
*U15
 70
     1
 10
0.0
 20
0.0
 30
0.0
  3
*U15
  1

  0
TEXT
  5
16190
  8
1DIM
 62
   201
 10
-1565.904853005766
 20
-1524.0652019124359
 30
0.0
 40
3.5
  1
170 
  0
ENDBLK
  5
16192
  8
0
  0
BLOCK
  8
0
  2
*U16
 70
     1
 10
0.0
 20
0.0
 30
0.0
  3
*U16
  1

  0
TEXT
  5
16194
  8
1DIM
 62
   201
 10
-1344.2410859413039
 20
-1524.0652019124359
 30
0.0
 40
3.5
  1
29.5
  0
ENDBLK
  5
16196
  8
0
  0
BLOCK
  8
0
  2
*U17
 70
     1
 10
0.0
 20
0.0
 30
0.0
  3
*U17
  1

  0
TEXT
  5
16198
  8
1DIM
 62
   201
 10
-1565.904853005766
 20
-1381.0652019124359
 30
0.0
 40
3.5
  1
130 
  0
ENDBLK
  5
1619A
  8
0
  0
BLOCK
  8
0
  2
*U18
 70
     1
 10
0.0
 20
0.0
 30
0.0
  3
*U18
  1

  0
TEXT
  5
1619C
  8
1DIM
 62
   201
 10
-1334.0910882005969
 20
-1594.1088362513899
 30
0.0
 40
3.5
  1
15 
  0
ENDBLK
  5
1619E
  8
0
  0
BLOCK
  8
0
  2
*U19
 70
     1
 10
0.0
 20
0.0
 30
0.0
  3
*U19
  1

  0
TEXT
  5
161A0
  8
1DIM
 62
   201
 10
-1467.813186339099
 20
-1457.3485352457701
 30
0.0
 40
3.5
  1
123 
 50
90.0
  0
ENDBLK
  5
161A2
  8
0
  0
BLOCK
  8
0
  2
*U20
 70
     1
 10
0.0
 20
0.0
 30
0.0
  3
*U20
  1

  0
TEXT
  5
161A4
  8
1DIM
 62
   201
 10
-1416.9354700307019
 20
-1504.0652019124359
 30
0.0
 40
3.5
  1
133（ペーパー付き最大値）
  0
ENDBLK
  5
161A6
  8
0
  0
BLOCK
  8
0
  2
*U21
 70
     1
 10
0.0
 20
0.0
 30
0.0
  3
*U21
  1

  0
TEXT
  5
161A8
  8
1DIM
 62
   201
 10
-1565.904853005766
 20
-1627.934890116253
 30
0.0
 40
3.5
  1
130 
  0
ENDBLK
  5
161AA
  8
0
  0
BLOCK
  8
0
  2
*U22
 70
     1
 10
0.0
 20
0.0
 30
0.0
  3
*U22
  1

  0
TEXT
  5
161AC
  8
1DIM
 62
   201
 10
-1565.029853005766
 20
-1594.803046893971
 30
0.0
 40
3.5
  1
24 
  0
ENDBLK
  5
161AE
  8
0
  0
ENDSEC
  0
SECTION
  2
ENTITIES
  0
LINE
  5
1545C
  8
01
 10
-1587.113186339099
 20
-1546.7652018837141
 30
0.0
 11
-1537.113186339099
 21
-1546.7652018837141
 31
0.0
  0
LINE
  5
1545E
  8
01
 10
-1529.613186339099
 20
-1547.2652018837141
 30
0.0
 11
-1529.613186339099
 21
-1566.7090814779781
 31
0.0
  0
LINE
  5
15460
  8
01
 10
-1529.613186339099
 20
-1549.1690076050961
 30
0.0
 11
-1529.613186339099
 21
-1547.2652018837141
 31
0.0
  0
LINE
  5
15463
  8
01
 10
-1594.613186339099
 20
-1549.1690076050961
 30
0.0
 11
-1594.613186339099
 21
-1560.4827156095421
 31
0.0
  0
LINE
  5
15464
  8
01
 10
-1594.613186339099
 20
-1549.1690076050961
 30
0.0
 11
-1594.613186339099
 21
-1547.2652018837141
 31
0.0
  0
LINE
  5
15465
  8
01
 10
-1594.613186339099
 20
-1566.7090595610059
 30
0.0
 11
-1594.613186339099
 21
-1560.4827156095421
 31
0.0
  0
LINE
  5
15466
  8
01
 10
-1587.113186339099
 20
-1546.7652018837141
 30
0.0
 11
-1590.113186339099
 21
-1546.7652018837141
 31
0.0
  0
LINE
  5
15467
  8
01
 10
-1537.113186339099
 20
-1546.7652018837141
 30
0.0
 11
-1534.113186339099
 21
-1546.7652018837141
 31
0.0
  0
ARC
  5
15468
  8
01
 10
-1594.113186339099
 20
-1547.2652018837141
 30
0.0
 40
0.5
 50
90.0
 51
180.0
  0
ARC
  5
1546A
  8
01
 10
-1530.113186339099
 20
-1547.2652018837141
 30
0.0
 40
0.5
 50
0.0
 51
90.0
  0
LINE
  5
1546C
  8
01
 10
-1594.113186339099
 20
-1546.7652018837141
 30
0.0
 11
-1590.113186339099
 21
-1546.7652018837141
 31
0.0
  0
LINE
  5
1546D
  8
01
 10
-1534.113186339099
 20
-1546.7652018837141
 30
0.0
 11
-1530.113186339099
 21
-1546.7652018837141
 31
0.0
  0
LINE
  5
15473
  8
01
 10
-1442.257749221711
 20
-1538.765212436093
 30
0.0
 11
-1328.2577490468659
 21
-1538.765212436093
 31
0.0
  0
LINE
  5
15475
  8
01
 10
-1442.257749221711
 20
-1538.765212436093
 30
0.0
 11
-1446.2577490468659
 21
-1538.765212436093
 31
0.0
  0
LINE
  5
15477
  8
01
 10
-1442.257749221711
 20
-1546.765212436093
 30
0.0
 11
-1324.336299186622
 21
-1546.7652124360941
 31
0.0
  0
LINE
  5
15479
  8
01
 10
-1442.257749221711
 20
-1546.765212436093
 30
0.0
 11
-1446.2577490468659
 21
-1546.765212436093
 31
0.0
  0
LINE
  5
1547A
  8
01
 10
-1446.2577490468659
 20
-1538.765212436093
 30
0.0
 11
-1447.2577490468659
 21
-1539.765212436093
 31
0.0
  0
LINE
  5
1547B
  8
01
 10
-1327.2577490468659
 20
-1539.765212436093
 30
0.0
 11
-1328.2577490468659
 21
-1538.765212436093
 31
0.0
  0
LINE
  5
1547C
  8
01
 10
-1447.2577490468659
 20
-1545.765212436093
 30
0.0
 11
-1447.2577490468659
 21
-1539.765212436093
 31
0.0
  0
LINE
  5
1547D
  8
01
 10
-1446.2577490468659
 20
-1546.765212436093
 30
0.0
 11
-1447.2577490468659
 21
-1545.765212436093
 31
0.0
  0
LINE
  5
1547E
  8
01
 10
-1327.2577490468659
 20
-1545.7652124360941
 30
0.0
 11
-1327.2577490468659
 21
-1539.765212436093
 31
0.0
  0
LINE
  5
15482
  8
01
 10
-1329.757749046867
 20
-1538.7652124360941
 30
0.0
 11
-1329.7577490468659
 21
-1537.765201431612
 31
0.0
  0
LINE
  5
15483
  8
01
 10
-1345.7577490468659
 20
-1538.7652124360941
 30
0.0
 11
-1345.7577490468659
 21
-1537.7652000328469
 31
0.0
  0
ARC
  5
154AF
  8
01
 10
-1342.2577564080891
 20
-1553.965213266609
 30
0.0
 40
7.0
 50
314.99999499103859
 51
134.9999949910501
  0
ARC
  5
154B0
  8
01
 10
-1353.5749098607621
 20
-1565.274673930913
 30
0.0
 40
7.0054383860749736
 50
303.12198509078007
 51
314.99536436938013
  0
LINE
  5
154B2
  8
01
 10
-1348.1511547995699
 20
-1569.965211855309
 30
0.0
 11
-1339.2577565173681
 21
-1569.965212632794
 31
0.0
  0
POLYLINE
  8
01
  5
161AF
  66
     1
 10
0.000000
 20
0.000000
 30
0.000000
  70
     8
  0
VERTEX
  8
01
  5
161B0
 10
-1348.80
 20
-1567.08
 30
0.000000
  70
    32
  0
VERTEX
  8
01
  5
161B1
 10
-1348.80
 20
-1567.08
 30
0.000000
  70
    32
  0
VERTEX
  8
01
  5
161B2
 10
-1348.80
 20
-1567.09
 30
0.000000
  70
    32
  0
VERTEX
  8
01
  5
161B3
 10
-1348.81
 20
-1567.09
 30
0.000000
  70
    32
  0
VERTEX
  8
01
  5
161B4
 10
-1348.81
 20
-1567.10
 30
0.000000
  70
    32
  0
VERTEX
  8
01
  5
161B5
 10
-1348.81
 20
-1567.10
 30
0.000000
  70
    32
  0
VERTEX
  8
01
  5
161B6
 10
-1348.81
 20
-1567.11
 30
0.000000
  70
    32
  0
VERTEX
  8
01
  5
161B7
 10
-1348.81
 20
-1567.11
 30
0.000000
  70
    32
  0
VERTEX
  8
01
  5
161B8
 10
-1348.81
 20
-1567.11
 30
0.000000
  70
    32
  0
VERTEX
  8
01
  5
161B9
 10
-1348.81
 20
-1567.12
 30
0.000000
  70
    32
  0
VERTEX
  8
01
  5
161BA
 10
-1348.82
 20
-1567.12
 30
0.000000
  70
    32
  0
VERTEX
  8
01
  5
161BB
 10
-1348.82
 20
-1567.13
 30
0.000000
  70
    32
  0
VERTEX
  8
01
  5
161BC
 10
-1348.82
 20
-1567.13
 30
0.000000
  70
    32
  0
VERTEX
  8
01
  5
161BD
 10
-1348.82
 20
-1567.14
 30
0.000000
  70
    32
  0
VERTEX
  8
01
  5
161BE
 10
-1348.82
 20
-1567.14
 30
0.000000
  70
    32
  0
VERTEX
  8
01
  5
161BF
 10
-1348.82
 20
-1567.14
 30
0.000000
  70
    32
  0
VERTEX
  8
01
  5
161C0
 10
-1348.83
 20
-1567.15
 30
0.000000
  70
    32
  0
VERTEX
  8
01
  5
161C1
 10
-1348.83
 20
-1567.15
 30
0.000000
  70
    32
  0
VERTEX
  8
01
  5
161C2
 10
-1348.83
 20
-1567.16
 30
0.000000
  70
    32
  0
VERTEX
  8
01
  5
161C3
 10
-1348.83
 20
-1567.16
 30
0.000000
  70
    32
  0
VERTEX
  8
01
  5
161C4
 10
-1348.83
 20
-1567.16
 30
0.000000
  70
    32
  0
VERTEX
  8
01
  5
161C5
 10
-1348.83
 20
-1567.17
 30
0.000000
  70
    32
  0
VERTEX
  8
01
  5
161C6
 10
-1348.84
 20
-1567.17
 30
0.000000
  70
    32
  0
VERTEX
  8
01
  5
161C7
 10
-1348.84
 20
-1567.18
 30
0.000000
  70
    32
  0
VERTEX
  8
01
  5
161C8
 10
-1348.84
 20
-1567.18
 30
0.000000
  70
    32
  0
VERTEX
  8
01
  5
161C9
 10
-1348.84
 20
-1567.19
 30
0.000000
  70
    32
  0
VERTEX
  8
01
  5
161CA
 10
-1348.84
 20
-1567.19
 30
0.000000
  70
    32
  0
VERTEX
  8
01
  5
161CB
 10
-1348.84
 20
-1567.19
 30
0.000000
  70
    32
  0
VERTEX
  8
01
  5
161CC
 10
-1348.85
 20
-1567.20
 30
0.000000
  70
    32
  0
VERTEX
  8
01
  5
161CD
 10
-1348.85
 20
-1567.20
 30
0.000000
  70
    32
  0
VERTEX
  8
01
  5
161CE
 10
-1348.85
 20
-1567.21
 30
0.000000
  70
    32
  0
VERTEX
  8
01
  5
161CF
 10
-1348.85
 20
-1567.21
 30
0.000000
  70
    32
  0
VERTEX
  8
01
  5
161D0
 10
-1348.85
 20
-1567.21
 30
0.000000
  70
    32
  0
VERTEX
  8
01
  5
161D1
 10
-1348.85
 20
-1567.22
 30
0.000000
  70
    32
  0
VERTEX
  8
01
  5
161D2
 10
-1348.86
 20
-1567.22
 30
0.000000
  70
    32
  0
VERTEX
  8
01
  5
161D3
 10
-1348.86
 20
-1567.23
 30
0.000000
  70
    32
  0
VERTEX
  8
01
  5
161D4
 10
-1348.86
 20
-1567.23
 30
0.000000
  70
    32
  0
VERTEX
  8
01
  5
161D5
 10
-1348.86
 20
-1567.24
 30
0.000000
  70
    32
  0
VERTEX
  8
01
  5
161D6
 10
-1348.86
 20
-1567.24
 30
0.000000
  70
    32
  0
VERTEX
  8
01
  5
161D7
 10
-1348.87
 20
-1567.24
 30
0.000000
  70
    32
  0
VERTEX
  8
01
  5
161D8
 10
-1348.87
 20
-1567.25
 30
0.000000
  70
    32
  0
VERTEX
  8
01
  5
161D9
 10
-1348.87
 20
-1567.25
 30
0.000000
  70
    32
  0
VERTEX
  8
01
  5
161DA
 10
-1348.87
 20
-1567.26
 30
0.000000
  70
    32
  0
VERTEX
  8
01
  5
161DB
 10
-1348.87
 20
-1567.26
 30
0.000000
  70
    32
  0
VERTEX
  8
01
  5
161DC
 10
-1348.87
 20
-1567.26
 30
0.000000
  70
    32
  0
VERTEX
  8
01
  5
161DD
 10
-1348.88
 20
-1567.27
 30
0.000000
  70
    32
  0
VERTEX
  8
01
  5
161DE
 10
-1348.88
 20
-1567.27
 30
0.000000
  70
    32
  0
VERTEX
  8
01
  5
161DF
 10
-1348.88
 20
-1567.28
 30
0.000000
  70
    32
  0
VERTEX
  8
01
  5
161E0
 10
-1348.88
 20
-1567.28
 30
0.000000
  70
    32
  0
VERTEX
  8
01
  5
161E1
 10
-1348.88
 20
-1567.29
 30
0.000000
  70
    32
  0
VERTEX
  8
01
  5
161E2
 10
-1348.88
 20
-1567.29
 30
0.000000
  70
    32
  0
VERTEX
  8
01
  5
161E3
 10
-1348.89
 20
-1567.29
 30
0.000000
  70
    32
  0
VERTEX
  8
01
  5
161E4
 10
-1348.89
 20
-1567.30
 30
0.000000
  70
    32
  0
VERTEX
  8
01
  5
161E5
 10
-1348.89
 20
-1567.30
 30
0.000000
  70
    32
  0
VERTEX
  8
01
  5
161E6
 10
-1348.89
 20
-1567.31
 30
0.000000
  70
    32
  0
VERTEX
  8
01
  5
161E7
 10
-1348.89
 20
-1567.31
 30
0.000000
  70
    32
  0
VERTEX
  8
01
  5
161E8
 10
-1348.90
 20
-1567.31
 30
0.000000
  70
    32
  0
VERTEX
  8
01
  5
161E9
 10
-1348.90
 20
-1567.32
 30
0.000000
  70
    32
  0
VERTEX
  8
01
  5
161EA
 10
-1348.90
 20
-1567.32
 30
0.000000
  70
    32
  0
VERTEX
  8
01
  5
161EB
 10
-1348.90
 20
-1567.33
 30
0.000000
  70
    32
  0
VERTEX
  8
01
  5
161EC
 10
-1348.90
 20
-1567.33
 30
0.000000
  70
    32
  0
VERTEX
  8
01
  5
161ED
 10
-1348.90
 20
-1567.34
 30
0.000000
  70
    32
  0
VERTEX
  8
01
  5
161EE
 10
-1348.91
 20
-1567.34
 30
0.000000
  70
    32
  0
VERTEX
  8
01
  5
161EF
 10
-1348.91
 20
-1567.34
 30
0.000000
  70
    32
  0
VERTEX
  8
01
  5
161F0
 10
-1348.91
 20
-1567.35
 30
0.000000
  70
    32
  0
VERTEX
  8
01
  5
161F1
 10
-1348.91
 20
-1567.35
 30
0.000000
  70
    32
  0
VERTEX
  8
01
  5
161F2
 10
-1348.91
 20
-1567.36
 30
0.000000
  70
    32
  0
VERTEX
  8
01
  5
161F3
 10
-1348.92
 20
-1567.36
 30
0.000000
  70
    32
  0
VERTEX
  8
01
  5
161F4
 10
-1348.92
 20
-1567.36
 30
0.000000
  70
    32
  0
VERTEX
  8
01
  5
161F5
 10
-1348.92
 20
-1567.37
 30
0.000000
  70
    32
  0
VERTEX
  8
01
  5
161F6
 10
-1348.92
 20
-1567.37
 30
0.000000
  70
    32
  0
VERTEX
  8
01
  5
161F7
 10
-1348.92
 20
-1567.38
 30
0.000000
  70
    32
  0
VERTEX
  8
01
  5
161F8
 10
-1348.92
 20
-1567.38
 30
0.000000
  70
    32
  0
VERTEX
  8
01
  5
161F9
 10
-1348.93
 20
-1567.38
 30
0.000000
  70
    32
  0
VERTEX
  8
01
  5
161FA
 10
-1348.93
 20
-1567.39
 30
0.000000
  70
    32
  0
VERTEX
  8
01
  5
161FB
 10
-1348.93
 20
-1567.39
 30
0.000000
  70
    32
  0
VERTEX
  8
01
  5
161FC
 10
-1348.93
 20
-1567.40
 30
0.000000
  70
    32
  0
VERTEX
  8
01
  5
161FD
 10
-1348.93
 20
-1567.40
 30
0.000000
  70
    32
  0
VERTEX
  8
01
  5
161FE
 10
-1348.94
 20
-1567.41
 30
0.000000
  70
    32
  0
VERTEX
  8
01
  5
161FF
 10
-1348.94
 20
-1567.41
 30
0.000000
  70
    32
  0
VERTEX
  8
01
  5
16200
 10
-1348.94
 20
-1567.41
 30
0.000000
  70
    32
  0
VERTEX
  8
01
  5
16201
 10
-1348.94
 20
-1567.42
 30
0.000000
  70
    32
  0
VERTEX
  8
01
  5
16202
 10
-1348.94
 20
-1567.42
 30
0.000000
  70
    32
  0
VERTEX
  8
01
  5
16203
 10
-1348.95
 20
-1567.43
 30
0.000000
  70
    32
  0
VERTEX
  8
01
  5
16204
 10
-1348.95
 20
-1567.43
 30
0.000000
  70
    32
  0
VERTEX
  8
01
  5
16205
 10
-1348.95
 20
-1567.43
 30
0.000000
  70
    32
  0
VERTEX
  8
01
  5
16206
 10
-1348.95
 20
-1567.44
 30
0.000000
  70
    32
  0
VERTEX
  8
01
  5
16207
 10
-1348.95
 20
-1567.44
 30
0.000000
  70
    32
  0
VERTEX
  8
01
  5
16208
 10
-1348.95
 20
-1567.45
 30
0.000000
  70
    32
  0
VERTEX
  8
01
  5
16209
 10
-1348.96
 20
-1567.45
 30
0.000000
  70
    32
  0
VERTEX
  8
01
  5
1620A
 10
-1348.96
 20
-1567.45
 30
0.000000
  70
    32
  0
VERTEX
  8
01
  5
1620B
 10
-1348.96
 20
-1567.46
 30
0.000000
  70
    32
  0
VERTEX
  8
01
  5
1620C
 10
-1348.96
 20
-1567.46
 30
0.000000
  70
    32
  0
VERTEX
  8
01
  5
1620D
 10
-1348.96
 20
-1567.47
 30
0.000000
  70
    32
  0
VERTEX
  8
01
  5
1620E
 10
-1348.97
 20
-1567.47
 30
0.000000
  70
    32
  0
VERTEX
  8
01
  5
1620F
 10
-1348.97
 20
-1567.47
 30
0.000000
  70
    32
  0
VERTEX
  8
01
  5
16210
 10
-1348.97
 20
-1567.48
 30
0.000000
  70
    32
  0
VERTEX
  8
01
  5
16211
 10
-1348.97
 20
-1567.48
 30
0.000000
  70
    32
  0
VERTEX
  8
01
  5
16212
 10
-1348.97
 20
-1567.49
 30
0.000000
  70
    32
  0
VERTEX
  8
01
  5
16213
 10
-1348.98
 20
-1567.49
 30
0.000000
  70
    32
  0
VERTEX
  8
01
  5
16214
 10
-1348.98
 20
-1567.49
 30
0.000000
  70
    32
  0
VERTEX
  8
01
  5
16215
 10
-1348.98
 20
-1567.50
 30
0.000000
  70
    32
  0
VERTEX
  8
01
  5
16216
 10
-1348.98
 20
-1567.50
 30
0.000000
  70
    32
  0
VERTEX
  8
01
  5
16217
 10
-1348.98
 20
-1567.51
 30
0.000000
  70
    32
  0
VERTEX
  8
01
  5
16218
 10
-1348.99
 20
-1567.51
 30
0.000000
  70
    32
  0
VERTEX
  8
01
  5
16219
 10
-1348.99
 20
-1567.52
 30
0.000000
  70
    32
  0
VERTEX
  8
01
  5
1621A
 10
-1348.99
 20
-1567.52
 30
0.000000
  70
    32
  0
VERTEX
  8
01
  5
1621B
 10
-1348.99
 20
-1567.52
 30
0.000000
  70
    32
  0
VERTEX
  8
01
  5
1621C
 10
-1348.99
 20
-1567.53
 30
0.000000
  70
    32
  0
VERTEX
  8
01
  5
1621D
 10
-1349.00
 20
-1567.53
 30
0.000000
  70
    32
  0
VERTEX
  8
01
  5
1621E
 10
-1349.00
 20
-1567.54
 30
0.000000
  70
    32
  0
VERTEX
  8
01
  5
1621F
 10
-1349.00
 20
-1567.54
 30
0.000000
  70
    32
  0
VERTEX
  8
01
  5
16220
 10
-1349.00
 20
-1567.54
 30
0.000000
  70
    32
  0
VERTEX
  8
01
  5
16221
 10
-1349.00
 20
-1567.55
 30
0.000000
  70
    32
  0
VERTEX
  8
01
  5
16222
 10
-1349.01
 20
-1567.55
 30
0.000000
  70
    32
  0
VERTEX
  8
01
  5
16223
 10
-1349.01
 20
-1567.56
 30
0.000000
  70
    32
  0
VERTEX
  8
01
  5
16224
 10
-1349.01
 20
-1567.56
 30
0.000000
  70
    32
  0
VERTEX
  8
01
  5
16225
 10
-1349.01
 20
-1567.56
 30
0.000000
  70
    32
  0
VERTEX
  8
01
  5
16226
 10
-1349.01
 20
-1567.57
 30
0.000000
  70
    32
  0
VERTEX
  8
01
  5
16227
 10
-1349.02
 20
-1567.57
 30
0.000000
  70
    32
  0
VERTEX
  8
01
  5
16228
 10
-1349.02
 20
-1567.58
 30
0.000000
  70
    32
  0
VERTEX
  8
01
  5
16229
 10
-1349.02
 20
-1567.58
 30
0.000000
  70
    32
  0
VERTEX
  8
01
  5
1622A
 10
-1349.02
 20
-1567.58
 30
0.000000
  70
    32
  0
VERTEX
  8
01
  5
1622B
 10
-1349.02
 20
-1567.59
 30
0.000000
  70
    32
  0
VERTEX
  8
01
  5
1622C
 10
-1349.03
 20
-1567.59
 30
0.000000
  70
    32
  0
VERTEX
  8
01
  5
1622D
 10
-1349.03
 20
-1567.60
 30
0.000000
  70
    32
  0
VERTEX
  8
01
  5
1622E
 10
-1349.03
 20
-1567.60
 30
0.000000
  70
    32
  0
VERTEX
  8
01
  5
1622F
 10
-1349.03
 20
-1567.60
 30
0.000000
  70
    32
  0
VERTEX
  8
01
  5
16230
 10
-1349.03
 20
-1567.61
 30
0.000000
  70
    32
  0
VERTEX
  8
01
  5
16231
 10
-1349.04
 20
-1567.61
 30
0.000000
  70
    32
  0
VERTEX
  8
01
  5
16232
 10
-1349.04
 20
-1567.62
 30
0.000000
  70
    32
  0
VERTEX
  8
01
  5
16233
 10
-1349.04
 20
-1567.62
 30
0.000000
  70
    32
  0
VERTEX
  8
01
  5
16234
 10
-1349.04
 20
-1567.62
 30
0.000000
  70
    32
  0
VERTEX
  8
01
  5
16235
 10
-1349.04
 20
-1567.63
 30
0.000000
  70
    32
  0
VERTEX
  8
01
  5
16236
 10
-1349.05
 20
-1567.63
 30
0.000000
  70
    32
  0
VERTEX
  8
01
  5
16237
 10
-1349.05
 20
-1567.64
 30
0.000000
  70
    32
  0
VERTEX
  8
01
  5
16238
 10
-1349.05
 20
-1567.64
 30
0.000000
  70
    32
  0
VERTEX
  8
01
  5
16239
 10
-1349.05
 20
-1567.64
 30
0.000000
  70
    32
  0
VERTEX
  8
01
  5
1623A
 10
-1349.06
 20
-1567.65
 30
0.000000
  70
    32
  0
VERTEX
  8
01
  5
1623B
 10
-1349.06
 20
-1567.65
 30
0.000000
  70
    32
  0
VERTEX
  8
01
  5
1623C
 10
-1349.06
 20
-1567.66
 30
0.000000
  70
    32
  0
VERTEX
  8
01
  5
1623D
 10
-1349.06
 20
-1567.66
 30
0.000000
  70
    32
  0
VERTEX
  8
01
  5
1623E
 10
-1349.06
 20
-1567.66
 30
0.000000
  70
    32
  0
VERTEX
  8
01
  5
1623F
 10
-1349.07
 20
-1567.67
 30
0.000000
  70
    32
  0
VERTEX
  8
01
  5
16240
 10
-1349.07
 20
-1567.67
 30
0.000000
  70
    32
  0
VERTEX
  8
01
  5
16241
 10
-1349.07
 20
-1567.68
 30
0.000000
  70
    32
  0
VERTEX
  8
01
  5
16242
 10
-1349.07
 20
-1567.68
 30
0.000000
  70
    32
  0
VERTEX
  8
01
  5
16243
 10
-1349.07
 20
-1567.68
 30
0.000000
  70
    32
  0
VERTEX
  8
01
  5
16244
 10
-1349.08
 20
-1567.69
 30
0.000000
  70
    32
  0
VERTEX
  8
01
  5
16245
 10
-1349.08
 20
-1567.69
 30
0.000000
  70
    32
  0
VERTEX
  8
01
  5
16246
 10
-1349.08
 20
-1567.70
 30
0.000000
  70
    32
  0
VERTEX
  8
01
  5
16247
 10
-1349.08
 20
-1567.70
 30
0.000000
  70
    32
  0
VERTEX
  8
01
  5
16248
 10
-1349.08
 20
-1567.70
 30
0.000000
  70
    32
  0
VERTEX
  8
01
  5
16249
 10
-1349.09
 20
-1567.71
 30
0.000000
  70
    32
  0
VERTEX
  8
01
  5
1624A
 10
-1349.09
 20
-1567.71
 30
0.000000
  70
    32
  0
VERTEX
  8
01
  5
1624B
 10
-1349.09
 20
-1567.72
 30
0.000000
  70
    32
  0
VERTEX
  8
01
  5
1624C
 10
-1349.09
 20
-1567.72
 30
0.000000
  70
    32
  0
VERTEX
  8
01
  5
1624D
 10
-1349.10
 20
-1567.72
 30
0.000000
  70
    32
  0
VERTEX
  8
01
  5
1624E
 10
-1349.10
 20
-1567.73
 30
0.000000
  70
    32
  0
VERTEX
  8
01
  5
1624F
 10
-1349.10
 20
-1567.73
 30
0.000000
  70
    32
  0
VERTEX
  8
01
  5
16250
 10
-1349.10
 20
-1567.74
 30
0.000000
  70
    32
  0
VERTEX
  8
01
  5
16251
 10
-1349.10
 20
-1567.74
 30
0.000000
  70
    32
  0
VERTEX
  8
01
  5
16252
 10
-1349.11
 20
-1567.74
 30
0.000000
  70
    32
  0
VERTEX
  8
01
  5
16253
 10
-1349.11
 20
-1567.75
 30
0.000000
  70
    32
  0
VERTEX
  8
01
  5
16254
 10
-1349.11
 20
-1567.75
 30
0.000000
  70
    32
  0
VERTEX
  8
01
  5
16255
 10
-1349.11
 20
-1567.76
 30
0.000000
  70
    32
  0
VERTEX
  8
01
  5
16256
 10
-1349.12
 20
-1567.76
 30
0.000000
  70
    32
  0
VERTEX
  8
01
  5
16257
 10
-1349.12
 20
-1567.76
 30
0.000000
  70
    32
  0
VERTEX
  8
01
  5
16258
 10
-1349.12
 20
-1567.77
 30
0.000000
  70
    32
  0
VERTEX
  8
01
  5
16259
 10
-1349.12
 20
-1567.77
 30
0.000000
  70
    32
  0
VERTEX
  8
01
  5
1625A
 10
-1349.12
 20
-1567.78
 30
0.000000
  70
    32
  0
VERTEX
  8
01
  5
1625B
 10
-1349.13
 20
-1567.78
 30
0.000000
  70
    32
  0
VERTEX
  8
01
  5
1625C
 10
-1349.13
 20
-1567.78
 30
0.000000
  70
    32
  0
VERTEX
  8
01
  5
1625D
 10
-1349.13
 20
-1567.79
 30
0.000000
  70
    32
  0
VERTEX
  8
01
  5
1625E
 10
-1349.13
 20
-1567.79
 30
0.000000
  70
    32
  0
VERTEX
  8
01
  5
1625F
 10
-1349.14
 20
-1567.79
 30
0.000000
  70
    32
  0
VERTEX
  8
01
  5
16260
 10
-1349.14
 20
-1567.80
 30
0.000000
  70
    32
  0
VERTEX
  8
01
  5
16261
 10
-1349.14
 20
-1567.80
 30
0.000000
  70
    32
  0
VERTEX
  8
01
  5
16262
 10
-1349.14
 20
-1567.81
 30
0.000000
  70
    32
  0
VERTEX
  8
01
  5
16263
 10
-1349.14
 20
-1567.81
 30
0.000000
  70
    32
  0
VERTEX
  8
01
  5
16264
 10
-1349.15
 20
-1567.81
 30
0.000000
  70
    32
  0
VERTEX
  8
01
  5
16265
 10
-1349.15
 20
-1567.82
 30
0.000000
  70
    32
  0
VERTEX
  8
01
  5
16266
 10
-1349.15
 20
-1567.82
 30
0.000000
  70
    32
  0
VERTEX
  8
01
  5
16267
 10
-1349.15
 20
-1567.83
 30
0.000000
  70
    32
  0
VERTEX
  8
01
  5
16268
 10
-1349.16
 20
-1567.83
 30
0.000000
  70
    32
  0
VERTEX
  8
01
  5
16269
 10
-1349.16
 20
-1567.83
 30
0.000000
  70
    32
  0
VERTEX
  8
01
  5
1626A
 10
-1349.16
 20
-1567.84
 30
0.000000
  70
    32
  0
VERTEX
  8
01
  5
1626B
 10
-1349.16
 20
-1567.84
 30
0.000000
  70
    32
  0
VERTEX
  8
01
  5
1626C
 10
-1349.16
 20
-1567.85
 30
0.000000
  70
    32
  0
VERTEX
  8
01
  5
1626D
 10
-1349.17
 20
-1567.85
 30
0.000000
  70
    32
  0
VERTEX
  8
01
  5
1626E
 10
-1349.17
 20
-1567.85
 30
0.000000
  70
    32
  0
VERTEX
  8
01
  5
1626F
 10
-1349.17
 20
-1567.86
 30
0.000000
  70
    32
  0
VERTEX
  8
01
  5
16270
 10
-1349.17
 20
-1567.86
 30
0.000000
  70
    32
  0
VERTEX
  8
01
  5
16271
 10
-1349.18
 20
-1567.87
 30
0.000000
  70
    32
  0
VERTEX
  8
01
  5
16272
 10
-1349.18
 20
-1567.87
 30
0.000000
  70
    32
  0
VERTEX
  8
01
  5
16273
 10
-1349.18
 20
-1567.87
 30
0.000000
  70
    32
  0
VERTEX
  8
01
  5
16274
 10
-1349.18
 20
-1567.88
 30
0.000000
  70
    32
  0
VERTEX
  8
01
  5
16275
 10
-1349.18
 20
-1567.88
 30
0.000000
  70
    32
  0
VERTEX
  8
01
  5
16276
 10
-1349.19
 20
-1567.88
 30
0.000000
  70
    32
  0
VERTEX
  8
01
  5
16277
 10
-1349.19
 20
-1567.89
 30
0.000000
  70
    32
  0
VERTEX
  8
01
  5
16278
 10
-1349.19
 20
-1567.89
 30
0.000000
  70
    32
  0
VERTEX
  8
01
  5
16279
 10
-1349.19
 20
-1567.90
 30
0.000000
  70
    32
  0
VERTEX
  8
01
  5
1627A
 10
-1349.20
 20
-1567.90
 30
0.000000
  70
    32
  0
VERTEX
  8
01
  5
1627B
 10
-1349.20
 20
-1567.90
 30
0.000000
  70
    32
  0
VERTEX
  8
01
  5
1627C
 10
-1349.20
 20
-1567.91
 30
0.000000
  70
    32
  0
VERTEX
  8
01
  5
1627D
 10
-1349.20
 20
-1567.91
 30
0.000000
  70
    32
  0
VERTEX
  8
01
  5
1627E
 10
-1349.21
 20
-1567.92
 30
0.000000
  70
    32
  0
VERTEX
  8
01
  5
1627F
 10
-1349.21
 20
-1567.92
 30
0.000000
  70
    32
  0
VERTEX
  8
01
  5
16280
 10
-1349.21
 20
-1567.92
 30
0.000000
  70
    32
  0
VERTEX
  8
01
  5
16281
 10
-1349.21
 20
-1567.93
 30
0.000000
  70
    32
  0
VERTEX
  8
01
  5
16282
 10
-1349.22
 20
-1567.93
 30
0.000000
  70
    32
  0
VERTEX
  8
01
  5
16283
 10
-1349.22
 20
-1567.93
 30
0.000000
  70
    32
  0
VERTEX
  8
01
  5
16284
 10
-1349.22
 20
-1567.94
 30
0.000000
  70
    32
  0
VERTEX
  8
01
  5
16285
 10
-1349.22
 20
-1567.94
 30
0.000000
  70
    32
  0
VERTEX
  8
01
  5
16286
 10
-1349.22
 20
-1567.95
 30
0.000000
  70
    32
  0
VERTEX
  8
01
  5
16287
 10
-1349.23
 20
-1567.95
 30
0.000000
  70
    32
  0
VERTEX
  8
01
  5
16288
 10
-1349.23
 20
-1567.95
 30
0.000000
  70
    32
  0
VERTEX
  8
01
  5
16289
 10
-1349.23
 20
-1567.96
 30
0.000000
  70
    32
  0
VERTEX
  8
01
  5
1628A
 10
-1349.23
 20
-1567.96
 30
0.000000
  70
    32
  0
VERTEX
  8
01
  5
1628B
 10
-1349.24
 20
-1567.97
 30
0.000000
  70
    32
  0
VERTEX
  8
01
  5
1628C
 10
-1349.24
 20
-1567.97
 30
0.000000
  70
    32
  0
VERTEX
  8
01
  5
1628D
 10
-1349.24
 20
-1567.97
 30
0.000000
  70
    32
  0
VERTEX
  8
01
  5
1628E
 10
-1349.24
 20
-1567.98
 30
0.000000
  70
    32
  0
VERTEX
  8
01
  5
1628F
 10
-1349.25
 20
-1567.98
 30
0.000000
  70
    32
  0
VERTEX
  8
01
  5
16290
 10
-1349.25
 20
-1567.98
 30
0.000000
  70
    32
  0
VERTEX
  8
01
  5
16291
 10
-1349.25
 20
-1567.99
 30
0.000000
  70
    32
  0
VERTEX
  8
01
  5
16292
 10
-1349.25
 20
-1567.99
 30
0.000000
  70
    32
  0
VERTEX
  8
01
  5
16293
 10
-1349.26
 20
-1568.00
 30
0.000000
  70
    32
  0
VERTEX
  8
01
  5
16294
 10
-1349.26
 20
-1568.00
 30
0.000000
  70
    32
  0
VERTEX
  8
01
  5
16295
 10
-1349.26
 20
-1568.00
 30
0.000000
  70
    32
  0
VERTEX
  8
01
  5
16296
 10
-1349.26
 20
-1568.01
 30
0.000000
  70
    32
  0
VERTEX
  8
01
  5
16297
 10
-1349.27
 20
-1568.01
 30
0.000000
  70
    32
  0
VERTEX
  8
01
  5
16298
 10
-1349.27
 20
-1568.02
 30
0.000000
  70
    32
  0
VERTEX
  8
01
  5
16299
 10
-1349.27
 20
-1568.02
 30
0.000000
  70
    32
  0
VERTEX
  8
01
  5
1629A
 10
-1349.27
 20
-1568.02
 30
0.000000
  70
    32
  0
VERTEX
  8
01
  5
1629B
 10
-1349.27
 20
-1568.03
 30
0.000000
  70
    32
  0
VERTEX
  8
01
  5
1629C
 10
-1349.28
 20
-1568.03
 30
0.000000
  70
    32
  0
VERTEX
  8
01
  5
1629D
 10
-1349.28
 20
-1568.03
 30
0.000000
  70
    32
  0
VERTEX
  8
01
  5
1629E
 10
-1349.28
 20
-1568.04
 30
0.000000
  70
    32
  0
VERTEX
  8
01
  5
1629F
 10
-1349.28
 20
-1568.04
 30
0.000000
  70
    32
  0
VERTEX
  8
01
  5
162A0
 10
-1349.29
 20
-1568.05
 30
0.000000
  70
    32
  0
VERTEX
  8
01
  5
162A1
 10
-1349.29
 20
-1568.05
 30
0.000000
  70
    32
  0
VERTEX
  8
01
  5
162A2
 10
-1349.29
 20
-1568.05
 30
0.000000
  70
    32
  0
VERTEX
  8
01
  5
162A3
 10
-1349.29
 20
-1568.06
 30
0.000000
  70
    32
  0
VERTEX
  8
01
  5
162A4
 10
-1349.30
 20
-1568.06
 30
0.000000
  70
    32
  0
VERTEX
  8
01
  5
162A5
 10
-1349.30
 20
-1568.06
 30
0.000000
  70
    32
  0
VERTEX
  8
01
  5
162A6
 10
-1349.30
 20
-1568.07
 30
0.000000
  70
    32
  0
VERTEX
  8
01
  5
162A7
 10
-1349.30
 20
-1568.07
 30
0.000000
  70
    32
  0
VERTEX
  8
01
  5
162A8
 10
-1349.31
 20
-1568.08
 30
0.000000
  70
    32
  0
VERTEX
  8
01
  5
162A9
 10
-1349.31
 20
-1568.08
 30
0.000000
  70
    32
  0
VERTEX
  8
01
  5
162AA
 10
-1349.31
 20
-1568.08
 30
0.000000
  70
    32
  0
VERTEX
  8
01
  5
162AB
 10
-1349.31
 20
-1568.09
 30
0.000000
  70
    32
  0
VERTEX
  8
01
  5
162AC
 10
-1349.32
 20
-1568.09
 30
0.000000
  70
    32
  0
VERTEX
  8
01
  5
162AD
 10
-1349.32
 20
-1568.09
 30
0.000000
  70
    32
  0
VERTEX
  8
01
  5
162AE
 10
-1349.32
 20
-1568.10
 30
0.000000
  70
    32
  0
VERTEX
  8
01
  5
162AF
 10
-1349.32
 20
-1568.10
 30
0.000000
  70
    32
  0
VERTEX
  8
01
  5
162B0
 10
-1349.33
 20
-1568.11
 30
0.000000
  70
    32
  0
VERTEX
  8
01
  5
162B1
 10
-1349.33
 20
-1568.11
 30
0.000000
  70
    32
  0
VERTEX
  8
01
  5
162B2
 10
-1349.33
 20
-1568.11
 30
0.000000
  70
    32
  0
VERTEX
  8
01
  5
162B3
 10
-1349.33
 20
-1568.12
 30
0.000000
  70
    32
  0
VERTEX
  8
01
  5
162B4
 10
-1349.34
 20
-1568.12
 30
0.000000
  70
    32
  0
VERTEX
  8
01
  5
162B5
 10
-1349.34
 20
-1568.12
 30
0.000000
  70
    32
  0
VERTEX
  8
01
  5
162B6
 10
-1349.34
 20
-1568.13
 30
0.000000
  70
    32
  0
VERTEX
  8
01
  5
162B7
 10
-1349.34
 20
-1568.13
 30
0.000000
  70
    32
  0
VERTEX
  8
01
  5
162B8
 10
-1349.35
 20
-1568.14
 30
0.000000
  70
    32
  0
VERTEX
  8
01
  5
162B9
 10
-1349.35
 20
-1568.14
 30
0.000000
  70
    32
  0
VERTEX
  8
01
  5
162BA
 10
-1349.35
 20
-1568.14
 30
0.000000
  70
    32
  0
VERTEX
  8
01
  5
162BB
 10
-1349.35
 20
-1568.15
 30
0.000000
  70
    32
  0
VERTEX
  8
01
  5
162BC
 10
-1349.36
 20
-1568.15
 30
0.000000
  70
    32
  0
VERTEX
  8
01
  5
162BD
 10
-1349.36
 20
-1568.15
 30
0.000000
  70
    32
  0
VERTEX
  8
01
  5
162BE
 10
-1349.36
 20
-1568.16
 30
0.000000
  70
    32
  0
VERTEX
  8
01
  5
162BF
 10
-1349.36
 20
-1568.16
 30
0.000000
  70
    32
  0
VERTEX
  8
01
  5
162C0
 10
-1349.37
 20
-1568.17
 30
0.000000
  70
    32
  0
VERTEX
  8
01
  5
162C1
 10
-1349.37
 20
-1568.17
 30
0.000000
  70
    32
  0
VERTEX
  8
01
  5
162C2
 10
-1349.37
 20
-1568.17
 30
0.000000
  70
    32
  0
VERTEX
  8
01
  5
162C3
 10
-1349.37
 20
-1568.18
 30
0.000000
  70
    32
  0
VERTEX
  8
01
  5
162C4
 10
-1349.38
 20
-1568.18
 30
0.000000
  70
    32
  0
VERTEX
  8
01
  5
162C5
 10
-1349.38
 20
-1568.18
 30
0.000000
  70
    32
  0
VERTEX
  8
01
  5
162C6
 10
-1349.38
 20
-1568.19
 30
0.000000
  70
    32
  0
VERTEX
  8
01
  5
162C7
 10
-1349.39
 20
-1568.19
 30
0.000000
  70
    32
  0
VERTEX
  8
01
  5
162C8
 10
-1349.39
 20
-1568.20
 30
0.000000
  70
    32
  0
VERTEX
  8
01
  5
162C9
 10
-1349.39
 20
-1568.20
 30
0.000000
  70
    32
  0
VERTEX
  8
01
  5
162CA
 10
-1349.39
 20
-1568.20
 30
0.000000
  70
    32
  0
VERTEX
  8
01
  5
162CB
 10
-1349.40
 20
-1568.21
 30
0.000000
  70
    32
  0
VERTEX
  8
01
  5
162CC
 10
-1349.40
 20
-1568.21
 30
0.000000
  70
    32
  0
VERTEX
  8
01
  5
162CD
 10
-1349.40
 20
-1568.21
 30
0.000000
  70
    32
  0
VERTEX
  8
01
  5
162CE
 10
-1349.40
 20
-1568.22
 30
0.000000
  70
    32
  0
VERTEX
  8
01
  5
162CF
 10
-1349.41
 20
-1568.22
 30
0.000000
  70
    32
  0
VERTEX
  8
01
  5
162D0
 10
-1349.41
 20
-1568.23
 30
0.000000
  70
    32
  0
VERTEX
  8
01
  5
162D1
 10
-1349.41
 20
-1568.23
 30
0.000000
  70
    32
  0
VERTEX
  8
01
  5
162D2
 10
-1349.41
 20
-1568.23
 30
0.000000
  70
    32
  0
VERTEX
  8
01
  5
162D3
 10
-1349.42
 20
-1568.24
 30
0.000000
  70
    32
  0
VERTEX
  8
01
  5
162D4
 10
-1349.42
 20
-1568.24
 30
0.000000
  70
    32
  0
VERTEX
  8
01
  5
162D5
 10
-1349.42
 20
-1568.24
 30
0.000000
  70
    32
  0
VERTEX
  8
01
  5
162D6
 10
-1349.42
 20
-1568.25
 30
0.000000
  70
    32
  0
VERTEX
  8
01
  5
162D7
 10
-1349.43
 20
-1568.25
 30
0.000000
  70
    32
  0
VERTEX
  8
01
  5
162D8
 10
-1349.43
 20
-1568.25
 30
0.000000
  70
    32
  0
VERTEX
  8
01
  5
162D9
 10
-1349.43
 20
-1568.26
 30
0.000000
  70
    32
  0
VERTEX
  8
01
  5
162DA
 10
-1349.43
 20
-1568.26
 30
0.000000
  70
    32
  0
VERTEX
  8
01
  5
162DB
 10
-1349.44
 20
-1568.27
 30
0.000000
  70
    32
  0
VERTEX
  8
01
  5
162DC
 10
-1349.44
 20
-1568.27
 30
0.000000
  70
    32
  0
VERTEX
  8
01
  5
162DD
 10
-1349.44
 20
-1568.27
 30
0.000000
  70
    32
  0
VERTEX
  8
01
  5
162DE
 10
-1349.45
 20
-1568.28
 30
0.000000
  70
    32
  0
VERTEX
  8
01
  5
162DF
 10
-1349.45
 20
-1568.28
 30
0.000000
  70
    32
  0
VERTEX
  8
01
  5
162E0
 10
-1349.45
 20
-1568.28
 30
0.000000
  70
    32
  0
VERTEX
  8
01
  5
162E1
 10
-1349.45
 20
-1568.29
 30
0.000000
  70
    32
  0
VERTEX
  8
01
  5
162E2
 10
-1349.46
 20
-1568.29
 30
0.000000
  70
    32
  0
VERTEX
  8
01
  5
162E3
 10
-1349.46
 20
-1568.29
 30
0.000000
  70
    32
  0
VERTEX
  8
01
  5
162E4
 10
-1349.46
 20
-1568.30
 30
0.000000
  70
    32
  0
VERTEX
  8
01
  5
162E5
 10
-1349.46
 20
-1568.30
 30
0.000000
  70
    32
  0
VERTEX
  8
01
  5
162E6
 10
-1349.47
 20
-1568.31
 30
0.000000
  70
    32
  0
VERTEX
  8
01
  5
162E7
 10
-1349.47
 20
-1568.31
 30
0.000000
  70
    32
  0
VERTEX
  8
01
  5
162E8
 10
-1349.47
 20
-1568.31
 30
0.000000
  70
    32
  0
VERTEX
  8
01
  5
162E9
 10
-1349.47
 20
-1568.32
 30
0.000000
  70
    32
  0
VERTEX
  8
01
  5
162EA
 10
-1349.48
 20
-1568.32
 30
0.000000
  70
    32
  0
VERTEX
  8
01
  5
162EB
 10
-1349.48
 20
-1568.32
 30
0.000000
  70
    32
  0
VERTEX
  8
01
  5
162EC
 10
-1349.48
 20
-1568.33
 30
0.000000
  70
    32
  0
VERTEX
  8
01
  5
162ED
 10
-1349.49
 20
-1568.33
 30
0.000000
  70
    32
  0
VERTEX
  8
01
  5
162EE
 10
-1349.49
 20
-1568.33
 30
0.000000
  70
    32
  0
VERTEX
  8
01
  5
162EF
 10
-1349.49
 20
-1568.34
 30
0.000000
  70
    32
  0
VERTEX
  8
01
  5
162F0
 10
-1349.49
 20
-1568.34
 30
0.000000
  70
    32
  0
VERTEX
  8
01
  5
162F1
 10
-1349.50
 20
-1568.35
 30
0.000000
  70
    32
  0
VERTEX
  8
01
  5
162F2
 10
-1349.50
 20
-1568.35
 30
0.000000
  70
    32
  0
VERTEX
  8
01
  5
162F3
 10
-1349.50
 20
-1568.35
 30
0.000000
  70
    32
  0
VERTEX
  8
01
  5
162F4
 10
-1349.50
 20
-1568.36
 30
0.000000
  70
    32
  0
VERTEX
  8
01
  5
162F5
 10
-1349.51
 20
-1568.36
 30
0.000000
  70
    32
  0
VERTEX
  8
01
  5
162F6
 10
-1349.51
 20
-1568.36
 30
0.000000
  70
    32
  0
VERTEX
  8
01
  5
162F7
 10
-1349.51
 20
-1568.37
 30
0.000000
  70
    32
  0
VERTEX
  8
01
  5
162F8
 10
-1349.52
 20
-1568.37
 30
0.000000
  70
    32
  0
VERTEX
  8
01
  5
162F9
 10
-1349.52
 20
-1568.37
 30
0.000000
  70
    32
  0
VERTEX
  8
01
  5
162FA
 10
-1349.52
 20
-1568.38
 30
0.000000
  70
    32
  0
VERTEX
  8
01
  5
162FB
 10
-1349.52
 20
-1568.38
 30
0.000000
  70
    32
  0
VERTEX
  8
01
  5
162FC
 10
-1349.53
 20
-1568.38
 30
0.000000
  70
    32
  0
VERTEX
  8
01
  5
162FD
 10
-1349.53
 20
-1568.39
 30
0.000000
  70
    32
  0
VERTEX
  8
01
  5
162FE
 10
-1349.53
 20
-1568.39
 30
0.000000
  70
    32
  0
VERTEX
  8
01
  5
162FF
 10
-1349.53
 20
-1568.40
 30
0.000000
  70
    32
  0
VERTEX
  8
01
  5
16300
 10
-1349.54
 20
-1568.40
 30
0.000000
  70
    32
  0
VERTEX
  8
01
  5
16301
 10
-1349.54
 20
-1568.40
 30
0.000000
  70
    32
  0
VERTEX
  8
01
  5
16302
 10
-1349.54
 20
-1568.41
 30
0.000000
  70
    32
  0
VERTEX
  8
01
  5
16303
 10
-1349.55
 20
-1568.41
 30
0.000000
  70
    32
  0
VERTEX
  8
01
  5
16304
 10
-1349.55
 20
-1568.41
 30
0.000000
  70
    32
  0
VERTEX
  8
01
  5
16305
 10
-1349.55
 20
-1568.42
 30
0.000000
  70
    32
  0
VERTEX
  8
01
  5
16306
 10
-1349.55
 20
-1568.42
 30
0.000000
  70
    32
  0
VERTEX
  8
01
  5
16307
 10
-1349.56
 20
-1568.42
 30
0.000000
  70
    32
  0
VERTEX
  8
01
  5
16308
 10
-1349.56
 20
-1568.43
 30
0.000000
  70
    32
  0
VERTEX
  8
01
  5
16309
 10
-1349.56
 20
-1568.43
 30
0.000000
  70
    32
  0
VERTEX
  8
01
  5
1630A
 10
-1349.57
 20
-1568.43
 30
0.000000
  70
    32
  0
VERTEX
  8
01
  5
1630B
 10
-1349.57
 20
-1568.44
 30
0.000000
  70
    32
  0
VERTEX
  8
01
  5
1630C
 10
-1349.57
 20
-1568.44
 30
0.000000
  70
    32
  0
VERTEX
  8
01
  5
1630D
 10
-1349.57
 20
-1568.45
 30
0.000000
  70
    32
  0
VERTEX
  8
01
  5
1630E
 10
-1349.58
 20
-1568.45
 30
0.000000
  70
    32
  0
VERTEX
  8
01
  5
1630F
 10
-1349.58
 20
-1568.45
 30
0.000000
  70
    32
  0
VERTEX
  8
01
  5
16310
 10
-1349.58
 20
-1568.46
 30
0.000000
  70
    32
  0
VERTEX
  8
01
  5
16311
 10
-1349.58
 20
-1568.46
 30
0.000000
  70
    32
  0
VERTEX
  8
01
  5
16312
 10
-1349.59
 20
-1568.46
 30
0.000000
  70
    32
  0
VERTEX
  8
01
  5
16313
 10
-1349.59
 20
-1568.47
 30
0.000000
  70
    32
  0
VERTEX
  8
01
  5
16314
 10
-1349.59
 20
-1568.47
 30
0.000000
  70
    32
  0
VERTEX
  8
01
  5
16315
 10
-1349.60
 20
-1568.47
 30
0.000000
  70
    32
  0
VERTEX
  8
01
  5
16316
 10
-1349.60
 20
-1568.48
 30
0.000000
  70
    32
  0
VERTEX
  8
01
  5
16317
 10
-1349.60
 20
-1568.48
 30
0.000000
  70
    32
  0
VERTEX
  8
01
  5
16318
 10
-1349.60
 20
-1568.48
 30
0.000000
  70
    32
  0
VERTEX
  8
01
  5
16319
 10
-1349.61
 20
-1568.49
 30
0.000000
  70
    32
  0
VERTEX
  8
01
  5
1631A
 10
-1349.61
 20
-1568.49
 30
0.000000
  70
    32
  0
VERTEX
  8
01
  5
1631B
 10
-1349.61
 20
-1568.49
 30
0.000000
  70
    32
  0
VERTEX
  8
01
  5
1631C
 10
-1349.62
 20
-1568.50
 30
0.000000
  70
    32
  0
VERTEX
  8
01
  5
1631D
 10
-1349.62
 20
-1568.50
 30
0.000000
  70
    32
  0
VERTEX
  8
01
  5
1631E
 10
-1349.62
 20
-1568.51
 30
0.000000
  70
    32
  0
VERTEX
  8
01
  5
1631F
 10
-1349.62
 20
-1568.51
 30
0.000000
  70
    32
  0
VERTEX
  8
01
  5
16320
 10
-1349.63
 20
-1568.51
 30
0.000000
  70
    32
  0
VERTEX
  8
01
  5
16321
 10
-1349.63
 20
-1568.52
 30
0.000000
  70
    32
  0
VERTEX
  8
01
  5
16322
 10
-1349.63
 20
-1568.52
 30
0.000000
  70
    32
  0
VERTEX
  8
01
  5
16323
 10
-1349.64
 20
-1568.52
 30
0.000000
  70
    32
  0
VERTEX
  8
01
  5
16324
 10
-1349.64
 20
-1568.53
 30
0.000000
  70
    32
  0
VERTEX
  8
01
  5
16325
 10
-1349.64
 20
-1568.53
 30
0.000000
  70
    32
  0
VERTEX
  8
01
  5
16326
 10
-1349.64
 20
-1568.53
 30
0.000000
  70
    32
  0
VERTEX
  8
01
  5
16327
 10
-1349.65
 20
-1568.54
 30
0.000000
  70
    32
  0
VERTEX
  8
01
  5
16328
 10
-1349.65
 20
-1568.54
 30
0.000000
  70
    32
  0
VERTEX
  8
01
  5
16329
 10
-1349.65
 20
-1568.54
 30
0.000000
  70
    32
  0
VERTEX
  8
01
  5
1632A
 10
-1349.66
 20
-1568.55
 30
0.000000
  70
    32
  0
VERTEX
  8
01
  5
1632B
 10
-1349.66
 20
-1568.55
 30
0.000000
  70
    32
  0
VERTEX
  8
01
  5
1632C
 10
-1349.66
 20
-1568.55
 30
0.000000
  70
    32
  0
VERTEX
  8
01
  5
1632D
 10
-1349.66
 20
-1568.56
 30
0.000000
  70
    32
  0
VERTEX
  8
01
  5
1632E
 10
-1349.67
 20
-1568.56
 30
0.000000
  70
    32
  0
VERTEX
  8
01
  5
1632F
 10
-1349.67
 20
-1568.56
 30
0.000000
  70
    32
  0
VERTEX
  8
01
  5
16330
 10
-1349.67
 20
-1568.57
 30
0.000000
  70
    32
  0
VERTEX
  8
01
  5
16331
 10
-1349.68
 20
-1568.57
 30
0.000000
  70
    32
  0
VERTEX
  8
01
  5
16332
 10
-1349.68
 20
-1568.57
 30
0.000000
  70
    32
  0
VERTEX
  8
01
  5
16333
 10
-1349.68
 20
-1568.58
 30
0.000000
  70
    32
  0
VERTEX
  8
01
  5
16334
 10
-1349.69
 20
-1568.58
 30
0.000000
  70
    32
  0
VERTEX
  8
01
  5
16335
 10
-1349.69
 20
-1568.58
 30
0.000000
  70
    32
  0
VERTEX
  8
01
  5
16336
 10
-1349.69
 20
-1568.59
 30
0.000000
  70
    32
  0
VERTEX
  8
01
  5
16337
 10
-1349.69
 20
-1568.59
 30
0.000000
  70
    32
  0
VERTEX
  8
01
  5
16338
 10
-1349.70
 20
-1568.60
 30
0.000000
  70
    32
  0
VERTEX
  8
01
  5
16339
 10
-1349.70
 20
-1568.60
 30
0.000000
  70
    32
  0
VERTEX
  8
01
  5
1633A
 10
-1349.70
 20
-1568.60
 30
0.000000
  70
    32
  0
VERTEX
  8
01
  5
1633B
 10
-1349.71
 20
-1568.61
 30
0.000000
  70
    32
  0
VERTEX
  8
01
  5
1633C
 10
-1349.71
 20
-1568.61
 30
0.000000
  70
    32
  0
VERTEX
  8
01
  5
1633D
 10
-1349.71
 20
-1568.61
 30
0.000000
  70
    32
  0
VERTEX
  8
01
  5
1633E
 10
-1349.71
 20
-1568.62
 30
0.000000
  70
    32
  0
VERTEX
  8
01
  5
1633F
 10
-1349.72
 20
-1568.62
 30
0.000000
  70
    32
  0
VERTEX
  8
01
  5
16340
 10
-1349.72
 20
-1568.62
 30
0.000000
  70
    32
  0
VERTEX
  8
01
  5
16341
 10
-1349.72
 20
-1568.63
 30
0.000000
  70
    32
  0
VERTEX
  8
01
  5
16342
 10
-1349.73
 20
-1568.63
 30
0.000000
  70
    32
  0
VERTEX
  8
01
  5
16343
 10
-1349.73
 20
-1568.63
 30
0.000000
  70
    32
  0
VERTEX
  8
01
  5
16344
 10
-1349.73
 20
-1568.64
 30
0.000000
  70
    32
  0
VERTEX
  8
01
  5
16345
 10
-1349.74
 20
-1568.64
 30
0.000000
  70
    32
  0
VERTEX
  8
01
  5
16346
 10
-1349.74
 20
-1568.64
 30
0.000000
  70
    32
  0
VERTEX
  8
01
  5
16347
 10
-1349.74
 20
-1568.65
 30
0.000000
  70
    32
  0
VERTEX
  8
01
  5
16348
 10
-1349.74
 20
-1568.65
 30
0.000000
  70
    32
  0
VERTEX
  8
01
  5
16349
 10
-1349.75
 20
-1568.65
 30
0.000000
  70
    32
  0
VERTEX
  8
01
  5
1634A
 10
-1349.75
 20
-1568.66
 30
0.000000
  70
    32
  0
VERTEX
  8
01
  5
1634B
 10
-1349.75
 20
-1568.66
 30
0.000000
  70
    32
  0
VERTEX
  8
01
  5
1634C
 10
-1349.76
 20
-1568.66
 30
0.000000
  70
    32
  0
VERTEX
  8
01
  5
1634D
 10
-1349.76
 20
-1568.67
 30
0.000000
  70
    32
  0
VERTEX
  8
01
  5
1634E
 10
-1349.76
 20
-1568.67
 30
0.000000
  70
    32
  0
VERTEX
  8
01
  5
1634F
 10
-1349.77
 20
-1568.67
 30
0.000000
  70
    32
  0
VERTEX
  8
01
  5
16350
 10
-1349.77
 20
-1568.68
 30
0.000000
  70
    32
  0
VERTEX
  8
01
  5
16351
 10
-1349.77
 20
-1568.68
 30
0.000000
  70
    32
  0
VERTEX
  8
01
  5
16352
 10
-1349.77
 20
-1568.68
 30
0.000000
  70
    32
  0
VERTEX
  8
01
  5
16353
 10
-1349.78
 20
-1568.69
 30
0.000000
  70
    32
  0
VERTEX
  8
01
  5
16354
 10
-1349.78
 20
-1568.69
 30
0.000000
  70
    32
  0
VERTEX
  8
01
  5
16355
 10
-1349.78
 20
-1568.69
 30
0.000000
  70
    32
  0
VERTEX
  8
01
  5
16356
 10
-1349.79
 20
-1568.70
 30
0.000000
  70
    32
  0
VERTEX
  8
01
  5
16357
 10
-1349.79
 20
-1568.70
 30
0.000000
  70
    32
  0
VERTEX
  8
01
  5
16358
 10
-1349.79
 20
-1568.70
 30
0.000000
  70
    32
  0
VERTEX
  8
01
  5
16359
 10
-1349.80
 20
-1568.71
 30
0.000000
  70
    32
  0
VERTEX
  8
01
  5
1635A
 10
-1349.80
 20
-1568.71
 30
0.000000
  70
    32
  0
VERTEX
  8
01
  5
1635B
 10
-1349.80
 20
-1568.71
 30
0.000000
  70
    32
  0
VERTEX
  8
01
  5
1635C
 10
-1349.80
 20
-1568.72
 30
0.000000
  70
    32
  0
VERTEX
  8
01
  5
1635D
 10
-1349.81
 20
-1568.72
 30
0.000000
  70
    32
  0
VERTEX
  8
01
  5
1635E
 10
-1349.81
 20
-1568.72
 30
0.000000
  70
    32
  0
VERTEX
  8
01
  5
1635F
 10
-1349.81
 20
-1568.73
 30
0.000000
  70
    32
  0
VERTEX
  8
01
  5
16360
 10
-1349.82
 20
-1568.73
 30
0.000000
  70
    32
  0
VERTEX
  8
01
  5
16361
 10
-1349.82
 20
-1568.73
 30
0.000000
  70
    32
  0
VERTEX
  8
01
  5
16362
 10
-1349.82
 20
-1568.74
 30
0.000000
  70
    32
  0
VERTEX
  8
01
  5
16363
 10
-1349.83
 20
-1568.74
 30
0.000000
  70
    32
  0
VERTEX
  8
01
  5
16364
 10
-1349.83
 20
-1568.74
 30
0.000000
  70
    32
  0
VERTEX
  8
01
  5
16365
 10
-1349.83
 20
-1568.75
 30
0.000000
  70
    32
  0
VERTEX
  8
01
  5
16366
 10
-1349.84
 20
-1568.75
 30
0.000000
  70
    32
  0
VERTEX
  8
01
  5
16367
 10
-1349.84
 20
-1568.75
 30
0.000000
  70
    32
  0
VERTEX
  8
01
  5
16368
 10
-1349.84
 20
-1568.76
 30
0.000000
  70
    32
  0
VERTEX
  8
01
  5
16369
 10
-1349.84
 20
-1568.76
 30
0.000000
  70
    32
  0
VERTEX
  8
01
  5
1636A
 10
-1349.85
 20
-1568.76
 30
0.000000
  70
    32
  0
VERTEX
  8
01
  5
1636B
 10
-1349.85
 20
-1568.77
 30
0.000000
  70
    32
  0
VERTEX
  8
01
  5
1636C
 10
-1349.85
 20
-1568.77
 30
0.000000
  70
    32
  0
VERTEX
  8
01
  5
1636D
 10
-1349.86
 20
-1568.77
 30
0.000000
  70
    32
  0
VERTEX
  8
01
  5
1636E
 10
-1349.86
 20
-1568.78
 30
0.000000
  70
    32
  0
VERTEX
  8
01
  5
1636F
 10
-1349.86
 20
-1568.78
 30
0.000000
  70
    32
  0
VERTEX
  8
01
  5
16370
 10
-1349.87
 20
-1568.78
 30
0.000000
  70
    32
  0
VERTEX
  8
01
  5
16371
 10
-1349.87
 20
-1568.79
 30
0.000000
  70
    32
  0
VERTEX
  8
01
  5
16372
 10
-1349.87
 20
-1568.79
 30
0.000000
  70
    32
  0
VERTEX
  8
01
  5
16373
 10
-1349.88
 20
-1568.79
 30
0.000000
  70
    32
  0
VERTEX
  8
01
  5
16374
 10
-1349.88
 20
-1568.80
 30
0.000000
  70
    32
  0
VERTEX
  8
01
  5
16375
 10
-1349.88
 20
-1568.80
 30
0.000000
  70
    32
  0
VERTEX
  8
01
  5
16376
 10
-1349.88
 20
-1568.80
 30
0.000000
  70
    32
  0
VERTEX
  8
01
  5
16377
 10
-1349.89
 20
-1568.81
 30
0.000000
  70
    32
  0
VERTEX
  8
01
  5
16378
 10
-1349.89
 20
-1568.81
 30
0.000000
  70
    32
  0
VERTEX
  8
01
  5
16379
 10
-1349.89
 20
-1568.81
 30
0.000000
  70
    32
  0
VERTEX
  8
01
  5
1637A
 10
-1349.90
 20
-1568.82
 30
0.000000
  70
    32
  0
VERTEX
  8
01
  5
1637B
 10
-1349.90
 20
-1568.82
 30
0.000000
  70
    32
  0
VERTEX
  8
01
  5
1637C
 10
-1349.90
 20
-1568.82
 30
0.000000
  70
    32
  0
VERTEX
  8
01
  5
1637D
 10
-1349.91
 20
-1568.83
 30
0.000000
  70
    32
  0
VERTEX
  8
01
  5
1637E
 10
-1349.91
 20
-1568.83
 30
0.000000
  70
    32
  0
VERTEX
  8
01
  5
1637F
 10
-1349.91
 20
-1568.83
 30
0.000000
  70
    32
  0
VERTEX
  8
01
  5
16380
 10
-1349.92
 20
-1568.84
 30
0.000000
  70
    32
  0
VERTEX
  8
01
  5
16381
 10
-1349.92
 20
-1568.84
 30
0.000000
  70
    32
  0
VERTEX
  8
01
  5
16382
 10
-1349.92
 20
-1568.84
 30
0.000000
  70
    32
  0
VERTEX
  8
01
  5
16383
 10
-1349.93
 20
-1568.85
 30
0.000000
  70
    32
  0
VERTEX
  8
01
  5
16384
 10
-1349.93
 20
-1568.85
 30
0.000000
  70
    32
  0
VERTEX
  8
01
  5
16385
 10
-1349.93
 20
-1568.85
 30
0.000000
  70
    32
  0
VERTEX
  8
01
  5
16386
 10
-1349.94
 20
-1568.85
 30
0.000000
  70
    32
  0
VERTEX
  8
01
  5
16387
 10
-1349.94
 20
-1568.86
 30
0.000000
  70
    32
  0
VERTEX
  8
01
  5
16388
 10
-1349.94
 20
-1568.86
 30
0.000000
  70
    32
  0
VERTEX
  8
01
  5
16389
 10
-1349.94
 20
-1568.86
 30
0.000000
  70
    32
  0
VERTEX
  8
01
  5
1638A
 10
-1349.95
 20
-1568.87
 30
0.000000
  70
    32
  0
VERTEX
  8
01
  5
1638B
 10
-1349.95
 20
-1568.87
 30
0.000000
  70
    32
  0
VERTEX
  8
01
  5
1638C
 10
-1349.95
 20
-1568.87
 30
0.000000
  70
    32
  0
VERTEX
  8
01
  5
1638D
 10
-1349.96
 20
-1568.88
 30
0.000000
  70
    32
  0
VERTEX
  8
01
  5
1638E
 10
-1349.96
 20
-1568.88
 30
0.000000
  70
    32
  0
VERTEX
  8
01
  5
1638F
 10
-1349.96
 20
-1568.88
 30
0.000000
  70
    32
  0
VERTEX
  8
01
  5
16390
 10
-1349.97
 20
-1568.89
 30
0.000000
  70
    32
  0
VERTEX
  8
01
  5
16391
 10
-1349.97
 20
-1568.89
 30
0.000000
  70
    32
  0
VERTEX
  8
01
  5
16392
 10
-1349.97
 20
-1568.89
 30
0.000000
  70
    32
  0
VERTEX
  8
01
  5
16393
 10
-1349.98
 20
-1568.90
 30
0.000000
  70
    32
  0
VERTEX
  8
01
  5
16394
 10
-1349.98
 20
-1568.90
 30
0.000000
  70
    32
  0
VERTEX
  8
01
  5
16395
 10
-1349.98
 20
-1568.90
 30
0.000000
  70
    32
  0
VERTEX
  8
01
  5
16396
 10
-1349.99
 20
-1568.91
 30
0.000000
  70
    32
  0
VERTEX
  8
01
  5
16397
 10
-1349.99
 20
-1568.91
 30
0.000000
  70
    32
  0
VERTEX
  8
01
  5
16398
 10
-1349.99
 20
-1568.91
 30
0.000000
  70
    32
  0
VERTEX
  8
01
  5
16399
 10
-1350.00
 20
-1568.92
 30
0.000000
  70
    32
  0
VERTEX
  8
01
  5
1639A
 10
-1350.00
 20
-1568.92
 30
0.000000
  70
    32
  0
VERTEX
  8
01
  5
1639B
 10
-1350.00
 20
-1568.92
 30
0.000000
  70
    32
  0
VERTEX
  8
01
  5
1639C
 10
-1350.01
 20
-1568.92
 30
0.000000
  70
    32
  0
VERTEX
  8
01
  5
1639D
 10
-1350.01
 20
-1568.93
 30
0.000000
  70
    32
  0
VERTEX
  8
01
  5
1639E
 10
-1350.01
 20
-1568.93
 30
0.000000
  70
    32
  0
VERTEX
  8
01
  5
1639F
 10
-1350.02
 20
-1568.93
 30
0.000000
  70
    32
  0
VERTEX
  8
01
  5
163A0
 10
-1350.02
 20
-1568.94
 30
0.000000
  70
    32
  0
VERTEX
  8
01
  5
163A1
 10
-1350.02
 20
-1568.94
 30
0.000000
  70
    32
  0
VERTEX
  8
01
  5
163A2
 10
-1350.02
 20
-1568.94
 30
0.000000
  70
    32
  0
VERTEX
  8
01
  5
163A3
 10
-1350.03
 20
-1568.95
 30
0.000000
  70
    32
  0
VERTEX
  8
01
  5
163A4
 10
-1350.03
 20
-1568.95
 30
0.000000
  70
    32
  0
VERTEX
  8
01
  5
163A5
 10
-1350.03
 20
-1568.95
 30
0.000000
  70
    32
  0
VERTEX
  8
01
  5
163A6
 10
-1350.04
 20
-1568.96
 30
0.000000
  70
    32
  0
VERTEX
  8
01
  5
163A7
 10
-1350.04
 20
-1568.96
 30
0.000000
  70
    32
  0
VERTEX
  8
01
  5
163A8
 10
-1350.04
 20
-1568.96
 30
0.000000
  70
    32
  0
VERTEX
  8
01
  5
163A9
 10
-1350.05
 20
-1568.97
 30
0.000000
  70
    32
  0
VERTEX
  8
01
  5
163AA
 10
-1350.05
 20
-1568.97
 30
0.000000
  70
    32
  0
VERTEX
  8
01
  5
163AB
 10
-1350.05
 20
-1568.97
 30
0.000000
  70
    32
  0
VERTEX
  8
01
  5
163AC
 10
-1350.06
 20
-1568.97
 30
0.000000
  70
    32
  0
VERTEX
  8
01
  5
163AD
 10
-1350.06
 20
-1568.98
 30
0.000000
  70
    32
  0
VERTEX
  8
01
  5
163AE
 10
-1350.06
 20
-1568.98
 30
0.000000
  70
    32
  0
VERTEX
  8
01
  5
163AF
 10
-1350.07
 20
-1568.98
 30
0.000000
  70
    32
  0
VERTEX
  8
01
  5
163B0
 10
-1350.07
 20
-1568.99
 30
0.000000
  70
    32
  0
VERTEX
  8
01
  5
163B1
 10
-1350.07
 20
-1568.99
 30
0.000000
  70
    32
  0
VERTEX
  8
01
  5
163B2
 10
-1350.08
 20
-1568.99
 30
0.000000
  70
    32
  0
VERTEX
  8
01
  5
163B3
 10
-1350.08
 20
-1569.00
 30
0.000000
  70
    32
  0
VERTEX
  8
01
  5
163B4
 10
-1350.08
 20
-1569.00
 30
0.000000
  70
    32
  0
VERTEX
  8
01
  5
163B5
 10
-1350.09
 20
-1569.00
 30
0.000000
  70
    32
  0
VERTEX
  8
01
  5
163B6
 10
-1350.09
 20
-1569.01
 30
0.000000
  70
    32
  0
VERTEX
  8
01
  5
163B7
 10
-1350.09
 20
-1569.01
 30
0.000000
  70
    32
  0
VERTEX
  8
01
  5
163B8
 10
-1350.10
 20
-1569.01
 30
0.000000
  70
    32
  0
VERTEX
  8
01
  5
163B9
 10
-1350.10
 20
-1569.02
 30
0.000000
  70
    32
  0
VERTEX
  8
01
  5
163BA
 10
-1350.10
 20
-1569.02
 30
0.000000
  70
    32
  0
VERTEX
  8
01
  5
163BB
 10
-1350.11
 20
-1569.02
 30
0.000000
  70
    32
  0
VERTEX
  8
01
  5
163BC
 10
-1350.11
 20
-1569.02
 30
0.000000
  70
    32
  0
VERTEX
  8
01
  5
163BD
 10
-1350.11
 20
-1569.03
 30
0.000000
  70
    32
  0
VERTEX
  8
01
  5
163BE
 10
-1350.12
 20
-1569.03
 30
0.000000
  70
    32
  0
VERTEX
  8
01
  5
163BF
 10
-1350.12
 20
-1569.03
 30
0.000000
  70
    32
  0
VERTEX
  8
01
  5
163C0
 10
-1350.12
 20
-1569.04
 30
0.000000
  70
    32
  0
VERTEX
  8
01
  5
163C1
 10
-1350.13
 20
-1569.04
 30
0.000000
  70
    32
  0
VERTEX
  8
01
  5
163C2
 10
-1350.13
 20
-1569.04
 30
0.000000
  70
    32
  0
VERTEX
  8
01
  5
163C3
 10
-1350.13
 20
-1569.05
 30
0.000000
  70
    32
  0
VERTEX
  8
01
  5
163C4
 10
-1350.14
 20
-1569.05
 30
0.000000
  70
    32
  0
VERTEX
  8
01
  5
163C5
 10
-1350.14
 20
-1569.05
 30
0.000000
  70
    32
  0
VERTEX
  8
01
  5
163C6
 10
-1350.14
 20
-1569.05
 30
0.000000
  70
    32
  0
VERTEX
  8
01
  5
163C7
 10
-1350.15
 20
-1569.06
 30
0.000000
  70
    32
  0
VERTEX
  8
01
  5
163C8
 10
-1350.15
 20
-1569.06
 30
0.000000
  70
    32
  0
VERTEX
  8
01
  5
163C9
 10
-1350.15
 20
-1569.06
 30
0.000000
  70
    32
  0
VERTEX
  8
01
  5
163CA
 10
-1350.16
 20
-1569.07
 30
0.000000
  70
    32
  0
VERTEX
  8
01
  5
163CB
 10
-1350.16
 20
-1569.07
 30
0.000000
  70
    32
  0
VERTEX
  8
01
  5
163CC
 10
-1350.16
 20
-1569.07
 30
0.000000
  70
    32
  0
VERTEX
  8
01
  5
163CD
 10
-1350.17
 20
-1569.08
 30
0.000000
  70
    32
  0
VERTEX
  8
01
  5
163CE
 10
-1350.17
 20
-1569.08
 30
0.000000
  70
    32
  0
VERTEX
  8
01
  5
163CF
 10
-1350.17
 20
-1569.08
 30
0.000000
  70
    32
  0
VERTEX
  8
01
  5
163D0
 10
-1350.18
 20
-1569.09
 30
0.000000
  70
    32
  0
VERTEX
  8
01
  5
163D1
 10
-1350.18
 20
-1569.09
 30
0.000000
  70
    32
  0
VERTEX
  8
01
  5
163D2
 10
-1350.18
 20
-1569.09
 30
0.000000
  70
    32
  0
VERTEX
  8
01
  5
163D3
 10
-1350.19
 20
-1569.09
 30
0.000000
  70
    32
  0
VERTEX
  8
01
  5
163D4
 10
-1350.19
 20
-1569.10
 30
0.000000
  70
    32
  0
VERTEX
  8
01
  5
163D5
 10
-1350.19
 20
-1569.10
 30
0.000000
  70
    32
  0
VERTEX
  8
01
  5
163D6
 10
-1350.20
 20
-1569.10
 30
0.000000
  70
    32
  0
VERTEX
  8
01
  5
163D7
 10
-1350.20
 20
-1569.11
 30
0.000000
  70
    32
  0
VERTEX
  8
01
  5
163D8
 10
-1350.20
 20
-1569.11
 30
0.000000
  70
    32
  0
VERTEX
  8
01
  5
163D9
 10
-1350.21
 20
-1569.11
 30
0.000000
  70
    32
  0
VERTEX
  8
01
  5
163DA
 10
-1350.21
 20
-1569.11
 30
0.000000
  70
    32
  0
VERTEX
  8
01
  5
163DB
 10
-1350.21
 20
-1569.12
 30
0.000000
  70
    32
  0
VERTEX
  8
01
  5
163DC
 10
-1350.22
 20
-1569.12
 30
0.000000
  70
    32
  0
VERTEX
  8
01
  5
163DD
 10
-1350.22
 20
-1569.12
 30
0.000000
  70
    32
  0
VERTEX
  8
01
  5
163DE
 10
-1350.22
 20
-1569.13
 30
0.000000
  70
    32
  0
VERTEX
  8
01
  5
163DF
 10
-1350.23
 20
-1569.13
 30
0.000000
  70
    32
  0
VERTEX
  8
01
  5
163E0
 10
-1350.23
 20
-1569.13
 30
0.000000
  70
    32
  0
VERTEX
  8
01
  5
163E1
 10
-1350.23
 20
-1569.14
 30
0.000000
  70
    32
  0
VERTEX
  8
01
  5
163E2
 10
-1350.24
 20
-1569.14
 30
0.000000
  70
    32
  0
VERTEX
  8
01
  5
163E3
 10
-1350.24
 20
-1569.14
 30
0.000000
  70
    32
  0
VERTEX
  8
01
  5
163E4
 10
-1350.24
 20
-1569.14
 30
0.000000
  70
    32
  0
VERTEX
  8
01
  5
163E5
 10
-1350.25
 20
-1569.15
 30
0.000000
  70
    32
  0
VERTEX
  8
01
  5
163E6
 10
-1350.25
 20
-1569.15
 30
0.000000
  70
    32
  0
VERTEX
  8
01
  5
163E7
 10
-1350.26
 20
-1569.15
 30
0.000000
  70
    32
  0
VERTEX
  8
01
  5
163E8
 10
-1350.26
 20
-1569.16
 30
0.000000
  70
    32
  0
VERTEX
  8
01
  5
163E9
 10
-1350.26
 20
-1569.16
 30
0.000000
  70
    32
  0
VERTEX
  8
01
  5
163EA
 10
-1350.27
 20
-1569.16
 30
0.000000
  70
    32
  0
VERTEX
  8
01
  5
163EB
 10
-1350.27
 20
-1569.17
 30
0.000000
  70
    32
  0
VERTEX
  8
01
  5
163EC
 10
-1350.27
 20
-1569.17
 30
0.000000
  70
    32
  0
VERTEX
  8
01
  5
163ED
 10
-1350.28
 20
-1569.17
 30
0.000000
  70
    32
  0
VERTEX
  8
01
  5
163EE
 10
-1350.28
 20
-1569.17
 30
0.000000
  70
    32
  0
VERTEX
  8
01
  5
163EF
 10
-1350.28
 20
-1569.18
 30
0.000000
  70
    32
  0
VERTEX
  8
01
  5
163F0
 10
-1350.29
 20
-1569.18
 30
0.000000
  70
    32
  0
VERTEX
  8
01
  5
163F1
 10
-1350.29
 20
-1569.18
 30
0.000000
  70
    32
  0
VERTEX
  8
01
  5
163F2
 10
-1350.29
 20
-1569.19
 30
0.000000
  70
    32
  0
VERTEX
  8
01
  5
163F3
 10
-1350.30
 20
-1569.19
 30
0.000000
  70
    32
  0
VERTEX
  8
01
  5
163F4
 10
-1350.30
 20
-1569.19
 30
0.000000
  70
    32
  0
VERTEX
  8
01
  5
163F5
 10
-1350.30
 20
-1569.19
 30
0.000000
  70
    32
  0
VERTEX
  8
01
  5
163F6
 10
-1350.31
 20
-1569.20
 30
0.000000
  70
    32
  0
VERTEX
  8
01
  5
163F7
 10
-1350.31
 20
-1569.20
 30
0.000000
  70
    32
  0
VERTEX
  8
01
  5
163F8
 10
-1350.31
 20
-1569.20
 30
0.000000
  70
    32
  0
VERTEX
  8
01
  5
163F9
 10
-1350.32
 20
-1569.21
 30
0.000000
  70
    32
  0
VERTEX
  8
01
  5
163FA
 10
-1350.32
 20
-1569.21
 30
0.000000
  70
    32
  0
VERTEX
  8
01
  5
163FB
 10
-1350.32
 20
-1569.21
 30
0.000000
  70
    32
  0
VERTEX
  8
01
  5
163FC
 10
-1350.33
 20
-1569.21
 30
0.000000
  70
    32
  0
VERTEX
  8
01
  5
163FD
 10
-1350.33
 20
-1569.22
 30
0.000000
  70
    32
  0
VERTEX
  8
01
  5
163FE
 10
-1350.33
 20
-1569.22
 30
0.000000
  70
    32
  0
VERTEX
  8
01
  5
163FF
 10
-1350.34
 20
-1569.22
 30
0.000000
  70
    32
  0
VERTEX
  8
01
  5
16400
 10
-1350.34
 20
-1569.23
 30
0.000000
  70
    32
  0
VERTEX
  8
01
  5
16401
 10
-1350.35
 20
-1569.23
 30
0.000000
  70
    32
  0
VERTEX
  8
01
  5
16402
 10
-1350.35
 20
-1569.23
 30
0.000000
  70
    32
  0
VERTEX
  8
01
  5
16403
 10
-1350.35
 20
-1569.23
 30
0.000000
  70
    32
  0
VERTEX
  8
01
  5
16404
 10
-1350.36
 20
-1569.24
 30
0.000000
  70
    32
  0
VERTEX
  8
01
  5
16405
 10
-1350.36
 20
-1569.24
 30
0.000000
  70
    32
  0
VERTEX
  8
01
  5
16406
 10
-1350.36
 20
-1569.24
 30
0.000000
  70
    32
  0
VERTEX
  8
01
  5
16407
 10
-1350.37
 20
-1569.25
 30
0.000000
  70
    32
  0
VERTEX
  8
01
  5
16408
 10
-1350.37
 20
-1569.25
 30
0.000000
  70
    32
  0
VERTEX
  8
01
  5
16409
 10
-1350.37
 20
-1569.25
 30
0.000000
  70
    32
  0
VERTEX
  8
01
  5
1640A
 10
-1350.38
 20
-1569.25
 30
0.000000
  70
    32
  0
VERTEX
  8
01
  5
1640B
 10
-1350.38
 20
-1569.26
 30
0.000000
  70
    32
  0
VERTEX
  8
01
  5
1640C
 10
-1350.38
 20
-1569.26
 30
0.000000
  70
    32
  0
VERTEX
  8
01
  5
1640D
 10
-1350.39
 20
-1569.26
 30
0.000000
  70
    32
  0
VERTEX
  8
01
  5
1640E
 10
-1350.39
 20
-1569.27
 30
0.000000
  70
    32
  0
VERTEX
  8
01
  5
1640F
 10
-1350.39
 20
-1569.27
 30
0.000000
  70
    32
  0
VERTEX
  8
01
  5
16410
 10
-1350.40
 20
-1569.27
 30
0.000000
  70
    32
  0
VERTEX
  8
01
  5
16411
 10
-1350.40
 20
-1569.27
 30
0.000000
  70
    32
  0
VERTEX
  8
01
  5
16412
 10
-1350.40
 20
-1569.28
 30
0.000000
  70
    32
  0
VERTEX
  8
01
  5
16413
 10
-1350.41
 20
-1569.28
 30
0.000000
  70
    32
  0
VERTEX
  8
01
  5
16414
 10
-1350.41
 20
-1569.28
 30
0.000000
  70
    32
  0
VERTEX
  8
01
  5
16415
 10
-1350.42
 20
-1569.29
 30
0.000000
  70
    32
  0
VERTEX
  8
01
  5
16416
 10
-1350.42
 20
-1569.29
 30
0.000000
  70
    32
  0
VERTEX
  8
01
  5
16417
 10
-1350.42
 20
-1569.29
 30
0.000000
  70
    32
  0
VERTEX
  8
01
  5
16418
 10
-1350.43
 20
-1569.29
 30
0.000000
  70
    32
  0
VERTEX
  8
01
  5
16419
 10
-1350.43
 20
-1569.30
 30
0.000000
  70
    32
  0
VERTEX
  8
01
  5
1641A
 10
-1350.43
 20
-1569.30
 30
0.000000
  70
    32
  0
VERTEX
  8
01
  5
1641B
 10
-1350.44
 20
-1569.30
 30
0.000000
  70
    32
  0
VERTEX
  8
01
  5
1641C
 10
-1350.44
 20
-1569.30
 30
0.000000
  70
    32
  0
VERTEX
  8
01
  5
1641D
 10
-1350.44
 20
-1569.31
 30
0.000000
  70
    32
  0
VERTEX
  8
01
  5
1641E
 10
-1350.45
 20
-1569.31
 30
0.000000
  70
    32
  0
VERTEX
  8
01
  5
1641F
 10
-1350.45
 20
-1569.31
 30
0.000000
  70
    32
  0
VERTEX
  8
01
  5
16420
 10
-1350.45
 20
-1569.32
 30
0.000000
  70
    32
  0
VERTEX
  8
01
  5
16421
 10
-1350.46
 20
-1569.32
 30
0.000000
  70
    32
  0
VERTEX
  8
01
  5
16422
 10
-1350.46
 20
-1569.32
 30
0.000000
  70
    32
  0
VERTEX
  8
01
  5
16423
 10
-1350.47
 20
-1569.32
 30
0.000000
  70
    32
  0
VERTEX
  8
01
  5
16424
 10
-1350.47
 20
-1569.33
 30
0.000000
  70
    32
  0
VERTEX
  8
01
  5
16425
 10
-1350.47
 20
-1569.33
 30
0.000000
  70
    32
  0
VERTEX
  8
01
  5
16426
 10
-1350.48
 20
-1569.33
 30
0.000000
  70
    32
  0
VERTEX
  8
01
  5
16427
 10
-1350.48
 20
-1569.33
 30
0.000000
  70
    32
  0
VERTEX
  8
01
  5
16428
 10
-1350.48
 20
-1569.34
 30
0.000000
  70
    32
  0
VERTEX
  8
01
  5
16429
 10
-1350.49
 20
-1569.34
 30
0.000000
  70
    32
  0
VERTEX
  8
01
  5
1642A
 10
-1350.49
 20
-1569.34
 30
0.000000
  70
    32
  0
VERTEX
  8
01
  5
1642B
 10
-1350.49
 20
-1569.35
 30
0.000000
  70
    32
  0
VERTEX
  8
01
  5
1642C
 10
-1350.50
 20
-1569.35
 30
0.000000
  70
    32
  0
VERTEX
  8
01
  5
1642D
 10
-1350.50
 20
-1569.35
 30
0.000000
  70
    32
  0
VERTEX
  8
01
  5
1642E
 10
-1350.50
 20
-1569.35
 30
0.000000
  70
    32
  0
VERTEX
  8
01
  5
1642F
 10
-1350.51
 20
-1569.36
 30
0.000000
  70
    32
  0
VERTEX
  8
01
  5
16430
 10
-1350.51
 20
-1569.36
 30
0.000000
  70
    32
  0
VERTEX
  8
01
  5
16431
 10
-1350.52
 20
-1569.36
 30
0.000000
  70
    32
  0
VERTEX
  8
01
  5
16432
 10
-1350.52
 20
-1569.36
 30
0.000000
  70
    32
  0
VERTEX
  8
01
  5
16433
 10
-1350.52
 20
-1569.37
 30
0.000000
  70
    32
  0
VERTEX
  8
01
  5
16434
 10
-1350.53
 20
-1569.37
 30
0.000000
  70
    32
  0
VERTEX
  8
01
  5
16435
 10
-1350.53
 20
-1569.37
 30
0.000000
  70
    32
  0
VERTEX
  8
01
  5
16436
 10
-1350.53
 20
-1569.38
 30
0.000000
  70
    32
  0
VERTEX
  8
01
  5
16437
 10
-1350.54
 20
-1569.38
 30
0.000000
  70
    32
  0
VERTEX
  8
01
  5
16438
 10
-1350.54
 20
-1569.38
 30
0.000000
  70
    32
  0
VERTEX
  8
01
  5
16439
 10
-1350.54
 20
-1569.38
 30
0.000000
  70
    32
  0
VERTEX
  8
01
  5
1643A
 10
-1350.55
 20
-1569.39
 30
0.000000
  70
    32
  0
VERTEX
  8
01
  5
1643B
 10
-1350.55
 20
-1569.39
 30
0.000000
  70
    32
  0
VERTEX
  8
01
  5
1643C
 10
-1350.56
 20
-1569.39
 30
0.000000
  70
    32
  0
VERTEX
  8
01
  5
1643D
 10
-1350.56
 20
-1569.39
 30
0.000000
  70
    32
  0
VERTEX
  8
01
  5
1643E
 10
-1350.56
 20
-1569.40
 30
0.000000
  70
    32
  0
VERTEX
  8
01
  5
1643F
 10
-1350.57
 20
-1569.40
 30
0.000000
  70
    32
  0
VERTEX
  8
01
  5
16440
 10
-1350.57
 20
-1569.40
 30
0.000000
  70
    32
  0
VERTEX
  8
01
  5
16441
 10
-1350.57
 20
-1569.41
 30
0.000000
  70
    32
  0
VERTEX
  8
01
  5
16442
 10
-1350.58
 20
-1569.41
 30
0.000000
  70
    32
  0
VERTEX
  8
01
  5
16443
 10
-1350.58
 20
-1569.41
 30
0.000000
  70
    32
  0
VERTEX
  8
01
  5
16444
 10
-1350.58
 20
-1569.41
 30
0.000000
  70
    32
  0
VERTEX
  8
01
  5
16445
 10
-1350.59
 20
-1569.42
 30
0.000000
  70
    32
  0
VERTEX
  8
01
  5
16446
 10
-1350.59
 20
-1569.42
 30
0.000000
  70
    32
  0
VERTEX
  8
01
  5
16447
 10
-1350.60
 20
-1569.42
 30
0.000000
  70
    32
  0
VERTEX
  8
01
  5
16448
 10
-1350.60
 20
-1569.42
 30
0.000000
  70
    32
  0
VERTEX
  8
01
  5
16449
 10
-1350.60
 20
-1569.43
 30
0.000000
  70
    32
  0
VERTEX
  8
01
  5
1644A
 10
-1350.61
 20
-1569.43
 30
0.000000
  70
    32
  0
VERTEX
  8
01
  5
1644B
 10
-1350.61
 20
-1569.43
 30
0.000000
  70
    32
  0
VERTEX
  8
01
  5
1644C
 10
-1350.61
 20
-1569.43
 30
0.000000
  70
    32
  0
VERTEX
  8
01
  5
1644D
 10
-1350.62
 20
-1569.44
 30
0.000000
  70
    32
  0
VERTEX
  8
01
  5
1644E
 10
-1350.62
 20
-1569.44
 30
0.000000
  70
    32
  0
VERTEX
  8
01
  5
1644F
 10
-1350.63
 20
-1569.44
 30
0.000000
  70
    32
  0
VERTEX
  8
01
  5
16450
 10
-1350.63
 20
-1569.44
 30
0.000000
  70
    32
  0
VERTEX
  8
01
  5
16451
 10
-1350.63
 20
-1569.45
 30
0.000000
  70
    32
  0
VERTEX
  8
01
  5
16452
 10
-1350.64
 20
-1569.45
 30
0.000000
  70
    32
  0
VERTEX
  8
01
  5
16453
 10
-1350.64
 20
-1569.45
 30
0.000000
  70
    32
  0
VERTEX
  8
01
  5
16454
 10
-1350.64
 20
-1569.45
 30
0.000000
  70
    32
  0
VERTEX
  8
01
  5
16455
 10
-1350.65
 20
-1569.46
 30
0.000000
  70
    32
  0
VERTEX
  8
01
  5
16456
 10
-1350.65
 20
-1569.46
 30
0.000000
  70
    32
  0
VERTEX
  8
01
  5
16457
 10
-1350.65
 20
-1569.46
 30
0.000000
  70
    32
  0
VERTEX
  8
01
  5
16458
 10
-1350.66
 20
-1569.47
 30
0.000000
  70
    32
  0
VERTEX
  8
01
  5
16459
 10
-1350.66
 20
-1569.47
 30
0.000000
  70
    32
  0
VERTEX
  8
01
  5
1645A
 10
-1350.67
 20
-1569.47
 30
0.000000
  70
    32
  0
VERTEX
  8
01
  5
1645B
 10
-1350.67
 20
-1569.47
 30
0.000000
  70
    32
  0
VERTEX
  8
01
  5
1645C
 10
-1350.67
 20
-1569.48
 30
0.000000
  70
    32
  0
VERTEX
  8
01
  5
1645D
 10
-1350.68
 20
-1569.48
 30
0.000000
  70
    32
  0
VERTEX
  8
01
  5
1645E
 10
-1350.68
 20
-1569.48
 30
0.000000
  70
    32
  0
VERTEX
  8
01
  5
1645F
 10
-1350.68
 20
-1569.48
 30
0.000000
  70
    32
  0
VERTEX
  8
01
  5
16460
 10
-1350.69
 20
-1569.49
 30
0.000000
  70
    32
  0
VERTEX
  8
01
  5
16461
 10
-1350.69
 20
-1569.49
 30
0.000000
  70
    32
  0
VERTEX
  8
01
  5
16462
 10
-1350.70
 20
-1569.49
 30
0.000000
  70
    32
  0
VERTEX
  8
01
  5
16463
 10
-1350.70
 20
-1569.49
 30
0.000000
  70
    32
  0
VERTEX
  8
01
  5
16464
 10
-1350.70
 20
-1569.50
 30
0.000000
  70
    32
  0
VERTEX
  8
01
  5
16465
 10
-1350.71
 20
-1569.50
 30
0.000000
  70
    32
  0
VERTEX
  8
01
  5
16466
 10
-1350.71
 20
-1569.50
 30
0.000000
  70
    32
  0
VERTEX
  8
01
  5
16467
 10
-1350.71
 20
-1569.50
 30
0.000000
  70
    32
  0
VERTEX
  8
01
  5
16468
 10
-1350.72
 20
-1569.51
 30
0.000000
  70
    32
  0
VERTEX
  8
01
  5
16469
 10
-1350.72
 20
-1569.51
 30
0.000000
  70
    32
  0
VERTEX
  8
01
  5
1646A
 10
-1350.73
 20
-1569.51
 30
0.000000
  70
    32
  0
VERTEX
  8
01
  5
1646B
 10
-1350.73
 20
-1569.51
 30
0.000000
  70
    32
  0
VERTEX
  8
01
  5
1646C
 10
-1350.73
 20
-1569.52
 30
0.000000
  70
    32
  0
VERTEX
  8
01
  5
1646D
 10
-1350.74
 20
-1569.52
 30
0.000000
  70
    32
  0
VERTEX
  8
01
  5
1646E
 10
-1350.74
 20
-1569.52
 30
0.000000
  70
    32
  0
VERTEX
  8
01
  5
1646F
 10
-1350.74
 20
-1569.52
 30
0.000000
  70
    32
  0
VERTEX
  8
01
  5
16470
 10
-1350.75
 20
-1569.53
 30
0.000000
  70
    32
  0
VERTEX
  8
01
  5
16471
 10
-1350.75
 20
-1569.53
 30
0.000000
  70
    32
  0
VERTEX
  8
01
  5
16472
 10
-1350.76
 20
-1569.53
 30
0.000000
  70
    32
  0
VERTEX
  8
01
  5
16473
 10
-1350.76
 20
-1569.53
 30
0.000000
  70
    32
  0
VERTEX
  8
01
  5
16474
 10
-1350.76
 20
-1569.54
 30
0.000000
  70
    32
  0
VERTEX
  8
01
  5
16475
 10
-1350.77
 20
-1569.54
 30
0.000000
  70
    32
  0
VERTEX
  8
01
  5
16476
 10
-1350.77
 20
-1569.54
 30
0.000000
  70
    32
  0
VERTEX
  8
01
  5
16477
 10
-1350.77
 20
-1569.54
 30
0.000000
  70
    32
  0
VERTEX
  8
01
  5
16478
 10
-1350.78
 20
-1569.55
 30
0.000000
  70
    32
  0
VERTEX
  8
01
  5
16479
 10
-1350.78
 20
-1569.55
 30
0.000000
  70
    32
  0
VERTEX
  8
01
  5
1647A
 10
-1350.79
 20
-1569.55
 30
0.000000
  70
    32
  0
VERTEX
  8
01
  5
1647B
 10
-1350.79
 20
-1569.55
 30
0.000000
  70
    32
  0
VERTEX
  8
01
  5
1647C
 10
-1350.79
 20
-1569.56
 30
0.000000
  70
    32
  0
VERTEX
  8
01
  5
1647D
 10
-1350.80
 20
-1569.56
 30
0.000000
  70
    32
  0
VERTEX
  8
01
  5
1647E
 10
-1350.80
 20
-1569.56
 30
0.000000
  70
    32
  0
VERTEX
  8
01
  5
1647F
 10
-1350.80
 20
-1569.56
 30
0.000000
  70
    32
  0
VERTEX
  8
01
  5
16480
 10
-1350.81
 20
-1569.57
 30
0.000000
  70
    32
  0
VERTEX
  8
01
  5
16481
 10
-1350.81
 20
-1569.57
 30
0.000000
  70
    32
  0
VERTEX
  8
01
  5
16482
 10
-1350.82
 20
-1569.57
 30
0.000000
  70
    32
  0
VERTEX
  8
01
  5
16483
 10
-1350.82
 20
-1569.57
 30
0.000000
  70
    32
  0
VERTEX
  8
01
  5
16484
 10
-1350.82
 20
-1569.58
 30
0.000000
  70
    32
  0
VERTEX
  8
01
  5
16485
 10
-1350.83
 20
-1569.58
 30
0.000000
  70
    32
  0
VERTEX
  8
01
  5
16486
 10
-1350.83
 20
-1569.58
 30
0.000000
  70
    32
  0
VERTEX
  8
01
  5
16487
 10
-1350.84
 20
-1569.58
 30
0.000000
  70
    32
  0
VERTEX
  8
01
  5
16488
 10
-1350.84
 20
-1569.59
 30
0.000000
  70
    32
  0
VERTEX
  8
01
  5
16489
 10
-1350.84
 20
-1569.59
 30
0.000000
  70
    32
  0
VERTEX
  8
01
  5
1648A
 10
-1350.85
 20
-1569.59
 30
0.000000
  70
    32
  0
VERTEX
  8
01
  5
1648B
 10
-1350.85
 20
-1569.59
 30
0.000000
  70
    32
  0
VERTEX
  8
01
  5
1648C
 10
-1350.85
 20
-1569.59
 30
0.000000
  70
    32
  0
VERTEX
  8
01
  5
1648D
 10
-1350.86
 20
-1569.60
 30
0.000000
  70
    32
  0
VERTEX
  8
01
  5
1648E
 10
-1350.86
 20
-1569.60
 30
0.000000
  70
    32
  0
VERTEX
  8
01
  5
1648F
 10
-1350.87
 20
-1569.60
 30
0.000000
  70
    32
  0
VERTEX
  8
01
  5
16490
 10
-1350.87
 20
-1569.60
 30
0.000000
  70
    32
  0
VERTEX
  8
01
  5
16491
 10
-1350.87
 20
-1569.61
 30
0.000000
  70
    32
  0
VERTEX
  8
01
  5
16492
 10
-1350.88
 20
-1569.61
 30
0.000000
  70
    32
  0
VERTEX
  8
01
  5
16493
 10
-1350.88
 20
-1569.61
 30
0.000000
  70
    32
  0
VERTEX
  8
01
  5
16494
 10
-1350.88
 20
-1569.61
 30
0.000000
  70
    32
  0
VERTEX
  8
01
  5
16495
 10
-1350.89
 20
-1569.62
 30
0.000000
  70
    32
  0
VERTEX
  8
01
  5
16496
 10
-1350.89
 20
-1569.62
 30
0.000000
  70
    32
  0
VERTEX
  8
01
  5
16497
 10
-1350.90
 20
-1569.62
 30
0.000000
  70
    32
  0
VERTEX
  8
01
  5
16498
 10
-1350.90
 20
-1569.62
 30
0.000000
  70
    32
  0
VERTEX
  8
01
  5
16499
 10
-1350.90
 20
-1569.63
 30
0.000000
  70
    32
  0
VERTEX
  8
01
  5
1649A
 10
-1350.91
 20
-1569.63
 30
0.000000
  70
    32
  0
VERTEX
  8
01
  5
1649B
 10
-1350.91
 20
-1569.63
 30
0.000000
  70
    32
  0
VERTEX
  8
01
  5
1649C
 10
-1350.92
 20
-1569.63
 30
0.000000
  70
    32
  0
VERTEX
  8
01
  5
1649D
 10
-1350.92
 20
-1569.64
 30
0.000000
  70
    32
  0
VERTEX
  8
01
  5
1649E
 10
-1350.92
 20
-1569.64
 30
0.000000
  70
    32
  0
VERTEX
  8
01
  5
1649F
 10
-1350.93
 20
-1569.64
 30
0.000000
  70
    32
  0
VERTEX
  8
01
  5
164A0
 10
-1350.93
 20
-1569.64
 30
0.000000
  70
    32
  0
VERTEX
  8
01
  5
164A1
 10
-1350.93
 20
-1569.64
 30
0.000000
  70
    32
  0
VERTEX
  8
01
  5
164A2
 10
-1350.94
 20
-1569.65
 30
0.000000
  70
    32
  0
VERTEX
  8
01
  5
164A3
 10
-1350.94
 20
-1569.65
 30
0.000000
  70
    32
  0
VERTEX
  8
01
  5
164A4
 10
-1350.95
 20
-1569.65
 30
0.000000
  70
    32
  0
VERTEX
  8
01
  5
164A5
 10
-1350.95
 20
-1569.65
 30
0.000000
  70
    32
  0
VERTEX
  8
01
  5
164A6
 10
-1350.95
 20
-1569.66
 30
0.000000
  70
    32
  0
VERTEX
  8
01
  5
164A7
 10
-1350.96
 20
-1569.66
 30
0.000000
  70
    32
  0
VERTEX
  8
01
  5
164A8
 10
-1350.96
 20
-1569.66
 30
0.000000
  70
    32
  0
VERTEX
  8
01
  5
164A9
 10
-1350.97
 20
-1569.66
 30
0.000000
  70
    32
  0
VERTEX
  8
01
  5
164AA
 10
-1350.97
 20
-1569.67
 30
0.000000
  70
    32
  0
VERTEX
  8
01
  5
164AB
 10
-1350.97
 20
-1569.67
 30
0.000000
  70
    32
  0
VERTEX
  8
01
  5
164AC
 10
-1350.98
 20
-1569.67
 30
0.000000
  70
    32
  0
VERTEX
  8
01
  5
164AD
 10
-1350.98
 20
-1569.67
 30
0.000000
  70
    32
  0
VERTEX
  8
01
  5
164AE
 10
-1350.99
 20
-1569.67
 30
0.000000
  70
    32
  0
VERTEX
  8
01
  5
164AF
 10
-1350.99
 20
-1569.68
 30
0.000000
  70
    32
  0
VERTEX
  8
01
  5
164B0
 10
-1350.99
 20
-1569.68
 30
0.000000
  70
    32
  0
VERTEX
  8
01
  5
164B1
 10
-1351.00
 20
-1569.68
 30
0.000000
  70
    32
  0
VERTEX
  8
01
  5
164B2
 10
-1351.00
 20
-1569.68
 30
0.000000
  70
    32
  0
VERTEX
  8
01
  5
164B3
 10
-1351.00
 20
-1569.69
 30
0.000000
  70
    32
  0
VERTEX
  8
01
  5
164B4
 10
-1351.01
 20
-1569.69
 30
0.000000
  70
    32
  0
VERTEX
  8
01
  5
164B5
 10
-1351.01
 20
-1569.69
 30
0.000000
  70
    32
  0
VERTEX
  8
01
  5
164B6
 10
-1351.02
 20
-1569.69
 30
0.000000
  70
    32
  0
VERTEX
  8
01
  5
164B7
 10
-1351.02
 20
-1569.69
 30
0.000000
  70
    32
  0
VERTEX
  8
01
  5
164B8
 10
-1351.02
 20
-1569.70
 30
0.000000
  70
    32
  0
VERTEX
  8
01
  5
164B9
 10
-1351.03
 20
-1569.70
 30
0.000000
  70
    32
  0
VERTEX
  8
01
  5
164BA
 10
-1351.03
 20
-1569.70
 30
0.000000
  70
    32
  0
VERTEX
  8
01
  5
164BB
 10
-1351.04
 20
-1569.70
 30
0.000000
  70
    32
  0
VERTEX
  8
01
  5
164BC
 10
-1351.04
 20
-1569.71
 30
0.000000
  70
    32
  0
VERTEX
  8
01
  5
164BD
 10
-1351.04
 20
-1569.71
 30
0.000000
  70
    32
  0
VERTEX
  8
01
  5
164BE
 10
-1351.05
 20
-1569.71
 30
0.000000
  70
    32
  0
VERTEX
  8
01
  5
164BF
 10
-1351.05
 20
-1569.71
 30
0.000000
  70
    32
  0
VERTEX
  8
01
  5
164C0
 10
-1351.06
 20
-1569.72
 30
0.000000
  70
    32
  0
VERTEX
  8
01
  5
164C1
 10
-1351.06
 20
-1569.72
 30
0.000000
  70
    32
  0
VERTEX
  8
01
  5
164C2
 10
-1351.06
 20
-1569.72
 30
0.000000
  70
    32
  0
VERTEX
  8
01
  5
164C3
 10
-1351.07
 20
-1569.72
 30
0.000000
  70
    32
  0
VERTEX
  8
01
  5
164C4
 10
-1351.07
 20
-1569.72
 30
0.000000
  70
    32
  0
VERTEX
  8
01
  5
164C5
 10
-1351.08
 20
-1569.73
 30
0.000000
  70
    32
  0
VERTEX
  8
01
  5
164C6
 10
-1351.08
 20
-1569.73
 30
0.000000
  70
    32
  0
VERTEX
  8
01
  5
164C7
 10
-1351.08
 20
-1569.73
 30
0.000000
  70
    32
  0
VERTEX
  8
01
  5
164C8
 10
-1351.09
 20
-1569.73
 30
0.000000
  70
    32
  0
VERTEX
  8
01
  5
164C9
 10
-1351.09
 20
-1569.74
 30
0.000000
  70
    32
  0
VERTEX
  8
01
  5
164CA
 10
-1351.10
 20
-1569.74
 30
0.000000
  70
    32
  0
VERTEX
  8
01
  5
164CB
 10
-1351.10
 20
-1569.74
 30
0.000000
  70
    32
  0
VERTEX
  8
01
  5
164CC
 10
-1351.10
 20
-1569.74
 30
0.000000
  70
    32
  0
VERTEX
  8
01
  5
164CD
 10
-1351.11
 20
-1569.74
 30
0.000000
  70
    32
  0
VERTEX
  8
01
  5
164CE
 10
-1351.11
 20
-1569.75
 30
0.000000
  70
    32
  0
VERTEX
  8
01
  5
164CF
 10
-1351.11
 20
-1569.75
 30
0.000000
  70
    32
  0
VERTEX
  8
01
  5
164D0
 10
-1351.12
 20
-1569.75
 30
0.000000
  70
    32
  0
VERTEX
  8
01
  5
164D1
 10
-1351.12
 20
-1569.75
 30
0.000000
  70
    32
  0
VERTEX
  8
01
  5
164D2
 10
-1351.13
 20
-1569.75
 30
0.000000
  70
    32
  0
VERTEX
  8
01
  5
164D3
 10
-1351.13
 20
-1569.76
 30
0.000000
  70
    32
  0
VERTEX
  8
01
  5
164D4
 10
-1351.13
 20
-1569.76
 30
0.000000
  70
    32
  0
VERTEX
  8
01
  5
164D5
 10
-1351.14
 20
-1569.76
 30
0.000000
  70
    32
  0
VERTEX
  8
01
  5
164D6
 10
-1351.14
 20
-1569.76
 30
0.000000
  70
    32
  0
VERTEX
  8
01
  5
164D7
 10
-1351.15
 20
-1569.77
 30
0.000000
  70
    32
  0
VERTEX
  8
01
  5
164D8
 10
-1351.15
 20
-1569.77
 30
0.000000
  70
    32
  0
VERTEX
  8
01
  5
164D9
 10
-1351.15
 20
-1569.77
 30
0.000000
  70
    32
  0
VERTEX
  8
01
  5
164DA
 10
-1351.16
 20
-1569.77
 30
0.000000
  70
    32
  0
VERTEX
  8
01
  5
164DB
 10
-1351.16
 20
-1569.77
 30
0.000000
  70
    32
  0
VERTEX
  8
01
  5
164DC
 10
-1351.17
 20
-1569.78
 30
0.000000
  70
    32
  0
VERTEX
  8
01
  5
164DD
 10
-1351.17
 20
-1569.78
 30
0.000000
  70
    32
  0
VERTEX
  8
01
  5
164DE
 10
-1351.17
 20
-1569.78
 30
0.000000
  70
    32
  0
VERTEX
  8
01
  5
164DF
 10
-1351.18
 20
-1569.78
 30
0.000000
  70
    32
  0
VERTEX
  8
01
  5
164E0
 10
-1351.18
 20
-1569.78
 30
0.000000
  70
    32
  0
VERTEX
  8
01
  5
164E1
 10
-1351.19
 20
-1569.79
 30
0.000000
  70
    32
  0
VERTEX
  8
01
  5
164E2
 10
-1351.19
 20
-1569.79
 30
0.000000
  70
    32
  0
VERTEX
  8
01
  5
164E3
 10
-1351.19
 20
-1569.79
 30
0.000000
  70
    32
  0
VERTEX
  8
01
  5
164E4
 10
-1351.20
 20
-1569.79
 30
0.000000
  70
    32
  0
VERTEX
  8
01
  5
164E5
 10
-1351.20
 20
-1569.80
 30
0.000000
  70
    32
  0
VERTEX
  8
01
  5
164E6
 10
-1351.21
 20
-1569.80
 30
0.000000
  70
    32
  0
VERTEX
  8
01
  5
164E7
 10
-1351.21
 20
-1569.80
 30
0.000000
  70
    32
  0
VERTEX
  8
01
  5
164E8
 10
-1351.21
 20
-1569.80
 30
0.000000
  70
    32
  0
VERTEX
  8
01
  5
164E9
 10
-1351.22
 20
-1569.80
 30
0.000000
  70
    32
  0
VERTEX
  8
01
  5
164EA
 10
-1351.22
 20
-1569.81
 30
0.000000
  70
    32
  0
VERTEX
  8
01
  5
164EB
 10
-1351.23
 20
-1569.81
 30
0.000000
  70
    32
  0
VERTEX
  8
01
  5
164EC
 10
-1351.23
 20
-1569.81
 30
0.000000
  70
    32
  0
VERTEX
  8
01
  5
164ED
 10
-1351.23
 20
-1569.81
 30
0.000000
  70
    32
  0
VERTEX
  8
01
  5
164EE
 10
-1351.24
 20
-1569.81
 30
0.000000
  70
    32
  0
VERTEX
  8
01
  5
164EF
 10
-1351.24
 20
-1569.82
 30
0.000000
  70
    32
  0
VERTEX
  8
01
  5
164F0
 10
-1351.25
 20
-1569.82
 30
0.000000
  70
    32
  0
VERTEX
  8
01
  5
164F1
 10
-1351.25
 20
-1569.82
 30
0.000000
  70
    32
  0
VERTEX
  8
01
  5
164F2
 10
-1351.25
 20
-1569.82
 30
0.000000
  70
    32
  0
VERTEX
  8
01
  5
164F3
 10
-1351.26
 20
-1569.82
 30
0.000000
  70
    32
  0
VERTEX
  8
01
  5
164F4
 10
-1351.26
 20
-1569.83
 30
0.000000
  70
    32
  0
VERTEX
  8
01
  5
164F5
 10
-1351.27
 20
-1569.83
 30
0.000000
  70
    32
  0
VERTEX
  8
01
  5
164F6
 10
-1351.27
 20
-1569.83
 30
0.000000
  70
    32
  0
VERTEX
  8
01
  5
164F7
 10
-1351.27
 20
-1569.83
 30
0.000000
  70
    32
  0
VERTEX
  8
01
  5
164F8
 10
-1351.28
 20
-1569.83
 30
0.000000
  70
    32
  0
VERTEX
  8
01
  5
164F9
 10
-1351.28
 20
-1569.84
 30
0.000000
  70
    32
  0
VERTEX
  8
01
  5
164FA
 10
-1351.29
 20
-1569.84
 30
0.000000
  70
    32
  0
VERTEX
  8
01
  5
164FB
 10
-1351.29
 20
-1569.84
 30
0.000000
  70
    32
  0
VERTEX
  8
01
  5
164FC
 10
-1351.29
 20
-1569.84
 30
0.000000
  70
    32
  0
VERTEX
  8
01
  5
164FD
 10
-1351.30
 20
-1569.84
 30
0.000000
  70
    32
  0
VERTEX
  8
01
  5
164FE
 10
-1351.30
 20
-1569.85
 30
0.000000
  70
    32
  0
VERTEX
  8
01
  5
164FF
 10
-1351.31
 20
-1569.85
 30
0.000000
  70
    32
  0
VERTEX
  8
01
  5
16500
 10
-1351.31
 20
-1569.85
 30
0.000000
  70
    32
  0
VERTEX
  8
01
  5
16501
 10
-1351.31
 20
-1569.85
 30
0.000000
  70
    32
  0
VERTEX
  8
01
  5
16502
 10
-1351.32
 20
-1569.85
 30
0.000000
  70
    32
  0
VERTEX
  8
01
  5
16503
 10
-1351.32
 20
-1569.86
 30
0.000000
  70
    32
  0
VERTEX
  8
01
  5
16504
 10
-1351.33
 20
-1569.86
 30
0.000000
  70
    32
  0
VERTEX
  8
01
  5
16505
 10
-1351.33
 20
-1569.86
 30
0.000000
  70
    32
  0
VERTEX
  8
01
  5
16506
 10
-1351.34
 20
-1569.86
 30
0.000000
  70
    32
  0
VERTEX
  8
01
  5
16507
 10
-1351.34
 20
-1569.86
 30
0.000000
  70
    32
  0
VERTEX
  8
01
  5
16508
 10
-1351.34
 20
-1569.87
 30
0.000000
  70
    32
  0
VERTEX
  8
01
  5
16509
 10
-1351.35
 20
-1569.87
 30
0.000000
  70
    32
  0
VERTEX
  8
01
  5
1650A
 10
-1351.35
 20
-1569.87
 30
0.000000
  70
    32
  0
VERTEX
  8
01
  5
1650B
 10
-1351.36
 20
-1569.87
 30
0.000000
  70
    32
  0
VERTEX
  8
01
  5
1650C
 10
-1351.36
 20
-1569.87
 30
0.000000
  70
    32
  0
VERTEX
  8
01
  5
1650D
 10
-1351.36
 20
-1569.88
 30
0.000000
  70
    32
  0
VERTEX
  8
01
  5
1650E
 10
-1351.37
 20
-1569.88
 30
0.000000
  70
    32
  0
VERTEX
  8
01
  5
1650F
 10
-1351.37
 20
-1569.88
 30
0.000000
  70
    32
  0
VERTEX
  8
01
  5
16510
 10
-1351.38
 20
-1569.88
 30
0.000000
  70
    32
  0
VERTEX
  8
01
  5
16511
 10
-1351.38
 20
-1569.88
 30
0.000000
  70
    32
  0
VERTEX
  8
01
  5
16512
 10
-1351.38
 20
-1569.89
 30
0.000000
  70
    32
  0
VERTEX
  8
01
  5
16513
 10
-1351.39
 20
-1569.89
 30
0.000000
  70
    32
  0
VERTEX
  8
01
  5
16514
 10
-1351.39
 20
-1569.89
 30
0.000000
  70
    32
  0
VERTEX
  8
01
  5
16515
 10
-1351.40
 20
-1569.89
 30
0.000000
  70
    32
  0
VERTEX
  8
01
  5
16516
 10
-1351.40
 20
-1569.89
 30
0.000000
  70
    32
  0
VERTEX
  8
01
  5
16517
 10
-1351.40
 20
-1569.90
 30
0.000000
  70
    32
  0
VERTEX
  8
01
  5
16518
 10
-1351.41
 20
-1569.90
 30
0.000000
  70
    32
  0
VERTEX
  8
01
  5
16519
 10
-1351.41
 20
-1569.90
 30
0.000000
  70
    32
  0
VERTEX
  8
01
  5
1651A
 10
-1351.42
 20
-1569.90
 30
0.000000
  70
    32
  0
VERTEX
  8
01
  5
1651B
 10
-1351.42
 20
-1569.90
 30
0.000000
  70
    32
  0
VERTEX
  8
01
  5
1651C
 10
-1351.42
 20
-1569.91
 30
0.000000
  70
    32
  0
VERTEX
  8
01
  5
1651D
 10
-1351.43
 20
-1569.91
 30
0.000000
  70
    32
  0
VERTEX
  8
01
  5
1651E
 10
-1351.43
 20
-1569.91
 30
0.000000
  70
    32
  0
VERTEX
  8
01
  5
1651F
 10
-1351.44
 20
-1569.91
 30
0.000000
  70
    32
  0
VERTEX
  8
01
  5
16520
 10
-1351.44
 20
-1569.91
 30
0.000000
  70
    32
  0
VERTEX
  8
01
  5
16521
 10
-1351.45
 20
-1569.91
 30
0.000000
  70
    32
  0
VERTEX
  8
01
  5
16522
 10
-1351.45
 20
-1569.92
 30
0.000000
  70
    32
  0
VERTEX
  8
01
  5
16523
 10
-1351.45
 20
-1569.92
 30
0.000000
  70
    32
  0
VERTEX
  8
01
  5
16524
 10
-1351.46
 20
-1569.92
 30
0.000000
  70
    32
  0
VERTEX
  8
01
  5
16525
 10
-1351.46
 20
-1569.92
 30
0.000000
  70
    32
  0
VERTEX
  8
01
  5
16526
 10
-1351.47
 20
-1569.92
 30
0.000000
  70
    32
  0
VERTEX
  8
01
  5
16527
 10
-1351.47
 20
-1569.93
 30
0.000000
  70
    32
  0
VERTEX
  8
01
  5
16528
 10
-1351.47
 20
-1569.93
 30
0.000000
  70
    32
  0
VERTEX
  8
01
  5
16529
 10
-1351.48
 20
-1569.93
 30
0.000000
  70
    32
  0
VERTEX
  8
01
  5
1652A
 10
-1351.48
 20
-1569.93
 30
0.000000
  70
    32
  0
VERTEX
  8
01
  5
1652B
 10
-1351.49
 20
-1569.93
 30
0.000000
  70
    32
  0
VERTEX
  8
01
  5
1652C
 10
-1351.49
 20
-1569.94
 30
0.000000
  70
    32
  0
VERTEX
  8
01
  5
1652D
 10
-1351.49
 20
-1569.94
 30
0.000000
  70
    32
  0
VERTEX
  8
01
  5
1652E
 10
-1351.50
 20
-1569.94
 30
0.000000
  70
    32
  0
VERTEX
  8
01
  5
1652F
 10
-1351.50
 20
-1569.94
 30
0.000000
  70
    32
  0
VERTEX
  8
01
  5
16530
 10
-1351.51
 20
-1569.94
 30
0.000000
  70
    32
  0
VERTEX
  8
01
  5
16531
 10
-1351.51
 20
-1569.94
 30
0.000000
  70
    32
  0
VERTEX
  8
01
  5
16532
 10
-1351.52
 20
-1569.95
 30
0.000000
  70
    32
  0
VERTEX
  8
01
  5
16533
 10
-1351.52
 20
-1569.95
 30
0.000000
  70
    32
  0
VERTEX
  8
01
  5
16534
 10
-1351.52
 20
-1569.95
 30
0.000000
  70
    32
  0
VERTEX
  8
01
  5
16535
 10
-1351.53
 20
-1569.95
 30
0.000000
  70
    32
  0
VERTEX
  8
01
  5
16536
 10
-1351.53
 20
-1569.95
 30
0.000000
  70
    32
  0
VERTEX
  8
01
  5
16537
 10
-1351.54
 20
-1569.96
 30
0.000000
  70
    32
  0
VERTEX
  8
01
  5
16538
 10
-1351.54
 20
-1569.96
 30
0.000000
  70
    32
  0
VERTEX
  8
01
  5
16539
 10
-1351.54
 20
-1569.96
 30
0.000000
  70
    32
  0
VERTEX
  8
01
  5
1653A
 10
-1351.55
 20
-1569.96
 30
0.000000
  70
    32
  0
VERTEX
  8
01
  5
1653B
 10
-1351.55
 20
-1569.96
 30
0.000000
  70
    32
  0
VERTEX
  8
01
  5
1653C
 10
-1351.56
 20
-1569.96
 30
0.000000
  70
    32
  0
VERTEX
  8
01
  5
1653D
 10
-1351.56
 20
-1569.97
 30
0.000000
  70
    32
  0
VERTEX
  8
01
  5
1653E
 10
-1351.56
 20
-1569.97
 30
0.000000
  70
    32
  0
VERTEX
  8
01
  5
1653F
 10
-1351.57
 20
-1569.97
 30
0.000000
  70
    32
  0
VERTEX
  8
01
  5
16540
 10
-1351.57
 20
-1569.97
 30
0.000000
  70
    32
  0
VERTEX
  8
01
  5
16541
 10
-1351.58
 20
-1569.97
 30
0.000000
  70
    32
  0
VERTEX
  8
01
  5
16542
 10
-1351.58
 20
-1569.97
 30
0.000000
  70
    32
  0
VERTEX
  8
01
  5
16543
 10
-1351.59
 20
-1569.98
 30
0.000000
  70
    32
  0
VERTEX
  8
01
  5
16544
 10
-1351.59
 20
-1569.98
 30
0.000000
  70
    32
  0
VERTEX
  8
01
  5
16545
 10
-1351.59
 20
-1569.98
 30
0.000000
  70
    32
  0
VERTEX
  8
01
  5
16546
 10
-1351.60
 20
-1569.98
 30
0.000000
  70
    32
  0
VERTEX
  8
01
  5
16547
 10
-1351.60
 20
-1569.98
 30
0.000000
  70
    32
  0
VERTEX
  8
01
  5
16548
 10
-1351.61
 20
-1569.99
 30
0.000000
  70
    32
  0
VERTEX
  8
01
  5
16549
 10
-1351.61
 20
-1569.99
 30
0.000000
  70
    32
  0
VERTEX
  8
01
  5
1654A
 10
-1351.61
 20
-1569.99
 30
0.000000
  70
    32
  0
VERTEX
  8
01
  5
1654B
 10
-1351.62
 20
-1569.99
 30
0.000000
  70
    32
  0
VERTEX
  8
01
  5
1654C
 10
-1351.62
 20
-1569.99
 30
0.000000
  70
    32
  0
VERTEX
  8
01
  5
1654D
 10
-1351.63
 20
-1569.99
 30
0.000000
  70
    32
  0
VERTEX
  8
01
  5
1654E
 10
-1351.63
 20
-1570.00
 30
0.000000
  70
    32
  0
VERTEX
  8
01
  5
1654F
 10
-1351.64
 20
-1570.00
 30
0.000000
  70
    32
  0
VERTEX
  8
01
  5
16550
 10
-1351.64
 20
-1570.00
 30
0.000000
  70
    32
  0
VERTEX
  8
01
  5
16551
 10
-1351.64
 20
-1570.00
 30
0.000000
  70
    32
  0
VERTEX
  8
01
  5
16552
 10
-1351.65
 20
-1570.00
 30
0.000000
  70
    32
  0
VERTEX
  8
01
  5
16553
 10
-1351.65
 20
-1570.00
 30
0.000000
  70
    32
  0
VERTEX
  8
01
  5
16554
 10
-1351.66
 20
-1570.01
 30
0.000000
  70
    32
  0
VERTEX
  8
01
  5
16555
 10
-1351.66
 20
-1570.01
 30
0.000000
  70
    32
  0
VERTEX
  8
01
  5
16556
 10
-1351.67
 20
-1570.01
 30
0.000000
  70
    32
  0
VERTEX
  8
01
  5
16557
 10
-1351.67
 20
-1570.01
 30
0.000000
  70
    32
  0
VERTEX
  8
01
  5
16558
 10
-1351.67
 20
-1570.01
 30
0.000000
  70
    32
  0
VERTEX
  8
01
  5
16559
 10
-1351.68
 20
-1570.01
 30
0.000000
  70
    32
  0
VERTEX
  8
01
  5
1655A
 10
-1351.68
 20
-1570.02
 30
0.000000
  70
    32
  0
VERTEX
  8
01
  5
1655B
 10
-1351.69
 20
-1570.02
 30
0.000000
  70
    32
  0
VERTEX
  8
01
  5
1655C
 10
-1351.69
 20
-1570.02
 30
0.000000
  70
    32
  0
VERTEX
  8
01
  5
1655D
 10
-1351.69
 20
-1570.02
 30
0.000000
  70
    32
  0
VERTEX
  8
01
  5
1655E
 10
-1351.70
 20
-1570.02
 30
0.000000
  70
    32
  0
VERTEX
  8
01
  5
1655F
 10
-1351.70
 20
-1570.02
 30
0.000000
  70
    32
  0
VERTEX
  8
01
  5
16560
 10
-1351.71
 20
-1570.03
 30
0.000000
  70
    32
  0
VERTEX
  8
01
  5
16561
 10
-1351.71
 20
-1570.03
 30
0.000000
  70
    32
  0
VERTEX
  8
01
  5
16562
 10
-1351.72
 20
-1570.03
 30
0.000000
  70
    32
  0
VERTEX
  8
01
  5
16563
 10
-1351.72
 20
-1570.03
 30
0.000000
  70
    32
  0
VERTEX
  8
01
  5
16564
 10
-1351.72
 20
-1570.03
 30
0.000000
  70
    32
  0
VERTEX
  8
01
  5
16565
 10
-1351.73
 20
-1570.03
 30
0.000000
  70
    32
  0
VERTEX
  8
01
  5
16566
 10
-1351.73
 20
-1570.04
 30
0.000000
  70
    32
  0
VERTEX
  8
01
  5
16567
 10
-1351.74
 20
-1570.04
 30
0.000000
  70
    32
  0
VERTEX
  8
01
  5
16568
 10
-1351.74
 20
-1570.04
 30
0.000000
  70
    32
  0
VERTEX
  8
01
  5
16569
 10
-1351.75
 20
-1570.04
 30
0.000000
  70
    32
  0
VERTEX
  8
01
  5
1656A
 10
-1351.75
 20
-1570.04
 30
0.000000
  70
    32
  0
VERTEX
  8
01
  5
1656B
 10
-1351.75
 20
-1570.04
 30
0.000000
  70
    32
  0
VERTEX
  8
01
  5
1656C
 10
-1351.76
 20
-1570.05
 30
0.000000
  70
    32
  0
VERTEX
  8
01
  5
1656D
 10
-1351.76
 20
-1570.05
 30
0.000000
  70
    32
  0
VERTEX
  8
01
  5
1656E
 10
-1351.77
 20
-1570.05
 30
0.000000
  70
    32
  0
VERTEX
  8
01
  5
1656F
 10
-1351.77
 20
-1570.05
 30
0.000000
  70
    32
  0
SEQEND
  8
01
  5
16570
  0
ARC
  5
154B4
  8
01
 10
-1353.5613444748531
 20
-1565.2962163272391
 30
0.0
 40
6.979984001174464
 50
297.53438686767993
 51
303.12535171313289
  0
LINE
  5
154B5
  8
01
 10
-1348.62171776778
 20
-1570.2286675847599
 30
0.0
 11
-1348.5047083996669
 21
-1570.111658237106
 31
0.0
  0
LINE
  5
154B6
  8
01
 10
-1339.2577565173681
 20
-1569.965212436093
 30
0.0
 11
-1334.757756714069
 21
-1569.9652128294961
 31
0.0
  0
ARC
  5
154B8
  8
01
 10
-1353.571464803365
 20
-1565.2789196837341
 30
0.0
 40
5.0999999999999988
 50
339.31573416221778
 51
290.6842558199404
  0
LINE
  5
154BE
  8
01
 10
-1324.257753636788
 20
-1534.7652019124359
 30
0.0
 11
-1324.257756714069
 21
-1569.965213747435
 31
0.0
  0
LINE
  5
154BF
  8
01
 10
-1324.257756714069
 20
-1569.965213747435
 30
0.0
 11
-1334.757756714069
 21
-1569.9652128294961
 31
0.0
  0
ARC
  5
154C0
  8
01
 10
-1353.571464803365
 20
-1565.2789196837341
 30
0.0
 40
7.0
 50
134.9999949910501
 51
297.54239186737863
  0
LINE
  5
154C1
  8
01
 10
-1347.2075034436741
 20
-1549.0154653655829
 30
0.0
 11
-1358.52121183895
 21
-1560.3291717827069
 31
0.0
  0
LINE
  5
154C2
  8
01
 10
-1357.186779467906
 20
-1561.823166536409
 30
0.0
 11
-1357.8176322294751
 21
-1562.454019297978
 31
0.0
  0
LINE
  5
154C3
  8
01
 10
-1360.571100324436
 20
-1565.2074873929389
 30
0.0
 11
-1397.024995888074
 21
-1601.661382956577
 31
0.0
  0
LINE
  5
154C4
  8
01
 10
-1353.50003251257
 20
-1572.278555204804
 30
0.0
 11
-1389.9539280762081
 21
-1608.732450768442
 31
0.0
  0
CIRCLE
  5
154C5
  8
01
 10
-1353.6512455619729
 20
-1565.3587004423421
 30
0.0
 40
5.0
  0
LINE
  5
154CA
  8
01
 10
-1348.622382623515
 20
-1570.2293324403779
 30
0.0
 11
-1337.3080093725041
 21
-1558.9149611676371
 31
0.0
  0
ARC
  5
154CB
  8
01
 10
-1348.151155236684
 20
-1570.465211855309
 30
0.0
 40
0.5
 50
89.999994991036544
 51
134.9999949910501
  0
CIRCLE
  5
154CC
  8
01
 10
-1399.613186339099
 20
-1611.3206412194679
 30
0.0
 40
10.0
  0
LINE
  5
154CD
  8
01
 10
-1647.113186339099
 20
-1539.7652018837141
 30
0.0
 11
-1477.113186339099
 21
-1539.7652018837141
 31
0.0
  0
LINE
  5
154CE
  8
01
 10
-1646.113186339099
 20
-1538.7652018837141
 30
0.0
 11
-1478.113186339099
 21
-1538.7652018837141
 31
0.0
  0
LINE
  5
154CF
  8
01
 10
-1647.113186339099
 20
-1545.7652018837141
 30
0.0
 11
-1477.113186339099
 21
-1545.7652018837141
 31
0.0
  0
LINE
  5
154D0
  8
01
 10
-1646.113186339099
 20
-1546.7652018837141
 30
0.0
 11
-1478.113186339099
 21
-1546.7652018837141
 31
0.0
  0
LINE
  5
154D1
  8
01
 10
-1646.113186339099
 20
-1538.7652018837141
 30
0.0
 11
-1647.113186339099
 21
-1539.7652018837141
 31
0.0
  0
LINE
  5
154D2
  8
01
 10
-1477.113186339099
 20
-1539.7652018837141
 30
0.0
 11
-1478.113186339099
 21
-1538.7652018837141
 31
0.0
  0
LINE
  5
154D3
  8
01
 10
-1647.113186339099
 20
-1545.7652018837141
 30
0.0
 11
-1647.113186339099
 21
-1539.7652018837141
 31
0.0
  0
LINE
  5
154D4
  8
01
 10
-1646.113186339099
 20
-1546.7652018837141
 30
0.0
 11
-1647.113186339099
 21
-1545.7652018837141
 31
0.0
  0
LINE
  5
154D5
  8
01
 10
-1477.113186339099
 20
-1545.7652018837141
 30
0.0
 11
-1477.113186339099
 21
-1539.7652018837141
 31
0.0
  0
LINE
  5
154D6
  8
01
 10
-1477.113186339099
 20
-1545.7652018837141
 30
0.0
 11
-1478.113186339099
 21
-1546.7652018837141
 31
0.0
  0
LINE
  5
154D7
  8
01
 10
-1626.6131710803099
 20
-1537.7652018837141
 30
0.0
 11
-1497.6131710803099
 21
-1537.7652018837141
 31
0.0
  0
ARC
  5
154D8
  8
01
 10
-1626.6131710803099
 20
-1535.2652019055699
 30
0.0
 40
0.5
 50
90.0
 51
180.0
  0
LINE
  5
154D9
  8
01
 10
-1627.1131710803099
 20
-1538.7652018837141
 30
0.0
 11
-1627.1131710803099
 21
-1535.2652019055699
 31
0.0
  0
ARC
  5
154DA
  8
01
 10
-1626.6131710803099
 20
-1537.2652019055699
 30
0.0
 40
0.5
 50
180.0
 51
270.0
  0
LINE
  5
154DB
  8
01
 10
-1626.6131710803099
 20
-1534.7652019055699
 30
0.0
 11
-1497.6131710803099
 21
-1534.7652019055699
 31
0.0
  0
ARC
  5
154DC
  8
01
 10
-1497.6131710803099
 20
-1535.2652019055699
 30
0.0
 40
0.5
 50
0.0
 51
90.0
  0
LINE
  5
154DD
  8
01
 10
-1497.1131710803099
 20
-1538.7652018837141
 30
0.0
 11
-1497.1131710803099
 21
-1535.2652019055699
 31
0.0
  0
ARC
  5
154DE
  8
01
 10
-1497.6131710803099
 20
-1537.2652018837141
 30
0.0
 40
0.5
 50
270.0
 51
0.0
  0
ARC
  5
154ED
  8
01
 10
-1353.8362981812591
 20
-1535.2651993265979
 30
0.0
 40
0.5
 50
89.999994991036544
 51
179.99999499103649
  0
LINE
  5
154F0
  8
01
 10
-1324.257753636788
 20
-1534.7652019124359
 30
0.0
 11
-1353.8362981375481
 21
-1534.7651993265979
 31
0.0
  0
LINE
  5
154F1
  8
01
 10
-1354.3362981812591
 20
-1535.2651992828869
 30
0.0
 11
-1354.336298356104
 21
-1537.265199282886
 31
0.0
  0
LINE
  5
154F3
  8
01
 10
-1328.3276095237441
 20
-1537.7652015566391
 30
0.0
 11
-1353.8362983998161
 21
-1537.7651993265979
 31
0.0
  0
ARC
  5
154F4
  8
01
 10
-1328.327609611167
 20
-1538.765201556638
 30
0.0
 40
1.0
 50
0.4999999999915467
 51
89.999994991049576
  0
ARC
  5
154F5
  8
01
 10
-1353.836298356104
 20
-1537.2651993265979
 30
0.0
 40
0.5
 50
179.99999499103649
 51
269.99999499103649
  0
LINE
  5
154F9
  8
01
 10
-1327.3276476881031
 20
-1538.75647502114
 30
0.0
 11
-1327.257756495512
 21
-1546.7652124360941
 31
0.0
  0
ARC
  5
15504
  8
01
 10
-1322.5672344768211
 20
-2058.1757325767799
 30
0.0
 40
501.0
 50
93.885861903151465
 51
99.733785333862173
  0
ARC
  5
15505
  8
01
 10
-1322.5672344768211
 20
-2058.1757325767799
 30
0.0
 40
500.0
 50
94.017328206895016
 51
99.733785333862173
  0
LINE
  5
15506
  8
01
 10
-1439.4780071157979
 20
-1583.3502847397381
 30
0.0
 11
-1440.2252112716119
 21
-1582.6856901644269
 31
0.0
  0
LINE
  5
15507
  8
01
 10
-1360.7572250654171
 20
-1566.5615026737401
 30
0.0
 11
-1360.462801210932
 21
-1566.5075296778921
 31
0.0
  0
ARC
  5
15508
  8
01
 10
-1397.6345743879631
 20
-1620.5675808260789
 30
0.0
 40
56.0
 50
99.733785333862173
 51
135.27788334120771
  0
ARC
  5
1550A
  8
01
 10
-1397.6345743879631
 20
-1620.5675808260789
 30
0.0
 40
57.0
 50
99.733785333862173
 51
135.33180908248571
  0
ARC
  5
1550C
  8
01
 10
-1397.6325125744211
 20
-1620.569512045698
 30
0.0
 40
57.002823988304499
 50
135.33188546407271
 51
138.34869714880529
  0
ARC
  5
1550D
  8
01
 10
-1397.632547657711
 20
-1620.5694809780371
 30
0.0
 40
56.002777126525622
 50
135.2779611330586
 51
138.34869574024481
  0
ARC
  5
1550E
  8
01
 10
-1353.724418245821
 20
-1565.272267149008
 30
0.0
 40
7.1500000000000004
 50
215.19607134748529
 51
309.08565079942531
  0
POLYLINE
  8
01
  5
16571
  66
     1
 10
0.000000
 20
0.000000
 30
0.000000
  70
     8
  0
VERTEX
  8
01
  5
16572
 10
-1359.57
 20
-1569.39
 30
0.000000
  70
    32
  0
VERTEX
  8
01
  5
16573
 10
-1359.57
 20
-1569.39
 30
0.000000
  70
    32
  0
VERTEX
  8
01
  5
16574
 10
-1359.57
 20
-1569.39
 30
0.000000
  70
    32
  0
VERTEX
  8
01
  5
16575
 10
-1359.58
 20
-1569.38
 30
0.000000
  70
    32
  0
VERTEX
  8
01
  5
16576
 10
-1359.58
 20
-1569.38
 30
0.000000
  70
    32
  0
VERTEX
  8
01
  5
16577
 10
-1359.58
 20
-1569.37
 30
0.000000
  70
    32
  0
VERTEX
  8
01
  5
16578
 10
-1359.58
 20
-1569.37
 30
0.000000
  70
    32
  0
VERTEX
  8
01
  5
16579
 10
-1359.59
 20
-1569.36
 30
0.000000
  70
    32
  0
VERTEX
  8
01
  5
1657A
 10
-1359.59
 20
-1569.36
 30
0.000000
  70
    32
  0
VERTEX
  8
01
  5
1657B
 10
-1359.59
 20
-1569.36
 30
0.000000
  70
    32
  0
VERTEX
  8
01
  5
1657C
 10
-1359.60
 20
-1569.35
 30
0.000000
  70
    32
  0
VERTEX
  8
01
  5
1657D
 10
-1359.60
 20
-1569.35
 30
0.000000
  70
    32
  0
VERTEX
  8
01
  5
1657E
 10
-1359.60
 20
-1569.34
 30
0.000000
  70
    32
  0
VERTEX
  8
01
  5
1657F
 10
-1359.61
 20
-1569.34
 30
0.000000
  70
    32
  0
VERTEX
  8
01
  5
16580
 10
-1359.61
 20
-1569.33
 30
0.000000
  70
    32
  0
VERTEX
  8
01
  5
16581
 10
-1359.61
 20
-1569.33
 30
0.000000
  70
    32
  0
VERTEX
  8
01
  5
16582
 10
-1359.61
 20
-1569.33
 30
0.000000
  70
    32
  0
VERTEX
  8
01
  5
16583
 10
-1359.62
 20
-1569.32
 30
0.000000
  70
    32
  0
VERTEX
  8
01
  5
16584
 10
-1359.62
 20
-1569.32
 30
0.000000
  70
    32
  0
VERTEX
  8
01
  5
16585
 10
-1359.62
 20
-1569.31
 30
0.000000
  70
    32
  0
VERTEX
  8
01
  5
16586
 10
-1359.63
 20
-1569.31
 30
0.000000
  70
    32
  0
VERTEX
  8
01
  5
16587
 10
-1359.63
 20
-1569.31
 30
0.000000
  70
    32
  0
VERTEX
  8
01
  5
16588
 10
-1359.63
 20
-1569.30
 30
0.000000
  70
    32
  0
VERTEX
  8
01
  5
16589
 10
-1359.63
 20
-1569.30
 30
0.000000
  70
    32
  0
VERTEX
  8
01
  5
1658A
 10
-1359.64
 20
-1569.29
 30
0.000000
  70
    32
  0
VERTEX
  8
01
  5
1658B
 10
-1359.64
 20
-1569.29
 30
0.000000
  70
    32
  0
VERTEX
  8
01
  5
1658C
 10
-1359.64
 20
-1569.28
 30
0.000000
  70
    32
  0
VERTEX
  8
01
  5
1658D
 10
-1359.65
 20
-1569.28
 30
0.000000
  70
    32
  0
VERTEX
  8
01
  5
1658E
 10
-1359.65
 20
-1569.28
 30
0.000000
  70
    32
  0
VERTEX
  8
01
  5
1658F
 10
-1359.65
 20
-1569.27
 30
0.000000
  70
    32
  0
VERTEX
  8
01
  5
16590
 10
-1359.65
 20
-1569.27
 30
0.000000
  70
    32
  0
VERTEX
  8
01
  5
16591
 10
-1359.66
 20
-1569.26
 30
0.000000
  70
    32
  0
VERTEX
  8
01
  5
16592
 10
-1359.66
 20
-1569.26
 30
0.000000
  70
    32
  0
VERTEX
  8
01
  5
16593
 10
-1359.66
 20
-1569.25
 30
0.000000
  70
    32
  0
VERTEX
  8
01
  5
16594
 10
-1359.67
 20
-1569.25
 30
0.000000
  70
    32
  0
VERTEX
  8
01
  5
16595
 10
-1359.67
 20
-1569.25
 30
0.000000
  70
    32
  0
VERTEX
  8
01
  5
16596
 10
-1359.67
 20
-1569.24
 30
0.000000
  70
    32
  0
VERTEX
  8
01
  5
16597
 10
-1359.67
 20
-1569.24
 30
0.000000
  70
    32
  0
VERTEX
  8
01
  5
16598
 10
-1359.68
 20
-1569.23
 30
0.000000
  70
    32
  0
VERTEX
  8
01
  5
16599
 10
-1359.68
 20
-1569.23
 30
0.000000
  70
    32
  0
VERTEX
  8
01
  5
1659A
 10
-1359.68
 20
-1569.22
 30
0.000000
  70
    32
  0
VERTEX
  8
01
  5
1659B
 10
-1359.69
 20
-1569.22
 30
0.000000
  70
    32
  0
VERTEX
  8
01
  5
1659C
 10
-1359.69
 20
-1569.22
 30
0.000000
  70
    32
  0
VERTEX
  8
01
  5
1659D
 10
-1359.69
 20
-1569.21
 30
0.000000
  70
    32
  0
VERTEX
  8
01
  5
1659E
 10
-1359.69
 20
-1569.21
 30
0.000000
  70
    32
  0
VERTEX
  8
01
  5
1659F
 10
-1359.70
 20
-1569.20
 30
0.000000
  70
    32
  0
VERTEX
  8
01
  5
165A0
 10
-1359.70
 20
-1569.20
 30
0.000000
  70
    32
  0
VERTEX
  8
01
  5
165A1
 10
-1359.70
 20
-1569.20
 30
0.000000
  70
    32
  0
VERTEX
  8
01
  5
165A2
 10
-1359.70
 20
-1569.19
 30
0.000000
  70
    32
  0
VERTEX
  8
01
  5
165A3
 10
-1359.71
 20
-1569.19
 30
0.000000
  70
    32
  0
VERTEX
  8
01
  5
165A4
 10
-1359.71
 20
-1569.18
 30
0.000000
  70
    32
  0
VERTEX
  8
01
  5
165A5
 10
-1359.71
 20
-1569.18
 30
0.000000
  70
    32
  0
VERTEX
  8
01
  5
165A6
 10
-1359.72
 20
-1569.17
 30
0.000000
  70
    32
  0
VERTEX
  8
01
  5
165A7
 10
-1359.72
 20
-1569.17
 30
0.000000
  70
    32
  0
VERTEX
  8
01
  5
165A8
 10
-1359.72
 20
-1569.17
 30
0.000000
  70
    32
  0
VERTEX
  8
01
  5
165A9
 10
-1359.72
 20
-1569.16
 30
0.000000
  70
    32
  0
VERTEX
  8
01
  5
165AA
 10
-1359.73
 20
-1569.16
 30
0.000000
  70
    32
  0
VERTEX
  8
01
  5
165AB
 10
-1359.73
 20
-1569.15
 30
0.000000
  70
    32
  0
VERTEX
  8
01
  5
165AC
 10
-1359.73
 20
-1569.15
 30
0.000000
  70
    32
  0
VERTEX
  8
01
  5
165AD
 10
-1359.74
 20
-1569.14
 30
0.000000
  70
    32
  0
VERTEX
  8
01
  5
165AE
 10
-1359.74
 20
-1569.14
 30
0.000000
  70
    32
  0
VERTEX
  8
01
  5
165AF
 10
-1359.74
 20
-1569.14
 30
0.000000
  70
    32
  0
VERTEX
  8
01
  5
165B0
 10
-1359.74
 20
-1569.13
 30
0.000000
  70
    32
  0
VERTEX
  8
01
  5
165B1
 10
-1359.75
 20
-1569.13
 30
0.000000
  70
    32
  0
VERTEX
  8
01
  5
165B2
 10
-1359.75
 20
-1569.12
 30
0.000000
  70
    32
  0
VERTEX
  8
01
  5
165B3
 10
-1359.75
 20
-1569.12
 30
0.000000
  70
    32
  0
VERTEX
  8
01
  5
165B4
 10
-1359.75
 20
-1569.11
 30
0.000000
  70
    32
  0
VERTEX
  8
01
  5
165B5
 10
-1359.76
 20
-1569.11
 30
0.000000
  70
    32
  0
VERTEX
  8
01
  5
165B6
 10
-1359.76
 20
-1569.11
 30
0.000000
  70
    32
  0
VERTEX
  8
01
  5
165B7
 10
-1359.76
 20
-1569.10
 30
0.000000
  70
    32
  0
VERTEX
  8
01
  5
165B8
 10
-1359.77
 20
-1569.10
 30
0.000000
  70
    32
  0
VERTEX
  8
01
  5
165B9
 10
-1359.77
 20
-1569.09
 30
0.000000
  70
    32
  0
VERTEX
  8
01
  5
165BA
 10
-1359.77
 20
-1569.09
 30
0.000000
  70
    32
  0
VERTEX
  8
01
  5
165BB
 10
-1359.77
 20
-1569.08
 30
0.000000
  70
    32
  0
VERTEX
  8
01
  5
165BC
 10
-1359.78
 20
-1569.08
 30
0.000000
  70
    32
  0
VERTEX
  8
01
  5
165BD
 10
-1359.78
 20
-1569.07
 30
0.000000
  70
    32
  0
VERTEX
  8
01
  5
165BE
 10
-1359.78
 20
-1569.07
 30
0.000000
  70
    32
  0
VERTEX
  8
01
  5
165BF
 10
-1359.78
 20
-1569.07
 30
0.000000
  70
    32
  0
VERTEX
  8
01
  5
165C0
 10
-1359.79
 20
-1569.06
 30
0.000000
  70
    32
  0
VERTEX
  8
01
  5
165C1
 10
-1359.79
 20
-1569.06
 30
0.000000
  70
    32
  0
VERTEX
  8
01
  5
165C2
 10
-1359.79
 20
-1569.05
 30
0.000000
  70
    32
  0
VERTEX
  8
01
  5
165C3
 10
-1359.80
 20
-1569.05
 30
0.000000
  70
    32
  0
VERTEX
  8
01
  5
165C4
 10
-1359.80
 20
-1569.04
 30
0.000000
  70
    32
  0
VERTEX
  8
01
  5
165C5
 10
-1359.80
 20
-1569.04
 30
0.000000
  70
    32
  0
VERTEX
  8
01
  5
165C6
 10
-1359.80
 20
-1569.04
 30
0.000000
  70
    32
  0
VERTEX
  8
01
  5
165C7
 10
-1359.81
 20
-1569.03
 30
0.000000
  70
    32
  0
VERTEX
  8
01
  5
165C8
 10
-1359.81
 20
-1569.03
 30
0.000000
  70
    32
  0
VERTEX
  8
01
  5
165C9
 10
-1359.81
 20
-1569.02
 30
0.000000
  70
    32
  0
VERTEX
  8
01
  5
165CA
 10
-1359.81
 20
-1569.02
 30
0.000000
  70
    32
  0
VERTEX
  8
01
  5
165CB
 10
-1359.82
 20
-1569.01
 30
0.000000
  70
    32
  0
VERTEX
  8
01
  5
165CC
 10
-1359.82
 20
-1569.01
 30
0.000000
  70
    32
  0
VERTEX
  8
01
  5
165CD
 10
-1359.82
 20
-1569.01
 30
0.000000
  70
    32
  0
VERTEX
  8
01
  5
165CE
 10
-1359.82
 20
-1569.00
 30
0.000000
  70
    32
  0
VERTEX
  8
01
  5
165CF
 10
-1359.83
 20
-1569.00
 30
0.000000
  70
    32
  0
VERTEX
  8
01
  5
165D0
 10
-1359.83
 20
-1568.99
 30
0.000000
  70
    32
  0
VERTEX
  8
01
  5
165D1
 10
-1359.83
 20
-1568.99
 30
0.000000
  70
    32
  0
VERTEX
  8
01
  5
165D2
 10
-1359.84
 20
-1568.98
 30
0.000000
  70
    32
  0
VERTEX
  8
01
  5
165D3
 10
-1359.84
 20
-1568.98
 30
0.000000
  70
    32
  0
VERTEX
  8
01
  5
165D4
 10
-1359.84
 20
-1568.98
 30
0.000000
  70
    32
  0
VERTEX
  8
01
  5
165D5
 10
-1359.84
 20
-1568.97
 30
0.000000
  70
    32
  0
VERTEX
  8
01
  5
165D6
 10
-1359.85
 20
-1568.97
 30
0.000000
  70
    32
  0
VERTEX
  8
01
  5
165D7
 10
-1359.85
 20
-1568.96
 30
0.000000
  70
    32
  0
VERTEX
  8
01
  5
165D8
 10
-1359.85
 20
-1568.96
 30
0.000000
  70
    32
  0
VERTEX
  8
01
  5
165D9
 10
-1359.85
 20
-1568.95
 30
0.000000
  70
    32
  0
VERTEX
  8
01
  5
165DA
 10
-1359.86
 20
-1568.95
 30
0.000000
  70
    32
  0
VERTEX
  8
01
  5
165DB
 10
-1359.86
 20
-1568.94
 30
0.000000
  70
    32
  0
VERTEX
  8
01
  5
165DC
 10
-1359.86
 20
-1568.94
 30
0.000000
  70
    32
  0
VERTEX
  8
01
  5
165DD
 10
-1359.86
 20
-1568.94
 30
0.000000
  70
    32
  0
VERTEX
  8
01
  5
165DE
 10
-1359.87
 20
-1568.93
 30
0.000000
  70
    32
  0
VERTEX
  8
01
  5
165DF
 10
-1359.87
 20
-1568.93
 30
0.000000
  70
    32
  0
VERTEX
  8
01
  5
165E0
 10
-1359.87
 20
-1568.92
 30
0.000000
  70
    32
  0
VERTEX
  8
01
  5
165E1
 10
-1359.87
 20
-1568.92
 30
0.000000
  70
    32
  0
VERTEX
  8
01
  5
165E2
 10
-1359.88
 20
-1568.91
 30
0.000000
  70
    32
  0
VERTEX
  8
01
  5
165E3
 10
-1359.88
 20
-1568.91
 30
0.000000
  70
    32
  0
VERTEX
  8
01
  5
165E4
 10
-1359.88
 20
-1568.91
 30
0.000000
  70
    32
  0
VERTEX
  8
01
  5
165E5
 10
-1359.89
 20
-1568.90
 30
0.000000
  70
    32
  0
VERTEX
  8
01
  5
165E6
 10
-1359.89
 20
-1568.90
 30
0.000000
  70
    32
  0
VERTEX
  8
01
  5
165E7
 10
-1359.89
 20
-1568.89
 30
0.000000
  70
    32
  0
VERTEX
  8
01
  5
165E8
 10
-1359.89
 20
-1568.89
 30
0.000000
  70
    32
  0
VERTEX
  8
01
  5
165E9
 10
-1359.90
 20
-1568.88
 30
0.000000
  70
    32
  0
VERTEX
  8
01
  5
165EA
 10
-1359.90
 20
-1568.88
 30
0.000000
  70
    32
  0
VERTEX
  8
01
  5
165EB
 10
-1359.90
 20
-1568.87
 30
0.000000
  70
    32
  0
VERTEX
  8
01
  5
165EC
 10
-1359.90
 20
-1568.87
 30
0.000000
  70
    32
  0
VERTEX
  8
01
  5
165ED
 10
-1359.91
 20
-1568.87
 30
0.000000
  70
    32
  0
VERTEX
  8
01
  5
165EE
 10
-1359.91
 20
-1568.86
 30
0.000000
  70
    32
  0
VERTEX
  8
01
  5
165EF
 10
-1359.91
 20
-1568.86
 30
0.000000
  70
    32
  0
VERTEX
  8
01
  5
165F0
 10
-1359.91
 20
-1568.85
 30
0.000000
  70
    32
  0
VERTEX
  8
01
  5
165F1
 10
-1359.92
 20
-1568.85
 30
0.000000
  70
    32
  0
VERTEX
  8
01
  5
165F2
 10
-1359.92
 20
-1568.84
 30
0.000000
  70
    32
  0
VERTEX
  8
01
  5
165F3
 10
-1359.92
 20
-1568.84
 30
0.000000
  70
    32
  0
VERTEX
  8
01
  5
165F4
 10
-1359.92
 20
-1568.83
 30
0.000000
  70
    32
  0
VERTEX
  8
01
  5
165F5
 10
-1359.93
 20
-1568.83
 30
0.000000
  70
    32
  0
VERTEX
  8
01
  5
165F6
 10
-1359.93
 20
-1568.83
 30
0.000000
  70
    32
  0
VERTEX
  8
01
  5
165F7
 10
-1359.93
 20
-1568.82
 30
0.000000
  70
    32
  0
VERTEX
  8
01
  5
165F8
 10
-1359.93
 20
-1568.82
 30
0.000000
  70
    32
  0
VERTEX
  8
01
  5
165F9
 10
-1359.94
 20
-1568.81
 30
0.000000
  70
    32
  0
VERTEX
  8
01
  5
165FA
 10
-1359.94
 20
-1568.81
 30
0.000000
  70
    32
  0
VERTEX
  8
01
  5
165FB
 10
-1359.94
 20
-1568.80
 30
0.000000
  70
    32
  0
VERTEX
  8
01
  5
165FC
 10
-1359.94
 20
-1568.80
 30
0.000000
  70
    32
  0
VERTEX
  8
01
  5
165FD
 10
-1359.95
 20
-1568.79
 30
0.000000
  70
    32
  0
VERTEX
  8
01
  5
165FE
 10
-1359.95
 20
-1568.79
 30
0.000000
  70
    32
  0
VERTEX
  8
01
  5
165FF
 10
-1359.95
 20
-1568.79
 30
0.000000
  70
    32
  0
VERTEX
  8
01
  5
16600
 10
-1359.95
 20
-1568.78
 30
0.000000
  70
    32
  0
VERTEX
  8
01
  5
16601
 10
-1359.96
 20
-1568.78
 30
0.000000
  70
    32
  0
VERTEX
  8
01
  5
16602
 10
-1359.96
 20
-1568.77
 30
0.000000
  70
    32
  0
VERTEX
  8
01
  5
16603
 10
-1359.96
 20
-1568.77
 30
0.000000
  70
    32
  0
VERTEX
  8
01
  5
16604
 10
-1359.96
 20
-1568.76
 30
0.000000
  70
    32
  0
VERTEX
  8
01
  5
16605
 10
-1359.97
 20
-1568.76
 30
0.000000
  70
    32
  0
VERTEX
  8
01
  5
16606
 10
-1359.97
 20
-1568.75
 30
0.000000
  70
    32
  0
VERTEX
  8
01
  5
16607
 10
-1359.97
 20
-1568.75
 30
0.000000
  70
    32
  0
VERTEX
  8
01
  5
16608
 10
-1359.97
 20
-1568.75
 30
0.000000
  70
    32
  0
VERTEX
  8
01
  5
16609
 10
-1359.98
 20
-1568.74
 30
0.000000
  70
    32
  0
VERTEX
  8
01
  5
1660A
 10
-1359.98
 20
-1568.74
 30
0.000000
  70
    32
  0
VERTEX
  8
01
  5
1660B
 10
-1359.98
 20
-1568.73
 30
0.000000
  70
    32
  0
VERTEX
  8
01
  5
1660C
 10
-1359.98
 20
-1568.73
 30
0.000000
  70
    32
  0
VERTEX
  8
01
  5
1660D
 10
-1359.99
 20
-1568.72
 30
0.000000
  70
    32
  0
VERTEX
  8
01
  5
1660E
 10
-1359.99
 20
-1568.72
 30
0.000000
  70
    32
  0
VERTEX
  8
01
  5
1660F
 10
-1359.99
 20
-1568.71
 30
0.000000
  70
    32
  0
VERTEX
  8
01
  5
16610
 10
-1359.99
 20
-1568.71
 30
0.000000
  70
    32
  0
VERTEX
  8
01
  5
16611
 10
-1360.00
 20
-1568.71
 30
0.000000
  70
    32
  0
VERTEX
  8
01
  5
16612
 10
-1360.00
 20
-1568.70
 30
0.000000
  70
    32
  0
VERTEX
  8
01
  5
16613
 10
-1360.00
 20
-1568.70
 30
0.000000
  70
    32
  0
VERTEX
  8
01
  5
16614
 10
-1360.00
 20
-1568.69
 30
0.000000
  70
    32
  0
VERTEX
  8
01
  5
16615
 10
-1360.01
 20
-1568.69
 30
0.000000
  70
    32
  0
VERTEX
  8
01
  5
16616
 10
-1360.01
 20
-1568.68
 30
0.000000
  70
    32
  0
VERTEX
  8
01
  5
16617
 10
-1360.01
 20
-1568.68
 30
0.000000
  70
    32
  0
VERTEX
  8
01
  5
16618
 10
-1360.01
 20
-1568.67
 30
0.000000
  70
    32
  0
VERTEX
  8
01
  5
16619
 10
-1360.02
 20
-1568.67
 30
0.000000
  70
    32
  0
VERTEX
  8
01
  5
1661A
 10
-1360.02
 20
-1568.67
 30
0.000000
  70
    32
  0
VERTEX
  8
01
  5
1661B
 10
-1360.02
 20
-1568.66
 30
0.000000
  70
    32
  0
VERTEX
  8
01
  5
1661C
 10
-1360.02
 20
-1568.66
 30
0.000000
  70
    32
  0
VERTEX
  8
01
  5
1661D
 10
-1360.03
 20
-1568.65
 30
0.000000
  70
    32
  0
VERTEX
  8
01
  5
1661E
 10
-1360.03
 20
-1568.65
 30
0.000000
  70
    32
  0
VERTEX
  8
01
  5
1661F
 10
-1360.03
 20
-1568.64
 30
0.000000
  70
    32
  0
VERTEX
  8
01
  5
16620
 10
-1360.03
 20
-1568.64
 30
0.000000
  70
    32
  0
VERTEX
  8
01
  5
16621
 10
-1360.03
 20
-1568.63
 30
0.000000
  70
    32
  0
VERTEX
  8
01
  5
16622
 10
-1360.04
 20
-1568.63
 30
0.000000
  70
    32
  0
VERTEX
  8
01
  5
16623
 10
-1360.04
 20
-1568.62
 30
0.000000
  70
    32
  0
VERTEX
  8
01
  5
16624
 10
-1360.04
 20
-1568.62
 30
0.000000
  70
    32
  0
VERTEX
  8
01
  5
16625
 10
-1360.04
 20
-1568.62
 30
0.000000
  70
    32
  0
VERTEX
  8
01
  5
16626
 10
-1360.05
 20
-1568.61
 30
0.000000
  70
    32
  0
VERTEX
  8
01
  5
16627
 10
-1360.05
 20
-1568.61
 30
0.000000
  70
    32
  0
VERTEX
  8
01
  5
16628
 10
-1360.05
 20
-1568.60
 30
0.000000
  70
    32
  0
VERTEX
  8
01
  5
16629
 10
-1360.05
 20
-1568.60
 30
0.000000
  70
    32
  0
VERTEX
  8
01
  5
1662A
 10
-1360.06
 20
-1568.59
 30
0.000000
  70
    32
  0
VERTEX
  8
01
  5
1662B
 10
-1360.06
 20
-1568.59
 30
0.000000
  70
    32
  0
VERTEX
  8
01
  5
1662C
 10
-1360.06
 20
-1568.58
 30
0.000000
  70
    32
  0
VERTEX
  8
01
  5
1662D
 10
-1360.06
 20
-1568.58
 30
0.000000
  70
    32
  0
VERTEX
  8
01
  5
1662E
 10
-1360.07
 20
-1568.57
 30
0.000000
  70
    32
  0
VERTEX
  8
01
  5
1662F
 10
-1360.07
 20
-1568.57
 30
0.000000
  70
    32
  0
VERTEX
  8
01
  5
16630
 10
-1360.07
 20
-1568.57
 30
0.000000
  70
    32
  0
VERTEX
  8
01
  5
16631
 10
-1360.07
 20
-1568.56
 30
0.000000
  70
    32
  0
VERTEX
  8
01
  5
16632
 10
-1360.08
 20
-1568.56
 30
0.000000
  70
    32
  0
VERTEX
  8
01
  5
16633
 10
-1360.08
 20
-1568.55
 30
0.000000
  70
    32
  0
VERTEX
  8
01
  5
16634
 10
-1360.08
 20
-1568.55
 30
0.000000
  70
    32
  0
VERTEX
  8
01
  5
16635
 10
-1360.08
 20
-1568.54
 30
0.000000
  70
    32
  0
VERTEX
  8
01
  5
16636
 10
-1360.08
 20
-1568.54
 30
0.000000
  70
    32
  0
VERTEX
  8
01
  5
16637
 10
-1360.09
 20
-1568.53
 30
0.000000
  70
    32
  0
VERTEX
  8
01
  5
16638
 10
-1360.09
 20
-1568.53
 30
0.000000
  70
    32
  0
VERTEX
  8
01
  5
16639
 10
-1360.09
 20
-1568.53
 30
0.000000
  70
    32
  0
VERTEX
  8
01
  5
1663A
 10
-1360.09
 20
-1568.52
 30
0.000000
  70
    32
  0
VERTEX
  8
01
  5
1663B
 10
-1360.10
 20
-1568.52
 30
0.000000
  70
    32
  0
VERTEX
  8
01
  5
1663C
 10
-1360.10
 20
-1568.51
 30
0.000000
  70
    32
  0
VERTEX
  8
01
  5
1663D
 10
-1360.10
 20
-1568.51
 30
0.000000
  70
    32
  0
VERTEX
  8
01
  5
1663E
 10
-1360.10
 20
-1568.50
 30
0.000000
  70
    32
  0
VERTEX
  8
01
  5
1663F
 10
-1360.11
 20
-1568.50
 30
0.000000
  70
    32
  0
VERTEX
  8
01
  5
16640
 10
-1360.11
 20
-1568.49
 30
0.000000
  70
    32
  0
VERTEX
  8
01
  5
16641
 10
-1360.11
 20
-1568.49
 30
0.000000
  70
    32
  0
VERTEX
  8
01
  5
16642
 10
-1360.11
 20
-1568.48
 30
0.000000
  70
    32
  0
VERTEX
  8
01
  5
16643
 10
-1360.11
 20
-1568.48
 30
0.000000
  70
    32
  0
VERTEX
  8
01
  5
16644
 10
-1360.12
 20
-1568.48
 30
0.000000
  70
    32
  0
VERTEX
  8
01
  5
16645
 10
-1360.12
 20
-1568.47
 30
0.000000
  70
    32
  0
VERTEX
  8
01
  5
16646
 10
-1360.12
 20
-1568.47
 30
0.000000
  70
    32
  0
VERTEX
  8
01
  5
16647
 10
-1360.12
 20
-1568.46
 30
0.000000
  70
    32
  0
VERTEX
  8
01
  5
16648
 10
-1360.13
 20
-1568.46
 30
0.000000
  70
    32
  0
VERTEX
  8
01
  5
16649
 10
-1360.13
 20
-1568.45
 30
0.000000
  70
    32
  0
VERTEX
  8
01
  5
1664A
 10
-1360.13
 20
-1568.45
 30
0.000000
  70
    32
  0
VERTEX
  8
01
  5
1664B
 10
-1360.13
 20
-1568.44
 30
0.000000
  70
    32
  0
VERTEX
  8
01
  5
1664C
 10
-1360.14
 20
-1568.44
 30
0.000000
  70
    32
  0
VERTEX
  8
01
  5
1664D
 10
-1360.14
 20
-1568.43
 30
0.000000
  70
    32
  0
VERTEX
  8
01
  5
1664E
 10
-1360.14
 20
-1568.43
 30
0.000000
  70
    32
  0
VERTEX
  8
01
  5
1664F
 10
-1360.14
 20
-1568.42
 30
0.000000
  70
    32
  0
VERTEX
  8
01
  5
16650
 10
-1360.14
 20
-1568.42
 30
0.000000
  70
    32
  0
VERTEX
  8
01
  5
16651
 10
-1360.15
 20
-1568.42
 30
0.000000
  70
    32
  0
VERTEX
  8
01
  5
16652
 10
-1360.15
 20
-1568.41
 30
0.000000
  70
    32
  0
VERTEX
  8
01
  5
16653
 10
-1360.15
 20
-1568.41
 30
0.000000
  70
    32
  0
VERTEX
  8
01
  5
16654
 10
-1360.15
 20
-1568.40
 30
0.000000
  70
    32
  0
VERTEX
  8
01
  5
16655
 10
-1360.16
 20
-1568.40
 30
0.000000
  70
    32
  0
VERTEX
  8
01
  5
16656
 10
-1360.16
 20
-1568.39
 30
0.000000
  70
    32
  0
VERTEX
  8
01
  5
16657
 10
-1360.16
 20
-1568.39
 30
0.000000
  70
    32
  0
VERTEX
  8
01
  5
16658
 10
-1360.16
 20
-1568.38
 30
0.000000
  70
    32
  0
VERTEX
  8
01
  5
16659
 10
-1360.16
 20
-1568.38
 30
0.000000
  70
    32
  0
VERTEX
  8
01
  5
1665A
 10
-1360.17
 20
-1568.37
 30
0.000000
  70
    32
  0
VERTEX
  8
01
  5
1665B
 10
-1360.17
 20
-1568.37
 30
0.000000
  70
    32
  0
VERTEX
  8
01
  5
1665C
 10
-1360.17
 20
-1568.37
 30
0.000000
  70
    32
  0
VERTEX
  8
01
  5
1665D
 10
-1360.17
 20
-1568.36
 30
0.000000
  70
    32
  0
VERTEX
  8
01
  5
1665E
 10
-1360.18
 20
-1568.36
 30
0.000000
  70
    32
  0
VERTEX
  8
01
  5
1665F
 10
-1360.18
 20
-1568.35
 30
0.000000
  70
    32
  0
VERTEX
  8
01
  5
16660
 10
-1360.18
 20
-1568.35
 30
0.000000
  70
    32
  0
VERTEX
  8
01
  5
16661
 10
-1360.18
 20
-1568.34
 30
0.000000
  70
    32
  0
VERTEX
  8
01
  5
16662
 10
-1360.18
 20
-1568.34
 30
0.000000
  70
    32
  0
VERTEX
  8
01
  5
16663
 10
-1360.19
 20
-1568.33
 30
0.000000
  70
    32
  0
VERTEX
  8
01
  5
16664
 10
-1360.19
 20
-1568.33
 30
0.000000
  70
    32
  0
VERTEX
  8
01
  5
16665
 10
-1360.19
 20
-1568.32
 30
0.000000
  70
    32
  0
VERTEX
  8
01
  5
16666
 10
-1360.19
 20
-1568.32
 30
0.000000
  70
    32
  0
VERTEX
  8
01
  5
16667
 10
-1360.19
 20
-1568.31
 30
0.000000
  70
    32
  0
VERTEX
  8
01
  5
16668
 10
-1360.20
 20
-1568.31
 30
0.000000
  70
    32
  0
VERTEX
  8
01
  5
16669
 10
-1360.20
 20
-1568.31
 30
0.000000
  70
    32
  0
VERTEX
  8
01
  5
1666A
 10
-1360.20
 20
-1568.30
 30
0.000000
  70
    32
  0
VERTEX
  8
01
  5
1666B
 10
-1360.20
 20
-1568.30
 30
0.000000
  70
    32
  0
VERTEX
  8
01
  5
1666C
 10
-1360.21
 20
-1568.29
 30
0.000000
  70
    32
  0
VERTEX
  8
01
  5
1666D
 10
-1360.21
 20
-1568.29
 30
0.000000
  70
    32
  0
VERTEX
  8
01
  5
1666E
 10
-1360.21
 20
-1568.28
 30
0.000000
  70
    32
  0
VERTEX
  8
01
  5
1666F
 10
-1360.21
 20
-1568.28
 30
0.000000
  70
    32
  0
VERTEX
  8
01
  5
16670
 10
-1360.21
 20
-1568.27
 30
0.000000
  70
    32
  0
VERTEX
  8
01
  5
16671
 10
-1360.22
 20
-1568.27
 30
0.000000
  70
    32
  0
VERTEX
  8
01
  5
16672
 10
-1360.22
 20
-1568.26
 30
0.000000
  70
    32
  0
VERTEX
  8
01
  5
16673
 10
-1360.22
 20
-1568.26
 30
0.000000
  70
    32
  0
VERTEX
  8
01
  5
16674
 10
-1360.22
 20
-1568.25
 30
0.000000
  70
    32
  0
VERTEX
  8
01
  5
16675
 10
-1360.22
 20
-1568.25
 30
0.000000
  70
    32
  0
VERTEX
  8
01
  5
16676
 10
-1360.23
 20
-1568.25
 30
0.000000
  70
    32
  0
VERTEX
  8
01
  5
16677
 10
-1360.23
 20
-1568.24
 30
0.000000
  70
    32
  0
VERTEX
  8
01
  5
16678
 10
-1360.23
 20
-1568.24
 30
0.000000
  70
    32
  0
VERTEX
  8
01
  5
16679
 10
-1360.23
 20
-1568.23
 30
0.000000
  70
    32
  0
VERTEX
  8
01
  5
1667A
 10
-1360.24
 20
-1568.23
 30
0.000000
  70
    32
  0
VERTEX
  8
01
  5
1667B
 10
-1360.24
 20
-1568.22
 30
0.000000
  70
    32
  0
VERTEX
  8
01
  5
1667C
 10
-1360.24
 20
-1568.22
 30
0.000000
  70
    32
  0
VERTEX
  8
01
  5
1667D
 10
-1360.24
 20
-1568.21
 30
0.000000
  70
    32
  0
VERTEX
  8
01
  5
1667E
 10
-1360.24
 20
-1568.21
 30
0.000000
  70
    32
  0
VERTEX
  8
01
  5
1667F
 10
-1360.25
 20
-1568.20
 30
0.000000
  70
    32
  0
VERTEX
  8
01
  5
16680
 10
-1360.25
 20
-1568.20
 30
0.000000
  70
    32
  0
VERTEX
  8
01
  5
16681
 10
-1360.25
 20
-1568.19
 30
0.000000
  70
    32
  0
VERTEX
  8
01
  5
16682
 10
-1360.25
 20
-1568.19
 30
0.000000
  70
    32
  0
VERTEX
  8
01
  5
16683
 10
-1360.25
 20
-1568.18
 30
0.000000
  70
    32
  0
VERTEX
  8
01
  5
16684
 10
-1360.26
 20
-1568.18
 30
0.000000
  70
    32
  0
VERTEX
  8
01
  5
16685
 10
-1360.26
 20
-1568.18
 30
0.000000
  70
    32
  0
VERTEX
  8
01
  5
16686
 10
-1360.26
 20
-1568.17
 30
0.000000
  70
    32
  0
VERTEX
  8
01
  5
16687
 10
-1360.26
 20
-1568.17
 30
0.000000
  70
    32
  0
VERTEX
  8
01
  5
16688
 10
-1360.26
 20
-1568.16
 30
0.000000
  70
    32
  0
VERTEX
  8
01
  5
16689
 10
-1360.27
 20
-1568.16
 30
0.000000
  70
    32
  0
VERTEX
  8
01
  5
1668A
 10
-1360.27
 20
-1568.15
 30
0.000000
  70
    32
  0
VERTEX
  8
01
  5
1668B
 10
-1360.27
 20
-1568.15
 30
0.000000
  70
    32
  0
VERTEX
  8
01
  5
1668C
 10
-1360.27
 20
-1568.14
 30
0.000000
  70
    32
  0
VERTEX
  8
01
  5
1668D
 10
-1360.27
 20
-1568.14
 30
0.000000
  70
    32
  0
VERTEX
  8
01
  5
1668E
 10
-1360.28
 20
-1568.13
 30
0.000000
  70
    32
  0
VERTEX
  8
01
  5
1668F
 10
-1360.28
 20
-1568.13
 30
0.000000
  70
    32
  0
VERTEX
  8
01
  5
16690
 10
-1360.28
 20
-1568.12
 30
0.000000
  70
    32
  0
VERTEX
  8
01
  5
16691
 10
-1360.28
 20
-1568.12
 30
0.000000
  70
    32
  0
VERTEX
  8
01
  5
16692
 10
-1360.29
 20
-1568.11
 30
0.000000
  70
    32
  0
VERTEX
  8
01
  5
16693
 10
-1360.29
 20
-1568.11
 30
0.000000
  70
    32
  0
VERTEX
  8
01
  5
16694
 10
-1360.29
 20
-1568.11
 30
0.000000
  70
    32
  0
VERTEX
  8
01
  5
16695
 10
-1360.29
 20
-1568.10
 30
0.000000
  70
    32
  0
VERTEX
  8
01
  5
16696
 10
-1360.29
 20
-1568.10
 30
0.000000
  70
    32
  0
VERTEX
  8
01
  5
16697
 10
-1360.30
 20
-1568.09
 30
0.000000
  70
    32
  0
VERTEX
  8
01
  5
16698
 10
-1360.30
 20
-1568.09
 30
0.000000
  70
    32
  0
VERTEX
  8
01
  5
16699
 10
-1360.30
 20
-1568.08
 30
0.000000
  70
    32
  0
VERTEX
  8
01
  5
1669A
 10
-1360.30
 20
-1568.08
 30
0.000000
  70
    32
  0
VERTEX
  8
01
  5
1669B
 10
-1360.30
 20
-1568.07
 30
0.000000
  70
    32
  0
VERTEX
  8
01
  5
1669C
 10
-1360.31
 20
-1568.07
 30
0.000000
  70
    32
  0
VERTEX
  8
01
  5
1669D
 10
-1360.31
 20
-1568.06
 30
0.000000
  70
    32
  0
VERTEX
  8
01
  5
1669E
 10
-1360.31
 20
-1568.06
 30
0.000000
  70
    32
  0
VERTEX
  8
01
  5
1669F
 10
-1360.31
 20
-1568.05
 30
0.000000
  70
    32
  0
VERTEX
  8
01
  5
166A0
 10
-1360.31
 20
-1568.05
 30
0.000000
  70
    32
  0
VERTEX
  8
01
  5
166A1
 10
-1360.32
 20
-1568.04
 30
0.000000
  70
    32
  0
VERTEX
  8
01
  5
166A2
 10
-1360.32
 20
-1568.04
 30
0.000000
  70
    32
  0
VERTEX
  8
01
  5
166A3
 10
-1360.32
 20
-1568.03
 30
0.000000
  70
    32
  0
VERTEX
  8
01
  5
166A4
 10
-1360.32
 20
-1568.03
 30
0.000000
  70
    32
  0
VERTEX
  8
01
  5
166A5
 10
-1360.32
 20
-1568.03
 30
0.000000
  70
    32
  0
VERTEX
  8
01
  5
166A6
 10
-1360.33
 20
-1568.02
 30
0.000000
  70
    32
  0
VERTEX
  8
01
  5
166A7
 10
-1360.33
 20
-1568.02
 30
0.000000
  70
    32
  0
VERTEX
  8
01
  5
166A8
 10
-1360.33
 20
-1568.01
 30
0.000000
  70
    32
  0
VERTEX
  8
01
  5
166A9
 10
-1360.33
 20
-1568.01
 30
0.000000
  70
    32
  0
VERTEX
  8
01
  5
166AA
 10
-1360.33
 20
-1568.00
 30
0.000000
  70
    32
  0
VERTEX
  8
01
  5
166AB
 10
-1360.33
 20
-1568.00
 30
0.000000
  70
    32
  0
VERTEX
  8
01
  5
166AC
 10
-1360.34
 20
-1567.99
 30
0.000000
  70
    32
  0
VERTEX
  8
01
  5
166AD
 10
-1360.34
 20
-1567.99
 30
0.000000
  70
    32
  0
VERTEX
  8
01
  5
166AE
 10
-1360.34
 20
-1567.98
 30
0.000000
  70
    32
  0
VERTEX
  8
01
  5
166AF
 10
-1360.34
 20
-1567.98
 30
0.000000
  70
    32
  0
VERTEX
  8
01
  5
166B0
 10
-1360.34
 20
-1567.97
 30
0.000000
  70
    32
  0
VERTEX
  8
01
  5
166B1
 10
-1360.35
 20
-1567.97
 30
0.000000
  70
    32
  0
VERTEX
  8
01
  5
166B2
 10
-1360.35
 20
-1567.96
 30
0.000000
  70
    32
  0
VERTEX
  8
01
  5
166B3
 10
-1360.35
 20
-1567.96
 30
0.000000
  70
    32
  0
VERTEX
  8
01
  5
166B4
 10
-1360.35
 20
-1567.95
 30
0.000000
  70
    32
  0
VERTEX
  8
01
  5
166B5
 10
-1360.35
 20
-1567.95
 30
0.000000
  70
    32
  0
VERTEX
  8
01
  5
166B6
 10
-1360.36
 20
-1567.95
 30
0.000000
  70
    32
  0
VERTEX
  8
01
  5
166B7
 10
-1360.36
 20
-1567.94
 30
0.000000
  70
    32
  0
VERTEX
  8
01
  5
166B8
 10
-1360.36
 20
-1567.94
 30
0.000000
  70
    32
  0
VERTEX
  8
01
  5
166B9
 10
-1360.36
 20
-1567.93
 30
0.000000
  70
    32
  0
VERTEX
  8
01
  5
166BA
 10
-1360.36
 20
-1567.93
 30
0.000000
  70
    32
  0
VERTEX
  8
01
  5
166BB
 10
-1360.37
 20
-1567.92
 30
0.000000
  70
    32
  0
VERTEX
  8
01
  5
166BC
 10
-1360.37
 20
-1567.92
 30
0.000000
  70
    32
  0
VERTEX
  8
01
  5
166BD
 10
-1360.37
 20
-1567.91
 30
0.000000
  70
    32
  0
VERTEX
  8
01
  5
166BE
 10
-1360.37
 20
-1567.91
 30
0.000000
  70
    32
  0
VERTEX
  8
01
  5
166BF
 10
-1360.37
 20
-1567.90
 30
0.000000
  70
    32
  0
VERTEX
  8
01
  5
166C0
 10
-1360.37
 20
-1567.90
 30
0.000000
  70
    32
  0
VERTEX
  8
01
  5
166C1
 10
-1360.38
 20
-1567.89
 30
0.000000
  70
    32
  0
VERTEX
  8
01
  5
166C2
 10
-1360.38
 20
-1567.89
 30
0.000000
  70
    32
  0
VERTEX
  8
01
  5
166C3
 10
-1360.38
 20
-1567.88
 30
0.000000
  70
    32
  0
VERTEX
  8
01
  5
166C4
 10
-1360.38
 20
-1567.88
 30
0.000000
  70
    32
  0
VERTEX
  8
01
  5
166C5
 10
-1360.38
 20
-1567.87
 30
0.000000
  70
    32
  0
VERTEX
  8
01
  5
166C6
 10
-1360.39
 20
-1567.87
 30
0.000000
  70
    32
  0
VERTEX
  8
01
  5
166C7
 10
-1360.39
 20
-1567.86
 30
0.000000
  70
    32
  0
VERTEX
  8
01
  5
166C8
 10
-1360.39
 20
-1567.86
 30
0.000000
  70
    32
  0
VERTEX
  8
01
  5
166C9
 10
-1360.39
 20
-1567.86
 30
0.000000
  70
    32
  0
VERTEX
  8
01
  5
166CA
 10
-1360.39
 20
-1567.85
 30
0.000000
  70
    32
  0
VERTEX
  8
01
  5
166CB
 10
-1360.40
 20
-1567.85
 30
0.000000
  70
    32
  0
VERTEX
  8
01
  5
166CC
 10
-1360.40
 20
-1567.84
 30
0.000000
  70
    32
  0
VERTEX
  8
01
  5
166CD
 10
-1360.40
 20
-1567.84
 30
0.000000
  70
    32
  0
VERTEX
  8
01
  5
166CE
 10
-1360.40
 20
-1567.83
 30
0.000000
  70
    32
  0
VERTEX
  8
01
  5
166CF
 10
-1360.40
 20
-1567.83
 30
0.000000
  70
    32
  0
VERTEX
  8
01
  5
166D0
 10
-1360.40
 20
-1567.82
 30
0.000000
  70
    32
  0
VERTEX
  8
01
  5
166D1
 10
-1360.41
 20
-1567.82
 30
0.000000
  70
    32
  0
VERTEX
  8
01
  5
166D2
 10
-1360.41
 20
-1567.81
 30
0.000000
  70
    32
  0
VERTEX
  8
01
  5
166D3
 10
-1360.41
 20
-1567.81
 30
0.000000
  70
    32
  0
VERTEX
  8
01
  5
166D4
 10
-1360.41
 20
-1567.80
 30
0.000000
  70
    32
  0
VERTEX
  8
01
  5
166D5
 10
-1360.41
 20
-1567.80
 30
0.000000
  70
    32
  0
VERTEX
  8
01
  5
166D6
 10
-1360.42
 20
-1567.79
 30
0.000000
  70
    32
  0
VERTEX
  8
01
  5
166D7
 10
-1360.42
 20
-1567.79
 30
0.000000
  70
    32
  0
VERTEX
  8
01
  5
166D8
 10
-1360.42
 20
-1567.78
 30
0.000000
  70
    32
  0
VERTEX
  8
01
  5
166D9
 10
-1360.42
 20
-1567.78
 30
0.000000
  70
    32
  0
VERTEX
  8
01
  5
166DA
 10
-1360.42
 20
-1567.77
 30
0.000000
  70
    32
  0
VERTEX
  8
01
  5
166DB
 10
-1360.42
 20
-1567.77
 30
0.000000
  70
    32
  0
VERTEX
  8
01
  5
166DC
 10
-1360.43
 20
-1567.76
 30
0.000000
  70
    32
  0
VERTEX
  8
01
  5
166DD
 10
-1360.43
 20
-1567.76
 30
0.000000
  70
    32
  0
VERTEX
  8
01
  5
166DE
 10
-1360.43
 20
-1567.75
 30
0.000000
  70
    32
  0
VERTEX
  8
01
  5
166DF
 10
-1360.43
 20
-1567.75
 30
0.000000
  70
    32
  0
VERTEX
  8
01
  5
166E0
 10
-1360.43
 20
-1567.75
 30
0.000000
  70
    32
  0
VERTEX
  8
01
  5
166E1
 10
-1360.43
 20
-1567.74
 30
0.000000
  70
    32
  0
VERTEX
  8
01
  5
166E2
 10
-1360.44
 20
-1567.74
 30
0.000000
  70
    32
  0
VERTEX
  8
01
  5
166E3
 10
-1360.44
 20
-1567.73
 30
0.000000
  70
    32
  0
VERTEX
  8
01
  5
166E4
 10
-1360.44
 20
-1567.73
 30
0.000000
  70
    32
  0
VERTEX
  8
01
  5
166E5
 10
-1360.44
 20
-1567.72
 30
0.000000
  70
    32
  0
VERTEX
  8
01
  5
166E6
 10
-1360.44
 20
-1567.72
 30
0.000000
  70
    32
  0
VERTEX
  8
01
  5
166E7
 10
-1360.45
 20
-1567.71
 30
0.000000
  70
    32
  0
VERTEX
  8
01
  5
166E8
 10
-1360.45
 20
-1567.71
 30
0.000000
  70
    32
  0
VERTEX
  8
01
  5
166E9
 10
-1360.45
 20
-1567.70
 30
0.000000
  70
    32
  0
VERTEX
  8
01
  5
166EA
 10
-1360.45
 20
-1567.70
 30
0.000000
  70
    32
  0
VERTEX
  8
01
  5
166EB
 10
-1360.45
 20
-1567.69
 30
0.000000
  70
    32
  0
VERTEX
  8
01
  5
166EC
 10
-1360.45
 20
-1567.69
 30
0.000000
  70
    32
  0
VERTEX
  8
01
  5
166ED
 10
-1360.46
 20
-1567.68
 30
0.000000
  70
    32
  0
VERTEX
  8
01
  5
166EE
 10
-1360.46
 20
-1567.68
 30
0.000000
  70
    32
  0
VERTEX
  8
01
  5
166EF
 10
-1360.46
 20
-1567.67
 30
0.000000
  70
    32
  0
VERTEX
  8
01
  5
166F0
 10
-1360.46
 20
-1567.67
 30
0.000000
  70
    32
  0
VERTEX
  8
01
  5
166F1
 10
-1360.46
 20
-1567.66
 30
0.000000
  70
    32
  0
VERTEX
  8
01
  5
166F2
 10
-1360.46
 20
-1567.66
 30
0.000000
  70
    32
  0
VERTEX
  8
01
  5
166F3
 10
-1360.47
 20
-1567.65
 30
0.000000
  70
    32
  0
VERTEX
  8
01
  5
166F4
 10
-1360.47
 20
-1567.65
 30
0.000000
  70
    32
  0
VERTEX
  8
01
  5
166F5
 10
-1360.47
 20
-1567.64
 30
0.000000
  70
    32
  0
VERTEX
  8
01
  5
166F6
 10
-1360.47
 20
-1567.64
 30
0.000000
  70
    32
  0
VERTEX
  8
01
  5
166F7
 10
-1360.47
 20
-1567.64
 30
0.000000
  70
    32
  0
VERTEX
  8
01
  5
166F8
 10
-1360.47
 20
-1567.63
 30
0.000000
  70
    32
  0
VERTEX
  8
01
  5
166F9
 10
-1360.48
 20
-1567.63
 30
0.000000
  70
    32
  0
VERTEX
  8
01
  5
166FA
 10
-1360.48
 20
-1567.62
 30
0.000000
  70
    32
  0
VERTEX
  8
01
  5
166FB
 10
-1360.48
 20
-1567.62
 30
0.000000
  70
    32
  0
VERTEX
  8
01
  5
166FC
 10
-1360.48
 20
-1567.61
 30
0.000000
  70
    32
  0
VERTEX
  8
01
  5
166FD
 10
-1360.48
 20
-1567.61
 30
0.000000
  70
    32
  0
VERTEX
  8
01
  5
166FE
 10
-1360.48
 20
-1567.60
 30
0.000000
  70
    32
  0
VERTEX
  8
01
  5
166FF
 10
-1360.49
 20
-1567.60
 30
0.000000
  70
    32
  0
VERTEX
  8
01
  5
16700
 10
-1360.49
 20
-1567.59
 30
0.000000
  70
    32
  0
VERTEX
  8
01
  5
16701
 10
-1360.49
 20
-1567.59
 30
0.000000
  70
    32
  0
VERTEX
  8
01
  5
16702
 10
-1360.49
 20
-1567.58
 30
0.000000
  70
    32
  0
VERTEX
  8
01
  5
16703
 10
-1360.49
 20
-1567.58
 30
0.000000
  70
    32
  0
VERTEX
  8
01
  5
16704
 10
-1360.49
 20
-1567.57
 30
0.000000
  70
    32
  0
VERTEX
  8
01
  5
16705
 10
-1360.50
 20
-1567.57
 30
0.000000
  70
    32
  0
VERTEX
  8
01
  5
16706
 10
-1360.50
 20
-1567.56
 30
0.000000
  70
    32
  0
VERTEX
  8
01
  5
16707
 10
-1360.50
 20
-1567.56
 30
0.000000
  70
    32
  0
VERTEX
  8
01
  5
16708
 10
-1360.50
 20
-1567.55
 30
0.000000
  70
    32
  0
VERTEX
  8
01
  5
16709
 10
-1360.50
 20
-1567.55
 30
0.000000
  70
    32
  0
VERTEX
  8
01
  5
1670A
 10
-1360.50
 20
-1567.54
 30
0.000000
  70
    32
  0
VERTEX
  8
01
  5
1670B
 10
-1360.51
 20
-1567.54
 30
0.000000
  70
    32
  0
VERTEX
  8
01
  5
1670C
 10
-1360.51
 20
-1567.53
 30
0.000000
  70
    32
  0
VERTEX
  8
01
  5
1670D
 10
-1360.51
 20
-1567.53
 30
0.000000
  70
    32
  0
VERTEX
  8
01
  5
1670E
 10
-1360.51
 20
-1567.52
 30
0.000000
  70
    32
  0
VERTEX
  8
01
  5
1670F
 10
-1360.51
 20
-1567.52
 30
0.000000
  70
    32
  0
VERTEX
  8
01
  5
16710
 10
-1360.51
 20
-1567.51
 30
0.000000
  70
    32
  0
VERTEX
  8
01
  5
16711
 10
-1360.52
 20
-1567.51
 30
0.000000
  70
    32
  0
VERTEX
  8
01
  5
16712
 10
-1360.52
 20
-1567.50
 30
0.000000
  70
    32
  0
VERTEX
  8
01
  5
16713
 10
-1360.52
 20
-1567.50
 30
0.000000
  70
    32
  0
VERTEX
  8
01
  5
16714
 10
-1360.52
 20
-1567.49
 30
0.000000
  70
    32
  0
VERTEX
  8
01
  5
16715
 10
-1360.52
 20
-1567.49
 30
0.000000
  70
    32
  0
VERTEX
  8
01
  5
16716
 10
-1360.52
 20
-1567.49
 30
0.000000
  70
    32
  0
VERTEX
  8
01
  5
16717
 10
-1360.52
 20
-1567.48
 30
0.000000
  70
    32
  0
VERTEX
  8
01
  5
16718
 10
-1360.53
 20
-1567.48
 30
0.000000
  70
    32
  0
VERTEX
  8
01
  5
16719
 10
-1360.53
 20
-1567.47
 30
0.000000
  70
    32
  0
VERTEX
  8
01
  5
1671A
 10
-1360.53
 20
-1567.47
 30
0.000000
  70
    32
  0
VERTEX
  8
01
  5
1671B
 10
-1360.53
 20
-1567.46
 30
0.000000
  70
    32
  0
VERTEX
  8
01
  5
1671C
 10
-1360.53
 20
-1567.46
 30
0.000000
  70
    32
  0
VERTEX
  8
01
  5
1671D
 10
-1360.53
 20
-1567.45
 30
0.000000
  70
    32
  0
VERTEX
  8
01
  5
1671E
 10
-1360.54
 20
-1567.45
 30
0.000000
  70
    32
  0
VERTEX
  8
01
  5
1671F
 10
-1360.54
 20
-1567.44
 30
0.000000
  70
    32
  0
VERTEX
  8
01
  5
16720
 10
-1360.54
 20
-1567.44
 30
0.000000
  70
    32
  0
VERTEX
  8
01
  5
16721
 10
-1360.54
 20
-1567.43
 30
0.000000
  70
    32
  0
VERTEX
  8
01
  5
16722
 10
-1360.54
 20
-1567.43
 30
0.000000
  70
    32
  0
VERTEX
  8
01
  5
16723
 10
-1360.54
 20
-1567.42
 30
0.000000
  70
    32
  0
VERTEX
  8
01
  5
16724
 10
-1360.55
 20
-1567.42
 30
0.000000
  70
    32
  0
VERTEX
  8
01
  5
16725
 10
-1360.55
 20
-1567.41
 30
0.000000
  70
    32
  0
VERTEX
  8
01
  5
16726
 10
-1360.55
 20
-1567.41
 30
0.000000
  70
    32
  0
VERTEX
  8
01
  5
16727
 10
-1360.55
 20
-1567.40
 30
0.000000
  70
    32
  0
VERTEX
  8
01
  5
16728
 10
-1360.55
 20
-1567.40
 30
0.000000
  70
    32
  0
VERTEX
  8
01
  5
16729
 10
-1360.55
 20
-1567.39
 30
0.000000
  70
    32
  0
VERTEX
  8
01
  5
1672A
 10
-1360.55
 20
-1567.39
 30
0.000000
  70
    32
  0
VERTEX
  8
01
  5
1672B
 10
-1360.56
 20
-1567.38
 30
0.000000
  70
    32
  0
VERTEX
  8
01
  5
1672C
 10
-1360.56
 20
-1567.38
 30
0.000000
  70
    32
  0
VERTEX
  8
01
  5
1672D
 10
-1360.56
 20
-1567.37
 30
0.000000
  70
    32
  0
VERTEX
  8
01
  5
1672E
 10
-1360.56
 20
-1567.37
 30
0.000000
  70
    32
  0
VERTEX
  8
01
  5
1672F
 10
-1360.56
 20
-1567.36
 30
0.000000
  70
    32
  0
VERTEX
  8
01
  5
16730
 10
-1360.56
 20
-1567.36
 30
0.000000
  70
    32
  0
VERTEX
  8
01
  5
16731
 10
-1360.56
 20
-1567.35
 30
0.000000
  70
    32
  0
VERTEX
  8
01
  5
16732
 10
-1360.57
 20
-1567.35
 30
0.000000
  70
    32
  0
VERTEX
  8
01
  5
16733
 10
-1360.57
 20
-1567.34
 30
0.000000
  70
    32
  0
VERTEX
  8
01
  5
16734
 10
-1360.57
 20
-1567.34
 30
0.000000
  70
    32
  0
VERTEX
  8
01
  5
16735
 10
-1360.57
 20
-1567.33
 30
0.000000
  70
    32
  0
VERTEX
  8
01
  5
16736
 10
-1360.57
 20
-1567.33
 30
0.000000
  70
    32
  0
VERTEX
  8
01
  5
16737
 10
-1360.57
 20
-1567.32
 30
0.000000
  70
    32
  0
VERTEX
  8
01
  5
16738
 10
-1360.57
 20
-1567.32
 30
0.000000
  70
    32
  0
VERTEX
  8
01
  5
16739
 10
-1360.58
 20
-1567.31
 30
0.000000
  70
    32
  0
VERTEX
  8
01
  5
1673A
 10
-1360.58
 20
-1567.31
 30
0.000000
  70
    32
  0
VERTEX
  8
01
  5
1673B
 10
-1360.58
 20
-1567.31
 30
0.000000
  70
    32
  0
VERTEX
  8
01
  5
1673C
 10
-1360.58
 20
-1567.30
 30
0.000000
  70
    32
  0
VERTEX
  8
01
  5
1673D
 10
-1360.58
 20
-1567.30
 30
0.000000
  70
    32
  0
VERTEX
  8
01
  5
1673E
 10
-1360.58
 20
-1567.29
 30
0.000000
  70
    32
  0
VERTEX
  8
01
  5
1673F
 10
-1360.59
 20
-1567.29
 30
0.000000
  70
    32
  0
VERTEX
  8
01
  5
16740
 10
-1360.59
 20
-1567.28
 30
0.000000
  70
    32
  0
VERTEX
  8
01
  5
16741
 10
-1360.59
 20
-1567.28
 30
0.000000
  70
    32
  0
VERTEX
  8
01
  5
16742
 10
-1360.59
 20
-1567.27
 30
0.000000
  70
    32
  0
VERTEX
  8
01
  5
16743
 10
-1360.59
 20
-1567.27
 30
0.000000
  70
    32
  0
VERTEX
  8
01
  5
16744
 10
-1360.59
 20
-1567.26
 30
0.000000
  70
    32
  0
VERTEX
  8
01
  5
16745
 10
-1360.59
 20
-1567.26
 30
0.000000
  70
    32
  0
VERTEX
  8
01
  5
16746
 10
-1360.60
 20
-1567.25
 30
0.000000
  70
    32
  0
VERTEX
  8
01
  5
16747
 10
-1360.60
 20
-1567.25
 30
0.000000
  70
    32
  0
VERTEX
  8
01
  5
16748
 10
-1360.60
 20
-1567.24
 30
0.000000
  70
    32
  0
VERTEX
  8
01
  5
16749
 10
-1360.60
 20
-1567.24
 30
0.000000
  70
    32
  0
VERTEX
  8
01
  5
1674A
 10
-1360.60
 20
-1567.23
 30
0.000000
  70
    32
  0
VERTEX
  8
01
  5
1674B
 10
-1360.60
 20
-1567.23
 30
0.000000
  70
    32
  0
VERTEX
  8
01
  5
1674C
 10
-1360.60
 20
-1567.22
 30
0.000000
  70
    32
  0
VERTEX
  8
01
  5
1674D
 10
-1360.60
 20
-1567.22
 30
0.000000
  70
    32
  0
VERTEX
  8
01
  5
1674E
 10
-1360.61
 20
-1567.21
 30
0.000000
  70
    32
  0
VERTEX
  8
01
  5
1674F
 10
-1360.61
 20
-1567.21
 30
0.000000
  70
    32
  0
VERTEX
  8
01
  5
16750
 10
-1360.61
 20
-1567.20
 30
0.000000
  70
    32
  0
VERTEX
  8
01
  5
16751
 10
-1360.61
 20
-1567.20
 30
0.000000
  70
    32
  0
VERTEX
  8
01
  5
16752
 10
-1360.61
 20
-1567.19
 30
0.000000
  70
    32
  0
VERTEX
  8
01
  5
16753
 10
-1360.61
 20
-1567.19
 30
0.000000
  70
    32
  0
VERTEX
  8
01
  5
16754
 10
-1360.61
 20
-1567.18
 30
0.000000
  70
    32
  0
VERTEX
  8
01
  5
16755
 10
-1360.62
 20
-1567.18
 30
0.000000
  70
    32
  0
VERTEX
  8
01
  5
16756
 10
-1360.62
 20
-1567.17
 30
0.000000
  70
    32
  0
VERTEX
  8
01
  5
16757
 10
-1360.62
 20
-1567.17
 30
0.000000
  70
    32
  0
VERTEX
  8
01
  5
16758
 10
-1360.62
 20
-1567.16
 30
0.000000
  70
    32
  0
VERTEX
  8
01
  5
16759
 10
-1360.62
 20
-1567.16
 30
0.000000
  70
    32
  0
VERTEX
  8
01
  5
1675A
 10
-1360.62
 20
-1567.15
 30
0.000000
  70
    32
  0
VERTEX
  8
01
  5
1675B
 10
-1360.62
 20
-1567.15
 30
0.000000
  70
    32
  0
VERTEX
  8
01
  5
1675C
 10
-1360.63
 20
-1567.14
 30
0.000000
  70
    32
  0
VERTEX
  8
01
  5
1675D
 10
-1360.63
 20
-1567.14
 30
0.000000
  70
    32
  0
VERTEX
  8
01
  5
1675E
 10
-1360.63
 20
-1567.13
 30
0.000000
  70
    32
  0
VERTEX
  8
01
  5
1675F
 10
-1360.63
 20
-1567.13
 30
0.000000
  70
    32
  0
VERTEX
  8
01
  5
16760
 10
-1360.63
 20
-1567.12
 30
0.000000
  70
    32
  0
VERTEX
  8
01
  5
16761
 10
-1360.63
 20
-1567.12
 30
0.000000
  70
    32
  0
VERTEX
  8
01
  5
16762
 10
-1360.63
 20
-1567.11
 30
0.000000
  70
    32
  0
VERTEX
  8
01
  5
16763
 10
-1360.63
 20
-1567.11
 30
0.000000
  70
    32
  0
VERTEX
  8
01
  5
16764
 10
-1360.64
 20
-1567.10
 30
0.000000
  70
    32
  0
VERTEX
  8
01
  5
16765
 10
-1360.64
 20
-1567.10
 30
0.000000
  70
    32
  0
VERTEX
  8
01
  5
16766
 10
-1360.64
 20
-1567.09
 30
0.000000
  70
    32
  0
VERTEX
  8
01
  5
16767
 10
-1360.64
 20
-1567.09
 30
0.000000
  70
    32
  0
VERTEX
  8
01
  5
16768
 10
-1360.64
 20
-1567.08
 30
0.000000
  70
    32
  0
VERTEX
  8
01
  5
16769
 10
-1360.64
 20
-1567.08
 30
0.000000
  70
    32
  0
VERTEX
  8
01
  5
1676A
 10
-1360.64
 20
-1567.07
 30
0.000000
  70
    32
  0
VERTEX
  8
01
  5
1676B
 10
-1360.64
 20
-1567.07
 30
0.000000
  70
    32
  0
VERTEX
  8
01
  5
1676C
 10
-1360.65
 20
-1567.06
 30
0.000000
  70
    32
  0
VERTEX
  8
01
  5
1676D
 10
-1360.65
 20
-1567.06
 30
0.000000
  70
    32
  0
VERTEX
  8
01
  5
1676E
 10
-1360.65
 20
-1567.05
 30
0.000000
  70
    32
  0
VERTEX
  8
01
  5
1676F
 10
-1360.65
 20
-1567.05
 30
0.000000
  70
    32
  0
VERTEX
  8
01
  5
16770
 10
-1360.65
 20
-1567.04
 30
0.000000
  70
    32
  0
VERTEX
  8
01
  5
16771
 10
-1360.65
 20
-1567.04
 30
0.000000
  70
    32
  0
VERTEX
  8
01
  5
16772
 10
-1360.65
 20
-1567.03
 30
0.000000
  70
    32
  0
VERTEX
  8
01
  5
16773
 10
-1360.66
 20
-1567.03
 30
0.000000
  70
    32
  0
VERTEX
  8
01
  5
16774
 10
-1360.66
 20
-1567.02
 30
0.000000
  70
    32
  0
VERTEX
  8
01
  5
16775
 10
-1360.66
 20
-1567.02
 30
0.000000
  70
    32
  0
VERTEX
  8
01
  5
16776
 10
-1360.66
 20
-1567.01
 30
0.000000
  70
    32
  0
VERTEX
  8
01
  5
16777
 10
-1360.66
 20
-1567.01
 30
0.000000
  70
    32
  0
VERTEX
  8
01
  5
16778
 10
-1360.66
 20
-1567.01
 30
0.000000
  70
    32
  0
VERTEX
  8
01
  5
16779
 10
-1360.66
 20
-1567.00
 30
0.000000
  70
    32
  0
VERTEX
  8
01
  5
1677A
 10
-1360.66
 20
-1567.00
 30
0.000000
  70
    32
  0
VERTEX
  8
01
  5
1677B
 10
-1360.66
 20
-1566.99
 30
0.000000
  70
    32
  0
VERTEX
  8
01
  5
1677C
 10
-1360.67
 20
-1566.99
 30
0.000000
  70
    32
  0
VERTEX
  8
01
  5
1677D
 10
-1360.67
 20
-1566.98
 30
0.000000
  70
    32
  0
VERTEX
  8
01
  5
1677E
 10
-1360.67
 20
-1566.98
 30
0.000000
  70
    32
  0
VERTEX
  8
01
  5
1677F
 10
-1360.67
 20
-1566.97
 30
0.000000
  70
    32
  0
VERTEX
  8
01
  5
16780
 10
-1360.67
 20
-1566.97
 30
0.000000
  70
    32
  0
VERTEX
  8
01
  5
16781
 10
-1360.67
 20
-1566.96
 30
0.000000
  70
    32
  0
VERTEX
  8
01
  5
16782
 10
-1360.67
 20
-1566.96
 30
0.000000
  70
    32
  0
VERTEX
  8
01
  5
16783
 10
-1360.67
 20
-1566.95
 30
0.000000
  70
    32
  0
VERTEX
  8
01
  5
16784
 10
-1360.68
 20
-1566.95
 30
0.000000
  70
    32
  0
VERTEX
  8
01
  5
16785
 10
-1360.68
 20
-1566.94
 30
0.000000
  70
    32
  0
VERTEX
  8
01
  5
16786
 10
-1360.68
 20
-1566.94
 30
0.000000
  70
    32
  0
VERTEX
  8
01
  5
16787
 10
-1360.68
 20
-1566.93
 30
0.000000
  70
    32
  0
VERTEX
  8
01
  5
16788
 10
-1360.68
 20
-1566.93
 30
0.000000
  70
    32
  0
VERTEX
  8
01
  5
16789
 10
-1360.68
 20
-1566.92
 30
0.000000
  70
    32
  0
VERTEX
  8
01
  5
1678A
 10
-1360.68
 20
-1566.92
 30
0.000000
  70
    32
  0
VERTEX
  8
01
  5
1678B
 10
-1360.68
 20
-1566.91
 30
0.000000
  70
    32
  0
VERTEX
  8
01
  5
1678C
 10
-1360.69
 20
-1566.91
 30
0.000000
  70
    32
  0
VERTEX
  8
01
  5
1678D
 10
-1360.69
 20
-1566.90
 30
0.000000
  70
    32
  0
VERTEX
  8
01
  5
1678E
 10
-1360.69
 20
-1566.90
 30
0.000000
  70
    32
  0
VERTEX
  8
01
  5
1678F
 10
-1360.69
 20
-1566.89
 30
0.000000
  70
    32
  0
VERTEX
  8
01
  5
16790
 10
-1360.69
 20
-1566.89
 30
0.000000
  70
    32
  0
VERTEX
  8
01
  5
16791
 10
-1360.69
 20
-1566.88
 30
0.000000
  70
    32
  0
VERTEX
  8
01
  5
16792
 10
-1360.69
 20
-1566.88
 30
0.000000
  70
    32
  0
VERTEX
  8
01
  5
16793
 10
-1360.69
 20
-1566.87
 30
0.000000
  70
    32
  0
VERTEX
  8
01
  5
16794
 10
-1360.69
 20
-1566.87
 30
0.000000
  70
    32
  0
VERTEX
  8
01
  5
16795
 10
-1360.70
 20
-1566.86
 30
0.000000
  70
    32
  0
VERTEX
  8
01
  5
16796
 10
-1360.70
 20
-1566.86
 30
0.000000
  70
    32
  0
VERTEX
  8
01
  5
16797
 10
-1360.70
 20
-1566.85
 30
0.000000
  70
    32
  0
VERTEX
  8
01
  5
16798
 10
-1360.70
 20
-1566.85
 30
0.000000
  70
    32
  0
VERTEX
  8
01
  5
16799
 10
-1360.70
 20
-1566.84
 30
0.000000
  70
    32
  0
VERTEX
  8
01
  5
1679A
 10
-1360.70
 20
-1566.84
 30
0.000000
  70
    32
  0
VERTEX
  8
01
  5
1679B
 10
-1360.70
 20
-1566.83
 30
0.000000
  70
    32
  0
VERTEX
  8
01
  5
1679C
 10
-1360.70
 20
-1566.83
 30
0.000000
  70
    32
  0
VERTEX
  8
01
  5
1679D
 10
-1360.70
 20
-1566.82
 30
0.000000
  70
    32
  0
VERTEX
  8
01
  5
1679E
 10
-1360.71
 20
-1566.82
 30
0.000000
  70
    32
  0
VERTEX
  8
01
  5
1679F
 10
-1360.71
 20
-1566.81
 30
0.000000
  70
    32
  0
VERTEX
  8
01
  5
167A0
 10
-1360.71
 20
-1566.81
 30
0.000000
  70
    32
  0
VERTEX
  8
01
  5
167A1
 10
-1360.71
 20
-1566.80
 30
0.000000
  70
    32
  0
VERTEX
  8
01
  5
167A2
 10
-1360.71
 20
-1566.80
 30
0.000000
  70
    32
  0
VERTEX
  8
01
  5
167A3
 10
-1360.71
 20
-1566.79
 30
0.000000
  70
    32
  0
VERTEX
  8
01
  5
167A4
 10
-1360.71
 20
-1566.79
 30
0.000000
  70
    32
  0
VERTEX
  8
01
  5
167A5
 10
-1360.71
 20
-1566.78
 30
0.000000
  70
    32
  0
VERTEX
  8
01
  5
167A6
 10
-1360.71
 20
-1566.78
 30
0.000000
  70
    32
  0
VERTEX
  8
01
  5
167A7
 10
-1360.72
 20
-1566.77
 30
0.000000
  70
    32
  0
VERTEX
  8
01
  5
167A8
 10
-1360.72
 20
-1566.77
 30
0.000000
  70
    32
  0
VERTEX
  8
01
  5
167A9
 10
-1360.72
 20
-1566.76
 30
0.000000
  70
    32
  0
VERTEX
  8
01
  5
167AA
 10
-1360.72
 20
-1566.76
 30
0.000000
  70
    32
  0
VERTEX
  8
01
  5
167AB
 10
-1360.72
 20
-1566.75
 30
0.000000
  70
    32
  0
VERTEX
  8
01
  5
167AC
 10
-1360.72
 20
-1566.75
 30
0.000000
  70
    32
  0
VERTEX
  8
01
  5
167AD
 10
-1360.72
 20
-1566.74
 30
0.000000
  70
    32
  0
VERTEX
  8
01
  5
167AE
 10
-1360.72
 20
-1566.74
 30
0.000000
  70
    32
  0
VERTEX
  8
01
  5
167AF
 10
-1360.72
 20
-1566.73
 30
0.000000
  70
    32
  0
VERTEX
  8
01
  5
167B0
 10
-1360.72
 20
-1566.73
 30
0.000000
  70
    32
  0
VERTEX
  8
01
  5
167B1
 10
-1360.73
 20
-1566.72
 30
0.000000
  70
    32
  0
VERTEX
  8
01
  5
167B2
 10
-1360.73
 20
-1566.72
 30
0.000000
  70
    32
  0
VERTEX
  8
01
  5
167B3
 10
-1360.73
 20
-1566.71
 30
0.000000
  70
    32
  0
VERTEX
  8
01
  5
167B4
 10
-1360.73
 20
-1566.71
 30
0.000000
  70
    32
  0
VERTEX
  8
01
  5
167B5
 10
-1360.73
 20
-1566.70
 30
0.000000
  70
    32
  0
VERTEX
  8
01
  5
167B6
 10
-1360.73
 20
-1566.70
 30
0.000000
  70
    32
  0
VERTEX
  8
01
  5
167B7
 10
-1360.73
 20
-1566.69
 30
0.000000
  70
    32
  0
VERTEX
  8
01
  5
167B8
 10
-1360.73
 20
-1566.69
 30
0.000000
  70
    32
  0
VERTEX
  8
01
  5
167B9
 10
-1360.73
 20
-1566.68
 30
0.000000
  70
    32
  0
VERTEX
  8
01
  5
167BA
 10
-1360.74
 20
-1566.68
 30
0.000000
  70
    32
  0
VERTEX
  8
01
  5
167BB
 10
-1360.74
 20
-1566.67
 30
0.000000
  70
    32
  0
VERTEX
  8
01
  5
167BC
 10
-1360.74
 20
-1566.67
 30
0.000000
  70
    32
  0
VERTEX
  8
01
  5
167BD
 10
-1360.74
 20
-1566.66
 30
0.000000
  70
    32
  0
VERTEX
  8
01
  5
167BE
 10
-1360.74
 20
-1566.66
 30
0.000000
  70
    32
  0
VERTEX
  8
01
  5
167BF
 10
-1360.74
 20
-1566.65
 30
0.000000
  70
    32
  0
VERTEX
  8
01
  5
167C0
 10
-1360.74
 20
-1566.65
 30
0.000000
  70
    32
  0
VERTEX
  8
01
  5
167C1
 10
-1360.74
 20
-1566.64
 30
0.000000
  70
    32
  0
VERTEX
  8
01
  5
167C2
 10
-1360.74
 20
-1566.64
 30
0.000000
  70
    32
  0
VERTEX
  8
01
  5
167C3
 10
-1360.74
 20
-1566.63
 30
0.000000
  70
    32
  0
VERTEX
  8
01
  5
167C4
 10
-1360.74
 20
-1566.63
 30
0.000000
  70
    32
  0
VERTEX
  8
01
  5
167C5
 10
-1360.75
 20
-1566.62
 30
0.000000
  70
    32
  0
VERTEX
  8
01
  5
167C6
 10
-1360.75
 20
-1566.62
 30
0.000000
  70
    32
  0
VERTEX
  8
01
  5
167C7
 10
-1360.75
 20
-1566.61
 30
0.000000
  70
    32
  0
VERTEX
  8
01
  5
167C8
 10
-1360.75
 20
-1566.61
 30
0.000000
  70
    32
  0
VERTEX
  8
01
  5
167C9
 10
-1360.75
 20
-1566.60
 30
0.000000
  70
    32
  0
VERTEX
  8
01
  5
167CA
 10
-1360.75
 20
-1566.60
 30
0.000000
  70
    32
  0
VERTEX
  8
01
  5
167CB
 10
-1360.75
 20
-1566.59
 30
0.000000
  70
    32
  0
VERTEX
  8
01
  5
167CC
 10
-1360.75
 20
-1566.59
 30
0.000000
  70
    32
  0
VERTEX
  8
01
  5
167CD
 10
-1360.75
 20
-1566.58
 30
0.000000
  70
    32
  0
VERTEX
  8
01
  5
167CE
 10
-1360.75
 20
-1566.58
 30
0.000000
  70
    32
  0
VERTEX
  8
01
  5
167CF
 10
-1360.76
 20
-1566.57
 30
0.000000
  70
    32
  0
VERTEX
  8
01
  5
167D0
 10
-1360.76
 20
-1566.57
 30
0.000000
  70
    32
  0
VERTEX
  8
01
  5
167D1
 10
-1360.76
 20
-1566.56
 30
0.000000
  70
    32
  0
SEQEND
  8
01
  5
167D2
  0
LINE
  5
15512
  8
01
 10
-1639.113186339099
 20
-1561.078906727229
 30
0.0
 11
-1639.113186339099
 21
-1615.320630785109
 31
0.0
  0
ARC
  5
15513
  8
01
 10
-1638.113186339099
 20
-1561.078906727229
 30
0.0
 40
1.0
 50
90.0
 51
180.0
  0
LINE
  5
1551C
  8
01
 10
-1629.113186339099
 20
-1571.0789067272281
 30
0.0
 11
-1629.113186339099
 21
-1605.320630785109
 31
0.0
  0
ARC
  5
1551D
  8
01
 10
-1628.113186339099
 20
-1605.320630785109
 30
0.0
 40
1.0
 50
180.0
 51
270.0
  0
LINE
  5
1551E
  8
01
 10
-1496.113186339099
 20
-1560.578906727229
 30
0.0
 11
-1496.113186339099
 21
-1569.578906727229
 31
0.0
  0
ARC
  5
1551F
  8
01
 10
-1496.613186339099
 20
-1569.578906727229
 30
0.0
 40
0.5
 50
270.0
 51
0.0
  0
ARC
  5
15520
  8
01
 10
-1496.613186339099
 20
-1560.578906727229
 30
0.0
 40
0.5
 50
0.0
 51
90.0
  0
LINE
  5
15523
  8
01
 10
-1638.113186339099
 20
-1616.3206307851101
 30
0.0
 11
-1494.113186339099
 21
-1616.3206307851101
 31
0.0
  0
ARC
  5
15524
  8
01
 10
-1638.113186339099
 20
-1615.320630785109
 30
0.0
 40
1.0
 50
180.0
 51
270.0
  0
LINE
  5
15526
  8
01
 10
-1628.113186339099
 20
-1606.320630785119
 30
0.0
 11
-1494.113186339099
 21
-1606.320630785109
 31
0.0
  0
LINE
  5
15527
  8
01
 10
-1628.113186339099
 20
-1570.0789067272281
 30
0.0
 11
-1627.113186339099
 21
-1570.0789067272281
 31
0.0
  0
LINE
  5
15528
  8
01
 10
-1497.113186339099
 20
-1570.0789067272281
 30
0.0
 11
-1496.613186339099
 21
-1570.078906727229
 31
0.0
  0
ARC
  5
15529
  8
01
 10
-1628.113186339099
 20
-1571.0789067272281
 30
0.0
 40
1.0
 50
90.0
 51
180.0
  0
LINE
  5
1552A
  8
01
 10
-1638.113186339099
 20
-1560.078906727229
 30
0.0
 11
-1627.113186339099
 21
-1560.078906727229
 31
0.0
  0
LINE
  5
1552E
  8
01
 10
-1595.863186339099
 20
-1564.272360974803
 30
0.0
 11
-1595.863186339099
 21
-1557.9289067272291
 31
0.0
  0
ARC
  5
1552F
  8
01
 10
-1592.863186339099
 20
-1564.272360974803
 30
0.0
 40
3.0
 50
180.0
 51
270.0
  0
LINE
  5
15533
  8
01
 10
-1627.113186339099
 20
-1580.350284739741
 30
0.0
 11
-1627.113186339099
 21
-1557.9289067272291
 31
0.0
  0
LINE
  5
15534
  8
01
 10
-1528.363186339099
 20
-1557.9289067272291
 30
0.0
 11
-1497.113186339099
 21
-1557.9289067272291
 31
0.0
  0
LINE
  5
15535
  8
01
 10
-1627.113186339099
 20
-1557.9289067272291
 30
0.0
 11
-1595.863186339099
 21
-1557.9289067272291
 31
0.0
  0
LINE
  5
15536
  8
01
 10
-1592.863186339099
 20
-1567.2723609748041
 30
0.0
 11
-1531.3631558215211
 21
-1567.2723609748041
 31
0.0
  0
LINE
  5
1554E
  8
01
 10
-1491.113186339099
 20
-1620.820630785109
 30
0.0
 11
-1491.113186339099
 21
-1601.820630785109
 31
0.0
  0
ARC
  5
1554F
  8
01
 10
-1491.613186339099
 20
-1601.820630785109
 30
0.0
 40
0.5
 50
0.0
 51
90.0
  0
ARC
  5
15550
  8
01
 10
-1491.613186339099
 20
-1620.820630785109
 30
0.0
 40
0.5
 50
270.0
 51
0.0
  0
ARC
  5
15551
  8
01
 10
-1493.613186339099
 20
-1620.820630785109
 30
0.0
 40
0.5
 50
180.0
 51
270.0
  0
LINE
  5
15552
  8
01
 10
-1494.113186339099
 20
-1620.820630785109
 30
0.0
 11
-1494.113186339099
 21
-1601.820630785109
 31
0.0
  0
ARC
  5
15553
  8
01
 10
-1493.613186339099
 20
-1601.820630785109
 30
0.0
 40
0.5
 50
90.0
 51
180.0
  0
LINE
  5
15554
  8
01
 10
-1491.613186339099
 20
-1601.320630785109
 30
0.0
 11
-1493.613186339099
 21
-1601.320630785109
 31
0.0
  0
LINE
  5
15555
  8
01
 10
-1491.613186339099
 20
-1621.320630785109
 30
0.0
 11
-1493.613186339099
 21
-1621.320630785109
 31
0.0
  0
ARC
  5
15556
  8
01
 10
-1626.613186339099
 20
-1421.2652019124359
 30
0.0
 40
0.5
 50
180.0
 51
270.0
  0
LINE
  5
15557
  8
01
 10
-1627.113186339099
 20
-1391.7652019124359
 30
0.0
 11
-1627.113186339099
 21
-1421.2652019124359
 31
0.0
  0
LINE
  5
15558
  8
01
 10
-1626.613186339099
 20
-1421.7652019124359
 30
0.0
 11
-1497.613186339099
 21
-1421.7652019124359
 31
0.0
  0
ARC
  5
15559
  8
01
 10
-1497.613186339099
 20
-1421.2652019124359
 30
0.0
 40
0.5
 50
270.0
 51
0.0
  0
LINE
  5
1555A
  8
01
 10
-1497.113186339099
 20
-1391.7652019124359
 30
0.0
 11
-1627.113186339099
 21
-1391.7652019124359
 31
0.0
  0
LINE
  5
1555B
  8
01
 10
-1497.113186339099
 20
-1421.2652019124359
 30
0.0
 11
-1497.113186339099
 21
-1391.7652019124359
 31
0.0
  0
LINE
  5
1555C
  8
01
 10
-1642.113186339099
 20
-1514.7652019124359
 30
0.0
 11
-1482.113186339099
 21
-1514.7652019124359
 31
0.0
  0
LINE
  5
1555D
  8
01
 10
-1642.113186339099
 20
-1513.7652019561481
 30
0.0
 11
-1482.113186339099
 21
-1513.7652019561481
 31
0.0
  0
ARC
  5
1555E
  8
01
 10
-1642.113186339099
 20
-1509.7652019124359
 30
0.0
 40
5.0
 50
180.0
 51
270.0
  0
ARC
  5
1555F
  8
01
 10
-1642.113186339099
 20
-1509.7652019561481
 30
0.0
 40
4.0
 50
180.0
 51
270.0
  0
LINE
  5
15560
  8
01
 10
-1647.113186339099
 20
-1399.7652019124359
 30
0.0
 11
-1647.113186339099
 21
-1509.7652019124359
 31
0.0
  0
LINE
  5
15561
  8
01
 10
-1646.113186339099
 20
-1399.7652019561481
 30
0.0
 11
-1646.113186339099
 21
-1509.7652019561481
 31
0.0
  0
ARC
  5
15562
  8
01
 10
-1642.113186339099
 20
-1399.7652019124359
 30
0.0
 40
5.0
 50
90.0
 51
180.0
  0
ARC
  5
15563
  8
01
 10
-1642.113186339099
 20
-1399.7652019561481
 30
0.0
 40
4.0
 50
90.0
 51
180.0
  0
LINE
  5
15564
  8
01
 10
-1482.113186339099
 20
-1394.7652019124359
 30
0.0
 11
-1497.113186339099
 21
-1394.7652019124359
 31
0.0
  0
LINE
  5
15565
  8
01
 10
-1627.113186339099
 20
-1394.7652019124359
 30
0.0
 11
-1642.113186339099
 21
-1394.7652019124359
 31
0.0
  0
LINE
  5
15566
  8
01
 10
-1482.113186339099
 20
-1395.7652019561481
 30
0.0
 11
-1497.113186339099
 21
-1395.7652019561481
 31
0.0
  0
LINE
  5
15567
  8
01
 10
-1627.113186339099
 20
-1395.7652019561481
 30
0.0
 11
-1642.113186339099
 21
-1395.7652019561481
 31
0.0
  0
ARC
  5
15568
  8
01
 10
-1482.113186339099
 20
-1399.7652019124359
 30
0.0
 40
5.0
 50
0.0
 51
90.0
  0
ARC
  5
15569
  8
01
 10
-1482.113186339099
 20
-1399.7652019561481
 30
0.0
 40
4.0
 50
0.0
 51
90.0
  0
LINE
  5
1556A
  8
01
 10
-1477.113186339099
 20
-1509.7652019124359
 30
0.0
 11
-1477.113186339099
 21
-1399.7652019124359
 31
0.0
  0
LINE
  5
1556B
  8
01
 10
-1478.113186339099
 20
-1509.7652019561481
 30
0.0
 11
-1478.113186339099
 21
-1399.7652019561481
 31
0.0
  0
ARC
  5
1556C
  8
01
 10
-1482.113186339099
 20
-1509.7652019124359
 30
0.0
 40
5.0
 50
270.0
 51
0.0
  0
ARC
  5
1556D
  8
01
 10
-1482.113186339099
 20
-1509.7652019561481
 30
0.0
 40
4.0
 50
270.0
 51
0.0
  0
ARC
  5
15584
  8
01
 10
-1628.799657498671
 20
-1615.4427988898631
 30
0.0
 40
8.9872310686327488
 50
96.673019351051153
 51
163.26928707505351
  0
ARC
  5
15585
  8
01
 10
-1640.5887527134671
 20
-1572.1722771024599
 30
0.0
 40
11.139638848472449
 50
14.46403845279989
 51
75.535961547196223
  0
LINE
  5
15587
  8
01
 10
-1594.863186339099
 20
-1557.9289067272291
 30
0.0
 11
-1594.863186339099
 21
-1566.5084289523029
 31
0.0
  0
LINE
  5
15588
  8
01
 10
-1594.863186339099
 20
-1557.9289067272291
 30
0.0
 11
-1595.863186339099
 21
-1557.9289067272291
 31
0.0
  0
LINE
  5
155C6
  8
1CENTER
 10
-1571.113186339099
 20
-1551.7652021765809
 30
0.0
 11
-1577.113186339099
 21
-1551.7652021765809
 31
0.0
  0
LINE
  5
155C7
  8
1CENTER
 10
-1574.113186339099
 20
-1548.76520217658
 30
0.0
 11
-1574.113186339099
 21
-1554.7652021765809
 31
0.0
  0
LINE
  5
155C8
  8
1CENTER
 10
-1553.113186339099
 20
-1551.7652021765809
 30
0.0
 11
-1547.113186339099
 21
-1551.7652021765809
 31
0.0
  0
LINE
  5
155C9
  8
1CENTER
 10
-1550.113186339099
 20
-1548.76520217658
 30
0.0
 11
-1550.113186339099
 21
-1554.7652021765809
 31
0.0
  0
LINE
  5
156D0
  8
01
 10
-1528.3631558215211
 20
-1564.272360974803
 30
0.0
 11
-1528.3631558215211
 21
-1557.9289067272291
 31
0.0
  0
ARC
  5
156D1
  8
01
 10
-1531.3631558215211
 20
-1564.272360974803
 30
0.0
 40
2.9999999999999991
 50
270.0
 51
0.0
  0
LINE
  5
156D2
  8
01
 10
-1529.3631558215211
 20
-1557.9289067272291
 30
0.0
 11
-1529.3631558215211
 21
-1566.5084289523029
 31
0.0
  0
LINE
  5
156D3
  8
01
 10
-1529.3631558215211
 20
-1557.9289067272291
 30
0.0
 11
-1528.3631558215211
 21
-1557.9289067272291
 31
0.0
  0
ARC
  5
156D4
  8
01
 10
-1500.1131558215211
 20
-1580.350284739741
 30
0.0
 40
3.0
 50
270.0
 51
0.0
  0
LINE
  5
156D5
  8
01
 10
-1497.113186339099
 20
-1560.0789067272281
 30
0.0
 11
-1496.613186339099
 21
-1560.078906727229
 31
0.0
  0
CIRCLE
  5
156D8
  8
1PHANTOM
 10
-1399.613186339099
 20
-1624.820630785109
 30
0.0
 40
18.5
  0
CIRCLE
  5
156D9
  8
1PHANTOM
 10
-1399.613186339099
 20
-1624.820630785109
 30
0.0
 40
57.5
  0
LINE
  5
156DA
  8
1PHANTOM
 10
-1505.47520556936
 20
-1567.320630785109
 30
0.0
 11
-1505.4752055693609
 21
-1682.3206307851101
 31
0.0
  0
LINE
  5
156DB
  8
1PHANTOM
 10
-1619.47520556936
 20
-1567.320630785109
 30
0.0
 11
-1619.47520556936
 21
-1682.3206307851101
 31
0.0
  0
LINE
  5
156DC
  8
1PHANTOM
 10
-1505.47520556936
 20
-1567.320630785109
 30
0.0
 11
-1619.47520556936
 21
-1567.320630785109
 31
0.0
  0
LINE
  5
156DD
  8
1PHANTOM
 10
-1505.4752055693609
 20
-1682.3206307851101
 30
0.0
 11
-1619.47520556936
 21
-1682.3206307851101
 31
0.0
  0
LINE
  5
156E5
  8
01
 10
-1348.702146945524
 20
-1570.307799058801
 30
0.0
 11
-1350.1163605078921
 21
-1571.7220126211689
 31
0.0
  0
ARC
  5
156EC
  8
01
 10
-1347.2172227050271
 20
-1569.671402955729
 30
0.0
 40
2.0
 50
314.99999999999079
 51
351.55241537281933
  0
LINE
  5
156EE
  8
01
 10
-1345.803009142654
 20
-1571.0856165181019
 30
0.0
 11
-1347.9243294862149
 21
-1573.206936861661
 31
0.0
  0
LINE
  5
156EF
  8
01
 10
-1350.1163605078921
 20
-1571.7220126211689
 30
0.0
 11
-1351.177020679673
 21
-1572.7826727929489
 31
0.0
  0
ARC
  5
156F0
  8
01
 10
-1349.338543048588
 20
-1571.7927232992879
 30
0.0
 40
2.0
 50
224.99999999999079
 51
314.99999999999079
  0
LINE
  5
156F1
  8
01
 10
-1351.177020679673
 20
-1572.7826727929489
 30
0.0
 11
-1350.7527566109609
 21
-1573.206936861661
 31
0.0
  0
LINE
  5
156F4
  8
01
 10
-1327.2577490468659
 20
-1545.765212436093
 30
0.0
 11
-1328.2577490468659
 21
-1546.765212436093
 31
0.0
  0
LINE
  5
156F5
  8
01
 10
-1447.2577490468659
 20
-1539.765212436093
 30
0.0
 11
-1327.2577490468659
 21
-1539.765212436093
 31
0.0
  0
LINE
  5
156F6
  8
01
 10
-1447.2577490468659
 20
-1545.765212436093
 30
0.0
 11
-1327.2577490468659
 21
-1545.765212436093
 31
0.0
  0
LINE
  5
158AF
  8
01
 10
-1334.336299405179
 20
-1547.9652116492889
 30
0.0
 11
-1333.336299405179
 21
-1547.9652116492889
 31
0.0
  0
LINE
  5
158B0
  8
01
 10
-1334.336299405179
 20
-1555.565211649289
 30
0.0
 11
-1333.336299405179
 21
-1555.565211649289
 31
0.0
  0
LINE
  5
158B1
  8
01
 10
-1334.336299405179
 20
-1552.2652114992891
 30
0.0
 11
-1333.336299405179
 21
-1551.2652117992891
 31
0.0
  0
LINE
  5
158B2
  8
01
 10
-1334.336299405179
 20
-1555.565211649289
 30
0.0
 11
-1334.336299405179
 21
-1547.9652116492889
 31
0.0
  0
LINE
  5
158B3
  8
01
 10
-1333.336299405179
 20
-1555.565211649289
 30
0.0
 11
-1333.336299405179
 21
-1547.9652116492889
 31
0.0
  0
LINE
  5
158BD
  8
01
 10
-1553.913186339099
 20
-1403.7652019124359
 30
0.0
 11
-1553.913186339099
 21
-1402.7652019124359
 31
0.0
  0
LINE
  5
158BE
  8
01
 10
-1546.313186339099
 20
-1403.7652019124359
 30
0.0
 11
-1546.313186339099
 21
-1402.7652019124359
 31
0.0
  0
LINE
  5
158BF
  8
01
 10
-1549.613186489099
 20
-1403.7652019124359
 30
0.0
 11
-1550.613186189099
 21
-1402.7652019124359
 31
0.0
  0
LINE
  5
158C0
  8
01
 10
-1546.313186339099
 20
-1403.7652019124359
 30
0.0
 11
-1553.913186339099
 21
-1403.7652019124359
 31
0.0
  0
LINE
  5
158C1
  8
01
 10
-1546.313186339099
 20
-1402.7652019124359
 30
0.0
 11
-1553.913186339099
 21
-1402.7652019124359
 31
0.0
  0
LINE
  5
158C4
  8
01
 10
-1577.913186339099
 20
-1403.7652019124359
 30
0.0
 11
-1577.913186339099
 21
-1402.7652019124359
 31
0.0
  0
LINE
  5
158C5
  8
01
 10
-1570.313186339099
 20
-1403.7652019124359
 30
0.0
 11
-1570.313186339099
 21
-1402.7652019124359
 31
0.0
  0
LINE
  5
158C6
  8
01
 10
-1573.613186489099
 20
-1403.7652019124359
 30
0.0
 11
-1574.613186189099
 21
-1402.7652019124359
 31
0.0
  0
LINE
  5
158C7
  8
01
 10
-1570.313186339099
 20
-1403.7652019124359
 30
0.0
 11
-1577.913186339099
 21
-1403.7652019124359
 31
0.0
  0
LINE
  5
158C8
  8
01
 10
-1570.313186339099
 20
-1402.7652019124359
 30
0.0
 11
-1577.913186339099
 21
-1402.7652019124359
 31
0.0
  0
TEXT
  5
158CF
  8
1TEXT
 10
-1372.5053726844069
 20
-1397.2652019124359
 30
0.0
 40
4.0
  1
表面処理：
 72
     1
 11
-1361.8577536367879
 21
-1397.2652019124359
 31
0.0
  0
TEXT
  5
158D1
  8
1TEXT
 10
-1371.191086970121
 20
-1404.2430969324209
 30
0.0
 40
4.0
  1
クローム
 72
     1
 11
-1361.8577536367879
 21
-1404.2430969324209
 31
0.0
  0
LINE
  5
158D2
  8
1DIM
 10
-1379.257753636788
 20
-1391.7652019124359
 30
0.0
 11
-1309.257753636788
 21
-1391.7652019124359
 31
0.0
  0
LINE
  5
158D3
  8
1DIM
 10
-1379.257753636788
 20
-1405.7652019124359
 30
0.0
 11
-1309.257753636788
 21
-1405.7652019124359
 31
0.0
  0
LINE
  5
158D4
  8
1DIM
 10
-1379.257753636788
 20
-1398.7652019124371
 30
0.0
 11
-1309.257753636788
 21
-1398.7652019124371
 31
0.0
  0
LINE
  5
158D7
  8
1DIM
 10
-1344.257753636788
 20
-1391.7652019124359
 30
0.0
 11
-1344.257753636788
 21
-1405.7652019124359
 31
0.0
  0
TEXT
  5
158D9
  8
1TEXT
 10
-1340.191086970121
 20
-1404.479558896086
 30
0.0
 40
4.0
  1
SC273XC
 72
     1
 11
-1326.8577536367879
 21
-1404.479558896086
 31
0.0
  0
TEXT
  5
158DA
  8
1TEXT
 10
-1333.6577536367879
 20
-1397.2652019124359
 30
0.0
 40
4.0
  1
コード
 72
     1
 11
-1326.8577536367879
 21
-1397.2652019124359
 31
0.0
  0
LINE
  5
158DC
  8
1DIM
 10
-1379.257753636788
 20
-1405.7652019124359
 30
0.0
 11
-1379.257753636788
 21
-1391.7652019124359
 31
0.0
  0
LINE
  5
158DD
  8
1DIM
 10
-1309.257753636788
 20
-1405.7652019124359
 30
0.0
 11
-1309.257753636788
 21
-1391.7652019124359
 31
0.0
  0
TEXT
  5
158F8
  8
1TEXT
 10
-1379.257753636788
 20
-1386.7652019124359
 30
0.0
 40
8.0
  1
SC273XC
  0
LINE
  5
158F9
  8
01
 10
-1315.2577537223051
 20
-1511.7652116492891
 30
0.0
 11
-1315.2577537223051
 21
-1591.7652116492891
 31
0.0
  0
LINE
  5
158FA
  8
01
 10
-1306.2577537223051
 20
-1511.7652116492891
 30
0.0
 11
-1306.2577537223051
 21
-1591.7652116492891
 31
0.0
  0
LINE
  5
158FB
  8
01
 10
-1324.2577537223051
 20
-1511.7652116492891
 30
0.0
 11
-1324.2577537223051
 21
-1591.7652116492891
 31
0.0
  0
LINE
  5
15900
  8
1CENTER
 10
-1324.2577537223051
 20
-1551.7652116492891
 30
0.0
 11
-1306.2577537223051
 21
-1551.7652116492891
 31
0.0
  0
LINE
  5
15A6A
  8
1CENTER
 10
-1353.724418245821
 20
-1568.272267149008
 30
0.0
 11
-1353.724418245821
 21
-1562.272267149008
 31
0.0
  0
LINE
  5
15A6B
  8
1CENTER
 10
-1356.7244182458201
 20
-1565.272267149008
 30
0.0
 11
-1350.7244182458201
 21
-1565.272267149008
 31
0.0
  0
LINE
  5
15DBB
  8
1CENTER
 10
-1339.257756097739
 20
-1564.3288050933791
 30
0.0
 11
-1339.257756097739
 21
-1573.2650936971349
 31
0.0
  0
LINE
  5
15DC5
  8
01
 10
-1500.1131558215211
 20
-1583.350284739741
 30
0.0
 11
-1624.113186339099
 21
-1583.350284739741
 31
0.0
  0
LINE
  5
15DC6
  8
01
 10
-1500.1131558215211
 20
-1582.685690164426
 30
0.0
 11
-1624.113186339099
 21
-1582.685690164426
 31
0.0
  0
ARC
  5
15DC7
  8
01
 10
-1500.1131558215211
 20
-1579.685690164426
 30
0.0
 40
3.0
 50
270.0
 51
0.0
  0
LINE
  5
15DCA
  8
01
 10
-1497.113186339099
 20
-1580.3638163522401
 30
0.0
 11
-1497.113186339099
 21
-1557.9289067272291
 31
0.0
  0
ARC
  5
15DCB
  8
01
 10
-1624.113186339099
 20
-1580.350284739741
 30
0.0
 40
3.0
 50
180.0
 51
270.0
  0
ARC
  5
15DCC
  8
01
 10
-1624.113186339099
 20
-1579.685690164426
 30
0.0
 40
3.0
 50
180.0
 51
270.0
  0
LINE
  5
1600E
  8
1DIM
 10
-1574.113186339099
 20
-1554.7652021765809
 30
0.0
 11
-1574.113186339099
 21
-1596.503046893971
 31
0.0
  0
LINE
  5
1600F
  8
1DIM
 10
-1550.113186339099
 20
-1554.7652021765809
 30
0.0
 11
-1550.113186339099
 21
-1596.503046893971
 31
0.0
  0
LINE
  5
16010
  8
1DIM
 10
-1572.113186339099
 20
-1595.503046893971
 30
0.0
 11
-1552.113186339099
 21
-1595.503046893971
 31
0.0
  0
TEXT
  5
16014
  8
1DIM
 10
-1491.4010295899859
 20
-1582.9334666576269
 30
0.0
 40
3.5
  1
材質：亜鉛ダイキャスト
  0
TEXT
  5
16015
  8
1DIM
 10
-1491.4010295899859
 20
-1588.7667999909611
 30
0.0
 40
3.5
  1
仕上げ：クローム
  0
TEXT
  5
16018
  8
1DIM
 10
-1476.395104317399
 20
-1560.8308362692551
 30
0.0
 40
3.5
  1
材質：ステンレス
1001
ACAD
1000
ACAD_MTEXT_DEFINED_HEIGHT_BEGIN
1070
    46
1040
0.0
1000
ACAD_MTEXT_DEFINED_HEIGHT_END
  0
TEXT
  5
16019
  8
1DIM
 10
-1476.861770984066
 20
-1566.6641696025879
 30
0.0
 40
3.5
  1
仕上げ：鏡面研磨
1001
ACAD
1000
ACAD_MTEXT_DEFINED_HEIGHT_BEGIN
1070
    46
1040
0.0
1000
ACAD_MTEXT_DEFINED_HEIGHT_END
  0
TEXT
  5
1601C
  8
1DIM
 10
-1406.445814879974
 20
-1514.585932089876
 30
0.0
 40
3.5
  1
材質：亜鉛ダイキャスト
1001
ACAD
1000
ACAD_MTEXT_DEFINED_HEIGHT_BEGIN
1070
    46
1040
0.0
1000
ACAD_MTEXT_DEFINED_HEIGHT_END
  0
TEXT
  5
1601D
  8
1DIM
 10
-1394.312481546641
 20
-1520.4192654232099
 30
0.0
 40
3.5
  1
仕上げ：クローム
1001
ACAD
1000
ACAD_MTEXT_DEFINED_HEIGHT_BEGIN
1070
    46
1040
0.0
1000
ACAD_MTEXT_DEFINED_HEIGHT_END
  0
TEXT
  5
16020
  8
1DIM
 10
-1442.415815176372
 20
-1522.030298644024
 30
0.0
 40
3.5
  1
材質：ガラス
1001
ACAD
1000
ACAD_MTEXT_DEFINED_HEIGHT_BEGIN
1070
    46
1040
0.0
1000
ACAD_MTEXT_DEFINED_HEIGHT_END
  0
LINE
  5
16023
  8
1DIM
 10
-1627.113186339099
 20
-1391.7652019124359
 30
0.0
 11
-1627.113186339099
 21
-1380.7652019124371
 31
0.0
  0
LINE
  5
16024
  8
1DIM
 10
-1497.113186339099
 20
-1391.7652019124359
 30
0.0
 11
-1497.113186339099
 21
-1380.7652019124371
 31
0.0
  0
LINE
  5
16025
  8
1DIM
 10
-1625.113186339099
 20
-1381.7652019124359
 30
0.0
 11
-1499.113186339099
 21
-1381.7652019124359
 31
0.0
  0
LINE
  5
16029
  8
1DIM
 10
-1627.113186339099
 20
-1580.350284739741
 30
0.0
 11
-1627.113186339099
 21
-1629.634890116253
 31
0.0
  0
LINE
  5
1602A
  8
1DIM
 10
-1497.113186339099
 20
-1580.3638163522619
 30
0.0
 11
-1497.113186339099
 21
-1629.634890116253
 31
0.0
  0
LINE
  5
1602B
  8
1DIM
 10
-1625.113186339099
 20
-1628.634890116253
 30
0.0
 11
-1499.113186339099
 21
-1628.634890116253
 31
0.0
  0
LINE
  5
1602F
  8
1DIM
 10
-1457.113186339099
 20
-1624.820630785109
 30
0.0
 11
-1457.113186339099
 21
-1503.7652019124359
 31
0.0
  0
LINE
  5
16030
  8
1DIM
 10
-1324.2577537223051
 20
-1511.7652116492891
 30
0.0
 11
-1324.2577537223051
 21
-1503.7652019124359
 31
0.0
  0
LINE
  5
16031
  8
1DIM
 10
-1455.113186339099
 20
-1504.7652019124359
 30
0.0
 11
-1326.2577537223051
 21
-1504.7652019124359
 31
0.0
  0
LINE
  5
16035
  8
1DIM
 10
-1497.113186339099
 20
-1391.7652019124359
 30
0.0
 11
-1466.113186339099
 21
-1391.7652019124359
 31
0.0
  0
LINE
  5
16036
  8
1DIM
 10
-1482.113186339099
 20
-1514.7652019124359
 30
0.0
 11
-1466.113186339099
 21
-1514.7652019124359
 31
0.0
  0
LINE
  5
16037
  8
1DIM
 10
-1467.113186339099
 20
-1393.7652019124359
 30
0.0
 11
-1467.113186339099
 21
-1512.7652019124371
 31
0.0
  0
LINE
  5
1603B
  8
1DIM
 10
-1324.257753636788
 20
-1590.7870190819131
 30
0.0
 11
-1324.257753636788
 21
-1595.8088362513899
 31
0.0
  0
LINE
  5
1603C
  8
1DIM
 10
-1339.257756097739
 20
-1573.2650936971349
 30
0.0
 11
-1339.257756097739
 21
-1595.8088362513899
 31
0.0
  0
LINE
  5
1603D
  8
1DIM
 10
-1326.257753636788
 20
-1594.8088362513899
 30
0.0
 11
-1337.257756097739
 21
-1594.8088362513899
 31
0.0
  0
TEXT
  5
16041
  8
1HATCH
 10
-1320.602652479914
 20
-1491.473368842625
 30
0.0
 40
3.5
  1
PB
  0
TEXT
  5
16046
  8
1DIM
 10
-1314.4353079853749
 20
-1497.4747148597489
 30
0.0
 40
3.5
  1
合板9mm以上
  0
LINE
  5
16047
  8
1DIM
 10
-1353.724418245821
 20
-1562.272267149008
 30
0.0
 11
-1353.724418245821
 21
-1523.7652019124359
 31
0.0
  0
LINE
  5
16048
  8
1DIM
 10
-1324.257753636788
 20
-1534.7652019124359
 30
0.0
 11
-1324.257753636788
 21
-1523.7652019124359
 31
0.0
  0
LINE
  5
16049
  8
1DIM
 10
-1351.7244182458201
 20
-1524.7652019124359
 30
0.0
 11
-1326.257753636788
 21
-1524.7652019124359
 31
0.0
  0
LINE
  5
1604D
  8
1DIM
 10
-1647.113186339099
 20
-1539.7652018837141
 30
0.0
 11
-1647.113186339099
 21
-1523.7652019124359
 31
0.0
  0
LINE
  5
1604E
  8
1DIM
 10
-1477.113186339099
 20
-1539.7652018837141
 30
0.0
 11
-1477.113186339099
 21
-1523.7652019124359
 31
0.0
  0
LINE
  5
1604F
  8
1DIM
 10
-1645.113186339099
 20
-1524.7652019124359
 30
0.0
 11
-1479.113186339099
 21
-1524.7652019124359
 31
0.0
  0
LINE
  5
16054
  8
1CENTER
 10
-1574.113186339099
 20
-1370.8042873212901
 30
0.0
 11
-1574.113186339099
 21
-1407.435478321745
 31
0.0
  0
LINE
  5
16055
  8
0
 10
-1575.2075101530941
 20
-1375.865199366277
 30
0.0
 11
-1573.245175064219
 21
-1375.065203932226
 31
0.0
  0
LINE
  5
16056
  8
0
 10
-1573.245175064219
 20
-1375.065203932226
 30
0.0
 11
-1573.8334516392611
 21
-1374.753434075973
 31
0.0
  0
LINE
  5
16057
  8
0
 10
-1576.113139803201
 20
-1398.265197259067
 30
0.0
 11
-1572.113139803201
 21
-1397.4652065662481
 31
0.0
  0
LINE
  5
16058
  8
0
 10
-1576.113139803201
 20
-1387.065197259062
 30
0.0
 11
-1572.113139803201
 21
-1386.2652065662401
 31
0.0
  0
LINE
  5
16059
  8
0
 10
-1576.113139803201
 20
-1383.8651972590619
 30
0.0
 11
-1572.113139803201
 21
-1383.06520656624
 31
0.0
  0
LINE
  5
1605A
  8
0
 10
-1572.113139803201
 20
-1383.06520656624
 30
0.0
 11
-1572.613139803201
 21
-1382.965205402842
 31
0.0
  0
LINE
  5
1605B
  8
0
 10
-1575.613139803201
 20
-1382.36519842246
 30
0.0
 11
-1576.113139803201
 21
-1382.265197259062
 31
0.0
  0
LINE
  5
1605C
  8
0
 10
-1572.113139803201
 20
-1386.2652065662401
 30
0.0
 11
-1572.613139803201
 21
-1386.165205402843
 31
0.0
  0
LINE
  5
1605D
  8
0
 10
-1572.113139803201
 20
-1384.665206566239
 30
0.0
 11
-1572.613139803201
 21
-1384.5652054028419
 31
0.0
  0
LINE
  5
1605E
  8
0
 10
-1575.613139803201
 20
-1383.965198422459
 30
0.0
 11
-1576.113139803201
 21
-1383.8651972590619
 31
0.0
  0
LINE
  5
1605F
  8
0
 10
-1575.613139803201
 20
-1385.5651984224589
 30
0.0
 11
-1576.113139803201
 21
-1385.4651972590621
 31
0.0
  0
LINE
  5
16060
  8
0
 10
-1576.113139803201
 20
-1385.4651972590621
 30
0.0
 11
-1572.113139803201
 21
-1384.665206566239
 31
0.0
  0
LINE
  5
16061
  8
0
 10
-1572.792360959812
 20
-1376.665204985831
 30
0.0
 11
-1573.3441104236149
 21
-1376.482440843203
 31
0.0
  0
LINE
  5
16062
  8
0
 10
-1572.113139803201
 20
-1379.86520656624
 30
0.0
 11
-1572.613139803201
 21
-1379.7652054028431
 31
0.0
  0
LINE
  5
16063
  8
0
 10
-1572.113139803201
 20
-1381.4652065662401
 30
0.0
 11
-1572.613139803201
 21
-1381.365205402843
 31
0.0
  0
LINE
  5
16064
  8
0
 10
-1572.3395468554049
 20
-1378.2652060394371
 30
0.0
 11
-1572.876140590676
 21
-1378.135935341807
 31
0.0
  0
LINE
  5
16065
  8
0
 10
-1575.1922252059931
 20
-1377.5779678250219
 30
0.0
 11
-1575.660323661142
 21
-1377.4651983126721
 31
0.0
  0
LINE
  5
16066
  8
0
 10
-1575.613139803201
 20
-1380.765198422459
 30
0.0
 11
-1576.113139803201
 21
-1380.6651972590621
 31
0.0
  0
LINE
  5
16067
  8
0
 10
-1575.613139803201
 20
-1379.1651984224591
 30
0.0
 11
-1576.113139803201
 21
-1379.065197259062
 31
0.0
  0
LINE
  5
16068
  8
0
 10
-1574.7503383124631
 20
-1376.016635162717
 30
0.0
 11
-1575.2075101530941
 21
-1375.865199366277
 31
0.0
  0
LINE
  5
16069
  8
0
 10
-1575.660323661142
 20
-1377.4651983126721
 30
0.0
 11
-1572.792360959812
 21
-1376.665204985831
 31
0.0
  0
LINE
  5
1606A
  8
0
 10
-1576.113139803201
 20
-1380.6651972590621
 30
0.0
 11
-1572.113139803201
 21
-1379.86520656624
 31
0.0
  0
LINE
  5
1606B
  8
0
 10
-1576.113139803201
 20
-1379.065197259062
 30
0.0
 11
-1572.3395468554049
 21
-1378.2652060394371
 31
0.0
  0
LINE
  5
1606C
  8
0
 10
-1576.113139803201
 20
-1382.265197259062
 30
0.0
 11
-1572.113139803201
 21
-1381.4652065662401
 31
0.0
  0
LINE
  5
1606D
  8
0
 10
-1576.113139803201
 20
-1395.065197259067
 30
0.0
 11
-1572.113139803201
 21
-1394.265206566248
 31
0.0
  0
LINE
  5
1606E
  8
0
 10
-1572.113139803201
 20
-1394.265206566248
 30
0.0
 11
-1572.613139803201
 21
-1394.1652054028509
 31
0.0
  0
LINE
  5
1606F
  8
0
 10
-1575.613139803201
 20
-1393.5651984224601
 30
0.0
 11
-1576.113139803201
 21
-1393.4651972590621
 31
0.0
  0
LINE
  5
16070
  8
0
 10
-1572.113139803201
 20
-1395.8652065662479
 30
0.0
 11
-1572.613139803201
 21
-1395.7652054028511
 31
0.0
  0
LINE
  5
16071
  8
0
 10
-1572.113139803201
 20
-1397.4652065662481
 30
0.0
 11
-1572.613139803201
 21
-1397.365205402851
 31
0.0
  0
LINE
  5
16072
  8
0
 10
-1575.613139803201
 20
-1395.1651984224641
 30
0.0
 11
-1576.113139803201
 21
-1395.065197259067
 31
0.0
  0
LINE
  5
16073
  8
0
 10
-1575.613139803201
 20
-1396.765198422464
 30
0.0
 11
-1576.113139803201
 21
-1396.6651972590671
 31
0.0
  0
LINE
  5
16074
  8
0
 10
-1576.113139803201
 20
-1396.6651972590671
 30
0.0
 11
-1572.113139803201
 21
-1395.8652065662479
 31
0.0
  0
LINE
  5
16075
  8
0
 10
-1572.113139803201
 20
-1389.465206566244
 30
0.0
 11
-1572.613139803201
 21
-1389.365205402846
 31
0.0
  0
LINE
  5
16076
  8
0
 10
-1572.113139803201
 20
-1387.86520656624
 30
0.0
 11
-1572.613139803201
 21
-1387.7652054028431
 31
0.0
  0
LINE
  5
16077
  8
0
 10
-1572.113139803201
 20
-1392.665206566244
 30
0.0
 11
-1572.613139803201
 21
-1392.565205402846
 31
0.0
  0
LINE
  5
16078
  8
0
 10
-1572.113139803201
 20
-1391.0652065662439
 30
0.0
 11
-1572.613139803201
 21
-1390.9652054028461
 31
0.0
  0
LINE
  5
16079
  8
0
 10
-1575.613139803201
 20
-1387.1651984224591
 30
0.0
 11
-1576.113139803201
 21
-1387.065197259062
 31
0.0
  0
LINE
  5
1607A
  8
0
 10
-1575.613139803201
 20
-1388.7651984224599
 30
0.0
 11
-1576.113139803201
 21
-1388.6651972590621
 31
0.0
  0
LINE
  5
1607B
  8
0
 10
-1575.613139803201
 20
-1391.9651984224599
 30
0.0
 11
-1576.113139803201
 21
-1391.8651972590619
 31
0.0
  0
LINE
  5
1607C
  8
0
 10
-1575.613139803201
 20
-1390.36519842246
 30
0.0
 11
-1576.113139803201
 21
-1390.265197259062
 31
0.0
  0
LINE
  5
1607D
  8
0
 10
-1576.113139803201
 20
-1390.265197259062
 30
0.0
 11
-1572.113139803201
 21
-1389.465206566244
 31
0.0
  0
LINE
  5
1607E
  8
0
 10
-1576.113139803201
 20
-1388.6651972590621
 30
0.0
 11
-1572.113139803201
 21
-1387.86520656624
 31
0.0
  0
LINE
  5
1607F
  8
0
 10
-1576.113139803201
 20
-1391.8651972590619
 30
0.0
 11
-1572.113139803201
 21
-1391.0652065662439
 31
0.0
  0
LINE
  5
16080
  8
0
 10
-1576.113139803201
 20
-1393.4651972590621
 30
0.0
 11
-1572.113139803201
 21
-1392.665206566244
 31
0.0
  0
LINE
  5
16081
  8
0
 10
-1572.613139803201
 20
-1403.7652054027369
 30
0.0
 11
-1575.613139803201
 21
-1403.7651984223519
 31
0.0
  0
LINE
  5
16082
  8
0
 10
-1575.613139803201
 20
-1403.1651984224679
 30
0.0
 11
-1576.113139803201
 21
-1403.0651972590711
 31
0.0
  0
LINE
  5
16083
  8
0
 10
-1576.113139803201
 20
-1403.0651972590711
 30
0.0
 11
-1572.113139803201
 21
-1402.265206566253
 31
0.0
  0
LINE
  5
16084
  8
0
 10
-1572.113139803201
 20
-1402.265206566253
 30
0.0
 11
-1572.613139803201
 21
-1402.165205402855
 31
0.0
  0
LINE
  5
16085
  8
0
 10
-1575.613139803201
 20
-1401.5651984224689
 30
0.0
 11
-1576.113139803201
 21
-1401.4651972590709
 31
0.0
  0
LINE
  5
16086
  8
0
 10
-1575.613139803201
 20
-1399.965198422469
 30
0.0
 11
-1576.113139803201
 21
-1399.865197259071
 31
0.0
  0
LINE
  5
16087
  8
0
 10
-1576.113139803201
 20
-1399.865197259071
 30
0.0
 11
-1572.113139803201
 21
-1399.065206566253
 31
0.0
  0
LINE
  5
16088
  8
0
 10
-1572.113139803201
 20
-1400.6652065662529
 30
0.0
 11
-1572.613139803201
 21
-1400.5652054028551
 31
0.0
  0
LINE
  5
16089
  8
0
 10
-1572.113139803201
 20
-1399.065206566253
 30
0.0
 11
-1572.613139803201
 21
-1398.965205402855
 31
0.0
  0
LINE
  5
1608A
  8
0
 10
-1576.113139803201
 20
-1401.4651972590709
 30
0.0
 11
-1572.113139803201
 21
-1400.6652065662529
 31
0.0
  0
LINE
  5
1608B
  8
0
 10
-1575.613139803201
 20
-1398.3651984224639
 30
0.0
 11
-1576.113139803201
 21
-1398.265197259067
 31
0.0
  0
LINE
  5
1608D
  8
1CENTER
 10
-1550.113186339099
 20
-1370.8042873212901
 30
0.0
 11
-1550.113186339099
 21
-1407.435478321745
 31
0.0
  0
LINE
  5
1608E
  8
0
 10
-1551.2075101530941
 20
-1375.865199366277
 30
0.0
 11
-1549.245175064219
 21
-1375.065203932226
 31
0.0
  0
LINE
  5
1608F
  8
0
 10
-1549.245175064219
 20
-1375.065203932226
 30
0.0
 11
-1549.8334516392611
 21
-1374.753434075973
 31
0.0
  0
LINE
  5
16090
  8
0
 10
-1552.113139803201
 20
-1398.265197259067
 30
0.0
 11
-1548.113139803201
 21
-1397.4652065662481
 31
0.0
  0
LINE
  5
16091
  8
0
 10
-1552.113139803201
 20
-1387.065197259062
 30
0.0
 11
-1548.113139803201
 21
-1386.2652065662401
 31
0.0
  0
LINE
  5
16092
  8
0
 10
-1552.113139803201
 20
-1383.8651972590619
 30
0.0
 11
-1548.113139803201
 21
-1383.06520656624
 31
0.0
  0
LINE
  5
16093
  8
0
 10
-1548.113139803201
 20
-1383.06520656624
 30
0.0
 11
-1548.613139803201
 21
-1382.965205402842
 31
0.0
  0
LINE
  5
16094
  8
0
 10
-1551.613139803201
 20
-1382.36519842246
 30
0.0
 11
-1552.113139803201
 21
-1382.265197259062
 31
0.0
  0
LINE
  5
16095
  8
0
 10
-1548.113139803201
 20
-1386.2652065662401
 30
0.0
 11
-1548.613139803201
 21
-1386.165205402843
 31
0.0
  0
LINE
  5
16096
  8
0
 10
-1548.113139803201
 20
-1384.665206566239
 30
0.0
 11
-1548.613139803201
 21
-1384.5652054028419
 31
0.0
  0
LINE
  5
16097
  8
0
 10
-1551.613139803201
 20
-1383.965198422459
 30
0.0
 11
-1552.113139803201
 21
-1383.8651972590619
 31
0.0
  0
LINE
  5
16098
  8
0
 10
-1551.613139803201
 20
-1385.5651984224589
 30
0.0
 11
-1552.113139803201
 21
-1385.4651972590621
 31
0.0
  0
LINE
  5
16099
  8
0
 10
-1552.113139803201
 20
-1385.4651972590621
 30
0.0
 11
-1548.113139803201
 21
-1384.665206566239
 31
0.0
  0
LINE
  5
1609A
  8
0
 10
-1548.792360959812
 20
-1376.665204985831
 30
0.0
 11
-1549.3441104236149
 21
-1376.482440843203
 31
0.0
  0
LINE
  5
1609B
  8
0
 10
-1548.113139803201
 20
-1379.86520656624
 30
0.0
 11
-1548.613139803201
 21
-1379.7652054028431
 31
0.0
  0
LINE
  5
1609C
  8
0
 10
-1548.113139803201
 20
-1381.4652065662401
 30
0.0
 11
-1548.613139803201
 21
-1381.365205402843
 31
0.0
  0
LINE
  5
1609D
  8
0
 10
-1548.3395468554049
 20
-1378.2652060394371
 30
0.0
 11
-1548.876140590676
 21
-1378.135935341807
 31
0.0
  0
LINE
  5
1609E
  8
0
 10
-1551.1922252059931
 20
-1377.5779678250219
 30
0.0
 11
-1551.660323661142
 21
-1377.4651983126721
 31
0.0
  0
LINE
  5
1609F
  8
0
 10
-1551.613139803201
 20
-1380.765198422459
 30
0.0
 11
-1552.113139803201
 21
-1380.6651972590621
 31
0.0
  0
LINE
  5
160A0
  8
0
 10
-1551.613139803201
 20
-1379.1651984224591
 30
0.0
 11
-1552.113139803201
 21
-1379.065197259062
 31
0.0
  0
LINE
  5
160A1
  8
0
 10
-1550.7503383124631
 20
-1376.016635162717
 30
0.0
 11
-1551.2075101530941
 21
-1375.865199366277
 31
0.0
  0
LINE
  5
160A2
  8
0
 10
-1551.660323661142
 20
-1377.4651983126721
 30
0.0
 11
-1548.792360959812
 21
-1376.665204985831
 31
0.0
  0
LINE
  5
160A3
  8
0
 10
-1552.113139803201
 20
-1380.6651972590621
 30
0.0
 11
-1548.113139803201
 21
-1379.86520656624
 31
0.0
  0
LINE
  5
160A4
  8
0
 10
-1552.113139803201
 20
-1379.065197259062
 30
0.0
 11
-1548.3395468554049
 21
-1378.2652060394371
 31
0.0
  0
LINE
  5
160A5
  8
0
 10
-1552.113139803201
 20
-1382.265197259062
 30
0.0
 11
-1548.113139803201
 21
-1381.4652065662401
 31
0.0
  0
LINE
  5
160A6
  8
0
 10
-1552.113139803201
 20
-1395.065197259067
 30
0.0
 11
-1548.113139803201
 21
-1394.265206566248
 31
0.0
  0
LINE
  5
160A7
  8
0
 10
-1548.113139803201
 20
-1394.265206566248
 30
0.0
 11
-1548.613139803201
 21
-1394.1652054028509
 31
0.0
  0
LINE
  5
160A8
  8
0
 10
-1551.613139803201
 20
-1393.5651984224601
 30
0.0
 11
-1552.113139803201
 21
-1393.4651972590621
 31
0.0
  0
LINE
  5
160A9
  8
0
 10
-1548.113139803201
 20
-1395.8652065662479
 30
0.0
 11
-1548.613139803201
 21
-1395.7652054028511
 31
0.0
  0
LINE
  5
160AA
  8
0
 10
-1548.113139803201
 20
-1397.4652065662481
 30
0.0
 11
-1548.613139803201
 21
-1397.365205402851
 31
0.0
  0
LINE
  5
160AB
  8
0
 10
-1551.613139803201
 20
-1395.1651984224641
 30
0.0
 11
-1552.113139803201
 21
-1395.065197259067
 31
0.0
  0
LINE
  5
160AC
  8
0
 10
-1551.613139803201
 20
-1396.765198422464
 30
0.0
 11
-1552.113139803201
 21
-1396.6651972590671
 31
0.0
  0
LINE
  5
160AD
  8
0
 10
-1552.113139803201
 20
-1396.6651972590671
 30
0.0
 11
-1548.113139803201
 21
-1395.8652065662479
 31
0.0
  0
LINE
  5
160AE
  8
0
 10
-1548.113139803201
 20
-1389.465206566244
 30
0.0
 11
-1548.613139803201
 21
-1389.365205402846
 31
0.0
  0
LINE
  5
160AF
  8
0
 10
-1548.113139803201
 20
-1387.86520656624
 30
0.0
 11
-1548.613139803201
 21
-1387.7652054028431
 31
0.0
  0
LINE
  5
160B0
  8
0
 10
-1548.113139803201
 20
-1392.665206566244
 30
0.0
 11
-1548.613139803201
 21
-1392.565205402846
 31
0.0
  0
LINE
  5
160B1
  8
0
 10
-1548.113139803201
 20
-1391.0652065662439
 30
0.0
 11
-1548.613139803201
 21
-1390.9652054028461
 31
0.0
  0
LINE
  5
160B2
  8
0
 10
-1551.613139803201
 20
-1387.1651984224591
 30
0.0
 11
-1552.113139803201
 21
-1387.065197259062
 31
0.0
  0
LINE
  5
160B3
  8
0
 10
-1551.613139803201
 20
-1388.7651984224599
 30
0.0
 11
-1552.113139803201
 21
-1388.6651972590621
 31
0.0
  0
LINE
  5
160B4
  8
0
 10
-1551.613139803201
 20
-1391.9651984224599
 30
0.0
 11
-1552.113139803201
 21
-1391.8651972590619
 31
0.0
  0
LINE
  5
160B5
  8
0
 10
-1551.613139803201
 20
-1390.36519842246
 30
0.0
 11
-1552.113139803201
 21
-1390.265197259062
 31
0.0
  0
LINE
  5
160B6
  8
0
 10
-1552.113139803201
 20
-1390.265197259062
 30
0.0
 11
-1548.113139803201
 21
-1389.465206566244
 31
0.0
  0
LINE
  5
160B7
  8
0
 10
-1552.113139803201
 20
-1388.6651972590621
 30
0.0
 11
-1548.113139803201
 21
-1387.86520656624
 31
0.0
  0
LINE
  5
160B8
  8
0
 10
-1552.113139803201
 20
-1391.8651972590619
 30
0.0
 11
-1548.113139803201
 21
-1391.0652065662439
 31
0.0
  0
LINE
  5
160B9
  8
0
 10
-1552.113139803201
 20
-1393.4651972590621
 30
0.0
 11
-1548.113139803201
 21
-1392.665206566244
 31
0.0
  0
LINE
  5
160BA
  8
0
 10
-1548.613139803201
 20
-1403.7652054027369
 30
0.0
 11
-1551.613139803201
 21
-1403.7651984223519
 31
0.0
  0
LINE
  5
160BB
  8
0
 10
-1551.613139803201
 20
-1403.1651984224679
 30
0.0
 11
-1552.113139803201
 21
-1403.0651972590711
 31
0.0
  0
LINE
  5
160BC
  8
0
 10
-1552.113139803201
 20
-1403.0651972590711
 30
0.0
 11
-1548.113139803201
 21
-1402.265206566253
 31
0.0
  0
LINE
  5
160BD
  8
0
 10
-1548.113139803201
 20
-1402.265206566253
 30
0.0
 11
-1548.613139803201
 21
-1402.165205402855
 31
0.0
  0
LINE
  5
160BE
  8
0
 10
-1551.613139803201
 20
-1401.5651984224689
 30
0.0
 11
-1552.113139803201
 21
-1401.4651972590709
 31
0.0
  0
LINE
  5
160BF
  8
0
 10
-1551.613139803201
 20
-1399.965198422469
 30
0.0
 11
-1552.113139803201
 21
-1399.865197259071
 31
0.0
  0
LINE
  5
160C0
  8
0
 10
-1552.113139803201
 20
-1399.865197259071
 30
0.0
 11
-1548.113139803201
 21
-1399.065206566253
 31
0.0
  0
LINE
  5
160C1
  8
0
 10
-1548.113139803201
 20
-1400.6652065662529
 30
0.0
 11
-1548.613139803201
 21
-1400.5652054028551
 31
0.0
  0
LINE
  5
160C2
  8
0
 10
-1548.113139803201
 20
-1399.065206566253
 30
0.0
 11
-1548.613139803201
 21
-1398.965205402855
 31
0.0
  0
LINE
  5
160C3
  8
0
 10
-1552.113139803201
 20
-1401.4651972590709
 30
0.0
 11
-1548.113139803201
 21
-1400.6652065662529
 31
0.0
  0
LINE
  5
160C4
  8
0
 10
-1551.613139803201
 20
-1398.3651984224639
 30
0.0
 11
-1552.113139803201
 21
-1398.265197259067
 31
0.0
  0
LINE
  5
160C6
  8
1CENTER
 10
-1301.3753848140329
 20
-1551.7652116492891
 30
0.0
 11
-1338.006575814487
 21
-1551.7652116492891
 31
0.0
  0
LINE
  5
160C7
  8
0
 10
-1306.436296859019
 20
-1550.670887835294
 30
0.0
 11
-1305.636301424968
 21
-1552.6332229241691
 31
0.0
  0
LINE
  5
160C8
  8
0
 10
-1305.636301424968
 20
-1552.6332229241691
 30
0.0
 11
-1305.3245315687161
 21
-1552.044946349127
 31
0.0
  0
LINE
  5
160C9
  8
0
 10
-1328.836294751809
 20
-1549.7652581851869
 30
0.0
 11
-1328.0363040589909
 21
-1553.7652581851869
 31
0.0
  0
LINE
  5
160CA
  8
0
 10
-1317.6362947518039
 20
-1549.7652581851869
 30
0.0
 11
-1316.836304058982
 21
-1553.7652581851869
 31
0.0
  0
LINE
  5
160CB
  8
0
 10
-1314.4362947518041
 20
-1549.7652581851869
 30
0.0
 11
-1313.636304058982
 21
-1553.7652581851869
 31
0.0
  0
LINE
  5
160CC
  8
0
 10
-1313.636304058982
 20
-1553.7652581851869
 30
0.0
 11
-1313.5363028955851
 21
-1553.2652581851869
 31
0.0
  0
LINE
  5
160CD
  8
0
 10
-1312.936295915202
 20
-1550.2652581851869
 30
0.0
 11
-1312.8362947518051
 21
-1549.7652581851869
 31
0.0
  0
LINE
  5
160CE
  8
0
 10
-1316.836304058982
 20
-1553.7652581851869
 30
0.0
 11
-1316.7363028955849
 21
-1553.2652581851869
 31
0.0
  0
LINE
  5
160CF
  8
0
 10
-1315.2363040589819
 20
-1553.7652581851869
 30
0.0
 11
-1315.136302895585
 21
-1553.2652581851869
 31
0.0
  0
LINE
  5
160D0
  8
0
 10
-1314.5362959152019
 20
-1550.2652581851869
 30
0.0
 11
-1314.4362947518041
 21
-1549.7652581851869
 31
0.0
  0
LINE
  5
160D1
  8
0
 10
-1316.1362959152009
 20
-1550.2652581851869
 30
0.0
 11
-1316.036294751804
 21
-1549.7652581851869
 31
0.0
  0
LINE
  5
160D2
  8
0
 10
-1316.036294751804
 20
-1549.7652581851869
 30
0.0
 11
-1315.2363040589819
 21
-1553.7652581851869
 31
0.0
  0
LINE
  5
160D3
  8
0
 10
-1307.2363024785741
 20
-1553.0860370285759
 30
0.0
 11
-1307.0535383359449
 21
-1552.534287564773
 31
0.0
  0
LINE
  5
160D4
  8
0
 10
-1310.4363040589819
 20
-1553.7652581851869
 30
0.0
 11
-1310.336302895585
 21
-1553.2652581851869
 31
0.0
  0
LINE
  5
160D5
  8
0
 10
-1312.0363040589821
 20
-1553.7652581851869
 30
0.0
 11
-1311.936302895585
 21
-1553.2652581851869
 31
0.0
  0
LINE
  5
160D6
  8
0
 10
-1308.836303532179
 20
-1553.5388511329829
 30
0.0
 11
-1308.707032834549
 21
-1553.0022573977119
 31
0.0
  0
LINE
  5
160D7
  8
0
 10
-1308.1490653177641
 20
-1550.6861727823959
 30
0.0
 11
-1308.036295805415
 21
-1550.2180743272461
 31
0.0
  0
LINE
  5
160D8
  8
0
 10
-1311.3362959152009
 20
-1550.2652581851869
 30
0.0
 11
-1311.2362947518041
 21
-1549.7652581851869
 31
0.0
  0
LINE
  5
160D9
  8
0
 10
-1309.736295915201
 20
-1550.2652581851869
 30
0.0
 11
-1309.6362947518039
 21
-1549.7652581851869
 31
0.0
  0
LINE
  5
160DA
  8
0
 10
-1306.5877326554589
 20
-1551.128059675925
 30
0.0
 11
-1306.436296859019
 21
-1550.670887835294
 31
0.0
  0
LINE
  5
160DB
  8
0
 10
-1308.036295805415
 20
-1550.2180743272461
 30
0.0
 11
-1307.2363024785741
 21
-1553.0860370285759
 31
0.0
  0
LINE
  5
160DC
  8
0
 10
-1311.2362947518041
 20
-1549.7652581851869
 30
0.0
 11
-1310.4363040589819
 21
-1553.7652581851869
 31
0.0
  0
LINE
  5
160DD
  8
0
 10
-1309.6362947518039
 20
-1549.7652581851869
 30
0.0
 11
-1308.836303532179
 21
-1553.5388511329829
 31
0.0
  0
LINE
  5
160DE
  8
0
 10
-1312.8362947518051
 20
-1549.7652581851869
 30
0.0
 11
-1312.0363040589821
 21
-1553.7652581851869
 31
0.0
  0
LINE
  5
160DF
  8
0
 10
-1325.6362947518089
 20
-1549.7652581851869
 30
0.0
 11
-1324.83630405899
 21
-1553.7652581851869
 31
0.0
  0
LINE
  5
160E0
  8
0
 10
-1324.83630405899
 20
-1553.7652581851869
 30
0.0
 11
-1324.7363028955931
 21
-1553.2652581851869
 31
0.0
  0
LINE
  5
160E1
  8
0
 10
-1324.136295915202
 20
-1550.2652581851869
 30
0.0
 11
-1324.036294751804
 21
-1549.7652581851869
 31
0.0
  0
LINE
  5
160E2
  8
0
 10
-1326.436304058991
 20
-1553.7652581851869
 30
0.0
 11
-1326.336302895593
 21
-1553.2652581851869
 31
0.0
  0
LINE
  5
160E3
  8
0
 10
-1328.0363040589909
 20
-1553.7652581851869
 30
0.0
 11
-1327.9363028955929
 21
-1553.2652581851869
 31
0.0
  0
LINE
  5
160E4
  8
0
 10
-1325.7362959152069
 20
-1550.2652581851869
 30
0.0
 11
-1325.6362947518089
 21
-1549.7652581851869
 31
0.0
  0
LINE
  5
160E5
  8
0
 10
-1327.3362959152071
 20
-1550.2652581851869
 30
0.0
 11
-1327.2362947518091
 21
-1549.7652581851869
 31
0.0
  0
LINE
  5
160E6
  8
0
 10
-1327.2362947518091
 20
-1549.7652581851869
 30
0.0
 11
-1326.436304058991
 21
-1553.7652581851869
 31
0.0
  0
LINE
  5
160E7
  8
0
 10
-1320.0363040589859
 20
-1553.7652581851869
 30
0.0
 11
-1319.9363028955891
 21
-1553.2652581851869
 31
0.0
  0
LINE
  5
160E8
  8
0
 10
-1318.4363040589819
 20
-1553.7652581851869
 30
0.0
 11
-1318.336302895585
 21
-1553.2652581851869
 31
0.0
  0
LINE
  5
160E9
  8
0
 10
-1323.236304058986
 20
-1553.7652581851869
 30
0.0
 11
-1323.136302895588
 21
-1553.2652581851869
 31
0.0
  0
LINE
  5
160EA
  8
0
 10
-1321.6363040589861
 20
-1553.7652581851869
 30
0.0
 11
-1321.536302895589
 21
-1553.2652581851869
 31
0.0
  0
LINE
  5
160EB
  8
0
 10
-1317.736295915201
 20
-1550.2652581851869
 30
0.0
 11
-1317.6362947518039
 21
-1549.7652581851869
 31
0.0
  0
LINE
  5
160EC
  8
0
 10
-1319.3362959152021
 20
-1550.2652581851869
 30
0.0
 11
-1319.2362947518041
 21
-1549.7652581851869
 31
0.0
  0
LINE
  5
160ED
  8
0
 10
-1322.5362959152019
 20
-1550.2652581851869
 30
0.0
 11
-1322.436294751805
 21
-1549.7652581851869
 31
0.0
  0
LINE
  5
160EE
  8
0
 10
-1320.936295915202
 20
-1550.2652581851869
 30
0.0
 11
-1320.8362947518051
 21
-1549.7652581851869
 31
0.0
  0
LINE
  5
160EF
  8
0
 10
-1320.8362947518051
 20
-1549.7652581851869
 30
0.0
 11
-1320.0363040589859
 21
-1553.7652581851869
 31
0.0
  0
LINE
  5
160F0
  8
0
 10
-1319.2362947518041
 20
-1549.7652581851869
 30
0.0
 11
-1318.4363040589819
 21
-1553.7652581851869
 31
0.0
  0
LINE
  5
160F1
  8
0
 10
-1322.436294751805
 20
-1549.7652581851869
 30
0.0
 11
-1321.6363040589861
 21
-1553.7652581851869
 31
0.0
  0
LINE
  5
160F2
  8
0
 10
-1324.036294751804
 20
-1549.7652581851869
 30
0.0
 11
-1323.236304058986
 21
-1553.7652581851869
 31
0.0
  0
LINE
  5
160F3
  8
0
 10
-1334.3363028954791
 20
-1553.2652581851869
 30
0.0
 11
-1334.336295915095
 21
-1550.2652581851869
 31
0.0
  0
LINE
  5
160F4
  8
0
 10
-1333.736295915211
 20
-1550.2652581851869
 30
0.0
 11
-1333.636294751813
 21
-1549.7652581851869
 31
0.0
  0
LINE
  5
160F5
  8
0
 10
-1333.636294751813
 20
-1549.7652581851869
 30
0.0
 11
-1332.836304058995
 21
-1553.7652581851869
 31
0.0
  0
LINE
  5
160F6
  8
0
 10
-1332.836304058995
 20
-1553.7652581851869
 30
0.0
 11
-1332.736302895597
 21
-1553.2652581851869
 31
0.0
  0
LINE
  5
160F7
  8
0
 10
-1332.1362959152109
 20
-1550.2652581851869
 30
0.0
 11
-1332.0362947518131
 21
-1549.7652581851869
 31
0.0
  0
LINE
  5
160F8
  8
0
 10
-1330.536295915211
 20
-1550.2652581851869
 30
0.0
 11
-1330.436294751813
 21
-1549.7652581851869
 31
0.0
  0
LINE
  5
160F9
  8
0
 10
-1330.436294751813
 20
-1549.7652581851869
 30
0.0
 11
-1329.6363040589949
 21
-1553.7652581851869
 31
0.0
  0
LINE
  5
160FA
  8
0
 10
-1331.2363040589951
 20
-1553.7652581851869
 30
0.0
 11
-1331.1363028955971
 21
-1553.2652581851869
 31
0.0
  0
LINE
  5
160FB
  8
0
 10
-1329.6363040589949
 20
-1553.7652581851869
 30
0.0
 11
-1329.5363028955969
 21
-1553.2652581851869
 31
0.0
  0
LINE
  5
160FC
  8
0
 10
-1332.0362947518131
 20
-1549.7652581851869
 30
0.0
 11
-1331.2363040589951
 21
-1553.7652581851869
 31
0.0
  0
LINE
  5
160FD
  8
0
 10
-1328.936295915207
 20
-1550.2652581851869
 30
0.0
 11
-1328.836294751809
 21
-1549.7652581851869
 31
0.0
  0
LINE
  5
160FE
  8
0
 10
-1304.3362994053409
 20
-1551.7652581851869
 30
0.0
 11
-1309.6362959152029
 21
-1550.2652581851869
 31
0.0
  0
LINE
  5
160FF
  8
0
 10
-1309.6362959152029
 20
-1550.2652581851869
 30
0.0
 11
-1334.336295915095
 21
-1550.2652581851869
 31
0.0
  0
LINE
  5
16100
  8
0
 10
-1304.3362994053409
 20
-1551.7652581851869
 30
0.0
 11
-1309.6363028955859
 21
-1553.2652581851869
 31
0.0
  0
LINE
  5
16101
  8
0
 10
-1334.3362912613959
 20
-1548.2652116492891
 30
0.0
 11
-1334.336295915095
 21
-1550.2652581851869
 31
0.0
  0
LINE
  5
16102
  8
0
 10
-1309.6363028955859
 20
-1553.2652581851869
 30
0.0
 11
-1334.3363028954791
 21
-1553.2652581851869
 31
0.0
  0
LINE
  5
16103
  8
0
 10
-1334.3362912613959
 20
-1548.2652116492891
 30
0.0
 11
-1335.436294751592
 21
-1548.2652116492891
 31
0.0
  0
LINE
  5
16104
  8
0
 10
-1334.3363028954791
 20
-1553.2652581851869
 30
0.0
 11
-1334.336307548961
 21
-1555.2652116492891
 31
0.0
  0
ARC
  5
16105
  8
0
 10
-1335.436294751592
 20
-1549.7652116492891
 30
0.0
 40
1.5
 50
90.0
 51
179.9998666844663
  0
LINE
  5
16106
  8
0
 10
-1334.336307548961
 20
-1555.2652116492891
 30
0.0
 11
-1335.4363040587709
 21
-1555.2652116492891
 31
0.0
  0
LINE
  5
16107
  8
0
 10
-1336.9362947515881
 20
-1549.7652081590959
 30
0.0
 11
-1336.9363040587671
 21
-1553.7652081590959
 31
0.0
  0
ARC
  5
16108
  8
0
 10
-1335.4363040587709
 20
-1553.7652116492891
 30
0.0
 40
1.5
 50
179.9998666844663
 51
270.0
  0
LINE
  5
16109
  8
0
 10
-1550.113139803201
 20
-1373.765201912599
 30
0.0
 11
-1551.613139803201
 21
-1379.065198422461
 31
0.0
  0
LINE
  5
1610A
  8
0
 10
-1551.613139803201
 20
-1379.065198422461
 30
0.0
 11
-1551.613139803201
 21
-1403.7651984223519
 31
0.0
  0
LINE
  5
1610B
  8
0
 10
-1550.113139803201
 20
-1373.765201912599
 30
0.0
 11
-1548.613139803201
 21
-1379.065205402844
 31
0.0
  0
LINE
  5
1610C
  8
0
 10
-1553.613186339099
 20
-1403.7651937686539
 30
0.0
 11
-1551.613139803201
 21
-1403.7651984223519
 31
0.0
  0
LINE
  5
1610D
  8
0
 10
-1548.613139803201
 20
-1379.065205402844
 30
0.0
 11
-1548.613139803201
 21
-1403.7652054027369
 31
0.0
  0
LINE
  5
1610E
  8
0
 10
-1553.613186339099
 20
-1403.7651937686539
 30
0.0
 11
-1553.613186339099
 21
-1404.86519725885
 31
0.0
  0
LINE
  5
1610F
  8
0
 10
-1548.613139803201
 20
-1403.7652054027369
 30
0.0
 11
-1546.613186339099
 21
-1403.7652100562191
 31
0.0
  0
ARC
  5
16110
  8
0
 10
-1552.113186339099
 20
-1404.86519725885
 30
0.0
 40
1.5
 50
180.0
 51
269.99986668446621
  0
LINE
  5
16111
  8
0
 10
-1546.613186339099
 20
-1403.7652100562191
 30
0.0
 11
-1546.613186339099
 21
-1404.865206566029
 31
0.0
  0
LINE
  5
16112
  8
0
 10
-1552.113189829292
 20
-1406.365197258845
 30
0.0
 11
-1548.1131898292911
 21
-1406.3652065660251
 31
0.0
  0
ARC
  5
16113
  8
0
 10
-1548.113186339099
 20
-1404.865206566029
 30
0.0
 40
1.5
 50
269.99986668446633
 51
0.0000000000000799
  0
LINE
  5
16114
  8
0
 10
-1574.113139803201
 20
-1373.765201912599
 30
0.0
 11
-1575.613139803201
 21
-1379.065198422461
 31
0.0
  0
LINE
  5
16115
  8
0
 10
-1575.613139803201
 20
-1379.065198422461
 30
0.0
 11
-1575.613139803201
 21
-1403.7651984223519
 31
0.0
  0
LINE
  5
16116
  8
0
 10
-1574.113139803201
 20
-1373.765201912599
 30
0.0
 11
-1572.613139803201
 21
-1379.065205402844
 31
0.0
  0
LINE
  5
16117
  8
0
 10
-1577.613186339099
 20
-1403.7651937686539
 30
0.0
 11
-1575.613139803201
 21
-1403.7651984223519
 31
0.0
  0
LINE
  5
16118
  8
0
 10
-1572.613139803201
 20
-1379.065205402844
 30
0.0
 11
-1572.613139803201
 21
-1403.7652054027369
 31
0.0
  0
LINE
  5
16119
  8
0
 10
-1577.613186339099
 20
-1403.7651937686539
 30
0.0
 11
-1577.613186339099
 21
-1404.86519725885
 31
0.0
  0
LINE
  5
1611A
  8
0
 10
-1572.613139803201
 20
-1403.7652054027369
 30
0.0
 11
-1570.613186339099
 21
-1403.7652100562191
 31
0.0
  0
ARC
  5
1611B
  8
0
 10
-1576.113186339099
 20
-1404.86519725885
 30
0.0
 40
1.5
 50
180.0
 51
269.99986668446621
  0
LINE
  5
1611C
  8
0
 10
-1570.613186339099
 20
-1403.7652100562191
 30
0.0
 11
-1570.613186339099
 21
-1404.865206566029
 31
0.0
  0
LINE
  5
1611D
  8
0
 10
-1576.113189829292
 20
-1406.365197258845
 30
0.0
 11
-1572.1131898292911
 21
-1406.3652065660251
 31
0.0
  0
ARC
  5
1611E
  8
0
 10
-1572.113186339099
 20
-1404.865206566029
 30
0.0
 40
1.5
 50
269.99986668446633
 51
0.0000000000000799
  0
TEXT
  5
1611F
  8
1DIM
 10
-1565.904853005766
 20
-1524.0652019124359
 30
0.0
 40
3.5
  1
170 
  0
LINE
  5
16120
  8
0
  6
BYBLOCK
 10
-1479.113186339099
 20
-1524.229303532436
 30
0.0
 11
-1477.113186339099
 21
-1524.7652019124359
 31
0.0
  0
LINE
  5
16121
  8
0
  6
BYBLOCK
 10
-1477.113186339099
 20
-1524.7652019124359
 30
0.0
 11
-1479.113186339099
 21
-1525.3011002924361
 31
0.0
  0
LINE
  5
16122
  8
0
  6
BYBLOCK
 10
-1477.113186339099
 20
-1524.7652019124359
 30
0.0
 11
-1479.113186339099
 21
-1524.7652019124359
 31
0.0
  0
LINE
  5
16123
  8
0
  6
BYBLOCK
 10
-1645.113186339099
 20
-1525.3011002924361
 30
0.0
 11
-1647.113186339099
 21
-1524.7652019124359
 31
0.0
  0
LINE
  5
16124
  8
0
  6
BYBLOCK
 10
-1647.113186339099
 20
-1524.7652019124359
 30
0.0
 11
-1645.113186339099
 21
-1524.229303532436
 31
0.0
  0
LINE
  5
16125
  8
0
  6
BYBLOCK
 10
-1647.113186339099
 20
-1524.7652019124359
 30
0.0
 11
-1645.113186339099
 21
-1524.7652019124359
 31
0.0
  0
TEXT
  5
16126
  8
1DIM
 10
-1344.2410859413039
 20
-1524.0652019124359
 30
0.0
 40
3.5
  1
29.5
  0
LINE
  5
16127
  8
0
  6
BYBLOCK
 10
-1326.257753636788
 20
-1524.229303532436
 30
0.0
 11
-1324.257753636788
 21
-1524.7652019124359
 31
0.0
  0
LINE
  5
16128
  8
0
  6
BYBLOCK
 10
-1324.257753636788
 20
-1524.7652019124359
 30
0.0
 11
-1326.257753636788
 21
-1525.3011002924361
 31
0.0
  0
LINE
  5
16129
  8
0
  6
BYBLOCK
 10
-1324.257753636788
 20
-1524.7652019124359
 30
0.0
 11
-1326.257753636788
 21
-1524.7652019124359
 31
0.0
  0
LINE
  5
1612A
  8
0
  6
BYBLOCK
 10
-1351.7244182458201
 20
-1525.3011002924361
 30
0.0
 11
-1353.724418245821
 21
-1524.7652019124359
 31
0.0
  0
LINE
  5
1612B
  8
0
  6
BYBLOCK
 10
-1353.724418245821
 20
-1524.7652019124359
 30
0.0
 11
-1351.7244182458201
 21
-1524.229303532436
 31
0.0
  0
LINE
  5
1612C
  8
0
  6
BYBLOCK
 10
-1353.724418245821
 20
-1524.7652019124359
 30
0.0
 11
-1351.7244182458201
 21
-1524.7652019124359
 31
0.0
  0
LINE
  5
1612D
  8
1DIM
 10
-1311.9427295464279
 20
-1510.757670819771
 30
0.0
 11
-1317.135307985375
 21
-1498.174714859749
 31
0.0
  0
LINE
  5
1612E
  8
1DIM
 10
-1317.135307985375
 20
-1498.174714859749
 30
0.0
 11
-1285.2353079853749
 21
-1498.174714859749
 31
0.0
  0
LINE
  5
1612F
  8
0
  6
BYBLOCK
 10
-1311.447353673301
 20
-1510.553245239156
 30
0.0
 11
-1311.179802886285
 21
-1512.606438763901
 31
0.0
  0
LINE
  5
16130
  8
0
  6
BYBLOCK
 10
-1311.179802886285
 20
-1512.606438763901
 30
0.0
 11
-1312.438105419556
 21
-1510.9620964003859
 31
0.0
  0
LINE
  5
16131
  8
0
  6
BYBLOCK
 10
-1311.179802886285
 20
-1512.606438763901
 30
0.0
 11
-1311.9427295464279
 21
-1510.757670819771
 31
0.0
  0
LINE
  5
16132
  8
1HATCH
 10
-1320.0263541469669
 20
-1510.684224687438
 30
0.0
 11
-1323.3026524799141
 21
-1492.173368842625
 31
0.0
  0
LINE
  5
16133
  8
1HATCH
 10
-1323.3026524799141
 20
-1492.173368842625
 30
0.0
 11
-1314.7693191465801
 21
-1492.173368842625
 31
0.0
  0
LINE
  5
16134
  8
0
  6
BYBLOCK
 10
-1319.498657511564
 20
-1510.590825893705
 30
0.0
 11
-1319.6777851002271
 21
-1512.6536153596139
 31
0.0
  0
LINE
  5
16135
  8
0
  6
BYBLOCK
 10
-1319.6777851002271
 20
-1512.6536153596139
 30
0.0
 11
-1320.55405078237
 21
-1510.7776234811711
 31
0.0
  0
LINE
  5
16136
  8
0
  6
BYBLOCK
 10
-1319.6777851002271
 20
-1512.6536153596139
 30
0.0
 11
-1320.0263541469669
 21
-1510.684224687438
 31
0.0
  0
TEXT
  5
16137
  8
1DIM
 10
-1334.0910882005969
 20
-1594.1088362513899
 30
0.0
 40
3.5
  1
15 
  0
LINE
  5
16138
  8
0
  6
BYBLOCK
 10
-1337.257756097739
 20
-1595.3447346313901
 30
0.0
 11
-1339.257756097739
 21
-1594.8088362513899
 31
0.0
  0
LINE
  5
16139
  8
0
  6
BYBLOCK
 10
-1339.257756097739
 20
-1594.8088362513899
 30
0.0
 11
-1337.257756097739
 21
-1594.27293787139
 31
0.0
  0
LINE
  5
1613A
  8
0
  6
BYBLOCK
 10
-1339.257756097739
 20
-1594.8088362513899
 30
0.0
 11
-1337.257756097739
 21
-1594.8088362513899
 31
0.0
  0
LINE
  5
1613B
  8
0
  6
BYBLOCK
 10
-1326.257753636788
 20
-1594.27293787139
 30
0.0
 11
-1324.257753636788
 21
-1594.8088362513899
 31
0.0
  0
LINE
  5
1613C
  8
0
  6
BYBLOCK
 10
-1324.257753636788
 20
-1594.8088362513899
 30
0.0
 11
-1326.257753636788
 21
-1595.3447346313901
 31
0.0
  0
LINE
  5
1613D
  8
0
  6
BYBLOCK
 10
-1324.257753636788
 20
-1594.8088362513899
 30
0.0
 11
-1326.257753636788
 21
-1594.8088362513899
 31
0.0
  0
TEXT
  5
1613E
  8
1DIM
 10
-1467.813186339099
 20
-1457.3485352457701
 30
0.0
 40
3.5
  1
123 
 50
90.0
  0
LINE
  5
1613F
  8
0
  6
BYBLOCK
 10
-1466.5772879590991
 20
-1512.7652019124371
 30
0.0
 11
-1467.113186339099
 21
-1514.7652019124359
 31
0.0
  0
LINE
  5
16140
  8
0
  6
BYBLOCK
 10
-1467.113186339099
 20
-1514.7652019124359
 30
0.0
 11
-1467.6490847190989
 21
-1512.7652019124371
 31
0.0
  0
LINE
  5
16141
  8
0
  6
BYBLOCK
 10
-1467.113186339099
 20
-1514.7652019124359
 30
0.0
 11
-1467.113186339099
 21
-1512.7652019124371
 31
0.0
  0
LINE
  5
16142
  8
0
  6
BYBLOCK
 10
-1467.6490847190989
 20
-1393.7652019124359
 30
0.0
 11
-1467.113186339099
 21
-1391.7652019124359
 31
0.0
  0
LINE
  5
16143
  8
0
  6
BYBLOCK
 10
-1467.113186339099
 20
-1391.7652019124359
 30
0.0
 11
-1466.5772879590991
 21
-1393.7652019124359
 31
0.0
  0
LINE
  5
16144
  8
0
  6
BYBLOCK
 10
-1467.113186339099
 20
-1391.7652019124359
 30
0.0
 11
-1467.113186339099
 21
-1393.7652019124359
 31
0.0
  0
TEXT
  5
16145
  8
1DIM
 10
-1416.9354700307019
 20
-1504.0652019124359
 30
0.0
 40
3.5
  1
133（ペーパー付き最大値）
  0
LINE
  5
16146
  8
0
  6
BYBLOCK
 10
-1326.2577537223051
 20
-1504.229303532436
 30
0.0
 11
-1324.2577537223051
 21
-1504.7652019124359
 31
0.0
  0
LINE
  5
16147
  8
0
  6
BYBLOCK
 10
-1324.2577537223051
 20
-1504.7652019124359
 30
0.0
 11
-1326.2577537223051
 21
-1505.3011002924361
 31
0.0
  0
LINE
  5
16148
  8
0
  6
BYBLOCK
 10
-1324.2577537223051
 20
-1504.7652019124359
 30
0.0
 11
-1326.2577537223051
 21
-1504.7652019124359
 31
0.0
  0
LINE
  5
16149
  8
0
  6
BYBLOCK
 10
-1455.113186339099
 20
-1505.3011002924361
 30
0.0
 11
-1457.113186339099
 21
-1504.7652019124359
 31
0.0
  0
LINE
  5
1614A
  8
0
  6
BYBLOCK
 10
-1457.113186339099
 20
-1504.7652019124359
 30
0.0
 11
-1455.113186339099
 21
-1504.229303532436
 31
0.0
  0
LINE
  5
1614B
  8
0
  6
BYBLOCK
 10
-1457.113186339099
 20
-1504.7652019124359
 30
0.0
 11
-1455.113186339099
 21
-1504.7652019124359
 31
0.0
  0
TEXT
  5
1614C
  8
1DIM
 10
-1565.904853005766
 20
-1627.934890116253
 30
0.0
 40
3.5
  1
130 
  0
LINE
  5
1614D
  8
0
  6
BYBLOCK
 10
-1499.113186339099
 20
-1628.0989917362531
 30
0.0
 11
-1497.113186339099
 21
-1628.634890116253
 31
0.0
  0
LINE
  5
1614E
  8
0
  6
BYBLOCK
 10
-1497.113186339099
 20
-1628.634890116253
 30
0.0
 11
-1499.113186339099
 21
-1629.170788496252
 31
0.0
  0
LINE
  5
1614F
  8
0
  6
BYBLOCK
 10
-1497.113186339099
 20
-1628.634890116253
 30
0.0
 11
-1499.113186339099
 21
-1628.634890116253
 31
0.0
  0
LINE
  5
16150
  8
0
  6
BYBLOCK
 10
-1625.113186339099
 20
-1629.170788496252
 30
0.0
 11
-1627.113186339099
 21
-1628.634890116253
 31
0.0
  0
LINE
  5
16151
  8
0
  6
BYBLOCK
 10
-1627.113186339099
 20
-1628.634890116253
 30
0.0
 11
-1625.113186339099
 21
-1628.0989917362531
 31
0.0
  0
LINE
  5
16152
  8
0
  6
BYBLOCK
 10
-1627.113186339099
 20
-1628.634890116253
 30
0.0
 11
-1625.113186339099
 21
-1628.634890116253
 31
0.0
  0
TEXT
  5
16153
  8
1DIM
 10
-1565.904853005766
 20
-1381.0652019124359
 30
0.0
 40
3.5
  1
130 
  0
LINE
  5
16154
  8
0
  6
BYBLOCK
 10
-1499.113186339099
 20
-1381.229303532436
 30
0.0
 11
-1497.113186339099
 21
-1381.7652019124359
 31
0.0
  0
LINE
  5
16155
  8
0
  6
BYBLOCK
 10
-1497.113186339099
 20
-1381.7652019124359
 30
0.0
 11
-1499.113186339099
 21
-1382.3011002924361
 31
0.0
  0
LINE
  5
16156
  8
0
  6
BYBLOCK
 10
-1497.113186339099
 20
-1381.7652019124359
 30
0.0
 11
-1499.113186339099
 21
-1381.7652019124359
 31
0.0
  0
LINE
  5
16157
  8
0
  6
BYBLOCK
 10
-1625.113186339099
 20
-1382.3011002924361
 30
0.0
 11
-1627.113186339099
 21
-1381.7652019124359
 31
0.0
  0
LINE
  5
16158
  8
0
  6
BYBLOCK
 10
-1627.113186339099
 20
-1381.7652019124359
 30
0.0
 11
-1625.113186339099
 21
-1381.229303532436
 31
0.0
  0
LINE
  5
16159
  8
0
  6
BYBLOCK
 10
-1627.113186339099
 20
-1381.7652019124359
 30
0.0
 11
-1625.113186339099
 21
-1381.7652019124359
 31
0.0
  0
LINE
  5
1615A
  8
1DIM
 10
-1399.943688312027
 20
-1540.719636335672
 30
0.0
 11
-1415.915815176372
 21
-1522.7302986440241
 31
0.0
  0
LINE
  5
1615B
  8
1DIM
 10
-1415.915815176372
 20
-1522.7302986440241
 30
0.0
 11
-1442.8824818430389
 21
-1522.7302986440241
 31
0.0
  0
LINE
  5
1615C
  8
0
  6
BYBLOCK
 10
-1399.54294945375
 20
-1540.36383380455
 30
0.0
 11
-1398.6158151763721
 21
-1542.2152141289021
 31
0.0
  0
LINE
  5
1615D
  8
0
  6
BYBLOCK
 10
-1398.6158151763721
 20
-1542.2152141289021
 30
0.0
 11
-1400.3444271703061
 21
-1541.0754388667931
 31
0.0
  0
LINE
  5
1615E
  8
0
  6
BYBLOCK
 10
-1398.6158151763721
 20
-1542.2152141289021
 30
0.0
 11
-1399.943688312027
 21
-1540.719636335672
 31
0.0
  0
LINE
  5
1615F
  8
1DIM
 10
-1348.3912558505051
 20
-1533.2696221254739
 30
0.0
 11
-1359.1791482133081
 21
-1521.11926542321
 31
0.0
  0
LINE
  5
16160
  8
1DIM
 10
-1359.1791482133081
 20
-1521.11926542321
 30
0.0
 11
-1407.145814879975
 21
-1521.11926542321
 31
0.0
  0
LINE
  5
16161
  8
0
  6
BYBLOCK
 10
-1347.990516992227
 20
-1532.9138195943531
 30
0.0
 11
-1347.063382714849
 21
-1534.7651999187051
 31
0.0
  0
LINE
  5
16162
  8
0
  6
BYBLOCK
 10
-1347.063382714849
 20
-1534.7651999187051
 30
0.0
 11
-1348.791994708783
 21
-1533.6254246565959
 31
0.0
  0
LINE
  5
16163
  8
0
  6
BYBLOCK
 10
-1347.063382714849
 20
-1534.7651999187051
 30
0.0
 11
-1348.3912558505051
 21
-1533.2696221254739
 31
0.0
  0
LINE
  5
16164
  8
1DIM
 10
-1434.881302864369
 20
-1574.8132656919561
 30
0.0
 11
-1441.495104317399
 21
-1567.3641696025879
 31
0.0
  0
LINE
  5
16165
  8
1DIM
 10
-1441.495104317399
 20
-1567.3641696025879
 30
0.0
 11
-1476.861770984066
 21
-1567.3641696025879
 31
0.0
  0
LINE
  5
16166
  8
0
  6
BYBLOCK
 10
-1434.4805640060911
 20
-1574.4574631608341
 30
0.0
 11
-1433.553429728714
 21
-1576.3088434851859
 31
0.0
  0
LINE
  5
16167
  8
0
  6
BYBLOCK
 10
-1433.553429728714
 20
-1576.3088434851859
 30
0.0
 11
-1435.2820417226469
 21
-1575.1690682230769
 31
0.0
  0
LINE
  5
16168
  8
0
  6
BYBLOCK
 10
-1433.553429728714
 20
-1576.3088434851859
 30
0.0
 11
-1434.881302864369
 21
-1574.8132656919561
 31
0.0
  0
LINE
  5
16169
  8
1DIM
 10
-1510.07315645433
 20
-1607.4561376826091
 30
0.0
 11
-1494.101029589986
 21
-1589.4667999909609
 31
0.0
  0
LINE
  5
1616A
  8
1DIM
 10
-1494.101029589986
 20
-1589.4667999909609
 30
0.0
 11
-1446.134362923319
 21
-1589.4667999909609
 31
0.0
  0
LINE
  5
1616B
  8
0
  6
BYBLOCK
 10
-1509.6724175960519
 20
-1607.8119402137299
 30
0.0
 11
-1511.4010295899859
 21
-1608.9517154758389
 31
0.0
  0
LINE
  5
1616C
  8
0
  6
BYBLOCK
 10
-1511.4010295899859
 20
-1608.9517154758389
 30
0.0
 11
-1510.473895312608
 21
-1607.1003351514869
 31
0.0
  0
LINE
  5
1616D
  8
0
  6
BYBLOCK
 10
-1511.4010295899859
 20
-1608.9517154758389
 30
0.0
 11
-1510.07315645433
 21
-1607.4561376826091
 31
0.0
  0
TEXT
  5
1616E
  8
1DIM
 10
-1565.029853005766
 20
-1594.803046893971
 30
0.0
 40
3.5
  1
24 
  0
LINE
  5
1616F
  8
0
  6
BYBLOCK
 10
-1552.113186339099
 20
-1594.9671485139711
 30
0.0
 11
-1550.113186339099
 21
-1595.503046893971
 31
0.0
  0
LINE
  5
16170
  8
0
  6
BYBLOCK
 10
-1550.113186339099
 20
-1595.503046893971
 30
0.0
 11
-1552.113186339099
 21
-1596.038945273971
 31
0.0
  0
LINE
  5
16171
  8
0
  6
BYBLOCK
 10
-1550.113186339099
 20
-1595.503046893971
 30
0.0
 11
-1552.113186339099
 21
-1595.503046893971
 31
0.0
  0
LINE
  5
16172
  8
0
  6
BYBLOCK
 10
-1572.113186339099
 20
-1596.038945273971
 30
0.0
 11
-1574.113186339099
 21
-1595.503046893971
 31
0.0
  0
LINE
  5
16173
  8
0
  6
BYBLOCK
 10
-1574.113186339099
 20
-1595.503046893971
 30
0.0
 11
-1572.113186339099
 21
-1594.9671485139711
 31
0.0
  0
LINE
  5
16174
  8
0
  6
BYBLOCK
 10
-1574.113186339099
 20
-1595.503046893971
 30
0.0
 11
-1572.113186339099
 21
-1595.503046893971
 31
0.0
  0
VIEWPORT
  5
57
 67
     1
  8
0
 10
-12.71820606546879
 20
78.169677165462559
 30
0.0
 40
685.20250038167262
 41
454.35232822448711
 68
     1
 69
     1
1001
ACAD
1000
MVIEW
1002
{
1070
    16
1010
0.0
1020
0.0
1030
0.0
1010
0.0
1020
0.0
1030
1.0
1040
0.0
1040
454.35232822448711
1040
-12.71820606546879
1040
78.169677165462559
1040
50.0
1040
0.0
1040
0.0
1070
     0
1070
  1000
1070
     1
1070
     1
1070
     0
1070
     0
1070
     0
1070
     0
1040
0.0
1040
0.0
1040
0.0
1040
10.0
1040
10.0
1040
10.0
1040
10.0
1070
     0
1002
{
1002
}
1002
}
  0
ENDSEC
  0
EOF
