  0
SECTION
  2
HEADER
  9
$ACADVER
  1
AC1009
  9
$INSBASE
 10
0.0
 20
0.0
 30
0.0
  9
$EXTMIN
 10
-1647.113186339099
 20
-1682.3206307851101
 30
0.0
  9
$EXTMAX
 10
-1285.2353079853749
 20
-1370.8042873212901
 30
0.0
  9
$LIMMIN
 10
0.0
 20
0.0
  9
$LIMMAX
 10
420.0
 20
297.0
  9
$ORTHOMODE
 70
     0
  9
$REGENMODE
 70
     1
  9
$FILLMODE
 70
     1
  9
$QTEXTMODE
 70
     0
  9
$MIRRTEXT
 70
     0
  9
$DRAGMODE
 70
     2
  9
$LTSCALE
 40
0.5
  9
$OSMODE
 70
    63
  9
$ATTMODE
 70
     1
  9
$TEXTSIZE
 40
4.0
  9
$TRACEWID
 40
1.0
  9
$TEXTSTYLE
  7
STANDARD
  9
$CLAYER
  8
1TEXT
  9
$CELTYPE
  6
BYLAYER
  9
$CECOLOR
 62
   256
  9
$DIMSCALE
 40
1.0
  9
$DIMASZ
 40
2.0
  9
$DIMEXO
 40
0.0
  9
$DIMDLI
 40
7.0
  9
$DIMRND
 40
0.0
  9
$DIMDLE
 40
0.0
  9
$DIMEXE
 40
1.0
  9
$DIMTP
 40
0.0
  9
$DIMTM
 40
0.0
  9
$DIMTXT
 40
3.5
  9
$DIMCEN
 40
0.0
  9
$DIMTSZ
 40
0.0
  9
$DIMTOL
 70
     0
  9
$DIMLIM
 70
     0
  9
$DIMTIH
 70
     0
  9
$DIMTOH
 70
     0
  9
$DIMSE1
 70
     0
  9
$DIMSE2
 70
     0
  9
$DIMTAD
 70
     1
  9
$DIMZIN
 70
     8
  9
$DIMBLK
  1

  9
$DIMASO
 70
     1
  9
$DIMSHO
 70
     1
  9
$DIMPOST
  1
 
  9
$DIMAPOST
  1

  9
$DIMALT
 70
     0
  9
$DIMALTD
 70
     2
  9
$DIMALTF
 40
25.399999999999999
  9
$DIMLFAC
 40
1.0
  9
$DIMTOFL
 70
     1
  9
$DIMTVP
 40
0.0
  9
$DIMTIX
 70
     0
  9
$DIMSOXD
 70
     0
  9
$DIMSAH
 70
     1
  9
$DIMBLK1
  1
OPEN30
  9
$DIMBLK2
  1
OPEN30
  9
$DIMSTYLE
  2
NEWX10
  9
$DIMCLRD
 70
   256
  9
$DIMCLRE
 70
   256
  9
$DIMCLRT
 70
   201
  9
$DIMTFAC
 40
0.7
  9
$DIMGAP
 40
0.7
  9
$LUNITS
 70
     2
  9
$LUPREC
 70
     4
  9
$SKETCHINC
 40
1.0
  9
$FILLETRAD
 40
0.0
  9
$AUNITS
 70
     0
  9
$AUPREC
 70
     2
  9
$MENU
  1
acad
  9
$ELEVATION
 40
0.0
  9
$PELEVATION
 40
0.0
  9
$THICKNESS
 40
0.0
  9
$LIMCHECK
 70
     0
  9
$BLIPMODE
 70
     0
  9
$CHAMFERA
 40
10.0
  9
$CHAMFERB
 40
10.0
  9
$SKPOLY
 70
     0
  9
$TDCREATE
 40
2453033.7326634838
  9
$TDUPDATE
 40
2457014.7255830439
  9
$TDINDWG
 40
1.6579714583
  9
$TDUSRTIMER
 40
1.6579714583
  9
$USRTIMER
 70
     1
  9
$ANGBASE
 50
0.0
  9
$ANGDIR
 70
     0
  9
$PDMODE
 70
     0
  9
$PDSIZE
 40
0.0
  9
$PLINEWID
 40
0.0
  9
$COORDS
 70
     0
  9
$SPLFRAME
 70
     0
  9
$SPLINETYPE
 70
     6
  9
$SPLINESEGS
 70
     8
  9
$ATTDIA
 70
     0
  9
$ATTREQ
 70
     1
  9
$HANDLING
 70
     1
  9
$HANDSEED
  5
16E0E
  9
$SURFTAB1
 70
     6
  9
$SURFTAB2
 70
     6
  9
$SURFTYPE
 70
     6
  9
$SURFU
 70
     6
  9
$SURFV
 70
     6
  9
$UCSNAME
  2

  9
$UCSORG
 10
0.0
 20
0.0
 30
0.0
  9
$UCSXDIR
 10
1.0
 20
0.0
 30
0.0
  9
$UCSYDIR
 10
0.0
 20
1.0
 30
0.0
  9
$PUCSNAME
  2

  9
$PUCSORG
 10
0.0
 20
0.0
 30
0.0
  9
$PUCSXDIR
 10
1.0
 20
0.0
 30
0.0
  9
$PUCSYDIR
 10
0.0
 20
1.0
 30
0.0
  9
$USERI1
 70
     0
  9
$USERI2
 70
     0
  9
$USERI3
 70
     0
  9
$USERI4
 70
     0
  9
$USERI5
 70
     0
  9
$USERR1
 40
0.0
  9
$USERR2
 40
0.0
  9
$USERR3
 40
0.0
  9
$USERR4
 40
0.0
  9
$USERR5
 40
0.0
  9
$WORLDVIEW
 70
     1
  9
$SHADEDGE
 70
     3
  9
$SHADEDIF
 70
    70
  9
$TILEMODE
 70
     1
  9
$MAXACTVP
 70
    48
  9
$PLIMCHECK
 70
     0
  9
$PEXTMIN
 10
1.0000000000000000E+020
 20
1.0000000000000000E+020
 30
1.0000000000000000E+020
  9
$PEXTMAX
 10
-1.0000000000000000E+020
 20
-1.0000000000000000E+020
 30
-1.0000000000000000E+020
  9
$PLIMMIN
 10
0.0
 20
0.0
  9
$PLIMMAX
 10
420.0
 20
297.0
  9
$UNITMODE
 70
     0
  9
$VISRETAIN
 70
     1
  9
$PLINEGEN
 70
     0
  9
$PSLTSCALE
 70
     1
  0
ENDSEC
  0
SECTION
  2
TABLES
  0
TABLE
  2
VPORT
 70
     1
  0
VPORT
  2
*ACTIVE
 70
     0
 10
0.0
 20
0.0
 11
1.0
 21
1.0
 12
-1466.127228795395
 22
-1526.5385254996161
 13
0.0
 23
0.0
 14
10.0
 24
10.0
 15
10.0
 25
10.0
 16
0.0
 26
0.0
 36
1.0
 17
0.0
 27
0.0
 37
0.0
 40
330.52881069850582
 41
2.1749379652605461
 42
50.0
 43
0.0
 44
0.0
 50
0.0
 51
0.0
 71
     0
 72
   100
 73
     1
 74
     1
 75
     0
 76
     0
 77
     0
 78
     0
  0
ENDTAB
  0
TABLE
  2
LTYPE
 70
    13
  0
LTYPE
  2
CONTINUOUS
 70
     0
  3
Solid line
 72
    65
 73
     0
 40
0.0
  0
LTYPE
  2
XREF1|CENTER2
 70
    48
  3
Center (.5x) ___ _ ___ _ ___ _ ___ _ ___ _ ___
 72
    65
 73
     4
 40
28.574999999999999
 49
19.050000000000001
 49
-3.1749999999999989
 49
3.1749999999999989
 49
-3.1749999999999989
  0
LTYPE
  2
A3WAKUDAKE|CENTER2
 70
    48
  3
Center (.5x) ___ _ ___ _ ___ _ ___ _ ___ _ ___
 72
    65
 73
     4
 40
28.574999999999999
 49
19.050000000000001
 49
-3.1749999999999989
 49
3.1749999999999989
 49
-3.1749999999999989
  0
ENDTAB
  0
TABLE
  2
LAYER
 70
    44
  0
LAYER
  2
0
 70
     0
 62
     7
  6
CONTINUOUS
  0
LAYER
  2
1TEXT
 70
     0
 62
     7
  6
CONTINUOUS
  0
LAYER
  2
01
 70
     0
 62
     1
  6
CONTINUOUS
  0
LAYER
  2
A3WAKUDAKE|THICK
 70
    48
 62
     7
  6
CONTINUOUS
  0
LAYER
  2
A3WAKUDAKE|POINT
 70
    48
 62
     7
  6
CONTINUOUS
  0
LAYER
  2
A3WAKUDAKE|1CENTER
 70
    48
 62
     7
  6
A3WAKUDAKE|CENTER2
  0
LAYER
  2
A3WAKUDAKE|0-6
 70
    48
 62
     7
  6
CONTINUOUS
  0
LAYER
  2
A3WAKUDAKE|1DIM
 70
    48
 62
     7
  6
CONTINUOUS
  0
LAYER
  2
XREF1|1CENTER
 70
    48
 62
     7
  6
XREF1|CENTER2
  0
ENDTAB
  0
TABLE
  2
STYLE
 70
     5
  0
STYLE
  2
STANDARD
 70
     0
 40
0.0
 41
1.0
 50
0.0
 71
     0
 42
4.0
  3
romans.shx
  4
extfont2.shx
  0
ENDTAB
  0
TABLE
  2
VIEW
 70
     5
  0
ENDTAB
  0
TABLE
  2
UCS
 70
     0
  0
ENDTAB
  0
TABLE
  2
APPID
 70
    14
  0
APPID
  2
ACAD
 70
     0
  0
APPID
  2
DRAWINGVARIABLESXDATA
 70
     0
  0
APPID
  2
CONTENTTABDATA
 70
     0
  0
APPID
  2
CONTENTCURRENTTAB
 70
     0
  0
APPID
  2
CONTENTBLOCKDESCRIPTION
 70
     0
  0
APPID
  2
CONTENTBLOCKICON
 70
     0
  0
APPID
  2
CONTENTLONGBLOCKNAME
 70
     0
  0
APPID
  2
ACAD_PSEXT
 70
     0
  0
APPID
  2
ACAD_DSTYLE_DIMTEXT_FILL
 70
     0
  0
APPID
  2
ACAD_DSTYLE_DIMRADIAL_EXTENSION
 70
     0
  0
APPID
  2
ACLAYERTOOLS
 70
     0
  0
APPID
  2
ACAD_MLEADERVER
 70
     0
  0
APPID
  2
ACAD_EXEMPT_FROM_CAD_STANDARDS
 70
     0
  0
APPID
  2
ACAD_NAV_VCDISPLAY
 70
     0
  0
ENDTAB
  0
TABLE
  2
DIMSTYLE
 70
     5
  0
DIMSTYLE
  2
NEWX10
 70
     0
  3
 
  4

  5

  6
OPEN30
  7
OPEN30
 40
1.0
 41
2.0
 42
0.0
 43
7.0
 44
1.0
 45
0.0
 46
0.0
 47
0.0
 48
0.0
140
3.5
141
0.0
142
0.0
143
25.399999999999999
144
1.0
145
0.0
146
0.7
147
0.7
 71
     0
 72
     0
 73
     0
 74
     0
 75
     0
 76
     0
 77
     1
 78
     8
170
     0
171
     2
172
     1
173
     1
174
     0
175
     0
176
   256
177
   256
178
   201
  0
ENDTAB
  0
ENDSEC
  0
SECTION
  2
BLOCKS
  0
BLOCK
  8
0
  2
$MODEL_SPACE
 70
     0
 10
0.0
 20
0.0
 30
0.0
  3
$MODEL_SPACE
  1

  0
ENDBLK
  5
1A
  8
0
  0
BLOCK
 67
     1
  8
0
  2
$PAPER_SPACE
 70
     0
 10
0.0
 20
0.0
 30
0.0
  3
$PAPER_SPACE
  1

  0
ENDBLK
  5
17
 67
     1
  8
0
  0
BLOCK
  8
0
  2
_OPEN30
 70
     0
 10
0.0
 20
0.0
 30
0.0
  3
_OPEN30
  1

  0
LINE
  5
44
  8
0
  6
BYBLOCK
 62
     0
 10
-1.0
 20
0.26794919
 30
0.0
 11
0.0
 21
0.0
 31
0.0
  0
LINE
  5
45
  8
0
  6
BYBLOCK
 62
     0
 10
0.0
 20
0.0
 30
0.0
 11
-1.0
 21
-0.26794919
 31
0.0
  0
LINE
  5
46
  8
0
  6
BYBLOCK
 62
     0
 10
0.0
 20
0.0
 30
0.0
 11
-1.0
 21
0.0
 31
0.0
  0
ENDBLK
  5
47
  8
0
  0
BLOCK
  8
0
  2
XREF1
 70
    36
 10
0.0
 20
0.0
 30
0.0
  3
XREF1
  1
D:\ACLT\FORMAT\KAWAJUN(9)図面用.dwg
  0
ENDBLK
  5
5D
  8
0
  0
BLOCK
  8
0
  2
A3WAKUDAKE
 70
    36
 10
0.0
 20
0.0
 30
0.0
  3
A3WAKUDAKE
  1
D:\ACLT\FORMAT\A3WAKUdake.dwg
  0
ENDBLK
  5
6DC
  8
0
  0
ENDSEC
  0
SECTION
  2
ENTITIES
  0
LINE
  5
1545C
  8
01
 10
-1587.113186339099
 20
-1546.7652018837141
 30
0.0
 11
-1537.113186339099
 21
-1546.7652018837141
 31
0.0
  0
LINE
  5
1545E
  8
01
 10
-1529.613186339099
 20
-1547.2652018837141
 30
0.0
 11
-1529.613186339099
 21
-1566.7090814779781
 31
0.0
  0
LINE
  5
15460
  8
01
 10
-1529.613186339099
 20
-1549.1690076050961
 30
0.0
 11
-1529.613186339099
 21
-1547.2652018837141
 31
0.0
  0
LINE
  5
15463
  8
01
 10
-1594.613186339099
 20
-1549.1690076050961
 30
0.0
 11
-1594.613186339099
 21
-1560.4827156095421
 31
0.0
  0
LINE
  5
15464
  8
01
 10
-1594.613186339099
 20
-1549.1690076050961
 30
0.0
 11
-1594.613186339099
 21
-1547.2652018837141
 31
0.0
  0
LINE
  5
15465
  8
01
 10
-1594.613186339099
 20
-1566.7090595610059
 30
0.0
 11
-1594.613186339099
 21
-1560.4827156095421
 31
0.0
  0
LINE
  5
15466
  8
01
 10
-1587.113186339099
 20
-1546.7652018837141
 30
0.0
 11
-1590.113186339099
 21
-1546.7652018837141
 31
0.0
  0
LINE
  5
15467
  8
01
 10
-1537.113186339099
 20
-1546.7652018837141
 30
0.0
 11
-1534.113186339099
 21
-1546.7652018837141
 31
0.0
  0
ARC
  5
15468
  8
01
 10
-1594.113186339099
 20
-1547.2652018837141
 30
0.0
 40
0.5
 50
90.0
 51
180.0
  0
ARC
  5
1546A
  8
01
 10
-1530.113186339099
 20
-1547.2652018837141
 30
0.0
 40
0.5
 50
0.0
 51
90.0
  0
LINE
  5
1546C
  8
01
 10
-1594.113186339099
 20
-1546.7652018837141
 30
0.0
 11
-1590.113186339099
 21
-1546.7652018837141
 31
0.0
  0
LINE
  5
1546D
  8
01
 10
-1534.113186339099
 20
-1546.7652018837141
 30
0.0
 11
-1530.113186339099
 21
-1546.7652018837141
 31
0.0
  0
LINE
  5
15477
  8
01
 10
-1443.779574445969
 20
-1546.7652124360941
 30
0.0
 11
-1324.336299186622
 21
-1546.7652124360941
 31
0.0
  0
ARC
  5
154AF
  8
01
 10
-1342.2577564080891
 20
-1553.965213266609
 30
0.0
 40
7.0
 50
314.99999499103859
 51
134.9999949910501
  0
ARC
  5
154B0
  8
01
 10
-1353.5749098607621
 20
-1565.274673930913
 30
0.0
 40
7.0054383860749736
 50
303.12198509078007
 51
314.99536436938013
  0
LINE
  5
154B2
  8
01
 10
-1348.1511547995699
 20
-1569.965211855309
 30
0.0
 11
-1339.2577565173681
 21
-1569.965212632794
 31
0.0
  0
POLYLINE
  8
01
  5
167EA
  66
     1
 10
0.000000
 20
0.000000
 30
0.000000
  70
     8
  0
VERTEX
  8
01
  5
167EB
 10
-1348.80
 20
-1567.08
 30
0.000000
  70
    32
  0
VERTEX
  8
01
  5
167EC
 10
-1348.80
 20
-1567.08
 30
0.000000
  70
    32
  0
VERTEX
  8
01
  5
167ED
 10
-1348.80
 20
-1567.09
 30
0.000000
  70
    32
  0
VERTEX
  8
01
  5
167EE
 10
-1348.81
 20
-1567.09
 30
0.000000
  70
    32
  0
VERTEX
  8
01
  5
167EF
 10
-1348.81
 20
-1567.10
 30
0.000000
  70
    32
  0
VERTEX
  8
01
  5
167F0
 10
-1348.81
 20
-1567.10
 30
0.000000
  70
    32
  0
VERTEX
  8
01
  5
167F1
 10
-1348.81
 20
-1567.11
 30
0.000000
  70
    32
  0
VERTEX
  8
01
  5
167F2
 10
-1348.81
 20
-1567.11
 30
0.000000
  70
    32
  0
VERTEX
  8
01
  5
167F3
 10
-1348.81
 20
-1567.11
 30
0.000000
  70
    32
  0
VERTEX
  8
01
  5
167F4
 10
-1348.81
 20
-1567.12
 30
0.000000
  70
    32
  0
VERTEX
  8
01
  5
167F5
 10
-1348.82
 20
-1567.12
 30
0.000000
  70
    32
  0
VERTEX
  8
01
  5
167F6
 10
-1348.82
 20
-1567.13
 30
0.000000
  70
    32
  0
VERTEX
  8
01
  5
167F7
 10
-1348.82
 20
-1567.13
 30
0.000000
  70
    32
  0
VERTEX
  8
01
  5
167F8
 10
-1348.82
 20
-1567.14
 30
0.000000
  70
    32
  0
VERTEX
  8
01
  5
167F9
 10
-1348.82
 20
-1567.14
 30
0.000000
  70
    32
  0
VERTEX
  8
01
  5
167FA
 10
-1348.82
 20
-1567.14
 30
0.000000
  70
    32
  0
VERTEX
  8
01
  5
167FB
 10
-1348.83
 20
-1567.15
 30
0.000000
  70
    32
  0
VERTEX
  8
01
  5
167FC
 10
-1348.83
 20
-1567.15
 30
0.000000
  70
    32
  0
VERTEX
  8
01
  5
167FD
 10
-1348.83
 20
-1567.16
 30
0.000000
  70
    32
  0
VERTEX
  8
01
  5
167FE
 10
-1348.83
 20
-1567.16
 30
0.000000
  70
    32
  0
VERTEX
  8
01
  5
167FF
 10
-1348.83
 20
-1567.16
 30
0.000000
  70
    32
  0
VERTEX
  8
01
  5
16800
 10
-1348.83
 20
-1567.17
 30
0.000000
  70
    32
  0
VERTEX
  8
01
  5
16801
 10
-1348.84
 20
-1567.17
 30
0.000000
  70
    32
  0
VERTEX
  8
01
  5
16802
 10
-1348.84
 20
-1567.18
 30
0.000000
  70
    32
  0
VERTEX
  8
01
  5
16803
 10
-1348.84
 20
-1567.18
 30
0.000000
  70
    32
  0
VERTEX
  8
01
  5
16804
 10
-1348.84
 20
-1567.19
 30
0.000000
  70
    32
  0
VERTEX
  8
01
  5
16805
 10
-1348.84
 20
-1567.19
 30
0.000000
  70
    32
  0
VERTEX
  8
01
  5
16806
 10
-1348.84
 20
-1567.19
 30
0.000000
  70
    32
  0
VERTEX
  8
01
  5
16807
 10
-1348.85
 20
-1567.20
 30
0.000000
  70
    32
  0
VERTEX
  8
01
  5
16808
 10
-1348.85
 20
-1567.20
 30
0.000000
  70
    32
  0
VERTEX
  8
01
  5
16809
 10
-1348.85
 20
-1567.21
 30
0.000000
  70
    32
  0
VERTEX
  8
01
  5
1680A
 10
-1348.85
 20
-1567.21
 30
0.000000
  70
    32
  0
VERTEX
  8
01
  5
1680B
 10
-1348.85
 20
-1567.21
 30
0.000000
  70
    32
  0
VERTEX
  8
01
  5
1680C
 10
-1348.85
 20
-1567.22
 30
0.000000
  70
    32
  0
VERTEX
  8
01
  5
1680D
 10
-1348.86
 20
-1567.22
 30
0.000000
  70
    32
  0
VERTEX
  8
01
  5
1680E
 10
-1348.86
 20
-1567.23
 30
0.000000
  70
    32
  0
VERTEX
  8
01
  5
1680F
 10
-1348.86
 20
-1567.23
 30
0.000000
  70
    32
  0
VERTEX
  8
01
  5
16810
 10
-1348.86
 20
-1567.24
 30
0.000000
  70
    32
  0
VERTEX
  8
01
  5
16811
 10
-1348.86
 20
-1567.24
 30
0.000000
  70
    32
  0
VERTEX
  8
01
  5
16812
 10
-1348.87
 20
-1567.24
 30
0.000000
  70
    32
  0
VERTEX
  8
01
  5
16813
 10
-1348.87
 20
-1567.25
 30
0.000000
  70
    32
  0
VERTEX
  8
01
  5
16814
 10
-1348.87
 20
-1567.25
 30
0.000000
  70
    32
  0
VERTEX
  8
01
  5
16815
 10
-1348.87
 20
-1567.26
 30
0.000000
  70
    32
  0
VERTEX
  8
01
  5
16816
 10
-1348.87
 20
-1567.26
 30
0.000000
  70
    32
  0
VERTEX
  8
01
  5
16817
 10
-1348.87
 20
-1567.26
 30
0.000000
  70
    32
  0
VERTEX
  8
01
  5
16818
 10
-1348.88
 20
-1567.27
 30
0.000000
  70
    32
  0
VERTEX
  8
01
  5
16819
 10
-1348.88
 20
-1567.27
 30
0.000000
  70
    32
  0
VERTEX
  8
01
  5
1681A
 10
-1348.88
 20
-1567.28
 30
0.000000
  70
    32
  0
VERTEX
  8
01
  5
1681B
 10
-1348.88
 20
-1567.28
 30
0.000000
  70
    32
  0
VERTEX
  8
01
  5
1681C
 10
-1348.88
 20
-1567.29
 30
0.000000
  70
    32
  0
VERTEX
  8
01
  5
1681D
 10
-1348.88
 20
-1567.29
 30
0.000000
  70
    32
  0
VERTEX
  8
01
  5
1681E
 10
-1348.89
 20
-1567.29
 30
0.000000
  70
    32
  0
VERTEX
  8
01
  5
1681F
 10
-1348.89
 20
-1567.30
 30
0.000000
  70
    32
  0
VERTEX
  8
01
  5
16820
 10
-1348.89
 20
-1567.30
 30
0.000000
  70
    32
  0
VERTEX
  8
01
  5
16821
 10
-1348.89
 20
-1567.31
 30
0.000000
  70
    32
  0
VERTEX
  8
01
  5
16822
 10
-1348.89
 20
-1567.31
 30
0.000000
  70
    32
  0
VERTEX
  8
01
  5
16823
 10
-1348.90
 20
-1567.31
 30
0.000000
  70
    32
  0
VERTEX
  8
01
  5
16824
 10
-1348.90
 20
-1567.32
 30
0.000000
  70
    32
  0
VERTEX
  8
01
  5
16825
 10
-1348.90
 20
-1567.32
 30
0.000000
  70
    32
  0
VERTEX
  8
01
  5
16826
 10
-1348.90
 20
-1567.33
 30
0.000000
  70
    32
  0
VERTEX
  8
01
  5
16827
 10
-1348.90
 20
-1567.33
 30
0.000000
  70
    32
  0
VERTEX
  8
01
  5
16828
 10
-1348.90
 20
-1567.34
 30
0.000000
  70
    32
  0
VERTEX
  8
01
  5
16829
 10
-1348.91
 20
-1567.34
 30
0.000000
  70
    32
  0
VERTEX
  8
01
  5
1682A
 10
-1348.91
 20
-1567.34
 30
0.000000
  70
    32
  0
VERTEX
  8
01
  5
1682B
 10
-1348.91
 20
-1567.35
 30
0.000000
  70
    32
  0
VERTEX
  8
01
  5
1682C
 10
-1348.91
 20
-1567.35
 30
0.000000
  70
    32
  0
VERTEX
  8
01
  5
1682D
 10
-1348.91
 20
-1567.36
 30
0.000000
  70
    32
  0
VERTEX
  8
01
  5
1682E
 10
-1348.92
 20
-1567.36
 30
0.000000
  70
    32
  0
VERTEX
  8
01
  5
1682F
 10
-1348.92
 20
-1567.36
 30
0.000000
  70
    32
  0
VERTEX
  8
01
  5
16830
 10
-1348.92
 20
-1567.37
 30
0.000000
  70
    32
  0
VERTEX
  8
01
  5
16831
 10
-1348.92
 20
-1567.37
 30
0.000000
  70
    32
  0
VERTEX
  8
01
  5
16832
 10
-1348.92
 20
-1567.38
 30
0.000000
  70
    32
  0
VERTEX
  8
01
  5
16833
 10
-1348.92
 20
-1567.38
 30
0.000000
  70
    32
  0
VERTEX
  8
01
  5
16834
 10
-1348.93
 20
-1567.38
 30
0.000000
  70
    32
  0
VERTEX
  8
01
  5
16835
 10
-1348.93
 20
-1567.39
 30
0.000000
  70
    32
  0
VERTEX
  8
01
  5
16836
 10
-1348.93
 20
-1567.39
 30
0.000000
  70
    32
  0
VERTEX
  8
01
  5
16837
 10
-1348.93
 20
-1567.40
 30
0.000000
  70
    32
  0
VERTEX
  8
01
  5
16838
 10
-1348.93
 20
-1567.40
 30
0.000000
  70
    32
  0
VERTEX
  8
01
  5
16839
 10
-1348.94
 20
-1567.41
 30
0.000000
  70
    32
  0
VERTEX
  8
01
  5
1683A
 10
-1348.94
 20
-1567.41
 30
0.000000
  70
    32
  0
VERTEX
  8
01
  5
1683B
 10
-1348.94
 20
-1567.41
 30
0.000000
  70
    32
  0
VERTEX
  8
01
  5
1683C
 10
-1348.94
 20
-1567.42
 30
0.000000
  70
    32
  0
VERTEX
  8
01
  5
1683D
 10
-1348.94
 20
-1567.42
 30
0.000000
  70
    32
  0
VERTEX
  8
01
  5
1683E
 10
-1348.95
 20
-1567.43
 30
0.000000
  70
    32
  0
VERTEX
  8
01
  5
1683F
 10
-1348.95
 20
-1567.43
 30
0.000000
  70
    32
  0
VERTEX
  8
01
  5
16840
 10
-1348.95
 20
-1567.43
 30
0.000000
  70
    32
  0
VERTEX
  8
01
  5
16841
 10
-1348.95
 20
-1567.44
 30
0.000000
  70
    32
  0
VERTEX
  8
01
  5
16842
 10
-1348.95
 20
-1567.44
 30
0.000000
  70
    32
  0
VERTEX
  8
01
  5
16843
 10
-1348.95
 20
-1567.45
 30
0.000000
  70
    32
  0
VERTEX
  8
01
  5
16844
 10
-1348.96
 20
-1567.45
 30
0.000000
  70
    32
  0
VERTEX
  8
01
  5
16845
 10
-1348.96
 20
-1567.45
 30
0.000000
  70
    32
  0
VERTEX
  8
01
  5
16846
 10
-1348.96
 20
-1567.46
 30
0.000000
  70
    32
  0
VERTEX
  8
01
  5
16847
 10
-1348.96
 20
-1567.46
 30
0.000000
  70
    32
  0
VERTEX
  8
01
  5
16848
 10
-1348.96
 20
-1567.47
 30
0.000000
  70
    32
  0
VERTEX
  8
01
  5
16849
 10
-1348.97
 20
-1567.47
 30
0.000000
  70
    32
  0
VERTEX
  8
01
  5
1684A
 10
-1348.97
 20
-1567.47
 30
0.000000
  70
    32
  0
VERTEX
  8
01
  5
1684B
 10
-1348.97
 20
-1567.48
 30
0.000000
  70
    32
  0
VERTEX
  8
01
  5
1684C
 10
-1348.97
 20
-1567.48
 30
0.000000
  70
    32
  0
VERTEX
  8
01
  5
1684D
 10
-1348.97
 20
-1567.49
 30
0.000000
  70
    32
  0
VERTEX
  8
01
  5
1684E
 10
-1348.98
 20
-1567.49
 30
0.000000
  70
    32
  0
VERTEX
  8
01
  5
1684F
 10
-1348.98
 20
-1567.49
 30
0.000000
  70
    32
  0
VERTEX
  8
01
  5
16850
 10
-1348.98
 20
-1567.50
 30
0.000000
  70
    32
  0
VERTEX
  8
01
  5
16851
 10
-1348.98
 20
-1567.50
 30
0.000000
  70
    32
  0
VERTEX
  8
01
  5
16852
 10
-1348.98
 20
-1567.51
 30
0.000000
  70
    32
  0
VERTEX
  8
01
  5
16853
 10
-1348.99
 20
-1567.51
 30
0.000000
  70
    32
  0
VERTEX
  8
01
  5
16854
 10
-1348.99
 20
-1567.52
 30
0.000000
  70
    32
  0
VERTEX
  8
01
  5
16855
 10
-1348.99
 20
-1567.52
 30
0.000000
  70
    32
  0
VERTEX
  8
01
  5
16856
 10
-1348.99
 20
-1567.52
 30
0.000000
  70
    32
  0
VERTEX
  8
01
  5
16857
 10
-1348.99
 20
-1567.53
 30
0.000000
  70
    32
  0
VERTEX
  8
01
  5
16858
 10
-1349.00
 20
-1567.53
 30
0.000000
  70
    32
  0
VERTEX
  8
01
  5
16859
 10
-1349.00
 20
-1567.54
 30
0.000000
  70
    32
  0
VERTEX
  8
01
  5
1685A
 10
-1349.00
 20
-1567.54
 30
0.000000
  70
    32
  0
VERTEX
  8
01
  5
1685B
 10
-1349.00
 20
-1567.54
 30
0.000000
  70
    32
  0
VERTEX
  8
01
  5
1685C
 10
-1349.00
 20
-1567.55
 30
0.000000
  70
    32
  0
VERTEX
  8
01
  5
1685D
 10
-1349.01
 20
-1567.55
 30
0.000000
  70
    32
  0
VERTEX
  8
01
  5
1685E
 10
-1349.01
 20
-1567.56
 30
0.000000
  70
    32
  0
VERTEX
  8
01
  5
1685F
 10
-1349.01
 20
-1567.56
 30
0.000000
  70
    32
  0
VERTEX
  8
01
  5
16860
 10
-1349.01
 20
-1567.56
 30
0.000000
  70
    32
  0
VERTEX
  8
01
  5
16861
 10
-1349.01
 20
-1567.57
 30
0.000000
  70
    32
  0
VERTEX
  8
01
  5
16862
 10
-1349.02
 20
-1567.57
 30
0.000000
  70
    32
  0
VERTEX
  8
01
  5
16863
 10
-1349.02
 20
-1567.58
 30
0.000000
  70
    32
  0
VERTEX
  8
01
  5
16864
 10
-1349.02
 20
-1567.58
 30
0.000000
  70
    32
  0
VERTEX
  8
01
  5
16865
 10
-1349.02
 20
-1567.58
 30
0.000000
  70
    32
  0
VERTEX
  8
01
  5
16866
 10
-1349.02
 20
-1567.59
 30
0.000000
  70
    32
  0
VERTEX
  8
01
  5
16867
 10
-1349.03
 20
-1567.59
 30
0.000000
  70
    32
  0
VERTEX
  8
01
  5
16868
 10
-1349.03
 20
-1567.60
 30
0.000000
  70
    32
  0
VERTEX
  8
01
  5
16869
 10
-1349.03
 20
-1567.60
 30
0.000000
  70
    32
  0
VERTEX
  8
01
  5
1686A
 10
-1349.03
 20
-1567.60
 30
0.000000
  70
    32
  0
VERTEX
  8
01
  5
1686B
 10
-1349.03
 20
-1567.61
 30
0.000000
  70
    32
  0
VERTEX
  8
01
  5
1686C
 10
-1349.04
 20
-1567.61
 30
0.000000
  70
    32
  0
VERTEX
  8
01
  5
1686D
 10
-1349.04
 20
-1567.62
 30
0.000000
  70
    32
  0
VERTEX
  8
01
  5
1686E
 10
-1349.04
 20
-1567.62
 30
0.000000
  70
    32
  0
VERTEX
  8
01
  5
1686F
 10
-1349.04
 20
-1567.62
 30
0.000000
  70
    32
  0
VERTEX
  8
01
  5
16870
 10
-1349.04
 20
-1567.63
 30
0.000000
  70
    32
  0
VERTEX
  8
01
  5
16871
 10
-1349.05
 20
-1567.63
 30
0.000000
  70
    32
  0
VERTEX
  8
01
  5
16872
 10
-1349.05
 20
-1567.64
 30
0.000000
  70
    32
  0
VERTEX
  8
01
  5
16873
 10
-1349.05
 20
-1567.64
 30
0.000000
  70
    32
  0
VERTEX
  8
01
  5
16874
 10
-1349.05
 20
-1567.64
 30
0.000000
  70
    32
  0
VERTEX
  8
01
  5
16875
 10
-1349.06
 20
-1567.65
 30
0.000000
  70
    32
  0
VERTEX
  8
01
  5
16876
 10
-1349.06
 20
-1567.65
 30
0.000000
  70
    32
  0
VERTEX
  8
01
  5
16877
 10
-1349.06
 20
-1567.66
 30
0.000000
  70
    32
  0
VERTEX
  8
01
  5
16878
 10
-1349.06
 20
-1567.66
 30
0.000000
  70
    32
  0
VERTEX
  8
01
  5
16879
 10
-1349.06
 20
-1567.66
 30
0.000000
  70
    32
  0
VERTEX
  8
01
  5
1687A
 10
-1349.07
 20
-1567.67
 30
0.000000
  70
    32
  0
VERTEX
  8
01
  5
1687B
 10
-1349.07
 20
-1567.67
 30
0.000000
  70
    32
  0
VERTEX
  8
01
  5
1687C
 10
-1349.07
 20
-1567.68
 30
0.000000
  70
    32
  0
VERTEX
  8
01
  5
1687D
 10
-1349.07
 20
-1567.68
 30
0.000000
  70
    32
  0
VERTEX
  8
01
  5
1687E
 10
-1349.07
 20
-1567.68
 30
0.000000
  70
    32
  0
VERTEX
  8
01
  5
1687F
 10
-1349.08
 20
-1567.69
 30
0.000000
  70
    32
  0
VERTEX
  8
01
  5
16880
 10
-1349.08
 20
-1567.69
 30
0.000000
  70
    32
  0
VERTEX
  8
01
  5
16881
 10
-1349.08
 20
-1567.70
 30
0.000000
  70
    32
  0
VERTEX
  8
01
  5
16882
 10
-1349.08
 20
-1567.70
 30
0.000000
  70
    32
  0
VERTEX
  8
01
  5
16883
 10
-1349.08
 20
-1567.70
 30
0.000000
  70
    32
  0
VERTEX
  8
01
  5
16884
 10
-1349.09
 20
-1567.71
 30
0.000000
  70
    32
  0
VERTEX
  8
01
  5
16885
 10
-1349.09
 20
-1567.71
 30
0.000000
  70
    32
  0
VERTEX
  8
01
  5
16886
 10
-1349.09
 20
-1567.72
 30
0.000000
  70
    32
  0
VERTEX
  8
01
  5
16887
 10
-1349.09
 20
-1567.72
 30
0.000000
  70
    32
  0
VERTEX
  8
01
  5
16888
 10
-1349.10
 20
-1567.72
 30
0.000000
  70
    32
  0
VERTEX
  8
01
  5
16889
 10
-1349.10
 20
-1567.73
 30
0.000000
  70
    32
  0
VERTEX
  8
01
  5
1688A
 10
-1349.10
 20
-1567.73
 30
0.000000
  70
    32
  0
VERTEX
  8
01
  5
1688B
 10
-1349.10
 20
-1567.74
 30
0.000000
  70
    32
  0
VERTEX
  8
01
  5
1688C
 10
-1349.10
 20
-1567.74
 30
0.000000
  70
    32
  0
VERTEX
  8
01
  5
1688D
 10
-1349.11
 20
-1567.74
 30
0.000000
  70
    32
  0
VERTEX
  8
01
  5
1688E
 10
-1349.11
 20
-1567.75
 30
0.000000
  70
    32
  0
VERTEX
  8
01
  5
1688F
 10
-1349.11
 20
-1567.75
 30
0.000000
  70
    32
  0
VERTEX
  8
01
  5
16890
 10
-1349.11
 20
-1567.76
 30
0.000000
  70
    32
  0
VERTEX
  8
01
  5
16891
 10
-1349.12
 20
-1567.76
 30
0.000000
  70
    32
  0
VERTEX
  8
01
  5
16892
 10
-1349.12
 20
-1567.76
 30
0.000000
  70
    32
  0
VERTEX
  8
01
  5
16893
 10
-1349.12
 20
-1567.77
 30
0.000000
  70
    32
  0
VERTEX
  8
01
  5
16894
 10
-1349.12
 20
-1567.77
 30
0.000000
  70
    32
  0
VERTEX
  8
01
  5
16895
 10
-1349.12
 20
-1567.78
 30
0.000000
  70
    32
  0
VERTEX
  8
01
  5
16896
 10
-1349.13
 20
-1567.78
 30
0.000000
  70
    32
  0
VERTEX
  8
01
  5
16897
 10
-1349.13
 20
-1567.78
 30
0.000000
  70
    32
  0
VERTEX
  8
01
  5
16898
 10
-1349.13
 20
-1567.79
 30
0.000000
  70
    32
  0
VERTEX
  8
01
  5
16899
 10
-1349.13
 20
-1567.79
 30
0.000000
  70
    32
  0
VERTEX
  8
01
  5
1689A
 10
-1349.14
 20
-1567.79
 30
0.000000
  70
    32
  0
VERTEX
  8
01
  5
1689B
 10
-1349.14
 20
-1567.80
 30
0.000000
  70
    32
  0
VERTEX
  8
01
  5
1689C
 10
-1349.14
 20
-1567.80
 30
0.000000
  70
    32
  0
VERTEX
  8
01
  5
1689D
 10
-1349.14
 20
-1567.81
 30
0.000000
  70
    32
  0
VERTEX
  8
01
  5
1689E
 10
-1349.14
 20
-1567.81
 30
0.000000
  70
    32
  0
VERTEX
  8
01
  5
1689F
 10
-1349.15
 20
-1567.81
 30
0.000000
  70
    32
  0
VERTEX
  8
01
  5
168A0
 10
-1349.15
 20
-1567.82
 30
0.000000
  70
    32
  0
VERTEX
  8
01
  5
168A1
 10
-1349.15
 20
-1567.82
 30
0.000000
  70
    32
  0
VERTEX
  8
01
  5
168A2
 10
-1349.15
 20
-1567.83
 30
0.000000
  70
    32
  0
VERTEX
  8
01
  5
168A3
 10
-1349.16
 20
-1567.83
 30
0.000000
  70
    32
  0
VERTEX
  8
01
  5
168A4
 10
-1349.16
 20
-1567.83
 30
0.000000
  70
    32
  0
VERTEX
  8
01
  5
168A5
 10
-1349.16
 20
-1567.84
 30
0.000000
  70
    32
  0
VERTEX
  8
01
  5
168A6
 10
-1349.16
 20
-1567.84
 30
0.000000
  70
    32
  0
VERTEX
  8
01
  5
168A7
 10
-1349.16
 20
-1567.85
 30
0.000000
  70
    32
  0
VERTEX
  8
01
  5
168A8
 10
-1349.17
 20
-1567.85
 30
0.000000
  70
    32
  0
VERTEX
  8
01
  5
168A9
 10
-1349.17
 20
-1567.85
 30
0.000000
  70
    32
  0
VERTEX
  8
01
  5
168AA
 10
-1349.17
 20
-1567.86
 30
0.000000
  70
    32
  0
VERTEX
  8
01
  5
168AB
 10
-1349.17
 20
-1567.86
 30
0.000000
  70
    32
  0
VERTEX
  8
01
  5
168AC
 10
-1349.18
 20
-1567.87
 30
0.000000
  70
    32
  0
VERTEX
  8
01
  5
168AD
 10
-1349.18
 20
-1567.87
 30
0.000000
  70
    32
  0
VERTEX
  8
01
  5
168AE
 10
-1349.18
 20
-1567.87
 30
0.000000
  70
    32
  0
VERTEX
  8
01
  5
168AF
 10
-1349.18
 20
-1567.88
 30
0.000000
  70
    32
  0
VERTEX
  8
01
  5
168B0
 10
-1349.18
 20
-1567.88
 30
0.000000
  70
    32
  0
VERTEX
  8
01
  5
168B1
 10
-1349.19
 20
-1567.88
 30
0.000000
  70
    32
  0
VERTEX
  8
01
  5
168B2
 10
-1349.19
 20
-1567.89
 30
0.000000
  70
    32
  0
VERTEX
  8
01
  5
168B3
 10
-1349.19
 20
-1567.89
 30
0.000000
  70
    32
  0
VERTEX
  8
01
  5
168B4
 10
-1349.19
 20
-1567.90
 30
0.000000
  70
    32
  0
VERTEX
  8
01
  5
168B5
 10
-1349.20
 20
-1567.90
 30
0.000000
  70
    32
  0
VERTEX
  8
01
  5
168B6
 10
-1349.20
 20
-1567.90
 30
0.000000
  70
    32
  0
VERTEX
  8
01
  5
168B7
 10
-1349.20
 20
-1567.91
 30
0.000000
  70
    32
  0
VERTEX
  8
01
  5
168B8
 10
-1349.20
 20
-1567.91
 30
0.000000
  70
    32
  0
VERTEX
  8
01
  5
168B9
 10
-1349.21
 20
-1567.92
 30
0.000000
  70
    32
  0
VERTEX
  8
01
  5
168BA
 10
-1349.21
 20
-1567.92
 30
0.000000
  70
    32
  0
VERTEX
  8
01
  5
168BB
 10
-1349.21
 20
-1567.92
 30
0.000000
  70
    32
  0
VERTEX
  8
01
  5
168BC
 10
-1349.21
 20
-1567.93
 30
0.000000
  70
    32
  0
VERTEX
  8
01
  5
168BD
 10
-1349.22
 20
-1567.93
 30
0.000000
  70
    32
  0
VERTEX
  8
01
  5
168BE
 10
-1349.22
 20
-1567.93
 30
0.000000
  70
    32
  0
VERTEX
  8
01
  5
168BF
 10
-1349.22
 20
-1567.94
 30
0.000000
  70
    32
  0
VERTEX
  8
01
  5
168C0
 10
-1349.22
 20
-1567.94
 30
0.000000
  70
    32
  0
VERTEX
  8
01
  5
168C1
 10
-1349.22
 20
-1567.95
 30
0.000000
  70
    32
  0
VERTEX
  8
01
  5
168C2
 10
-1349.23
 20
-1567.95
 30
0.000000
  70
    32
  0
VERTEX
  8
01
  5
168C3
 10
-1349.23
 20
-1567.95
 30
0.000000
  70
    32
  0
VERTEX
  8
01
  5
168C4
 10
-1349.23
 20
-1567.96
 30
0.000000
  70
    32
  0
VERTEX
  8
01
  5
168C5
 10
-1349.23
 20
-1567.96
 30
0.000000
  70
    32
  0
VERTEX
  8
01
  5
168C6
 10
-1349.24
 20
-1567.97
 30
0.000000
  70
    32
  0
VERTEX
  8
01
  5
168C7
 10
-1349.24
 20
-1567.97
 30
0.000000
  70
    32
  0
VERTEX
  8
01
  5
168C8
 10
-1349.24
 20
-1567.97
 30
0.000000
  70
    32
  0
VERTEX
  8
01
  5
168C9
 10
-1349.24
 20
-1567.98
 30
0.000000
  70
    32
  0
VERTEX
  8
01
  5
168CA
 10
-1349.25
 20
-1567.98
 30
0.000000
  70
    32
  0
VERTEX
  8
01
  5
168CB
 10
-1349.25
 20
-1567.98
 30
0.000000
  70
    32
  0
VERTEX
  8
01
  5
168CC
 10
-1349.25
 20
-1567.99
 30
0.000000
  70
    32
  0
VERTEX
  8
01
  5
168CD
 10
-1349.25
 20
-1567.99
 30
0.000000
  70
    32
  0
VERTEX
  8
01
  5
168CE
 10
-1349.26
 20
-1568.00
 30
0.000000
  70
    32
  0
VERTEX
  8
01
  5
168CF
 10
-1349.26
 20
-1568.00
 30
0.000000
  70
    32
  0
VERTEX
  8
01
  5
168D0
 10
-1349.26
 20
-1568.00
 30
0.000000
  70
    32
  0
VERTEX
  8
01
  5
168D1
 10
-1349.26
 20
-1568.01
 30
0.000000
  70
    32
  0
VERTEX
  8
01
  5
168D2
 10
-1349.27
 20
-1568.01
 30
0.000000
  70
    32
  0
VERTEX
  8
01
  5
168D3
 10
-1349.27
 20
-1568.02
 30
0.000000
  70
    32
  0
VERTEX
  8
01
  5
168D4
 10
-1349.27
 20
-1568.02
 30
0.000000
  70
    32
  0
VERTEX
  8
01
  5
168D5
 10
-1349.27
 20
-1568.02
 30
0.000000
  70
    32
  0
VERTEX
  8
01
  5
168D6
 10
-1349.27
 20
-1568.03
 30
0.000000
  70
    32
  0
VERTEX
  8
01
  5
168D7
 10
-1349.28
 20
-1568.03
 30
0.000000
  70
    32
  0
VERTEX
  8
01
  5
168D8
 10
-1349.28
 20
-1568.03
 30
0.000000
  70
    32
  0
VERTEX
  8
01
  5
168D9
 10
-1349.28
 20
-1568.04
 30
0.000000
  70
    32
  0
VERTEX
  8
01
  5
168DA
 10
-1349.28
 20
-1568.04
 30
0.000000
  70
    32
  0
VERTEX
  8
01
  5
168DB
 10
-1349.29
 20
-1568.05
 30
0.000000
  70
    32
  0
VERTEX
  8
01
  5
168DC
 10
-1349.29
 20
-1568.05
 30
0.000000
  70
    32
  0
VERTEX
  8
01
  5
168DD
 10
-1349.29
 20
-1568.05
 30
0.000000
  70
    32
  0
VERTEX
  8
01
  5
168DE
 10
-1349.29
 20
-1568.06
 30
0.000000
  70
    32
  0
VERTEX
  8
01
  5
168DF
 10
-1349.30
 20
-1568.06
 30
0.000000
  70
    32
  0
VERTEX
  8
01
  5
168E0
 10
-1349.30
 20
-1568.06
 30
0.000000
  70
    32
  0
VERTEX
  8
01
  5
168E1
 10
-1349.30
 20
-1568.07
 30
0.000000
  70
    32
  0
VERTEX
  8
01
  5
168E2
 10
-1349.30
 20
-1568.07
 30
0.000000
  70
    32
  0
VERTEX
  8
01
  5
168E3
 10
-1349.31
 20
-1568.08
 30
0.000000
  70
    32
  0
VERTEX
  8
01
  5
168E4
 10
-1349.31
 20
-1568.08
 30
0.000000
  70
    32
  0
VERTEX
  8
01
  5
168E5
 10
-1349.31
 20
-1568.08
 30
0.000000
  70
    32
  0
VERTEX
  8
01
  5
168E6
 10
-1349.31
 20
-1568.09
 30
0.000000
  70
    32
  0
VERTEX
  8
01
  5
168E7
 10
-1349.32
 20
-1568.09
 30
0.000000
  70
    32
  0
VERTEX
  8
01
  5
168E8
 10
-1349.32
 20
-1568.09
 30
0.000000
  70
    32
  0
VERTEX
  8
01
  5
168E9
 10
-1349.32
 20
-1568.10
 30
0.000000
  70
    32
  0
VERTEX
  8
01
  5
168EA
 10
-1349.32
 20
-1568.10
 30
0.000000
  70
    32
  0
VERTEX
  8
01
  5
168EB
 10
-1349.33
 20
-1568.11
 30
0.000000
  70
    32
  0
VERTEX
  8
01
  5
168EC
 10
-1349.33
 20
-1568.11
 30
0.000000
  70
    32
  0
VERTEX
  8
01
  5
168ED
 10
-1349.33
 20
-1568.11
 30
0.000000
  70
    32
  0
VERTEX
  8
01
  5
168EE
 10
-1349.33
 20
-1568.12
 30
0.000000
  70
    32
  0
VERTEX
  8
01
  5
168EF
 10
-1349.34
 20
-1568.12
 30
0.000000
  70
    32
  0
VERTEX
  8
01
  5
168F0
 10
-1349.34
 20
-1568.12
 30
0.000000
  70
    32
  0
VERTEX
  8
01
  5
168F1
 10
-1349.34
 20
-1568.13
 30
0.000000
  70
    32
  0
VERTEX
  8
01
  5
168F2
 10
-1349.34
 20
-1568.13
 30
0.000000
  70
    32
  0
VERTEX
  8
01
  5
168F3
 10
-1349.35
 20
-1568.14
 30
0.000000
  70
    32
  0
VERTEX
  8
01
  5
168F4
 10
-1349.35
 20
-1568.14
 30
0.000000
  70
    32
  0
VERTEX
  8
01
  5
168F5
 10
-1349.35
 20
-1568.14
 30
0.000000
  70
    32
  0
VERTEX
  8
01
  5
168F6
 10
-1349.35
 20
-1568.15
 30
0.000000
  70
    32
  0
VERTEX
  8
01
  5
168F7
 10
-1349.36
 20
-1568.15
 30
0.000000
  70
    32
  0
VERTEX
  8
01
  5
168F8
 10
-1349.36
 20
-1568.15
 30
0.000000
  70
    32
  0
VERTEX
  8
01
  5
168F9
 10
-1349.36
 20
-1568.16
 30
0.000000
  70
    32
  0
VERTEX
  8
01
  5
168FA
 10
-1349.36
 20
-1568.16
 30
0.000000
  70
    32
  0
VERTEX
  8
01
  5
168FB
 10
-1349.37
 20
-1568.17
 30
0.000000
  70
    32
  0
VERTEX
  8
01
  5
168FC
 10
-1349.37
 20
-1568.17
 30
0.000000
  70
    32
  0
VERTEX
  8
01
  5
168FD
 10
-1349.37
 20
-1568.17
 30
0.000000
  70
    32
  0
VERTEX
  8
01
  5
168FE
 10
-1349.37
 20
-1568.18
 30
0.000000
  70
    32
  0
VERTEX
  8
01
  5
168FF
 10
-1349.38
 20
-1568.18
 30
0.000000
  70
    32
  0
VERTEX
  8
01
  5
16900
 10
-1349.38
 20
-1568.18
 30
0.000000
  70
    32
  0
VERTEX
  8
01
  5
16901
 10
-1349.38
 20
-1568.19
 30
0.000000
  70
    32
  0
VERTEX
  8
01
  5
16902
 10
-1349.39
 20
-1568.19
 30
0.000000
  70
    32
  0
VERTEX
  8
01
  5
16903
 10
-1349.39
 20
-1568.20
 30
0.000000
  70
    32
  0
VERTEX
  8
01
  5
16904
 10
-1349.39
 20
-1568.20
 30
0.000000
  70
    32
  0
VERTEX
  8
01
  5
16905
 10
-1349.39
 20
-1568.20
 30
0.000000
  70
    32
  0
VERTEX
  8
01
  5
16906
 10
-1349.40
 20
-1568.21
 30
0.000000
  70
    32
  0
VERTEX
  8
01
  5
16907
 10
-1349.40
 20
-1568.21
 30
0.000000
  70
    32
  0
VERTEX
  8
01
  5
16908
 10
-1349.40
 20
-1568.21
 30
0.000000
  70
    32
  0
VERTEX
  8
01
  5
16909
 10
-1349.40
 20
-1568.22
 30
0.000000
  70
    32
  0
VERTEX
  8
01
  5
1690A
 10
-1349.41
 20
-1568.22
 30
0.000000
  70
    32
  0
VERTEX
  8
01
  5
1690B
 10
-1349.41
 20
-1568.23
 30
0.000000
  70
    32
  0
VERTEX
  8
01
  5
1690C
 10
-1349.41
 20
-1568.23
 30
0.000000
  70
    32
  0
VERTEX
  8
01
  5
1690D
 10
-1349.41
 20
-1568.23
 30
0.000000
  70
    32
  0
VERTEX
  8
01
  5
1690E
 10
-1349.42
 20
-1568.24
 30
0.000000
  70
    32
  0
VERTEX
  8
01
  5
1690F
 10
-1349.42
 20
-1568.24
 30
0.000000
  70
    32
  0
VERTEX
  8
01
  5
16910
 10
-1349.42
 20
-1568.24
 30
0.000000
  70
    32
  0
VERTEX
  8
01
  5
16911
 10
-1349.42
 20
-1568.25
 30
0.000000
  70
    32
  0
VERTEX
  8
01
  5
16912
 10
-1349.43
 20
-1568.25
 30
0.000000
  70
    32
  0
VERTEX
  8
01
  5
16913
 10
-1349.43
 20
-1568.25
 30
0.000000
  70
    32
  0
VERTEX
  8
01
  5
16914
 10
-1349.43
 20
-1568.26
 30
0.000000
  70
    32
  0
VERTEX
  8
01
  5
16915
 10
-1349.43
 20
-1568.26
 30
0.000000
  70
    32
  0
VERTEX
  8
01
  5
16916
 10
-1349.44
 20
-1568.27
 30
0.000000
  70
    32
  0
VERTEX
  8
01
  5
16917
 10
-1349.44
 20
-1568.27
 30
0.000000
  70
    32
  0
VERTEX
  8
01
  5
16918
 10
-1349.44
 20
-1568.27
 30
0.000000
  70
    32
  0
VERTEX
  8
01
  5
16919
 10
-1349.45
 20
-1568.28
 30
0.000000
  70
    32
  0
VERTEX
  8
01
  5
1691A
 10
-1349.45
 20
-1568.28
 30
0.000000
  70
    32
  0
VERTEX
  8
01
  5
1691B
 10
-1349.45
 20
-1568.28
 30
0.000000
  70
    32
  0
VERTEX
  8
01
  5
1691C
 10
-1349.45
 20
-1568.29
 30
0.000000
  70
    32
  0
VERTEX
  8
01
  5
1691D
 10
-1349.46
 20
-1568.29
 30
0.000000
  70
    32
  0
VERTEX
  8
01
  5
1691E
 10
-1349.46
 20
-1568.29
 30
0.000000
  70
    32
  0
VERTEX
  8
01
  5
1691F
 10
-1349.46
 20
-1568.30
 30
0.000000
  70
    32
  0
VERTEX
  8
01
  5
16920
 10
-1349.46
 20
-1568.30
 30
0.000000
  70
    32
  0
VERTEX
  8
01
  5
16921
 10
-1349.47
 20
-1568.31
 30
0.000000
  70
    32
  0
VERTEX
  8
01
  5
16922
 10
-1349.47
 20
-1568.31
 30
0.000000
  70
    32
  0
VERTEX
  8
01
  5
16923
 10
-1349.47
 20
-1568.31
 30
0.000000
  70
    32
  0
VERTEX
  8
01
  5
16924
 10
-1349.47
 20
-1568.32
 30
0.000000
  70
    32
  0
VERTEX
  8
01
  5
16925
 10
-1349.48
 20
-1568.32
 30
0.000000
  70
    32
  0
VERTEX
  8
01
  5
16926
 10
-1349.48
 20
-1568.32
 30
0.000000
  70
    32
  0
VERTEX
  8
01
  5
16927
 10
-1349.48
 20
-1568.33
 30
0.000000
  70
    32
  0
VERTEX
  8
01
  5
16928
 10
-1349.49
 20
-1568.33
 30
0.000000
  70
    32
  0
VERTEX
  8
01
  5
16929
 10
-1349.49
 20
-1568.33
 30
0.000000
  70
    32
  0
VERTEX
  8
01
  5
1692A
 10
-1349.49
 20
-1568.34
 30
0.000000
  70
    32
  0
VERTEX
  8
01
  5
1692B
 10
-1349.49
 20
-1568.34
 30
0.000000
  70
    32
  0
VERTEX
  8
01
  5
1692C
 10
-1349.50
 20
-1568.35
 30
0.000000
  70
    32
  0
VERTEX
  8
01
  5
1692D
 10
-1349.50
 20
-1568.35
 30
0.000000
  70
    32
  0
VERTEX
  8
01
  5
1692E
 10
-1349.50
 20
-1568.35
 30
0.000000
  70
    32
  0
VERTEX
  8
01
  5
1692F
 10
-1349.50
 20
-1568.36
 30
0.000000
  70
    32
  0
VERTEX
  8
01
  5
16930
 10
-1349.51
 20
-1568.36
 30
0.000000
  70
    32
  0
VERTEX
  8
01
  5
16931
 10
-1349.51
 20
-1568.36
 30
0.000000
  70
    32
  0
VERTEX
  8
01
  5
16932
 10
-1349.51
 20
-1568.37
 30
0.000000
  70
    32
  0
VERTEX
  8
01
  5
16933
 10
-1349.52
 20
-1568.37
 30
0.000000
  70
    32
  0
VERTEX
  8
01
  5
16934
 10
-1349.52
 20
-1568.37
 30
0.000000
  70
    32
  0
VERTEX
  8
01
  5
16935
 10
-1349.52
 20
-1568.38
 30
0.000000
  70
    32
  0
VERTEX
  8
01
  5
16936
 10
-1349.52
 20
-1568.38
 30
0.000000
  70
    32
  0
VERTEX
  8
01
  5
16937
 10
-1349.53
 20
-1568.38
 30
0.000000
  70
    32
  0
VERTEX
  8
01
  5
16938
 10
-1349.53
 20
-1568.39
 30
0.000000
  70
    32
  0
VERTEX
  8
01
  5
16939
 10
-1349.53
 20
-1568.39
 30
0.000000
  70
    32
  0
VERTEX
  8
01
  5
1693A
 10
-1349.53
 20
-1568.40
 30
0.000000
  70
    32
  0
VERTEX
  8
01
  5
1693B
 10
-1349.54
 20
-1568.40
 30
0.000000
  70
    32
  0
VERTEX
  8
01
  5
1693C
 10
-1349.54
 20
-1568.40
 30
0.000000
  70
    32
  0
VERTEX
  8
01
  5
1693D
 10
-1349.54
 20
-1568.41
 30
0.000000
  70
    32
  0
VERTEX
  8
01
  5
1693E
 10
-1349.55
 20
-1568.41
 30
0.000000
  70
    32
  0
VERTEX
  8
01
  5
1693F
 10
-1349.55
 20
-1568.41
 30
0.000000
  70
    32
  0
VERTEX
  8
01
  5
16940
 10
-1349.55
 20
-1568.42
 30
0.000000
  70
    32
  0
VERTEX
  8
01
  5
16941
 10
-1349.55
 20
-1568.42
 30
0.000000
  70
    32
  0
VERTEX
  8
01
  5
16942
 10
-1349.56
 20
-1568.42
 30
0.000000
  70
    32
  0
VERTEX
  8
01
  5
16943
 10
-1349.56
 20
-1568.43
 30
0.000000
  70
    32
  0
VERTEX
  8
01
  5
16944
 10
-1349.56
 20
-1568.43
 30
0.000000
  70
    32
  0
VERTEX
  8
01
  5
16945
 10
-1349.57
 20
-1568.43
 30
0.000000
  70
    32
  0
VERTEX
  8
01
  5
16946
 10
-1349.57
 20
-1568.44
 30
0.000000
  70
    32
  0
VERTEX
  8
01
  5
16947
 10
-1349.57
 20
-1568.44
 30
0.000000
  70
    32
  0
VERTEX
  8
01
  5
16948
 10
-1349.57
 20
-1568.45
 30
0.000000
  70
    32
  0
VERTEX
  8
01
  5
16949
 10
-1349.58
 20
-1568.45
 30
0.000000
  70
    32
  0
VERTEX
  8
01
  5
1694A
 10
-1349.58
 20
-1568.45
 30
0.000000
  70
    32
  0
VERTEX
  8
01
  5
1694B
 10
-1349.58
 20
-1568.46
 30
0.000000
  70
    32
  0
VERTEX
  8
01
  5
1694C
 10
-1349.58
 20
-1568.46
 30
0.000000
  70
    32
  0
VERTEX
  8
01
  5
1694D
 10
-1349.59
 20
-1568.46
 30
0.000000
  70
    32
  0
VERTEX
  8
01
  5
1694E
 10
-1349.59
 20
-1568.47
 30
0.000000
  70
    32
  0
VERTEX
  8
01
  5
1694F
 10
-1349.59
 20
-1568.47
 30
0.000000
  70
    32
  0
VERTEX
  8
01
  5
16950
 10
-1349.60
 20
-1568.47
 30
0.000000
  70
    32
  0
VERTEX
  8
01
  5
16951
 10
-1349.60
 20
-1568.48
 30
0.000000
  70
    32
  0
VERTEX
  8
01
  5
16952
 10
-1349.60
 20
-1568.48
 30
0.000000
  70
    32
  0
VERTEX
  8
01
  5
16953
 10
-1349.60
 20
-1568.48
 30
0.000000
  70
    32
  0
VERTEX
  8
01
  5
16954
 10
-1349.61
 20
-1568.49
 30
0.000000
  70
    32
  0
VERTEX
  8
01
  5
16955
 10
-1349.61
 20
-1568.49
 30
0.000000
  70
    32
  0
VERTEX
  8
01
  5
16956
 10
-1349.61
 20
-1568.49
 30
0.000000
  70
    32
  0
VERTEX
  8
01
  5
16957
 10
-1349.62
 20
-1568.50
 30
0.000000
  70
    32
  0
VERTEX
  8
01
  5
16958
 10
-1349.62
 20
-1568.50
 30
0.000000
  70
    32
  0
VERTEX
  8
01
  5
16959
 10
-1349.62
 20
-1568.51
 30
0.000000
  70
    32
  0
VERTEX
  8
01
  5
1695A
 10
-1349.62
 20
-1568.51
 30
0.000000
  70
    32
  0
VERTEX
  8
01
  5
1695B
 10
-1349.63
 20
-1568.51
 30
0.000000
  70
    32
  0
VERTEX
  8
01
  5
1695C
 10
-1349.63
 20
-1568.52
 30
0.000000
  70
    32
  0
VERTEX
  8
01
  5
1695D
 10
-1349.63
 20
-1568.52
 30
0.000000
  70
    32
  0
VERTEX
  8
01
  5
1695E
 10
-1349.64
 20
-1568.52
 30
0.000000
  70
    32
  0
VERTEX
  8
01
  5
1695F
 10
-1349.64
 20
-1568.53
 30
0.000000
  70
    32
  0
VERTEX
  8
01
  5
16960
 10
-1349.64
 20
-1568.53
 30
0.000000
  70
    32
  0
VERTEX
  8
01
  5
16961
 10
-1349.64
 20
-1568.53
 30
0.000000
  70
    32
  0
VERTEX
  8
01
  5
16962
 10
-1349.65
 20
-1568.54
 30
0.000000
  70
    32
  0
VERTEX
  8
01
  5
16963
 10
-1349.65
 20
-1568.54
 30
0.000000
  70
    32
  0
VERTEX
  8
01
  5
16964
 10
-1349.65
 20
-1568.54
 30
0.000000
  70
    32
  0
VERTEX
  8
01
  5
16965
 10
-1349.66
 20
-1568.55
 30
0.000000
  70
    32
  0
VERTEX
  8
01
  5
16966
 10
-1349.66
 20
-1568.55
 30
0.000000
  70
    32
  0
VERTEX
  8
01
  5
16967
 10
-1349.66
 20
-1568.55
 30
0.000000
  70
    32
  0
VERTEX
  8
01
  5
16968
 10
-1349.66
 20
-1568.56
 30
0.000000
  70
    32
  0
VERTEX
  8
01
  5
16969
 10
-1349.67
 20
-1568.56
 30
0.000000
  70
    32
  0
VERTEX
  8
01
  5
1696A
 10
-1349.67
 20
-1568.56
 30
0.000000
  70
    32
  0
VERTEX
  8
01
  5
1696B
 10
-1349.67
 20
-1568.57
 30
0.000000
  70
    32
  0
VERTEX
  8
01
  5
1696C
 10
-1349.68
 20
-1568.57
 30
0.000000
  70
    32
  0
VERTEX
  8
01
  5
1696D
 10
-1349.68
 20
-1568.57
 30
0.000000
  70
    32
  0
VERTEX
  8
01
  5
1696E
 10
-1349.68
 20
-1568.58
 30
0.000000
  70
    32
  0
VERTEX
  8
01
  5
1696F
 10
-1349.69
 20
-1568.58
 30
0.000000
  70
    32
  0
VERTEX
  8
01
  5
16970
 10
-1349.69
 20
-1568.58
 30
0.000000
  70
    32
  0
VERTEX
  8
01
  5
16971
 10
-1349.69
 20
-1568.59
 30
0.000000
  70
    32
  0
VERTEX
  8
01
  5
16972
 10
-1349.69
 20
-1568.59
 30
0.000000
  70
    32
  0
VERTEX
  8
01
  5
16973
 10
-1349.70
 20
-1568.60
 30
0.000000
  70
    32
  0
VERTEX
  8
01
  5
16974
 10
-1349.70
 20
-1568.60
 30
0.000000
  70
    32
  0
VERTEX
  8
01
  5
16975
 10
-1349.70
 20
-1568.60
 30
0.000000
  70
    32
  0
VERTEX
  8
01
  5
16976
 10
-1349.71
 20
-1568.61
 30
0.000000
  70
    32
  0
VERTEX
  8
01
  5
16977
 10
-1349.71
 20
-1568.61
 30
0.000000
  70
    32
  0
VERTEX
  8
01
  5
16978
 10
-1349.71
 20
-1568.61
 30
0.000000
  70
    32
  0
VERTEX
  8
01
  5
16979
 10
-1349.71
 20
-1568.62
 30
0.000000
  70
    32
  0
VERTEX
  8
01
  5
1697A
 10
-1349.72
 20
-1568.62
 30
0.000000
  70
    32
  0
VERTEX
  8
01
  5
1697B
 10
-1349.72
 20
-1568.62
 30
0.000000
  70
    32
  0
VERTEX
  8
01
  5
1697C
 10
-1349.72
 20
-1568.63
 30
0.000000
  70
    32
  0
VERTEX
  8
01
  5
1697D
 10
-1349.73
 20
-1568.63
 30
0.000000
  70
    32
  0
VERTEX
  8
01
  5
1697E
 10
-1349.73
 20
-1568.63
 30
0.000000
  70
    32
  0
VERTEX
  8
01
  5
1697F
 10
-1349.73
 20
-1568.64
 30
0.000000
  70
    32
  0
VERTEX
  8
01
  5
16980
 10
-1349.74
 20
-1568.64
 30
0.000000
  70
    32
  0
VERTEX
  8
01
  5
16981
 10
-1349.74
 20
-1568.64
 30
0.000000
  70
    32
  0
VERTEX
  8
01
  5
16982
 10
-1349.74
 20
-1568.65
 30
0.000000
  70
    32
  0
VERTEX
  8
01
  5
16983
 10
-1349.74
 20
-1568.65
 30
0.000000
  70
    32
  0
VERTEX
  8
01
  5
16984
 10
-1349.75
 20
-1568.65
 30
0.000000
  70
    32
  0
VERTEX
  8
01
  5
16985
 10
-1349.75
 20
-1568.66
 30
0.000000
  70
    32
  0
VERTEX
  8
01
  5
16986
 10
-1349.75
 20
-1568.66
 30
0.000000
  70
    32
  0
VERTEX
  8
01
  5
16987
 10
-1349.76
 20
-1568.66
 30
0.000000
  70
    32
  0
VERTEX
  8
01
  5
16988
 10
-1349.76
 20
-1568.67
 30
0.000000
  70
    32
  0
VERTEX
  8
01
  5
16989
 10
-1349.76
 20
-1568.67
 30
0.000000
  70
    32
  0
VERTEX
  8
01
  5
1698A
 10
-1349.77
 20
-1568.67
 30
0.000000
  70
    32
  0
VERTEX
  8
01
  5
1698B
 10
-1349.77
 20
-1568.68
 30
0.000000
  70
    32
  0
VERTEX
  8
01
  5
1698C
 10
-1349.77
 20
-1568.68
 30
0.000000
  70
    32
  0
VERTEX
  8
01
  5
1698D
 10
-1349.77
 20
-1568.68
 30
0.000000
  70
    32
  0
VERTEX
  8
01
  5
1698E
 10
-1349.78
 20
-1568.69
 30
0.000000
  70
    32
  0
VERTEX
  8
01
  5
1698F
 10
-1349.78
 20
-1568.69
 30
0.000000
  70
    32
  0
VERTEX
  8
01
  5
16990
 10
-1349.78
 20
-1568.69
 30
0.000000
  70
    32
  0
VERTEX
  8
01
  5
16991
 10
-1349.79
 20
-1568.70
 30
0.000000
  70
    32
  0
VERTEX
  8
01
  5
16992
 10
-1349.79
 20
-1568.70
 30
0.000000
  70
    32
  0
VERTEX
  8
01
  5
16993
 10
-1349.79
 20
-1568.70
 30
0.000000
  70
    32
  0
VERTEX
  8
01
  5
16994
 10
-1349.80
 20
-1568.71
 30
0.000000
  70
    32
  0
VERTEX
  8
01
  5
16995
 10
-1349.80
 20
-1568.71
 30
0.000000
  70
    32
  0
VERTEX
  8
01
  5
16996
 10
-1349.80
 20
-1568.71
 30
0.000000
  70
    32
  0
VERTEX
  8
01
  5
16997
 10
-1349.80
 20
-1568.72
 30
0.000000
  70
    32
  0
VERTEX
  8
01
  5
16998
 10
-1349.81
 20
-1568.72
 30
0.000000
  70
    32
  0
VERTEX
  8
01
  5
16999
 10
-1349.81
 20
-1568.72
 30
0.000000
  70
    32
  0
VERTEX
  8
01
  5
1699A
 10
-1349.81
 20
-1568.73
 30
0.000000
  70
    32
  0
VERTEX
  8
01
  5
1699B
 10
-1349.82
 20
-1568.73
 30
0.000000
  70
    32
  0
VERTEX
  8
01
  5
1699C
 10
-1349.82
 20
-1568.73
 30
0.000000
  70
    32
  0
VERTEX
  8
01
  5
1699D
 10
-1349.82
 20
-1568.74
 30
0.000000
  70
    32
  0
VERTEX
  8
01
  5
1699E
 10
-1349.83
 20
-1568.74
 30
0.000000
  70
    32
  0
VERTEX
  8
01
  5
1699F
 10
-1349.83
 20
-1568.74
 30
0.000000
  70
    32
  0
VERTEX
  8
01
  5
169A0
 10
-1349.83
 20
-1568.75
 30
0.000000
  70
    32
  0
VERTEX
  8
01
  5
169A1
 10
-1349.84
 20
-1568.75
 30
0.000000
  70
    32
  0
VERTEX
  8
01
  5
169A2
 10
-1349.84
 20
-1568.75
 30
0.000000
  70
    32
  0
VERTEX
  8
01
  5
169A3
 10
-1349.84
 20
-1568.76
 30
0.000000
  70
    32
  0
VERTEX
  8
01
  5
169A4
 10
-1349.84
 20
-1568.76
 30
0.000000
  70
    32
  0
VERTEX
  8
01
  5
169A5
 10
-1349.85
 20
-1568.76
 30
0.000000
  70
    32
  0
VERTEX
  8
01
  5
169A6
 10
-1349.85
 20
-1568.77
 30
0.000000
  70
    32
  0
VERTEX
  8
01
  5
169A7
 10
-1349.85
 20
-1568.77
 30
0.000000
  70
    32
  0
VERTEX
  8
01
  5
169A8
 10
-1349.86
 20
-1568.77
 30
0.000000
  70
    32
  0
VERTEX
  8
01
  5
169A9
 10
-1349.86
 20
-1568.78
 30
0.000000
  70
    32
  0
VERTEX
  8
01
  5
169AA
 10
-1349.86
 20
-1568.78
 30
0.000000
  70
    32
  0
VERTEX
  8
01
  5
169AB
 10
-1349.87
 20
-1568.78
 30
0.000000
  70
    32
  0
VERTEX
  8
01
  5
169AC
 10
-1349.87
 20
-1568.79
 30
0.000000
  70
    32
  0
VERTEX
  8
01
  5
169AD
 10
-1349.87
 20
-1568.79
 30
0.000000
  70
    32
  0
VERTEX
  8
01
  5
169AE
 10
-1349.88
 20
-1568.79
 30
0.000000
  70
    32
  0
VERTEX
  8
01
  5
169AF
 10
-1349.88
 20
-1568.80
 30
0.000000
  70
    32
  0
VERTEX
  8
01
  5
169B0
 10
-1349.88
 20
-1568.80
 30
0.000000
  70
    32
  0
VERTEX
  8
01
  5
169B1
 10
-1349.88
 20
-1568.80
 30
0.000000
  70
    32
  0
VERTEX
  8
01
  5
169B2
 10
-1349.89
 20
-1568.81
 30
0.000000
  70
    32
  0
VERTEX
  8
01
  5
169B3
 10
-1349.89
 20
-1568.81
 30
0.000000
  70
    32
  0
VERTEX
  8
01
  5
169B4
 10
-1349.89
 20
-1568.81
 30
0.000000
  70
    32
  0
VERTEX
  8
01
  5
169B5
 10
-1349.90
 20
-1568.82
 30
0.000000
  70
    32
  0
VERTEX
  8
01
  5
169B6
 10
-1349.90
 20
-1568.82
 30
0.000000
  70
    32
  0
VERTEX
  8
01
  5
169B7
 10
-1349.90
 20
-1568.82
 30
0.000000
  70
    32
  0
VERTEX
  8
01
  5
169B8
 10
-1349.91
 20
-1568.83
 30
0.000000
  70
    32
  0
VERTEX
  8
01
  5
169B9
 10
-1349.91
 20
-1568.83
 30
0.000000
  70
    32
  0
VERTEX
  8
01
  5
169BA
 10
-1349.91
 20
-1568.83
 30
0.000000
  70
    32
  0
VERTEX
  8
01
  5
169BB
 10
-1349.92
 20
-1568.84
 30
0.000000
  70
    32
  0
VERTEX
  8
01
  5
169BC
 10
-1349.92
 20
-1568.84
 30
0.000000
  70
    32
  0
VERTEX
  8
01
  5
169BD
 10
-1349.92
 20
-1568.84
 30
0.000000
  70
    32
  0
VERTEX
  8
01
  5
169BE
 10
-1349.93
 20
-1568.85
 30
0.000000
  70
    32
  0
VERTEX
  8
01
  5
169BF
 10
-1349.93
 20
-1568.85
 30
0.000000
  70
    32
  0
VERTEX
  8
01
  5
169C0
 10
-1349.93
 20
-1568.85
 30
0.000000
  70
    32
  0
VERTEX
  8
01
  5
169C1
 10
-1349.94
 20
-1568.85
 30
0.000000
  70
    32
  0
VERTEX
  8
01
  5
169C2
 10
-1349.94
 20
-1568.86
 30
0.000000
  70
    32
  0
VERTEX
  8
01
  5
169C3
 10
-1349.94
 20
-1568.86
 30
0.000000
  70
    32
  0
VERTEX
  8
01
  5
169C4
 10
-1349.94
 20
-1568.86
 30
0.000000
  70
    32
  0
VERTEX
  8
01
  5
169C5
 10
-1349.95
 20
-1568.87
 30
0.000000
  70
    32
  0
VERTEX
  8
01
  5
169C6
 10
-1349.95
 20
-1568.87
 30
0.000000
  70
    32
  0
VERTEX
  8
01
  5
169C7
 10
-1349.95
 20
-1568.87
 30
0.000000
  70
    32
  0
VERTEX
  8
01
  5
169C8
 10
-1349.96
 20
-1568.88
 30
0.000000
  70
    32
  0
VERTEX
  8
01
  5
169C9
 10
-1349.96
 20
-1568.88
 30
0.000000
  70
    32
  0
VERTEX
  8
01
  5
169CA
 10
-1349.96
 20
-1568.88
 30
0.000000
  70
    32
  0
VERTEX
  8
01
  5
169CB
 10
-1349.97
 20
-1568.89
 30
0.000000
  70
    32
  0
VERTEX
  8
01
  5
169CC
 10
-1349.97
 20
-1568.89
 30
0.000000
  70
    32
  0
VERTEX
  8
01
  5
169CD
 10
-1349.97
 20
-1568.89
 30
0.000000
  70
    32
  0
VERTEX
  8
01
  5
169CE
 10
-1349.98
 20
-1568.90
 30
0.000000
  70
    32
  0
VERTEX
  8
01
  5
169CF
 10
-1349.98
 20
-1568.90
 30
0.000000
  70
    32
  0
VERTEX
  8
01
  5
169D0
 10
-1349.98
 20
-1568.90
 30
0.000000
  70
    32
  0
VERTEX
  8
01
  5
169D1
 10
-1349.99
 20
-1568.91
 30
0.000000
  70
    32
  0
VERTEX
  8
01
  5
169D2
 10
-1349.99
 20
-1568.91
 30
0.000000
  70
    32
  0
VERTEX
  8
01
  5
169D3
 10
-1349.99
 20
-1568.91
 30
0.000000
  70
    32
  0
VERTEX
  8
01
  5
169D4
 10
-1350.00
 20
-1568.92
 30
0.000000
  70
    32
  0
VERTEX
  8
01
  5
169D5
 10
-1350.00
 20
-1568.92
 30
0.000000
  70
    32
  0
VERTEX
  8
01
  5
169D6
 10
-1350.00
 20
-1568.92
 30
0.000000
  70
    32
  0
VERTEX
  8
01
  5
169D7
 10
-1350.01
 20
-1568.92
 30
0.000000
  70
    32
  0
VERTEX
  8
01
  5
169D8
 10
-1350.01
 20
-1568.93
 30
0.000000
  70
    32
  0
VERTEX
  8
01
  5
169D9
 10
-1350.01
 20
-1568.93
 30
0.000000
  70
    32
  0
VERTEX
  8
01
  5
169DA
 10
-1350.02
 20
-1568.93
 30
0.000000
  70
    32
  0
VERTEX
  8
01
  5
169DB
 10
-1350.02
 20
-1568.94
 30
0.000000
  70
    32
  0
VERTEX
  8
01
  5
169DC
 10
-1350.02
 20
-1568.94
 30
0.000000
  70
    32
  0
VERTEX
  8
01
  5
169DD
 10
-1350.02
 20
-1568.94
 30
0.000000
  70
    32
  0
VERTEX
  8
01
  5
169DE
 10
-1350.03
 20
-1568.95
 30
0.000000
  70
    32
  0
VERTEX
  8
01
  5
169DF
 10
-1350.03
 20
-1568.95
 30
0.000000
  70
    32
  0
VERTEX
  8
01
  5
169E0
 10
-1350.03
 20
-1568.95
 30
0.000000
  70
    32
  0
VERTEX
  8
01
  5
169E1
 10
-1350.04
 20
-1568.96
 30
0.000000
  70
    32
  0
VERTEX
  8
01
  5
169E2
 10
-1350.04
 20
-1568.96
 30
0.000000
  70
    32
  0
VERTEX
  8
01
  5
169E3
 10
-1350.04
 20
-1568.96
 30
0.000000
  70
    32
  0
VERTEX
  8
01
  5
169E4
 10
-1350.05
 20
-1568.97
 30
0.000000
  70
    32
  0
VERTEX
  8
01
  5
169E5
 10
-1350.05
 20
-1568.97
 30
0.000000
  70
    32
  0
VERTEX
  8
01
  5
169E6
 10
-1350.05
 20
-1568.97
 30
0.000000
  70
    32
  0
VERTEX
  8
01
  5
169E7
 10
-1350.06
 20
-1568.97
 30
0.000000
  70
    32
  0
VERTEX
  8
01
  5
169E8
 10
-1350.06
 20
-1568.98
 30
0.000000
  70
    32
  0
VERTEX
  8
01
  5
169E9
 10
-1350.06
 20
-1568.98
 30
0.000000
  70
    32
  0
VERTEX
  8
01
  5
169EA
 10
-1350.07
 20
-1568.98
 30
0.000000
  70
    32
  0
VERTEX
  8
01
  5
169EB
 10
-1350.07
 20
-1568.99
 30
0.000000
  70
    32
  0
VERTEX
  8
01
  5
169EC
 10
-1350.07
 20
-1568.99
 30
0.000000
  70
    32
  0
VERTEX
  8
01
  5
169ED
 10
-1350.08
 20
-1568.99
 30
0.000000
  70
    32
  0
VERTEX
  8
01
  5
169EE
 10
-1350.08
 20
-1569.00
 30
0.000000
  70
    32
  0
VERTEX
  8
01
  5
169EF
 10
-1350.08
 20
-1569.00
 30
0.000000
  70
    32
  0
VERTEX
  8
01
  5
169F0
 10
-1350.09
 20
-1569.00
 30
0.000000
  70
    32
  0
VERTEX
  8
01
  5
169F1
 10
-1350.09
 20
-1569.01
 30
0.000000
  70
    32
  0
VERTEX
  8
01
  5
169F2
 10
-1350.09
 20
-1569.01
 30
0.000000
  70
    32
  0
VERTEX
  8
01
  5
169F3
 10
-1350.10
 20
-1569.01
 30
0.000000
  70
    32
  0
VERTEX
  8
01
  5
169F4
 10
-1350.10
 20
-1569.02
 30
0.000000
  70
    32
  0
VERTEX
  8
01
  5
169F5
 10
-1350.10
 20
-1569.02
 30
0.000000
  70
    32
  0
VERTEX
  8
01
  5
169F6
 10
-1350.11
 20
-1569.02
 30
0.000000
  70
    32
  0
VERTEX
  8
01
  5
169F7
 10
-1350.11
 20
-1569.02
 30
0.000000
  70
    32
  0
VERTEX
  8
01
  5
169F8
 10
-1350.11
 20
-1569.03
 30
0.000000
  70
    32
  0
VERTEX
  8
01
  5
169F9
 10
-1350.12
 20
-1569.03
 30
0.000000
  70
    32
  0
VERTEX
  8
01
  5
169FA
 10
-1350.12
 20
-1569.03
 30
0.000000
  70
    32
  0
VERTEX
  8
01
  5
169FB
 10
-1350.12
 20
-1569.04
 30
0.000000
  70
    32
  0
VERTEX
  8
01
  5
169FC
 10
-1350.13
 20
-1569.04
 30
0.000000
  70
    32
  0
VERTEX
  8
01
  5
169FD
 10
-1350.13
 20
-1569.04
 30
0.000000
  70
    32
  0
VERTEX
  8
01
  5
169FE
 10
-1350.13
 20
-1569.05
 30
0.000000
  70
    32
  0
VERTEX
  8
01
  5
169FF
 10
-1350.14
 20
-1569.05
 30
0.000000
  70
    32
  0
VERTEX
  8
01
  5
16A00
 10
-1350.14
 20
-1569.05
 30
0.000000
  70
    32
  0
VERTEX
  8
01
  5
16A01
 10
-1350.14
 20
-1569.05
 30
0.000000
  70
    32
  0
VERTEX
  8
01
  5
16A02
 10
-1350.15
 20
-1569.06
 30
0.000000
  70
    32
  0
VERTEX
  8
01
  5
16A03
 10
-1350.15
 20
-1569.06
 30
0.000000
  70
    32
  0
VERTEX
  8
01
  5
16A04
 10
-1350.15
 20
-1569.06
 30
0.000000
  70
    32
  0
VERTEX
  8
01
  5
16A05
 10
-1350.16
 20
-1569.07
 30
0.000000
  70
    32
  0
VERTEX
  8
01
  5
16A06
 10
-1350.16
 20
-1569.07
 30
0.000000
  70
    32
  0
VERTEX
  8
01
  5
16A07
 10
-1350.16
 20
-1569.07
 30
0.000000
  70
    32
  0
VERTEX
  8
01
  5
16A08
 10
-1350.17
 20
-1569.08
 30
0.000000
  70
    32
  0
VERTEX
  8
01
  5
16A09
 10
-1350.17
 20
-1569.08
 30
0.000000
  70
    32
  0
VERTEX
  8
01
  5
16A0A
 10
-1350.17
 20
-1569.08
 30
0.000000
  70
    32
  0
VERTEX
  8
01
  5
16A0B
 10
-1350.18
 20
-1569.09
 30
0.000000
  70
    32
  0
VERTEX
  8
01
  5
16A0C
 10
-1350.18
 20
-1569.09
 30
0.000000
  70
    32
  0
VERTEX
  8
01
  5
16A0D
 10
-1350.18
 20
-1569.09
 30
0.000000
  70
    32
  0
VERTEX
  8
01
  5
16A0E
 10
-1350.19
 20
-1569.09
 30
0.000000
  70
    32
  0
VERTEX
  8
01
  5
16A0F
 10
-1350.19
 20
-1569.10
 30
0.000000
  70
    32
  0
VERTEX
  8
01
  5
16A10
 10
-1350.19
 20
-1569.10
 30
0.000000
  70
    32
  0
VERTEX
  8
01
  5
16A11
 10
-1350.20
 20
-1569.10
 30
0.000000
  70
    32
  0
VERTEX
  8
01
  5
16A12
 10
-1350.20
 20
-1569.11
 30
0.000000
  70
    32
  0
VERTEX
  8
01
  5
16A13
 10
-1350.20
 20
-1569.11
 30
0.000000
  70
    32
  0
VERTEX
  8
01
  5
16A14
 10
-1350.21
 20
-1569.11
 30
0.000000
  70
    32
  0
VERTEX
  8
01
  5
16A15
 10
-1350.21
 20
-1569.11
 30
0.000000
  70
    32
  0
VERTEX
  8
01
  5
16A16
 10
-1350.21
 20
-1569.12
 30
0.000000
  70
    32
  0
VERTEX
  8
01
  5
16A17
 10
-1350.22
 20
-1569.12
 30
0.000000
  70
    32
  0
VERTEX
  8
01
  5
16A18
 10
-1350.22
 20
-1569.12
 30
0.000000
  70
    32
  0
VERTEX
  8
01
  5
16A19
 10
-1350.22
 20
-1569.13
 30
0.000000
  70
    32
  0
VERTEX
  8
01
  5
16A1A
 10
-1350.23
 20
-1569.13
 30
0.000000
  70
    32
  0
VERTEX
  8
01
  5
16A1B
 10
-1350.23
 20
-1569.13
 30
0.000000
  70
    32
  0
VERTEX
  8
01
  5
16A1C
 10
-1350.23
 20
-1569.14
 30
0.000000
  70
    32
  0
VERTEX
  8
01
  5
16A1D
 10
-1350.24
 20
-1569.14
 30
0.000000
  70
    32
  0
VERTEX
  8
01
  5
16A1E
 10
-1350.24
 20
-1569.14
 30
0.000000
  70
    32
  0
VERTEX
  8
01
  5
16A1F
 10
-1350.24
 20
-1569.14
 30
0.000000
  70
    32
  0
VERTEX
  8
01
  5
16A20
 10
-1350.25
 20
-1569.15
 30
0.000000
  70
    32
  0
VERTEX
  8
01
  5
16A21
 10
-1350.25
 20
-1569.15
 30
0.000000
  70
    32
  0
VERTEX
  8
01
  5
16A22
 10
-1350.26
 20
-1569.15
 30
0.000000
  70
    32
  0
VERTEX
  8
01
  5
16A23
 10
-1350.26
 20
-1569.16
 30
0.000000
  70
    32
  0
VERTEX
  8
01
  5
16A24
 10
-1350.26
 20
-1569.16
 30
0.000000
  70
    32
  0
VERTEX
  8
01
  5
16A25
 10
-1350.27
 20
-1569.16
 30
0.000000
  70
    32
  0
VERTEX
  8
01
  5
16A26
 10
-1350.27
 20
-1569.17
 30
0.000000
  70
    32
  0
VERTEX
  8
01
  5
16A27
 10
-1350.27
 20
-1569.17
 30
0.000000
  70
    32
  0
VERTEX
  8
01
  5
16A28
 10
-1350.28
 20
-1569.17
 30
0.000000
  70
    32
  0
VERTEX
  8
01
  5
16A29
 10
-1350.28
 20
-1569.17
 30
0.000000
  70
    32
  0
VERTEX
  8
01
  5
16A2A
 10
-1350.28
 20
-1569.18
 30
0.000000
  70
    32
  0
VERTEX
  8
01
  5
16A2B
 10
-1350.29
 20
-1569.18
 30
0.000000
  70
    32
  0
VERTEX
  8
01
  5
16A2C
 10
-1350.29
 20
-1569.18
 30
0.000000
  70
    32
  0
VERTEX
  8
01
  5
16A2D
 10
-1350.29
 20
-1569.19
 30
0.000000
  70
    32
  0
VERTEX
  8
01
  5
16A2E
 10
-1350.30
 20
-1569.19
 30
0.000000
  70
    32
  0
VERTEX
  8
01
  5
16A2F
 10
-1350.30
 20
-1569.19
 30
0.000000
  70
    32
  0
VERTEX
  8
01
  5
16A30
 10
-1350.30
 20
-1569.19
 30
0.000000
  70
    32
  0
VERTEX
  8
01
  5
16A31
 10
-1350.31
 20
-1569.20
 30
0.000000
  70
    32
  0
VERTEX
  8
01
  5
16A32
 10
-1350.31
 20
-1569.20
 30
0.000000
  70
    32
  0
VERTEX
  8
01
  5
16A33
 10
-1350.31
 20
-1569.20
 30
0.000000
  70
    32
  0
VERTEX
  8
01
  5
16A34
 10
-1350.32
 20
-1569.21
 30
0.000000
  70
    32
  0
VERTEX
  8
01
  5
16A35
 10
-1350.32
 20
-1569.21
 30
0.000000
  70
    32
  0
VERTEX
  8
01
  5
16A36
 10
-1350.32
 20
-1569.21
 30
0.000000
  70
    32
  0
VERTEX
  8
01
  5
16A37
 10
-1350.33
 20
-1569.21
 30
0.000000
  70
    32
  0
VERTEX
  8
01
  5
16A38
 10
-1350.33
 20
-1569.22
 30
0.000000
  70
    32
  0
VERTEX
  8
01
  5
16A39
 10
-1350.33
 20
-1569.22
 30
0.000000
  70
    32
  0
VERTEX
  8
01
  5
16A3A
 10
-1350.34
 20
-1569.22
 30
0.000000
  70
    32
  0
VERTEX
  8
01
  5
16A3B
 10
-1350.34
 20
-1569.23
 30
0.000000
  70
    32
  0
VERTEX
  8
01
  5
16A3C
 10
-1350.35
 20
-1569.23
 30
0.000000
  70
    32
  0
VERTEX
  8
01
  5
16A3D
 10
-1350.35
 20
-1569.23
 30
0.000000
  70
    32
  0
VERTEX
  8
01
  5
16A3E
 10
-1350.35
 20
-1569.23
 30
0.000000
  70
    32
  0
VERTEX
  8
01
  5
16A3F
 10
-1350.36
 20
-1569.24
 30
0.000000
  70
    32
  0
VERTEX
  8
01
  5
16A40
 10
-1350.36
 20
-1569.24
 30
0.000000
  70
    32
  0
VERTEX
  8
01
  5
16A41
 10
-1350.36
 20
-1569.24
 30
0.000000
  70
    32
  0
VERTEX
  8
01
  5
16A42
 10
-1350.37
 20
-1569.25
 30
0.000000
  70
    32
  0
VERTEX
  8
01
  5
16A43
 10
-1350.37
 20
-1569.25
 30
0.000000
  70
    32
  0
VERTEX
  8
01
  5
16A44
 10
-1350.37
 20
-1569.25
 30
0.000000
  70
    32
  0
VERTEX
  8
01
  5
16A45
 10
-1350.38
 20
-1569.25
 30
0.000000
  70
    32
  0
VERTEX
  8
01
  5
16A46
 10
-1350.38
 20
-1569.26
 30
0.000000
  70
    32
  0
VERTEX
  8
01
  5
16A47
 10
-1350.38
 20
-1569.26
 30
0.000000
  70
    32
  0
VERTEX
  8
01
  5
16A48
 10
-1350.39
 20
-1569.26
 30
0.000000
  70
    32
  0
VERTEX
  8
01
  5
16A49
 10
-1350.39
 20
-1569.27
 30
0.000000
  70
    32
  0
VERTEX
  8
01
  5
16A4A
 10
-1350.39
 20
-1569.27
 30
0.000000
  70
    32
  0
VERTEX
  8
01
  5
16A4B
 10
-1350.40
 20
-1569.27
 30
0.000000
  70
    32
  0
VERTEX
  8
01
  5
16A4C
 10
-1350.40
 20
-1569.27
 30
0.000000
  70
    32
  0
VERTEX
  8
01
  5
16A4D
 10
-1350.40
 20
-1569.28
 30
0.000000
  70
    32
  0
VERTEX
  8
01
  5
16A4E
 10
-1350.41
 20
-1569.28
 30
0.000000
  70
    32
  0
VERTEX
  8
01
  5
16A4F
 10
-1350.41
 20
-1569.28
 30
0.000000
  70
    32
  0
VERTEX
  8
01
  5
16A50
 10
-1350.42
 20
-1569.29
 30
0.000000
  70
    32
  0
VERTEX
  8
01
  5
16A51
 10
-1350.42
 20
-1569.29
 30
0.000000
  70
    32
  0
VERTEX
  8
01
  5
16A52
 10
-1350.42
 20
-1569.29
 30
0.000000
  70
    32
  0
VERTEX
  8
01
  5
16A53
 10
-1350.43
 20
-1569.29
 30
0.000000
  70
    32
  0
VERTEX
  8
01
  5
16A54
 10
-1350.43
 20
-1569.30
 30
0.000000
  70
    32
  0
VERTEX
  8
01
  5
16A55
 10
-1350.43
 20
-1569.30
 30
0.000000
  70
    32
  0
VERTEX
  8
01
  5
16A56
 10
-1350.44
 20
-1569.30
 30
0.000000
  70
    32
  0
VERTEX
  8
01
  5
16A57
 10
-1350.44
 20
-1569.30
 30
0.000000
  70
    32
  0
VERTEX
  8
01
  5
16A58
 10
-1350.44
 20
-1569.31
 30
0.000000
  70
    32
  0
VERTEX
  8
01
  5
16A59
 10
-1350.45
 20
-1569.31
 30
0.000000
  70
    32
  0
VERTEX
  8
01
  5
16A5A
 10
-1350.45
 20
-1569.31
 30
0.000000
  70
    32
  0
VERTEX
  8
01
  5
16A5B
 10
-1350.45
 20
-1569.32
 30
0.000000
  70
    32
  0
VERTEX
  8
01
  5
16A5C
 10
-1350.46
 20
-1569.32
 30
0.000000
  70
    32
  0
VERTEX
  8
01
  5
16A5D
 10
-1350.46
 20
-1569.32
 30
0.000000
  70
    32
  0
VERTEX
  8
01
  5
16A5E
 10
-1350.47
 20
-1569.32
 30
0.000000
  70
    32
  0
VERTEX
  8
01
  5
16A5F
 10
-1350.47
 20
-1569.33
 30
0.000000
  70
    32
  0
VERTEX
  8
01
  5
16A60
 10
-1350.47
 20
-1569.33
 30
0.000000
  70
    32
  0
VERTEX
  8
01
  5
16A61
 10
-1350.48
 20
-1569.33
 30
0.000000
  70
    32
  0
VERTEX
  8
01
  5
16A62
 10
-1350.48
 20
-1569.33
 30
0.000000
  70
    32
  0
VERTEX
  8
01
  5
16A63
 10
-1350.48
 20
-1569.34
 30
0.000000
  70
    32
  0
VERTEX
  8
01
  5
16A64
 10
-1350.49
 20
-1569.34
 30
0.000000
  70
    32
  0
VERTEX
  8
01
  5
16A65
 10
-1350.49
 20
-1569.34
 30
0.000000
  70
    32
  0
VERTEX
  8
01
  5
16A66
 10
-1350.49
 20
-1569.35
 30
0.000000
  70
    32
  0
VERTEX
  8
01
  5
16A67
 10
-1350.50
 20
-1569.35
 30
0.000000
  70
    32
  0
VERTEX
  8
01
  5
16A68
 10
-1350.50
 20
-1569.35
 30
0.000000
  70
    32
  0
VERTEX
  8
01
  5
16A69
 10
-1350.50
 20
-1569.35
 30
0.000000
  70
    32
  0
VERTEX
  8
01
  5
16A6A
 10
-1350.51
 20
-1569.36
 30
0.000000
  70
    32
  0
VERTEX
  8
01
  5
16A6B
 10
-1350.51
 20
-1569.36
 30
0.000000
  70
    32
  0
VERTEX
  8
01
  5
16A6C
 10
-1350.52
 20
-1569.36
 30
0.000000
  70
    32
  0
VERTEX
  8
01
  5
16A6D
 10
-1350.52
 20
-1569.36
 30
0.000000
  70
    32
  0
VERTEX
  8
01
  5
16A6E
 10
-1350.52
 20
-1569.37
 30
0.000000
  70
    32
  0
VERTEX
  8
01
  5
16A6F
 10
-1350.53
 20
-1569.37
 30
0.000000
  70
    32
  0
VERTEX
  8
01
  5
16A70
 10
-1350.53
 20
-1569.37
 30
0.000000
  70
    32
  0
VERTEX
  8
01
  5
16A71
 10
-1350.53
 20
-1569.38
 30
0.000000
  70
    32
  0
VERTEX
  8
01
  5
16A72
 10
-1350.54
 20
-1569.38
 30
0.000000
  70
    32
  0
VERTEX
  8
01
  5
16A73
 10
-1350.54
 20
-1569.38
 30
0.000000
  70
    32
  0
VERTEX
  8
01
  5
16A74
 10
-1350.54
 20
-1569.38
 30
0.000000
  70
    32
  0
VERTEX
  8
01
  5
16A75
 10
-1350.55
 20
-1569.39
 30
0.000000
  70
    32
  0
VERTEX
  8
01
  5
16A76
 10
-1350.55
 20
-1569.39
 30
0.000000
  70
    32
  0
VERTEX
  8
01
  5
16A77
 10
-1350.56
 20
-1569.39
 30
0.000000
  70
    32
  0
VERTEX
  8
01
  5
16A78
 10
-1350.56
 20
-1569.39
 30
0.000000
  70
    32
  0
VERTEX
  8
01
  5
16A79
 10
-1350.56
 20
-1569.40
 30
0.000000
  70
    32
  0
VERTEX
  8
01
  5
16A7A
 10
-1350.57
 20
-1569.40
 30
0.000000
  70
    32
  0
VERTEX
  8
01
  5
16A7B
 10
-1350.57
 20
-1569.40
 30
0.000000
  70
    32
  0
VERTEX
  8
01
  5
16A7C
 10
-1350.57
 20
-1569.41
 30
0.000000
  70
    32
  0
VERTEX
  8
01
  5
16A7D
 10
-1350.58
 20
-1569.41
 30
0.000000
  70
    32
  0
VERTEX
  8
01
  5
16A7E
 10
-1350.58
 20
-1569.41
 30
0.000000
  70
    32
  0
VERTEX
  8
01
  5
16A7F
 10
-1350.58
 20
-1569.41
 30
0.000000
  70
    32
  0
VERTEX
  8
01
  5
16A80
 10
-1350.59
 20
-1569.42
 30
0.000000
  70
    32
  0
VERTEX
  8
01
  5
16A81
 10
-1350.59
 20
-1569.42
 30
0.000000
  70
    32
  0
VERTEX
  8
01
  5
16A82
 10
-1350.60
 20
-1569.42
 30
0.000000
  70
    32
  0
VERTEX
  8
01
  5
16A83
 10
-1350.60
 20
-1569.42
 30
0.000000
  70
    32
  0
VERTEX
  8
01
  5
16A84
 10
-1350.60
 20
-1569.43
 30
0.000000
  70
    32
  0
VERTEX
  8
01
  5
16A85
 10
-1350.61
 20
-1569.43
 30
0.000000
  70
    32
  0
VERTEX
  8
01
  5
16A86
 10
-1350.61
 20
-1569.43
 30
0.000000
  70
    32
  0
VERTEX
  8
01
  5
16A87
 10
-1350.61
 20
-1569.43
 30
0.000000
  70
    32
  0
VERTEX
  8
01
  5
16A88
 10
-1350.62
 20
-1569.44
 30
0.000000
  70
    32
  0
VERTEX
  8
01
  5
16A89
 10
-1350.62
 20
-1569.44
 30
0.000000
  70
    32
  0
VERTEX
  8
01
  5
16A8A
 10
-1350.63
 20
-1569.44
 30
0.000000
  70
    32
  0
VERTEX
  8
01
  5
16A8B
 10
-1350.63
 20
-1569.44
 30
0.000000
  70
    32
  0
VERTEX
  8
01
  5
16A8C
 10
-1350.63
 20
-1569.45
 30
0.000000
  70
    32
  0
VERTEX
  8
01
  5
16A8D
 10
-1350.64
 20
-1569.45
 30
0.000000
  70
    32
  0
VERTEX
  8
01
  5
16A8E
 10
-1350.64
 20
-1569.45
 30
0.000000
  70
    32
  0
VERTEX
  8
01
  5
16A8F
 10
-1350.64
 20
-1569.45
 30
0.000000
  70
    32
  0
VERTEX
  8
01
  5
16A90
 10
-1350.65
 20
-1569.46
 30
0.000000
  70
    32
  0
VERTEX
  8
01
  5
16A91
 10
-1350.65
 20
-1569.46
 30
0.000000
  70
    32
  0
VERTEX
  8
01
  5
16A92
 10
-1350.65
 20
-1569.46
 30
0.000000
  70
    32
  0
VERTEX
  8
01
  5
16A93
 10
-1350.66
 20
-1569.47
 30
0.000000
  70
    32
  0
VERTEX
  8
01
  5
16A94
 10
-1350.66
 20
-1569.47
 30
0.000000
  70
    32
  0
VERTEX
  8
01
  5
16A95
 10
-1350.67
 20
-1569.47
 30
0.000000
  70
    32
  0
VERTEX
  8
01
  5
16A96
 10
-1350.67
 20
-1569.47
 30
0.000000
  70
    32
  0
VERTEX
  8
01
  5
16A97
 10
-1350.67
 20
-1569.48
 30
0.000000
  70
    32
  0
VERTEX
  8
01
  5
16A98
 10
-1350.68
 20
-1569.48
 30
0.000000
  70
    32
  0
VERTEX
  8
01
  5
16A99
 10
-1350.68
 20
-1569.48
 30
0.000000
  70
    32
  0
VERTEX
  8
01
  5
16A9A
 10
-1350.68
 20
-1569.48
 30
0.000000
  70
    32
  0
VERTEX
  8
01
  5
16A9B
 10
-1350.69
 20
-1569.49
 30
0.000000
  70
    32
  0
VERTEX
  8
01
  5
16A9C
 10
-1350.69
 20
-1569.49
 30
0.000000
  70
    32
  0
VERTEX
  8
01
  5
16A9D
 10
-1350.70
 20
-1569.49
 30
0.000000
  70
    32
  0
VERTEX
  8
01
  5
16A9E
 10
-1350.70
 20
-1569.49
 30
0.000000
  70
    32
  0
VERTEX
  8
01
  5
16A9F
 10
-1350.70
 20
-1569.50
 30
0.000000
  70
    32
  0
VERTEX
  8
01
  5
16AA0
 10
-1350.71
 20
-1569.50
 30
0.000000
  70
    32
  0
VERTEX
  8
01
  5
16AA1
 10
-1350.71
 20
-1569.50
 30
0.000000
  70
    32
  0
VERTEX
  8
01
  5
16AA2
 10
-1350.71
 20
-1569.50
 30
0.000000
  70
    32
  0
VERTEX
  8
01
  5
16AA3
 10
-1350.72
 20
-1569.51
 30
0.000000
  70
    32
  0
VERTEX
  8
01
  5
16AA4
 10
-1350.72
 20
-1569.51
 30
0.000000
  70
    32
  0
VERTEX
  8
01
  5
16AA5
 10
-1350.73
 20
-1569.51
 30
0.000000
  70
    32
  0
VERTEX
  8
01
  5
16AA6
 10
-1350.73
 20
-1569.51
 30
0.000000
  70
    32
  0
VERTEX
  8
01
  5
16AA7
 10
-1350.73
 20
-1569.52
 30
0.000000
  70
    32
  0
VERTEX
  8
01
  5
16AA8
 10
-1350.74
 20
-1569.52
 30
0.000000
  70
    32
  0
VERTEX
  8
01
  5
16AA9
 10
-1350.74
 20
-1569.52
 30
0.000000
  70
    32
  0
VERTEX
  8
01
  5
16AAA
 10
-1350.74
 20
-1569.52
 30
0.000000
  70
    32
  0
VERTEX
  8
01
  5
16AAB
 10
-1350.75
 20
-1569.53
 30
0.000000
  70
    32
  0
VERTEX
  8
01
  5
16AAC
 10
-1350.75
 20
-1569.53
 30
0.000000
  70
    32
  0
VERTEX
  8
01
  5
16AAD
 10
-1350.76
 20
-1569.53
 30
0.000000
  70
    32
  0
VERTEX
  8
01
  5
16AAE
 10
-1350.76
 20
-1569.53
 30
0.000000
  70
    32
  0
VERTEX
  8
01
  5
16AAF
 10
-1350.76
 20
-1569.54
 30
0.000000
  70
    32
  0
VERTEX
  8
01
  5
16AB0
 10
-1350.77
 20
-1569.54
 30
0.000000
  70
    32
  0
VERTEX
  8
01
  5
16AB1
 10
-1350.77
 20
-1569.54
 30
0.000000
  70
    32
  0
VERTEX
  8
01
  5
16AB2
 10
-1350.77
 20
-1569.54
 30
0.000000
  70
    32
  0
VERTEX
  8
01
  5
16AB3
 10
-1350.78
 20
-1569.55
 30
0.000000
  70
    32
  0
VERTEX
  8
01
  5
16AB4
 10
-1350.78
 20
-1569.55
 30
0.000000
  70
    32
  0
VERTEX
  8
01
  5
16AB5
 10
-1350.79
 20
-1569.55
 30
0.000000
  70
    32
  0
VERTEX
  8
01
  5
16AB6
 10
-1350.79
 20
-1569.55
 30
0.000000
  70
    32
  0
VERTEX
  8
01
  5
16AB7
 10
-1350.79
 20
-1569.56
 30
0.000000
  70
    32
  0
VERTEX
  8
01
  5
16AB8
 10
-1350.80
 20
-1569.56
 30
0.000000
  70
    32
  0
VERTEX
  8
01
  5
16AB9
 10
-1350.80
 20
-1569.56
 30
0.000000
  70
    32
  0
VERTEX
  8
01
  5
16ABA
 10
-1350.80
 20
-1569.56
 30
0.000000
  70
    32
  0
VERTEX
  8
01
  5
16ABB
 10
-1350.81
 20
-1569.57
 30
0.000000
  70
    32
  0
VERTEX
  8
01
  5
16ABC
 10
-1350.81
 20
-1569.57
 30
0.000000
  70
    32
  0
VERTEX
  8
01
  5
16ABD
 10
-1350.82
 20
-1569.57
 30
0.000000
  70
    32
  0
VERTEX
  8
01
  5
16ABE
 10
-1350.82
 20
-1569.57
 30
0.000000
  70
    32
  0
VERTEX
  8
01
  5
16ABF
 10
-1350.82
 20
-1569.58
 30
0.000000
  70
    32
  0
VERTEX
  8
01
  5
16AC0
 10
-1350.83
 20
-1569.58
 30
0.000000
  70
    32
  0
VERTEX
  8
01
  5
16AC1
 10
-1350.83
 20
-1569.58
 30
0.000000
  70
    32
  0
VERTEX
  8
01
  5
16AC2
 10
-1350.84
 20
-1569.58
 30
0.000000
  70
    32
  0
VERTEX
  8
01
  5
16AC3
 10
-1350.84
 20
-1569.59
 30
0.000000
  70
    32
  0
VERTEX
  8
01
  5
16AC4
 10
-1350.84
 20
-1569.59
 30
0.000000
  70
    32
  0
VERTEX
  8
01
  5
16AC5
 10
-1350.85
 20
-1569.59
 30
0.000000
  70
    32
  0
VERTEX
  8
01
  5
16AC6
 10
-1350.85
 20
-1569.59
 30
0.000000
  70
    32
  0
VERTEX
  8
01
  5
16AC7
 10
-1350.85
 20
-1569.59
 30
0.000000
  70
    32
  0
VERTEX
  8
01
  5
16AC8
 10
-1350.86
 20
-1569.60
 30
0.000000
  70
    32
  0
VERTEX
  8
01
  5
16AC9
 10
-1350.86
 20
-1569.60
 30
0.000000
  70
    32
  0
VERTEX
  8
01
  5
16ACA
 10
-1350.87
 20
-1569.60
 30
0.000000
  70
    32
  0
VERTEX
  8
01
  5
16ACB
 10
-1350.87
 20
-1569.60
 30
0.000000
  70
    32
  0
VERTEX
  8
01
  5
16ACC
 10
-1350.87
 20
-1569.61
 30
0.000000
  70
    32
  0
VERTEX
  8
01
  5
16ACD
 10
-1350.88
 20
-1569.61
 30
0.000000
  70
    32
  0
VERTEX
  8
01
  5
16ACE
 10
-1350.88
 20
-1569.61
 30
0.000000
  70
    32
  0
VERTEX
  8
01
  5
16ACF
 10
-1350.88
 20
-1569.61
 30
0.000000
  70
    32
  0
VERTEX
  8
01
  5
16AD0
 10
-1350.89
 20
-1569.62
 30
0.000000
  70
    32
  0
VERTEX
  8
01
  5
16AD1
 10
-1350.89
 20
-1569.62
 30
0.000000
  70
    32
  0
VERTEX
  8
01
  5
16AD2
 10
-1350.90
 20
-1569.62
 30
0.000000
  70
    32
  0
VERTEX
  8
01
  5
16AD3
 10
-1350.90
 20
-1569.62
 30
0.000000
  70
    32
  0
VERTEX
  8
01
  5
16AD4
 10
-1350.90
 20
-1569.63
 30
0.000000
  70
    32
  0
VERTEX
  8
01
  5
16AD5
 10
-1350.91
 20
-1569.63
 30
0.000000
  70
    32
  0
VERTEX
  8
01
  5
16AD6
 10
-1350.91
 20
-1569.63
 30
0.000000
  70
    32
  0
VERTEX
  8
01
  5
16AD7
 10
-1350.92
 20
-1569.63
 30
0.000000
  70
    32
  0
VERTEX
  8
01
  5
16AD8
 10
-1350.92
 20
-1569.64
 30
0.000000
  70
    32
  0
VERTEX
  8
01
  5
16AD9
 10
-1350.92
 20
-1569.64
 30
0.000000
  70
    32
  0
VERTEX
  8
01
  5
16ADA
 10
-1350.93
 20
-1569.64
 30
0.000000
  70
    32
  0
VERTEX
  8
01
  5
16ADB
 10
-1350.93
 20
-1569.64
 30
0.000000
  70
    32
  0
VERTEX
  8
01
  5
16ADC
 10
-1350.93
 20
-1569.64
 30
0.000000
  70
    32
  0
VERTEX
  8
01
  5
16ADD
 10
-1350.94
 20
-1569.65
 30
0.000000
  70
    32
  0
VERTEX
  8
01
  5
16ADE
 10
-1350.94
 20
-1569.65
 30
0.000000
  70
    32
  0
VERTEX
  8
01
  5
16ADF
 10
-1350.95
 20
-1569.65
 30
0.000000
  70
    32
  0
VERTEX
  8
01
  5
16AE0
 10
-1350.95
 20
-1569.65
 30
0.000000
  70
    32
  0
VERTEX
  8
01
  5
16AE1
 10
-1350.95
 20
-1569.66
 30
0.000000
  70
    32
  0
VERTEX
  8
01
  5
16AE2
 10
-1350.96
 20
-1569.66
 30
0.000000
  70
    32
  0
VERTEX
  8
01
  5
16AE3
 10
-1350.96
 20
-1569.66
 30
0.000000
  70
    32
  0
VERTEX
  8
01
  5
16AE4
 10
-1350.97
 20
-1569.66
 30
0.000000
  70
    32
  0
VERTEX
  8
01
  5
16AE5
 10
-1350.97
 20
-1569.67
 30
0.000000
  70
    32
  0
VERTEX
  8
01
  5
16AE6
 10
-1350.97
 20
-1569.67
 30
0.000000
  70
    32
  0
VERTEX
  8
01
  5
16AE7
 10
-1350.98
 20
-1569.67
 30
0.000000
  70
    32
  0
VERTEX
  8
01
  5
16AE8
 10
-1350.98
 20
-1569.67
 30
0.000000
  70
    32
  0
VERTEX
  8
01
  5
16AE9
 10
-1350.99
 20
-1569.67
 30
0.000000
  70
    32
  0
VERTEX
  8
01
  5
16AEA
 10
-1350.99
 20
-1569.68
 30
0.000000
  70
    32
  0
VERTEX
  8
01
  5
16AEB
 10
-1350.99
 20
-1569.68
 30
0.000000
  70
    32
  0
VERTEX
  8
01
  5
16AEC
 10
-1351.00
 20
-1569.68
 30
0.000000
  70
    32
  0
VERTEX
  8
01
  5
16AED
 10
-1351.00
 20
-1569.68
 30
0.000000
  70
    32
  0
VERTEX
  8
01
  5
16AEE
 10
-1351.00
 20
-1569.69
 30
0.000000
  70
    32
  0
VERTEX
  8
01
  5
16AEF
 10
-1351.01
 20
-1569.69
 30
0.000000
  70
    32
  0
VERTEX
  8
01
  5
16AF0
 10
-1351.01
 20
-1569.69
 30
0.000000
  70
    32
  0
VERTEX
  8
01
  5
16AF1
 10
-1351.02
 20
-1569.69
 30
0.000000
  70
    32
  0
VERTEX
  8
01
  5
16AF2
 10
-1351.02
 20
-1569.69
 30
0.000000
  70
    32
  0
VERTEX
  8
01
  5
16AF3
 10
-1351.02
 20
-1569.70
 30
0.000000
  70
    32
  0
VERTEX
  8
01
  5
16AF4
 10
-1351.03
 20
-1569.70
 30
0.000000
  70
    32
  0
VERTEX
  8
01
  5
16AF5
 10
-1351.03
 20
-1569.70
 30
0.000000
  70
    32
  0
VERTEX
  8
01
  5
16AF6
 10
-1351.04
 20
-1569.70
 30
0.000000
  70
    32
  0
VERTEX
  8
01
  5
16AF7
 10
-1351.04
 20
-1569.71
 30
0.000000
  70
    32
  0
VERTEX
  8
01
  5
16AF8
 10
-1351.04
 20
-1569.71
 30
0.000000
  70
    32
  0
VERTEX
  8
01
  5
16AF9
 10
-1351.05
 20
-1569.71
 30
0.000000
  70
    32
  0
VERTEX
  8
01
  5
16AFA
 10
-1351.05
 20
-1569.71
 30
0.000000
  70
    32
  0
VERTEX
  8
01
  5
16AFB
 10
-1351.06
 20
-1569.72
 30
0.000000
  70
    32
  0
VERTEX
  8
01
  5
16AFC
 10
-1351.06
 20
-1569.72
 30
0.000000
  70
    32
  0
VERTEX
  8
01
  5
16AFD
 10
-1351.06
 20
-1569.72
 30
0.000000
  70
    32
  0
VERTEX
  8
01
  5
16AFE
 10
-1351.07
 20
-1569.72
 30
0.000000
  70
    32
  0
VERTEX
  8
01
  5
16AFF
 10
-1351.07
 20
-1569.72
 30
0.000000
  70
    32
  0
VERTEX
  8
01
  5
16B00
 10
-1351.08
 20
-1569.73
 30
0.000000
  70
    32
  0
VERTEX
  8
01
  5
16B01
 10
-1351.08
 20
-1569.73
 30
0.000000
  70
    32
  0
VERTEX
  8
01
  5
16B02
 10
-1351.08
 20
-1569.73
 30
0.000000
  70
    32
  0
VERTEX
  8
01
  5
16B03
 10
-1351.09
 20
-1569.73
 30
0.000000
  70
    32
  0
VERTEX
  8
01
  5
16B04
 10
-1351.09
 20
-1569.74
 30
0.000000
  70
    32
  0
VERTEX
  8
01
  5
16B05
 10
-1351.10
 20
-1569.74
 30
0.000000
  70
    32
  0
VERTEX
  8
01
  5
16B06
 10
-1351.10
 20
-1569.74
 30
0.000000
  70
    32
  0
VERTEX
  8
01
  5
16B07
 10
-1351.10
 20
-1569.74
 30
0.000000
  70
    32
  0
VERTEX
  8
01
  5
16B08
 10
-1351.11
 20
-1569.74
 30
0.000000
  70
    32
  0
VERTEX
  8
01
  5
16B09
 10
-1351.11
 20
-1569.75
 30
0.000000
  70
    32
  0
VERTEX
  8
01
  5
16B0A
 10
-1351.11
 20
-1569.75
 30
0.000000
  70
    32
  0
VERTEX
  8
01
  5
16B0B
 10
-1351.12
 20
-1569.75
 30
0.000000
  70
    32
  0
VERTEX
  8
01
  5
16B0C
 10
-1351.12
 20
-1569.75
 30
0.000000
  70
    32
  0
VERTEX
  8
01
  5
16B0D
 10
-1351.13
 20
-1569.75
 30
0.000000
  70
    32
  0
VERTEX
  8
01
  5
16B0E
 10
-1351.13
 20
-1569.76
 30
0.000000
  70
    32
  0
VERTEX
  8
01
  5
16B0F
 10
-1351.13
 20
-1569.76
 30
0.000000
  70
    32
  0
VERTEX
  8
01
  5
16B10
 10
-1351.14
 20
-1569.76
 30
0.000000
  70
    32
  0
VERTEX
  8
01
  5
16B11
 10
-1351.14
 20
-1569.76
 30
0.000000
  70
    32
  0
VERTEX
  8
01
  5
16B12
 10
-1351.15
 20
-1569.77
 30
0.000000
  70
    32
  0
VERTEX
  8
01
  5
16B13
 10
-1351.15
 20
-1569.77
 30
0.000000
  70
    32
  0
VERTEX
  8
01
  5
16B14
 10
-1351.15
 20
-1569.77
 30
0.000000
  70
    32
  0
VERTEX
  8
01
  5
16B15
 10
-1351.16
 20
-1569.77
 30
0.000000
  70
    32
  0
VERTEX
  8
01
  5
16B16
 10
-1351.16
 20
-1569.77
 30
0.000000
  70
    32
  0
VERTEX
  8
01
  5
16B17
 10
-1351.17
 20
-1569.78
 30
0.000000
  70
    32
  0
VERTEX
  8
01
  5
16B18
 10
-1351.17
 20
-1569.78
 30
0.000000
  70
    32
  0
VERTEX
  8
01
  5
16B19
 10
-1351.17
 20
-1569.78
 30
0.000000
  70
    32
  0
VERTEX
  8
01
  5
16B1A
 10
-1351.18
 20
-1569.78
 30
0.000000
  70
    32
  0
VERTEX
  8
01
  5
16B1B
 10
-1351.18
 20
-1569.78
 30
0.000000
  70
    32
  0
VERTEX
  8
01
  5
16B1C
 10
-1351.19
 20
-1569.79
 30
0.000000
  70
    32
  0
VERTEX
  8
01
  5
16B1D
 10
-1351.19
 20
-1569.79
 30
0.000000
  70
    32
  0
VERTEX
  8
01
  5
16B1E
 10
-1351.19
 20
-1569.79
 30
0.000000
  70
    32
  0
VERTEX
  8
01
  5
16B1F
 10
-1351.20
 20
-1569.79
 30
0.000000
  70
    32
  0
VERTEX
  8
01
  5
16B20
 10
-1351.20
 20
-1569.80
 30
0.000000
  70
    32
  0
VERTEX
  8
01
  5
16B21
 10
-1351.21
 20
-1569.80
 30
0.000000
  70
    32
  0
VERTEX
  8
01
  5
16B22
 10
-1351.21
 20
-1569.80
 30
0.000000
  70
    32
  0
VERTEX
  8
01
  5
16B23
 10
-1351.21
 20
-1569.80
 30
0.000000
  70
    32
  0
VERTEX
  8
01
  5
16B24
 10
-1351.22
 20
-1569.80
 30
0.000000
  70
    32
  0
VERTEX
  8
01
  5
16B25
 10
-1351.22
 20
-1569.81
 30
0.000000
  70
    32
  0
VERTEX
  8
01
  5
16B26
 10
-1351.23
 20
-1569.81
 30
0.000000
  70
    32
  0
VERTEX
  8
01
  5
16B27
 10
-1351.23
 20
-1569.81
 30
0.000000
  70
    32
  0
VERTEX
  8
01
  5
16B28
 10
-1351.23
 20
-1569.81
 30
0.000000
  70
    32
  0
VERTEX
  8
01
  5
16B29
 10
-1351.24
 20
-1569.81
 30
0.000000
  70
    32
  0
VERTEX
  8
01
  5
16B2A
 10
-1351.24
 20
-1569.82
 30
0.000000
  70
    32
  0
VERTEX
  8
01
  5
16B2B
 10
-1351.25
 20
-1569.82
 30
0.000000
  70
    32
  0
VERTEX
  8
01
  5
16B2C
 10
-1351.25
 20
-1569.82
 30
0.000000
  70
    32
  0
VERTEX
  8
01
  5
16B2D
 10
-1351.25
 20
-1569.82
 30
0.000000
  70
    32
  0
VERTEX
  8
01
  5
16B2E
 10
-1351.26
 20
-1569.82
 30
0.000000
  70
    32
  0
VERTEX
  8
01
  5
16B2F
 10
-1351.26
 20
-1569.83
 30
0.000000
  70
    32
  0
VERTEX
  8
01
  5
16B30
 10
-1351.27
 20
-1569.83
 30
0.000000
  70
    32
  0
VERTEX
  8
01
  5
16B31
 10
-1351.27
 20
-1569.83
 30
0.000000
  70
    32
  0
VERTEX
  8
01
  5
16B32
 10
-1351.27
 20
-1569.83
 30
0.000000
  70
    32
  0
VERTEX
  8
01
  5
16B33
 10
-1351.28
 20
-1569.83
 30
0.000000
  70
    32
  0
VERTEX
  8
01
  5
16B34
 10
-1351.28
 20
-1569.84
 30
0.000000
  70
    32
  0
VERTEX
  8
01
  5
16B35
 10
-1351.29
 20
-1569.84
 30
0.000000
  70
    32
  0
VERTEX
  8
01
  5
16B36
 10
-1351.29
 20
-1569.84
 30
0.000000
  70
    32
  0
VERTEX
  8
01
  5
16B37
 10
-1351.29
 20
-1569.84
 30
0.000000
  70
    32
  0
VERTEX
  8
01
  5
16B38
 10
-1351.30
 20
-1569.84
 30
0.000000
  70
    32
  0
VERTEX
  8
01
  5
16B39
 10
-1351.30
 20
-1569.85
 30
0.000000
  70
    32
  0
VERTEX
  8
01
  5
16B3A
 10
-1351.31
 20
-1569.85
 30
0.000000
  70
    32
  0
VERTEX
  8
01
  5
16B3B
 10
-1351.31
 20
-1569.85
 30
0.000000
  70
    32
  0
VERTEX
  8
01
  5
16B3C
 10
-1351.31
 20
-1569.85
 30
0.000000
  70
    32
  0
VERTEX
  8
01
  5
16B3D
 10
-1351.32
 20
-1569.85
 30
0.000000
  70
    32
  0
VERTEX
  8
01
  5
16B3E
 10
-1351.32
 20
-1569.86
 30
0.000000
  70
    32
  0
VERTEX
  8
01
  5
16B3F
 10
-1351.33
 20
-1569.86
 30
0.000000
  70
    32
  0
VERTEX
  8
01
  5
16B40
 10
-1351.33
 20
-1569.86
 30
0.000000
  70
    32
  0
VERTEX
  8
01
  5
16B41
 10
-1351.34
 20
-1569.86
 30
0.000000
  70
    32
  0
VERTEX
  8
01
  5
16B42
 10
-1351.34
 20
-1569.86
 30
0.000000
  70
    32
  0
VERTEX
  8
01
  5
16B43
 10
-1351.34
 20
-1569.87
 30
0.000000
  70
    32
  0
VERTEX
  8
01
  5
16B44
 10
-1351.35
 20
-1569.87
 30
0.000000
  70
    32
  0
VERTEX
  8
01
  5
16B45
 10
-1351.35
 20
-1569.87
 30
0.000000
  70
    32
  0
VERTEX
  8
01
  5
16B46
 10
-1351.36
 20
-1569.87
 30
0.000000
  70
    32
  0
VERTEX
  8
01
  5
16B47
 10
-1351.36
 20
-1569.87
 30
0.000000
  70
    32
  0
VERTEX
  8
01
  5
16B48
 10
-1351.36
 20
-1569.88
 30
0.000000
  70
    32
  0
VERTEX
  8
01
  5
16B49
 10
-1351.37
 20
-1569.88
 30
0.000000
  70
    32
  0
VERTEX
  8
01
  5
16B4A
 10
-1351.37
 20
-1569.88
 30
0.000000
  70
    32
  0
VERTEX
  8
01
  5
16B4B
 10
-1351.38
 20
-1569.88
 30
0.000000
  70
    32
  0
VERTEX
  8
01
  5
16B4C
 10
-1351.38
 20
-1569.88
 30
0.000000
  70
    32
  0
VERTEX
  8
01
  5
16B4D
 10
-1351.38
 20
-1569.89
 30
0.000000
  70
    32
  0
VERTEX
  8
01
  5
16B4E
 10
-1351.39
 20
-1569.89
 30
0.000000
  70
    32
  0
VERTEX
  8
01
  5
16B4F
 10
-1351.39
 20
-1569.89
 30
0.000000
  70
    32
  0
VERTEX
  8
01
  5
16B50
 10
-1351.40
 20
-1569.89
 30
0.000000
  70
    32
  0
VERTEX
  8
01
  5
16B51
 10
-1351.40
 20
-1569.89
 30
0.000000
  70
    32
  0
VERTEX
  8
01
  5
16B52
 10
-1351.40
 20
-1569.90
 30
0.000000
  70
    32
  0
VERTEX
  8
01
  5
16B53
 10
-1351.41
 20
-1569.90
 30
0.000000
  70
    32
  0
VERTEX
  8
01
  5
16B54
 10
-1351.41
 20
-1569.90
 30
0.000000
  70
    32
  0
VERTEX
  8
01
  5
16B55
 10
-1351.42
 20
-1569.90
 30
0.000000
  70
    32
  0
VERTEX
  8
01
  5
16B56
 10
-1351.42
 20
-1569.90
 30
0.000000
  70
    32
  0
VERTEX
  8
01
  5
16B57
 10
-1351.42
 20
-1569.91
 30
0.000000
  70
    32
  0
VERTEX
  8
01
  5
16B58
 10
-1351.43
 20
-1569.91
 30
0.000000
  70
    32
  0
VERTEX
  8
01
  5
16B59
 10
-1351.43
 20
-1569.91
 30
0.000000
  70
    32
  0
VERTEX
  8
01
  5
16B5A
 10
-1351.44
 20
-1569.91
 30
0.000000
  70
    32
  0
VERTEX
  8
01
  5
16B5B
 10
-1351.44
 20
-1569.91
 30
0.000000
  70
    32
  0
VERTEX
  8
01
  5
16B5C
 10
-1351.45
 20
-1569.91
 30
0.000000
  70
    32
  0
VERTEX
  8
01
  5
16B5D
 10
-1351.45
 20
-1569.92
 30
0.000000
  70
    32
  0
VERTEX
  8
01
  5
16B5E
 10
-1351.45
 20
-1569.92
 30
0.000000
  70
    32
  0
VERTEX
  8
01
  5
16B5F
 10
-1351.46
 20
-1569.92
 30
0.000000
  70
    32
  0
VERTEX
  8
01
  5
16B60
 10
-1351.46
 20
-1569.92
 30
0.000000
  70
    32
  0
VERTEX
  8
01
  5
16B61
 10
-1351.47
 20
-1569.92
 30
0.000000
  70
    32
  0
VERTEX
  8
01
  5
16B62
 10
-1351.47
 20
-1569.93
 30
0.000000
  70
    32
  0
VERTEX
  8
01
  5
16B63
 10
-1351.47
 20
-1569.93
 30
0.000000
  70
    32
  0
VERTEX
  8
01
  5
16B64
 10
-1351.48
 20
-1569.93
 30
0.000000
  70
    32
  0
VERTEX
  8
01
  5
16B65
 10
-1351.48
 20
-1569.93
 30
0.000000
  70
    32
  0
VERTEX
  8
01
  5
16B66
 10
-1351.49
 20
-1569.93
 30
0.000000
  70
    32
  0
VERTEX
  8
01
  5
16B67
 10
-1351.49
 20
-1569.94
 30
0.000000
  70
    32
  0
VERTEX
  8
01
  5
16B68
 10
-1351.49
 20
-1569.94
 30
0.000000
  70
    32
  0
VERTEX
  8
01
  5
16B69
 10
-1351.50
 20
-1569.94
 30
0.000000
  70
    32
  0
VERTEX
  8
01
  5
16B6A
 10
-1351.50
 20
-1569.94
 30
0.000000
  70
    32
  0
VERTEX
  8
01
  5
16B6B
 10
-1351.51
 20
-1569.94
 30
0.000000
  70
    32
  0
VERTEX
  8
01
  5
16B6C
 10
-1351.51
 20
-1569.94
 30
0.000000
  70
    32
  0
VERTEX
  8
01
  5
16B6D
 10
-1351.52
 20
-1569.95
 30
0.000000
  70
    32
  0
VERTEX
  8
01
  5
16B6E
 10
-1351.52
 20
-1569.95
 30
0.000000
  70
    32
  0
VERTEX
  8
01
  5
16B6F
 10
-1351.52
 20
-1569.95
 30
0.000000
  70
    32
  0
VERTEX
  8
01
  5
16B70
 10
-1351.53
 20
-1569.95
 30
0.000000
  70
    32
  0
VERTEX
  8
01
  5
16B71
 10
-1351.53
 20
-1569.95
 30
0.000000
  70
    32
  0
VERTEX
  8
01
  5
16B72
 10
-1351.54
 20
-1569.96
 30
0.000000
  70
    32
  0
VERTEX
  8
01
  5
16B73
 10
-1351.54
 20
-1569.96
 30
0.000000
  70
    32
  0
VERTEX
  8
01
  5
16B74
 10
-1351.54
 20
-1569.96
 30
0.000000
  70
    32
  0
VERTEX
  8
01
  5
16B75
 10
-1351.55
 20
-1569.96
 30
0.000000
  70
    32
  0
VERTEX
  8
01
  5
16B76
 10
-1351.55
 20
-1569.96
 30
0.000000
  70
    32
  0
VERTEX
  8
01
  5
16B77
 10
-1351.56
 20
-1569.96
 30
0.000000
  70
    32
  0
VERTEX
  8
01
  5
16B78
 10
-1351.56
 20
-1569.97
 30
0.000000
  70
    32
  0
VERTEX
  8
01
  5
16B79
 10
-1351.56
 20
-1569.97
 30
0.000000
  70
    32
  0
VERTEX
  8
01
  5
16B7A
 10
-1351.57
 20
-1569.97
 30
0.000000
  70
    32
  0
VERTEX
  8
01
  5
16B7B
 10
-1351.57
 20
-1569.97
 30
0.000000
  70
    32
  0
VERTEX
  8
01
  5
16B7C
 10
-1351.58
 20
-1569.97
 30
0.000000
  70
    32
  0
VERTEX
  8
01
  5
16B7D
 10
-1351.58
 20
-1569.97
 30
0.000000
  70
    32
  0
VERTEX
  8
01
  5
16B7E
 10
-1351.59
 20
-1569.98
 30
0.000000
  70
    32
  0
VERTEX
  8
01
  5
16B7F
 10
-1351.59
 20
-1569.98
 30
0.000000
  70
    32
  0
VERTEX
  8
01
  5
16B80
 10
-1351.59
 20
-1569.98
 30
0.000000
  70
    32
  0
VERTEX
  8
01
  5
16B81
 10
-1351.60
 20
-1569.98
 30
0.000000
  70
    32
  0
VERTEX
  8
01
  5
16B82
 10
-1351.60
 20
-1569.98
 30
0.000000
  70
    32
  0
VERTEX
  8
01
  5
16B83
 10
-1351.61
 20
-1569.99
 30
0.000000
  70
    32
  0
VERTEX
  8
01
  5
16B84
 10
-1351.61
 20
-1569.99
 30
0.000000
  70
    32
  0
VERTEX
  8
01
  5
16B85
 10
-1351.61
 20
-1569.99
 30
0.000000
  70
    32
  0
VERTEX
  8
01
  5
16B86
 10
-1351.62
 20
-1569.99
 30
0.000000
  70
    32
  0
VERTEX
  8
01
  5
16B87
 10
-1351.62
 20
-1569.99
 30
0.000000
  70
    32
  0
VERTEX
  8
01
  5
16B88
 10
-1351.63
 20
-1569.99
 30
0.000000
  70
    32
  0
VERTEX
  8
01
  5
16B89
 10
-1351.63
 20
-1570.00
 30
0.000000
  70
    32
  0
VERTEX
  8
01
  5
16B8A
 10
-1351.64
 20
-1570.00
 30
0.000000
  70
    32
  0
VERTEX
  8
01
  5
16B8B
 10
-1351.64
 20
-1570.00
 30
0.000000
  70
    32
  0
VERTEX
  8
01
  5
16B8C
 10
-1351.64
 20
-1570.00
 30
0.000000
  70
    32
  0
VERTEX
  8
01
  5
16B8D
 10
-1351.65
 20
-1570.00
 30
0.000000
  70
    32
  0
VERTEX
  8
01
  5
16B8E
 10
-1351.65
 20
-1570.00
 30
0.000000
  70
    32
  0
VERTEX
  8
01
  5
16B8F
 10
-1351.66
 20
-1570.01
 30
0.000000
  70
    32
  0
VERTEX
  8
01
  5
16B90
 10
-1351.66
 20
-1570.01
 30
0.000000
  70
    32
  0
VERTEX
  8
01
  5
16B91
 10
-1351.67
 20
-1570.01
 30
0.000000
  70
    32
  0
VERTEX
  8
01
  5
16B92
 10
-1351.67
 20
-1570.01
 30
0.000000
  70
    32
  0
VERTEX
  8
01
  5
16B93
 10
-1351.67
 20
-1570.01
 30
0.000000
  70
    32
  0
VERTEX
  8
01
  5
16B94
 10
-1351.68
 20
-1570.01
 30
0.000000
  70
    32
  0
VERTEX
  8
01
  5
16B95
 10
-1351.68
 20
-1570.02
 30
0.000000
  70
    32
  0
VERTEX
  8
01
  5
16B96
 10
-1351.69
 20
-1570.02
 30
0.000000
  70
    32
  0
VERTEX
  8
01
  5
16B97
 10
-1351.69
 20
-1570.02
 30
0.000000
  70
    32
  0
VERTEX
  8
01
  5
16B98
 10
-1351.69
 20
-1570.02
 30
0.000000
  70
    32
  0
VERTEX
  8
01
  5
16B99
 10
-1351.70
 20
-1570.02
 30
0.000000
  70
    32
  0
VERTEX
  8
01
  5
16B9A
 10
-1351.70
 20
-1570.02
 30
0.000000
  70
    32
  0
VERTEX
  8
01
  5
16B9B
 10
-1351.71
 20
-1570.03
 30
0.000000
  70
    32
  0
VERTEX
  8
01
  5
16B9C
 10
-1351.71
 20
-1570.03
 30
0.000000
  70
    32
  0
VERTEX
  8
01
  5
16B9D
 10
-1351.72
 20
-1570.03
 30
0.000000
  70
    32
  0
VERTEX
  8
01
  5
16B9E
 10
-1351.72
 20
-1570.03
 30
0.000000
  70
    32
  0
VERTEX
  8
01
  5
16B9F
 10
-1351.72
 20
-1570.03
 30
0.000000
  70
    32
  0
VERTEX
  8
01
  5
16BA0
 10
-1351.73
 20
-1570.03
 30
0.000000
  70
    32
  0
VERTEX
  8
01
  5
16BA1
 10
-1351.73
 20
-1570.04
 30
0.000000
  70
    32
  0
VERTEX
  8
01
  5
16BA2
 10
-1351.74
 20
-1570.04
 30
0.000000
  70
    32
  0
VERTEX
  8
01
  5
16BA3
 10
-1351.74
 20
-1570.04
 30
0.000000
  70
    32
  0
VERTEX
  8
01
  5
16BA4
 10
-1351.75
 20
-1570.04
 30
0.000000
  70
    32
  0
VERTEX
  8
01
  5
16BA5
 10
-1351.75
 20
-1570.04
 30
0.000000
  70
    32
  0
VERTEX
  8
01
  5
16BA6
 10
-1351.75
 20
-1570.04
 30
0.000000
  70
    32
  0
VERTEX
  8
01
  5
16BA7
 10
-1351.76
 20
-1570.05
 30
0.000000
  70
    32
  0
VERTEX
  8
01
  5
16BA8
 10
-1351.76
 20
-1570.05
 30
0.000000
  70
    32
  0
VERTEX
  8
01
  5
16BA9
 10
-1351.77
 20
-1570.05
 30
0.000000
  70
    32
  0
VERTEX
  8
01
  5
16BAA
 10
-1351.77
 20
-1570.05
 30
0.000000
  70
    32
  0
SEQEND
  8
01
  5
16BAB
  0
ARC
  5
154B4
  8
01
 10
-1353.5613444748531
 20
-1565.2962163272391
 30
0.0
 40
6.979984001174464
 50
297.53438686767993
 51
303.12535171313289
  0
LINE
  5
154B5
  8
01
 10
-1348.62171776778
 20
-1570.2286675847599
 30
0.0
 11
-1348.5047083996669
 21
-1570.111658237106
 31
0.0
  0
LINE
  5
154B6
  8
01
 10
-1339.2577565173681
 20
-1569.965212436093
 30
0.0
 11
-1334.757756714069
 21
-1569.9652128294961
 31
0.0
  0
ARC
  5
154B8
  8
01
 10
-1353.571464803365
 20
-1565.2789196837341
 30
0.0
 40
5.0999999999999988
 50
339.31573416221778
 51
290.6842558199404
  0
LINE
  5
154BE
  8
01
 10
-1324.257753636788
 20
-1534.7652019124359
 30
0.0
 11
-1324.257756714069
 21
-1569.965213747435
 31
0.0
  0
LINE
  5
154BF
  8
01
 10
-1324.257756714069
 20
-1569.965213747435
 30
0.0
 11
-1334.757756714069
 21
-1569.9652128294961
 31
0.0
  0
ARC
  5
154C0
  8
01
 10
-1353.571464803365
 20
-1565.2789196837341
 30
0.0
 40
7.0
 50
134.9999949910501
 51
297.54239186737863
  0
LINE
  5
154C1
  8
01
 10
-1347.2075034436741
 20
-1549.0154653655829
 30
0.0
 11
-1358.52121183895
 21
-1560.3291717827069
 31
0.0
  0
LINE
  5
154C2
  8
01
 10
-1357.186779467906
 20
-1561.823166536409
 30
0.0
 11
-1357.8176322294751
 21
-1562.454019297978
 31
0.0
  0
LINE
  5
154C3
  8
01
 10
-1360.571100324436
 20
-1565.2074873929389
 30
0.0
 11
-1397.024995888074
 21
-1601.661382956577
 31
0.0
  0
LINE
  5
154C4
  8
01
 10
-1353.50003251257
 20
-1572.278555204804
 30
0.0
 11
-1389.9539280762081
 21
-1608.732450768442
 31
0.0
  0
CIRCLE
  5
154C5
  8
01
 10
-1353.6512455619729
 20
-1565.3587004423421
 30
0.0
 40
5.0
  0
LINE
  5
154CA
  8
01
 10
-1348.622382623515
 20
-1570.2293324403779
 30
0.0
 11
-1337.3080093725041
 21
-1558.9149611676371
 31
0.0
  0
ARC
  5
154CB
  8
01
 10
-1348.151155236684
 20
-1570.465211855309
 30
0.0
 40
0.5
 50
89.999994991036544
 51
134.9999949910501
  0
CIRCLE
  5
154CC
  8
01
 10
-1399.613186339099
 20
-1611.3206412194679
 30
0.0
 40
10.0
  0
ARC
  5
15504
  8
01
 10
-1322.5672344768211
 20
-2058.1757325767799
 30
0.0
 40
501.0
 50
93.885861903151465
 51
99.733785333862173
  0
ARC
  5
15505
  8
01
 10
-1322.5672344768211
 20
-2058.1757325767799
 30
0.0
 40
500.0
 50
94.017328206895016
 51
99.733785333862173
  0
LINE
  5
15506
  8
01
 10
-1439.4780071157979
 20
-1583.3502847397381
 30
0.0
 11
-1440.2252112716119
 21
-1582.6856901644269
 31
0.0
  0
LINE
  5
15507
  8
01
 10
-1360.7572250654171
 20
-1566.5615026737401
 30
0.0
 11
-1360.462801210932
 21
-1566.5075296778921
 31
0.0
  0
ARC
  5
15508
  8
01
 10
-1397.6345743879631
 20
-1620.5675808260789
 30
0.0
 40
56.0
 50
99.733785333862173
 51
135.27788334120771
  0
ARC
  5
1550A
  8
01
 10
-1397.6345743879631
 20
-1620.5675808260789
 30
0.0
 40
57.0
 50
99.733785333862173
 51
135.33180908248571
  0
ARC
  5
1550C
  8
01
 10
-1397.6325125744211
 20
-1620.569512045698
 30
0.0
 40
57.002823988304499
 50
135.33188546407271
 51
138.34869714880529
  0
ARC
  5
1550D
  8
01
 10
-1397.632547657711
 20
-1620.5694809780371
 30
0.0
 40
56.002777126525622
 50
135.2779611330586
 51
138.34869574024481
  0
ARC
  5
1550E
  8
01
 10
-1353.724418245821
 20
-1565.272267149008
 30
0.0
 40
7.1500000000000004
 50
215.19607134748529
 51
309.08565079942531
  0
POLYLINE
  8
01
  5
16BAC
  66
     1
 10
0.000000
 20
0.000000
 30
0.000000
  70
     8
  0
VERTEX
  8
01
  5
16BAD
 10
-1359.57
 20
-1569.39
 30
0.000000
  70
    32
  0
VERTEX
  8
01
  5
16BAE
 10
-1359.57
 20
-1569.39
 30
0.000000
  70
    32
  0
VERTEX
  8
01
  5
16BAF
 10
-1359.57
 20
-1569.39
 30
0.000000
  70
    32
  0
VERTEX
  8
01
  5
16BB0
 10
-1359.58
 20
-1569.38
 30
0.000000
  70
    32
  0
VERTEX
  8
01
  5
16BB1
 10
-1359.58
 20
-1569.38
 30
0.000000
  70
    32
  0
VERTEX
  8
01
  5
16BB2
 10
-1359.58
 20
-1569.37
 30
0.000000
  70
    32
  0
VERTEX
  8
01
  5
16BB3
 10
-1359.58
 20
-1569.37
 30
0.000000
  70
    32
  0
VERTEX
  8
01
  5
16BB4
 10
-1359.59
 20
-1569.36
 30
0.000000
  70
    32
  0
VERTEX
  8
01
  5
16BB5
 10
-1359.59
 20
-1569.36
 30
0.000000
  70
    32
  0
VERTEX
  8
01
  5
16BB6
 10
-1359.59
 20
-1569.36
 30
0.000000
  70
    32
  0
VERTEX
  8
01
  5
16BB7
 10
-1359.60
 20
-1569.35
 30
0.000000
  70
    32
  0
VERTEX
  8
01
  5
16BB8
 10
-1359.60
 20
-1569.35
 30
0.000000
  70
    32
  0
VERTEX
  8
01
  5
16BB9
 10
-1359.60
 20
-1569.34
 30
0.000000
  70
    32
  0
VERTEX
  8
01
  5
16BBA
 10
-1359.61
 20
-1569.34
 30
0.000000
  70
    32
  0
VERTEX
  8
01
  5
16BBB
 10
-1359.61
 20
-1569.33
 30
0.000000
  70
    32
  0
VERTEX
  8
01
  5
16BBC
 10
-1359.61
 20
-1569.33
 30
0.000000
  70
    32
  0
VERTEX
  8
01
  5
16BBD
 10
-1359.61
 20
-1569.33
 30
0.000000
  70
    32
  0
VERTEX
  8
01
  5
16BBE
 10
-1359.62
 20
-1569.32
 30
0.000000
  70
    32
  0
VERTEX
  8
01
  5
16BBF
 10
-1359.62
 20
-1569.32
 30
0.000000
  70
    32
  0
VERTEX
  8
01
  5
16BC0
 10
-1359.62
 20
-1569.31
 30
0.000000
  70
    32
  0
VERTEX
  8
01
  5
16BC1
 10
-1359.63
 20
-1569.31
 30
0.000000
  70
    32
  0
VERTEX
  8
01
  5
16BC2
 10
-1359.63
 20
-1569.31
 30
0.000000
  70
    32
  0
VERTEX
  8
01
  5
16BC3
 10
-1359.63
 20
-1569.30
 30
0.000000
  70
    32
  0
VERTEX
  8
01
  5
16BC4
 10
-1359.63
 20
-1569.30
 30
0.000000
  70
    32
  0
VERTEX
  8
01
  5
16BC5
 10
-1359.64
 20
-1569.29
 30
0.000000
  70
    32
  0
VERTEX
  8
01
  5
16BC6
 10
-1359.64
 20
-1569.29
 30
0.000000
  70
    32
  0
VERTEX
  8
01
  5
16BC7
 10
-1359.64
 20
-1569.28
 30
0.000000
  70
    32
  0
VERTEX
  8
01
  5
16BC8
 10
-1359.65
 20
-1569.28
 30
0.000000
  70
    32
  0
VERTEX
  8
01
  5
16BC9
 10
-1359.65
 20
-1569.28
 30
0.000000
  70
    32
  0
VERTEX
  8
01
  5
16BCA
 10
-1359.65
 20
-1569.27
 30
0.000000
  70
    32
  0
VERTEX
  8
01
  5
16BCB
 10
-1359.65
 20
-1569.27
 30
0.000000
  70
    32
  0
VERTEX
  8
01
  5
16BCC
 10
-1359.66
 20
-1569.26
 30
0.000000
  70
    32
  0
VERTEX
  8
01
  5
16BCD
 10
-1359.66
 20
-1569.26
 30
0.000000
  70
    32
  0
VERTEX
  8
01
  5
16BCE
 10
-1359.66
 20
-1569.25
 30
0.000000
  70
    32
  0
VERTEX
  8
01
  5
16BCF
 10
-1359.67
 20
-1569.25
 30
0.000000
  70
    32
  0
VERTEX
  8
01
  5
16BD0
 10
-1359.67
 20
-1569.25
 30
0.000000
  70
    32
  0
VERTEX
  8
01
  5
16BD1
 10
-1359.67
 20
-1569.24
 30
0.000000
  70
    32
  0
VERTEX
  8
01
  5
16BD2
 10
-1359.67
 20
-1569.24
 30
0.000000
  70
    32
  0
VERTEX
  8
01
  5
16BD3
 10
-1359.68
 20
-1569.23
 30
0.000000
  70
    32
  0
VERTEX
  8
01
  5
16BD4
 10
-1359.68
 20
-1569.23
 30
0.000000
  70
    32
  0
VERTEX
  8
01
  5
16BD5
 10
-1359.68
 20
-1569.22
 30
0.000000
  70
    32
  0
VERTEX
  8
01
  5
16BD6
 10
-1359.69
 20
-1569.22
 30
0.000000
  70
    32
  0
VERTEX
  8
01
  5
16BD7
 10
-1359.69
 20
-1569.22
 30
0.000000
  70
    32
  0
VERTEX
  8
01
  5
16BD8
 10
-1359.69
 20
-1569.21
 30
0.000000
  70
    32
  0
VERTEX
  8
01
  5
16BD9
 10
-1359.69
 20
-1569.21
 30
0.000000
  70
    32
  0
VERTEX
  8
01
  5
16BDA
 10
-1359.70
 20
-1569.20
 30
0.000000
  70
    32
  0
VERTEX
  8
01
  5
16BDB
 10
-1359.70
 20
-1569.20
 30
0.000000
  70
    32
  0
VERTEX
  8
01
  5
16BDC
 10
-1359.70
 20
-1569.20
 30
0.000000
  70
    32
  0
VERTEX
  8
01
  5
16BDD
 10
-1359.70
 20
-1569.19
 30
0.000000
  70
    32
  0
VERTEX
  8
01
  5
16BDE
 10
-1359.71
 20
-1569.19
 30
0.000000
  70
    32
  0
VERTEX
  8
01
  5
16BDF
 10
-1359.71
 20
-1569.18
 30
0.000000
  70
    32
  0
VERTEX
  8
01
  5
16BE0
 10
-1359.71
 20
-1569.18
 30
0.000000
  70
    32
  0
VERTEX
  8
01
  5
16BE1
 10
-1359.72
 20
-1569.17
 30
0.000000
  70
    32
  0
VERTEX
  8
01
  5
16BE2
 10
-1359.72
 20
-1569.17
 30
0.000000
  70
    32
  0
VERTEX
  8
01
  5
16BE3
 10
-1359.72
 20
-1569.17
 30
0.000000
  70
    32
  0
VERTEX
  8
01
  5
16BE4
 10
-1359.72
 20
-1569.16
 30
0.000000
  70
    32
  0
VERTEX
  8
01
  5
16BE5
 10
-1359.73
 20
-1569.16
 30
0.000000
  70
    32
  0
VERTEX
  8
01
  5
16BE6
 10
-1359.73
 20
-1569.15
 30
0.000000
  70
    32
  0
VERTEX
  8
01
  5
16BE7
 10
-1359.73
 20
-1569.15
 30
0.000000
  70
    32
  0
VERTEX
  8
01
  5
16BE8
 10
-1359.74
 20
-1569.14
 30
0.000000
  70
    32
  0
VERTEX
  8
01
  5
16BE9
 10
-1359.74
 20
-1569.14
 30
0.000000
  70
    32
  0
VERTEX
  8
01
  5
16BEA
 10
-1359.74
 20
-1569.14
 30
0.000000
  70
    32
  0
VERTEX
  8
01
  5
16BEB
 10
-1359.74
 20
-1569.13
 30
0.000000
  70
    32
  0
VERTEX
  8
01
  5
16BEC
 10
-1359.75
 20
-1569.13
 30
0.000000
  70
    32
  0
VERTEX
  8
01
  5
16BED
 10
-1359.75
 20
-1569.12
 30
0.000000
  70
    32
  0
VERTEX
  8
01
  5
16BEE
 10
-1359.75
 20
-1569.12
 30
0.000000
  70
    32
  0
VERTEX
  8
01
  5
16BEF
 10
-1359.75
 20
-1569.11
 30
0.000000
  70
    32
  0
VERTEX
  8
01
  5
16BF0
 10
-1359.76
 20
-1569.11
 30
0.000000
  70
    32
  0
VERTEX
  8
01
  5
16BF1
 10
-1359.76
 20
-1569.11
 30
0.000000
  70
    32
  0
VERTEX
  8
01
  5
16BF2
 10
-1359.76
 20
-1569.10
 30
0.000000
  70
    32
  0
VERTEX
  8
01
  5
16BF3
 10
-1359.77
 20
-1569.10
 30
0.000000
  70
    32
  0
VERTEX
  8
01
  5
16BF4
 10
-1359.77
 20
-1569.09
 30
0.000000
  70
    32
  0
VERTEX
  8
01
  5
16BF5
 10
-1359.77
 20
-1569.09
 30
0.000000
  70
    32
  0
VERTEX
  8
01
  5
16BF6
 10
-1359.77
 20
-1569.08
 30
0.000000
  70
    32
  0
VERTEX
  8
01
  5
16BF7
 10
-1359.78
 20
-1569.08
 30
0.000000
  70
    32
  0
VERTEX
  8
01
  5
16BF8
 10
-1359.78
 20
-1569.07
 30
0.000000
  70
    32
  0
VERTEX
  8
01
  5
16BF9
 10
-1359.78
 20
-1569.07
 30
0.000000
  70
    32
  0
VERTEX
  8
01
  5
16BFA
 10
-1359.78
 20
-1569.07
 30
0.000000
  70
    32
  0
VERTEX
  8
01
  5
16BFB
 10
-1359.79
 20
-1569.06
 30
0.000000
  70
    32
  0
VERTEX
  8
01
  5
16BFC
 10
-1359.79
 20
-1569.06
 30
0.000000
  70
    32
  0
VERTEX
  8
01
  5
16BFD
 10
-1359.79
 20
-1569.05
 30
0.000000
  70
    32
  0
VERTEX
  8
01
  5
16BFE
 10
-1359.80
 20
-1569.05
 30
0.000000
  70
    32
  0
VERTEX
  8
01
  5
16BFF
 10
-1359.80
 20
-1569.04
 30
0.000000
  70
    32
  0
VERTEX
  8
01
  5
16C00
 10
-1359.80
 20
-1569.04
 30
0.000000
  70
    32
  0
VERTEX
  8
01
  5
16C01
 10
-1359.80
 20
-1569.04
 30
0.000000
  70
    32
  0
VERTEX
  8
01
  5
16C02
 10
-1359.81
 20
-1569.03
 30
0.000000
  70
    32
  0
VERTEX
  8
01
  5
16C03
 10
-1359.81
 20
-1569.03
 30
0.000000
  70
    32
  0
VERTEX
  8
01
  5
16C04
 10
-1359.81
 20
-1569.02
 30
0.000000
  70
    32
  0
VERTEX
  8
01
  5
16C05
 10
-1359.81
 20
-1569.02
 30
0.000000
  70
    32
  0
VERTEX
  8
01
  5
16C06
 10
-1359.82
 20
-1569.01
 30
0.000000
  70
    32
  0
VERTEX
  8
01
  5
16C07
 10
-1359.82
 20
-1569.01
 30
0.000000
  70
    32
  0
VERTEX
  8
01
  5
16C08
 10
-1359.82
 20
-1569.01
 30
0.000000
  70
    32
  0
VERTEX
  8
01
  5
16C09
 10
-1359.82
 20
-1569.00
 30
0.000000
  70
    32
  0
VERTEX
  8
01
  5
16C0A
 10
-1359.83
 20
-1569.00
 30
0.000000
  70
    32
  0
VERTEX
  8
01
  5
16C0B
 10
-1359.83
 20
-1568.99
 30
0.000000
  70
    32
  0
VERTEX
  8
01
  5
16C0C
 10
-1359.83
 20
-1568.99
 30
0.000000
  70
    32
  0
VERTEX
  8
01
  5
16C0D
 10
-1359.84
 20
-1568.98
 30
0.000000
  70
    32
  0
VERTEX
  8
01
  5
16C0E
 10
-1359.84
 20
-1568.98
 30
0.000000
  70
    32
  0
VERTEX
  8
01
  5
16C0F
 10
-1359.84
 20
-1568.98
 30
0.000000
  70
    32
  0
VERTEX
  8
01
  5
16C10
 10
-1359.84
 20
-1568.97
 30
0.000000
  70
    32
  0
VERTEX
  8
01
  5
16C11
 10
-1359.85
 20
-1568.97
 30
0.000000
  70
    32
  0
VERTEX
  8
01
  5
16C12
 10
-1359.85
 20
-1568.96
 30
0.000000
  70
    32
  0
VERTEX
  8
01
  5
16C13
 10
-1359.85
 20
-1568.96
 30
0.000000
  70
    32
  0
VERTEX
  8
01
  5
16C14
 10
-1359.85
 20
-1568.95
 30
0.000000
  70
    32
  0
VERTEX
  8
01
  5
16C15
 10
-1359.86
 20
-1568.95
 30
0.000000
  70
    32
  0
VERTEX
  8
01
  5
16C16
 10
-1359.86
 20
-1568.94
 30
0.000000
  70
    32
  0
VERTEX
  8
01
  5
16C17
 10
-1359.86
 20
-1568.94
 30
0.000000
  70
    32
  0
VERTEX
  8
01
  5
16C18
 10
-1359.86
 20
-1568.94
 30
0.000000
  70
    32
  0
VERTEX
  8
01
  5
16C19
 10
-1359.87
 20
-1568.93
 30
0.000000
  70
    32
  0
VERTEX
  8
01
  5
16C1A
 10
-1359.87
 20
-1568.93
 30
0.000000
  70
    32
  0
VERTEX
  8
01
  5
16C1B
 10
-1359.87
 20
-1568.92
 30
0.000000
  70
    32
  0
VERTEX
  8
01
  5
16C1C
 10
-1359.87
 20
-1568.92
 30
0.000000
  70
    32
  0
VERTEX
  8
01
  5
16C1D
 10
-1359.88
 20
-1568.91
 30
0.000000
  70
    32
  0
VERTEX
  8
01
  5
16C1E
 10
-1359.88
 20
-1568.91
 30
0.000000
  70
    32
  0
VERTEX
  8
01
  5
16C1F
 10
-1359.88
 20
-1568.91
 30
0.000000
  70
    32
  0
VERTEX
  8
01
  5
16C20
 10
-1359.89
 20
-1568.90
 30
0.000000
  70
    32
  0
VERTEX
  8
01
  5
16C21
 10
-1359.89
 20
-1568.90
 30
0.000000
  70
    32
  0
VERTEX
  8
01
  5
16C22
 10
-1359.89
 20
-1568.89
 30
0.000000
  70
    32
  0
VERTEX
  8
01
  5
16C23
 10
-1359.89
 20
-1568.89
 30
0.000000
  70
    32
  0
VERTEX
  8
01
  5
16C24
 10
-1359.90
 20
-1568.88
 30
0.000000
  70
    32
  0
VERTEX
  8
01
  5
16C25
 10
-1359.90
 20
-1568.88
 30
0.000000
  70
    32
  0
VERTEX
  8
01
  5
16C26
 10
-1359.90
 20
-1568.87
 30
0.000000
  70
    32
  0
VERTEX
  8
01
  5
16C27
 10
-1359.90
 20
-1568.87
 30
0.000000
  70
    32
  0
VERTEX
  8
01
  5
16C28
 10
-1359.91
 20
-1568.87
 30
0.000000
  70
    32
  0
VERTEX
  8
01
  5
16C29
 10
-1359.91
 20
-1568.86
 30
0.000000
  70
    32
  0
VERTEX
  8
01
  5
16C2A
 10
-1359.91
 20
-1568.86
 30
0.000000
  70
    32
  0
VERTEX
  8
01
  5
16C2B
 10
-1359.91
 20
-1568.85
 30
0.000000
  70
    32
  0
VERTEX
  8
01
  5
16C2C
 10
-1359.92
 20
-1568.85
 30
0.000000
  70
    32
  0
VERTEX
  8
01
  5
16C2D
 10
-1359.92
 20
-1568.84
 30
0.000000
  70
    32
  0
VERTEX
  8
01
  5
16C2E
 10
-1359.92
 20
-1568.84
 30
0.000000
  70
    32
  0
VERTEX
  8
01
  5
16C2F
 10
-1359.92
 20
-1568.83
 30
0.000000
  70
    32
  0
VERTEX
  8
01
  5
16C30
 10
-1359.93
 20
-1568.83
 30
0.000000
  70
    32
  0
VERTEX
  8
01
  5
16C31
 10
-1359.93
 20
-1568.83
 30
0.000000
  70
    32
  0
VERTEX
  8
01
  5
16C32
 10
-1359.93
 20
-1568.82
 30
0.000000
  70
    32
  0
VERTEX
  8
01
  5
16C33
 10
-1359.93
 20
-1568.82
 30
0.000000
  70
    32
  0
VERTEX
  8
01
  5
16C34
 10
-1359.94
 20
-1568.81
 30
0.000000
  70
    32
  0
VERTEX
  8
01
  5
16C35
 10
-1359.94
 20
-1568.81
 30
0.000000
  70
    32
  0
VERTEX
  8
01
  5
16C36
 10
-1359.94
 20
-1568.80
 30
0.000000
  70
    32
  0
VERTEX
  8
01
  5
16C37
 10
-1359.94
 20
-1568.80
 30
0.000000
  70
    32
  0
VERTEX
  8
01
  5
16C38
 10
-1359.95
 20
-1568.79
 30
0.000000
  70
    32
  0
VERTEX
  8
01
  5
16C39
 10
-1359.95
 20
-1568.79
 30
0.000000
  70
    32
  0
VERTEX
  8
01
  5
16C3A
 10
-1359.95
 20
-1568.79
 30
0.000000
  70
    32
  0
VERTEX
  8
01
  5
16C3B
 10
-1359.95
 20
-1568.78
 30
0.000000
  70
    32
  0
VERTEX
  8
01
  5
16C3C
 10
-1359.96
 20
-1568.78
 30
0.000000
  70
    32
  0
VERTEX
  8
01
  5
16C3D
 10
-1359.96
 20
-1568.77
 30
0.000000
  70
    32
  0
VERTEX
  8
01
  5
16C3E
 10
-1359.96
 20
-1568.77
 30
0.000000
  70
    32
  0
VERTEX
  8
01
  5
16C3F
 10
-1359.96
 20
-1568.76
 30
0.000000
  70
    32
  0
VERTEX
  8
01
  5
16C40
 10
-1359.97
 20
-1568.76
 30
0.000000
  70
    32
  0
VERTEX
  8
01
  5
16C41
 10
-1359.97
 20
-1568.75
 30
0.000000
  70
    32
  0
VERTEX
  8
01
  5
16C42
 10
-1359.97
 20
-1568.75
 30
0.000000
  70
    32
  0
VERTEX
  8
01
  5
16C43
 10
-1359.97
 20
-1568.75
 30
0.000000
  70
    32
  0
VERTEX
  8
01
  5
16C44
 10
-1359.98
 20
-1568.74
 30
0.000000
  70
    32
  0
VERTEX
  8
01
  5
16C45
 10
-1359.98
 20
-1568.74
 30
0.000000
  70
    32
  0
VERTEX
  8
01
  5
16C46
 10
-1359.98
 20
-1568.73
 30
0.000000
  70
    32
  0
VERTEX
  8
01
  5
16C47
 10
-1359.98
 20
-1568.73
 30
0.000000
  70
    32
  0
VERTEX
  8
01
  5
16C48
 10
-1359.99
 20
-1568.72
 30
0.000000
  70
    32
  0
VERTEX
  8
01
  5
16C49
 10
-1359.99
 20
-1568.72
 30
0.000000
  70
    32
  0
VERTEX
  8
01
  5
16C4A
 10
-1359.99
 20
-1568.71
 30
0.000000
  70
    32
  0
VERTEX
  8
01
  5
16C4B
 10
-1359.99
 20
-1568.71
 30
0.000000
  70
    32
  0
VERTEX
  8
01
  5
16C4C
 10
-1360.00
 20
-1568.71
 30
0.000000
  70
    32
  0
VERTEX
  8
01
  5
16C4D
 10
-1360.00
 20
-1568.70
 30
0.000000
  70
    32
  0
VERTEX
  8
01
  5
16C4E
 10
-1360.00
 20
-1568.70
 30
0.000000
  70
    32
  0
VERTEX
  8
01
  5
16C4F
 10
-1360.00
 20
-1568.69
 30
0.000000
  70
    32
  0
VERTEX
  8
01
  5
16C50
 10
-1360.01
 20
-1568.69
 30
0.000000
  70
    32
  0
VERTEX
  8
01
  5
16C51
 10
-1360.01
 20
-1568.68
 30
0.000000
  70
    32
  0
VERTEX
  8
01
  5
16C52
 10
-1360.01
 20
-1568.68
 30
0.000000
  70
    32
  0
VERTEX
  8
01
  5
16C53
 10
-1360.01
 20
-1568.67
 30
0.000000
  70
    32
  0
VERTEX
  8
01
  5
16C54
 10
-1360.02
 20
-1568.67
 30
0.000000
  70
    32
  0
VERTEX
  8
01
  5
16C55
 10
-1360.02
 20
-1568.67
 30
0.000000
  70
    32
  0
VERTEX
  8
01
  5
16C56
 10
-1360.02
 20
-1568.66
 30
0.000000
  70
    32
  0
VERTEX
  8
01
  5
16C57
 10
-1360.02
 20
-1568.66
 30
0.000000
  70
    32
  0
VERTEX
  8
01
  5
16C58
 10
-1360.03
 20
-1568.65
 30
0.000000
  70
    32
  0
VERTEX
  8
01
  5
16C59
 10
-1360.03
 20
-1568.65
 30
0.000000
  70
    32
  0
VERTEX
  8
01
  5
16C5A
 10
-1360.03
 20
-1568.64
 30
0.000000
  70
    32
  0
VERTEX
  8
01
  5
16C5B
 10
-1360.03
 20
-1568.64
 30
0.000000
  70
    32
  0
VERTEX
  8
01
  5
16C5C
 10
-1360.03
 20
-1568.63
 30
0.000000
  70
    32
  0
VERTEX
  8
01
  5
16C5D
 10
-1360.04
 20
-1568.63
 30
0.000000
  70
    32
  0
VERTEX
  8
01
  5
16C5E
 10
-1360.04
 20
-1568.62
 30
0.000000
  70
    32
  0
VERTEX
  8
01
  5
16C5F
 10
-1360.04
 20
-1568.62
 30
0.000000
  70
    32
  0
VERTEX
  8
01
  5
16C60
 10
-1360.04
 20
-1568.62
 30
0.000000
  70
    32
  0
VERTEX
  8
01
  5
16C61
 10
-1360.05
 20
-1568.61
 30
0.000000
  70
    32
  0
VERTEX
  8
01
  5
16C62
 10
-1360.05
 20
-1568.61
 30
0.000000
  70
    32
  0
VERTEX
  8
01
  5
16C63
 10
-1360.05
 20
-1568.60
 30
0.000000
  70
    32
  0
VERTEX
  8
01
  5
16C64
 10
-1360.05
 20
-1568.60
 30
0.000000
  70
    32
  0
VERTEX
  8
01
  5
16C65
 10
-1360.06
 20
-1568.59
 30
0.000000
  70
    32
  0
VERTEX
  8
01
  5
16C66
 10
-1360.06
 20
-1568.59
 30
0.000000
  70
    32
  0
VERTEX
  8
01
  5
16C67
 10
-1360.06
 20
-1568.58
 30
0.000000
  70
    32
  0
VERTEX
  8
01
  5
16C68
 10
-1360.06
 20
-1568.58
 30
0.000000
  70
    32
  0
VERTEX
  8
01
  5
16C69
 10
-1360.07
 20
-1568.57
 30
0.000000
  70
    32
  0
VERTEX
  8
01
  5
16C6A
 10
-1360.07
 20
-1568.57
 30
0.000000
  70
    32
  0
VERTEX
  8
01
  5
16C6B
 10
-1360.07
 20
-1568.57
 30
0.000000
  70
    32
  0
VERTEX
  8
01
  5
16C6C
 10
-1360.07
 20
-1568.56
 30
0.000000
  70
    32
  0
VERTEX
  8
01
  5
16C6D
 10
-1360.08
 20
-1568.56
 30
0.000000
  70
    32
  0
VERTEX
  8
01
  5
16C6E
 10
-1360.08
 20
-1568.55
 30
0.000000
  70
    32
  0
VERTEX
  8
01
  5
16C6F
 10
-1360.08
 20
-1568.55
 30
0.000000
  70
    32
  0
VERTEX
  8
01
  5
16C70
 10
-1360.08
 20
-1568.54
 30
0.000000
  70
    32
  0
VERTEX
  8
01
  5
16C71
 10
-1360.08
 20
-1568.54
 30
0.000000
  70
    32
  0
VERTEX
  8
01
  5
16C72
 10
-1360.09
 20
-1568.53
 30
0.000000
  70
    32
  0
VERTEX
  8
01
  5
16C73
 10
-1360.09
 20
-1568.53
 30
0.000000
  70
    32
  0
VERTEX
  8
01
  5
16C74
 10
-1360.09
 20
-1568.53
 30
0.000000
  70
    32
  0
VERTEX
  8
01
  5
16C75
 10
-1360.09
 20
-1568.52
 30
0.000000
  70
    32
  0
VERTEX
  8
01
  5
16C76
 10
-1360.10
 20
-1568.52
 30
0.000000
  70
    32
  0
VERTEX
  8
01
  5
16C77
 10
-1360.10
 20
-1568.51
 30
0.000000
  70
    32
  0
VERTEX
  8
01
  5
16C78
 10
-1360.10
 20
-1568.51
 30
0.000000
  70
    32
  0
VERTEX
  8
01
  5
16C79
 10
-1360.10
 20
-1568.50
 30
0.000000
  70
    32
  0
VERTEX
  8
01
  5
16C7A
 10
-1360.11
 20
-1568.50
 30
0.000000
  70
    32
  0
VERTEX
  8
01
  5
16C7B
 10
-1360.11
 20
-1568.49
 30
0.000000
  70
    32
  0
VERTEX
  8
01
  5
16C7C
 10
-1360.11
 20
-1568.49
 30
0.000000
  70
    32
  0
VERTEX
  8
01
  5
16C7D
 10
-1360.11
 20
-1568.48
 30
0.000000
  70
    32
  0
VERTEX
  8
01
  5
16C7E
 10
-1360.11
 20
-1568.48
 30
0.000000
  70
    32
  0
VERTEX
  8
01
  5
16C7F
 10
-1360.12
 20
-1568.48
 30
0.000000
  70
    32
  0
VERTEX
  8
01
  5
16C80
 10
-1360.12
 20
-1568.47
 30
0.000000
  70
    32
  0
VERTEX
  8
01
  5
16C81
 10
-1360.12
 20
-1568.47
 30
0.000000
  70
    32
  0
VERTEX
  8
01
  5
16C82
 10
-1360.12
 20
-1568.46
 30
0.000000
  70
    32
  0
VERTEX
  8
01
  5
16C83
 10
-1360.13
 20
-1568.46
 30
0.000000
  70
    32
  0
VERTEX
  8
01
  5
16C84
 10
-1360.13
 20
-1568.45
 30
0.000000
  70
    32
  0
VERTEX
  8
01
  5
16C85
 10
-1360.13
 20
-1568.45
 30
0.000000
  70
    32
  0
VERTEX
  8
01
  5
16C86
 10
-1360.13
 20
-1568.44
 30
0.000000
  70
    32
  0
VERTEX
  8
01
  5
16C87
 10
-1360.14
 20
-1568.44
 30
0.000000
  70
    32
  0
VERTEX
  8
01
  5
16C88
 10
-1360.14
 20
-1568.43
 30
0.000000
  70
    32
  0
VERTEX
  8
01
  5
16C89
 10
-1360.14
 20
-1568.43
 30
0.000000
  70
    32
  0
VERTEX
  8
01
  5
16C8A
 10
-1360.14
 20
-1568.42
 30
0.000000
  70
    32
  0
VERTEX
  8
01
  5
16C8B
 10
-1360.14
 20
-1568.42
 30
0.000000
  70
    32
  0
VERTEX
  8
01
  5
16C8C
 10
-1360.15
 20
-1568.42
 30
0.000000
  70
    32
  0
VERTEX
  8
01
  5
16C8D
 10
-1360.15
 20
-1568.41
 30
0.000000
  70
    32
  0
VERTEX
  8
01
  5
16C8E
 10
-1360.15
 20
-1568.41
 30
0.000000
  70
    32
  0
VERTEX
  8
01
  5
16C8F
 10
-1360.15
 20
-1568.40
 30
0.000000
  70
    32
  0
VERTEX
  8
01
  5
16C90
 10
-1360.16
 20
-1568.40
 30
0.000000
  70
    32
  0
VERTEX
  8
01
  5
16C91
 10
-1360.16
 20
-1568.39
 30
0.000000
  70
    32
  0
VERTEX
  8
01
  5
16C92
 10
-1360.16
 20
-1568.39
 30
0.000000
  70
    32
  0
VERTEX
  8
01
  5
16C93
 10
-1360.16
 20
-1568.38
 30
0.000000
  70
    32
  0
VERTEX
  8
01
  5
16C94
 10
-1360.16
 20
-1568.38
 30
0.000000
  70
    32
  0
VERTEX
  8
01
  5
16C95
 10
-1360.17
 20
-1568.37
 30
0.000000
  70
    32
  0
VERTEX
  8
01
  5
16C96
 10
-1360.17
 20
-1568.37
 30
0.000000
  70
    32
  0
VERTEX
  8
01
  5
16C97
 10
-1360.17
 20
-1568.37
 30
0.000000
  70
    32
  0
VERTEX
  8
01
  5
16C98
 10
-1360.17
 20
-1568.36
 30
0.000000
  70
    32
  0
VERTEX
  8
01
  5
16C99
 10
-1360.18
 20
-1568.36
 30
0.000000
  70
    32
  0
VERTEX
  8
01
  5
16C9A
 10
-1360.18
 20
-1568.35
 30
0.000000
  70
    32
  0
VERTEX
  8
01
  5
16C9B
 10
-1360.18
 20
-1568.35
 30
0.000000
  70
    32
  0
VERTEX
  8
01
  5
16C9C
 10
-1360.18
 20
-1568.34
 30
0.000000
  70
    32
  0
VERTEX
  8
01
  5
16C9D
 10
-1360.18
 20
-1568.34
 30
0.000000
  70
    32
  0
VERTEX
  8
01
  5
16C9E
 10
-1360.19
 20
-1568.33
 30
0.000000
  70
    32
  0
VERTEX
  8
01
  5
16C9F
 10
-1360.19
 20
-1568.33
 30
0.000000
  70
    32
  0
VERTEX
  8
01
  5
16CA0
 10
-1360.19
 20
-1568.32
 30
0.000000
  70
    32
  0
VERTEX
  8
01
  5
16CA1
 10
-1360.19
 20
-1568.32
 30
0.000000
  70
    32
  0
VERTEX
  8
01
  5
16CA2
 10
-1360.19
 20
-1568.31
 30
0.000000
  70
    32
  0
VERTEX
  8
01
  5
16CA3
 10
-1360.20
 20
-1568.31
 30
0.000000
  70
    32
  0
VERTEX
  8
01
  5
16CA4
 10
-1360.20
 20
-1568.31
 30
0.000000
  70
    32
  0
VERTEX
  8
01
  5
16CA5
 10
-1360.20
 20
-1568.30
 30
0.000000
  70
    32
  0
VERTEX
  8
01
  5
16CA6
 10
-1360.20
 20
-1568.30
 30
0.000000
  70
    32
  0
VERTEX
  8
01
  5
16CA7
 10
-1360.21
 20
-1568.29
 30
0.000000
  70
    32
  0
VERTEX
  8
01
  5
16CA8
 10
-1360.21
 20
-1568.29
 30
0.000000
  70
    32
  0
VERTEX
  8
01
  5
16CA9
 10
-1360.21
 20
-1568.28
 30
0.000000
  70
    32
  0
VERTEX
  8
01
  5
16CAA
 10
-1360.21
 20
-1568.28
 30
0.000000
  70
    32
  0
VERTEX
  8
01
  5
16CAB
 10
-1360.21
 20
-1568.27
 30
0.000000
  70
    32
  0
VERTEX
  8
01
  5
16CAC
 10
-1360.22
 20
-1568.27
 30
0.000000
  70
    32
  0
VERTEX
  8
01
  5
16CAD
 10
-1360.22
 20
-1568.26
 30
0.000000
  70
    32
  0
VERTEX
  8
01
  5
16CAE
 10
-1360.22
 20
-1568.26
 30
0.000000
  70
    32
  0
VERTEX
  8
01
  5
16CAF
 10
-1360.22
 20
-1568.25
 30
0.000000
  70
    32
  0
VERTEX
  8
01
  5
16CB0
 10
-1360.22
 20
-1568.25
 30
0.000000
  70
    32
  0
VERTEX
  8
01
  5
16CB1
 10
-1360.23
 20
-1568.25
 30
0.000000
  70
    32
  0
VERTEX
  8
01
  5
16CB2
 10
-1360.23
 20
-1568.24
 30
0.000000
  70
    32
  0
VERTEX
  8
01
  5
16CB3
 10
-1360.23
 20
-1568.24
 30
0.000000
  70
    32
  0
VERTEX
  8
01
  5
16CB4
 10
-1360.23
 20
-1568.23
 30
0.000000
  70
    32
  0
VERTEX
  8
01
  5
16CB5
 10
-1360.24
 20
-1568.23
 30
0.000000
  70
    32
  0
VERTEX
  8
01
  5
16CB6
 10
-1360.24
 20
-1568.22
 30
0.000000
  70
    32
  0
VERTEX
  8
01
  5
16CB7
 10
-1360.24
 20
-1568.22
 30
0.000000
  70
    32
  0
VERTEX
  8
01
  5
16CB8
 10
-1360.24
 20
-1568.21
 30
0.000000
  70
    32
  0
VERTEX
  8
01
  5
16CB9
 10
-1360.24
 20
-1568.21
 30
0.000000
  70
    32
  0
VERTEX
  8
01
  5
16CBA
 10
-1360.25
 20
-1568.20
 30
0.000000
  70
    32
  0
VERTEX
  8
01
  5
16CBB
 10
-1360.25
 20
-1568.20
 30
0.000000
  70
    32
  0
VERTEX
  8
01
  5
16CBC
 10
-1360.25
 20
-1568.19
 30
0.000000
  70
    32
  0
VERTEX
  8
01
  5
16CBD
 10
-1360.25
 20
-1568.19
 30
0.000000
  70
    32
  0
VERTEX
  8
01
  5
16CBE
 10
-1360.25
 20
-1568.18
 30
0.000000
  70
    32
  0
VERTEX
  8
01
  5
16CBF
 10
-1360.26
 20
-1568.18
 30
0.000000
  70
    32
  0
VERTEX
  8
01
  5
16CC0
 10
-1360.26
 20
-1568.18
 30
0.000000
  70
    32
  0
VERTEX
  8
01
  5
16CC1
 10
-1360.26
 20
-1568.17
 30
0.000000
  70
    32
  0
VERTEX
  8
01
  5
16CC2
 10
-1360.26
 20
-1568.17
 30
0.000000
  70
    32
  0
VERTEX
  8
01
  5
16CC3
 10
-1360.26
 20
-1568.16
 30
0.000000
  70
    32
  0
VERTEX
  8
01
  5
16CC4
 10
-1360.27
 20
-1568.16
 30
0.000000
  70
    32
  0
VERTEX
  8
01
  5
16CC5
 10
-1360.27
 20
-1568.15
 30
0.000000
  70
    32
  0
VERTEX
  8
01
  5
16CC6
 10
-1360.27
 20
-1568.15
 30
0.000000
  70
    32
  0
VERTEX
  8
01
  5
16CC7
 10
-1360.27
 20
-1568.14
 30
0.000000
  70
    32
  0
VERTEX
  8
01
  5
16CC8
 10
-1360.27
 20
-1568.14
 30
0.000000
  70
    32
  0
VERTEX
  8
01
  5
16CC9
 10
-1360.28
 20
-1568.13
 30
0.000000
  70
    32
  0
VERTEX
  8
01
  5
16CCA
 10
-1360.28
 20
-1568.13
 30
0.000000
  70
    32
  0
VERTEX
  8
01
  5
16CCB
 10
-1360.28
 20
-1568.12
 30
0.000000
  70
    32
  0
VERTEX
  8
01
  5
16CCC
 10
-1360.28
 20
-1568.12
 30
0.000000
  70
    32
  0
VERTEX
  8
01
  5
16CCD
 10
-1360.29
 20
-1568.11
 30
0.000000
  70
    32
  0
VERTEX
  8
01
  5
16CCE
 10
-1360.29
 20
-1568.11
 30
0.000000
  70
    32
  0
VERTEX
  8
01
  5
16CCF
 10
-1360.29
 20
-1568.11
 30
0.000000
  70
    32
  0
VERTEX
  8
01
  5
16CD0
 10
-1360.29
 20
-1568.10
 30
0.000000
  70
    32
  0
VERTEX
  8
01
  5
16CD1
 10
-1360.29
 20
-1568.10
 30
0.000000
  70
    32
  0
VERTEX
  8
01
  5
16CD2
 10
-1360.30
 20
-1568.09
 30
0.000000
  70
    32
  0
VERTEX
  8
01
  5
16CD3
 10
-1360.30
 20
-1568.09
 30
0.000000
  70
    32
  0
VERTEX
  8
01
  5
16CD4
 10
-1360.30
 20
-1568.08
 30
0.000000
  70
    32
  0
VERTEX
  8
01
  5
16CD5
 10
-1360.30
 20
-1568.08
 30
0.000000
  70
    32
  0
VERTEX
  8
01
  5
16CD6
 10
-1360.30
 20
-1568.07
 30
0.000000
  70
    32
  0
VERTEX
  8
01
  5
16CD7
 10
-1360.31
 20
-1568.07
 30
0.000000
  70
    32
  0
VERTEX
  8
01
  5
16CD8
 10
-1360.31
 20
-1568.06
 30
0.000000
  70
    32
  0
VERTEX
  8
01
  5
16CD9
 10
-1360.31
 20
-1568.06
 30
0.000000
  70
    32
  0
VERTEX
  8
01
  5
16CDA
 10
-1360.31
 20
-1568.05
 30
0.000000
  70
    32
  0
VERTEX
  8
01
  5
16CDB
 10
-1360.31
 20
-1568.05
 30
0.000000
  70
    32
  0
VERTEX
  8
01
  5
16CDC
 10
-1360.32
 20
-1568.04
 30
0.000000
  70
    32
  0
VERTEX
  8
01
  5
16CDD
 10
-1360.32
 20
-1568.04
 30
0.000000
  70
    32
  0
VERTEX
  8
01
  5
16CDE
 10
-1360.32
 20
-1568.03
 30
0.000000
  70
    32
  0
VERTEX
  8
01
  5
16CDF
 10
-1360.32
 20
-1568.03
 30
0.000000
  70
    32
  0
VERTEX
  8
01
  5
16CE0
 10
-1360.32
 20
-1568.03
 30
0.000000
  70
    32
  0
VERTEX
  8
01
  5
16CE1
 10
-1360.33
 20
-1568.02
 30
0.000000
  70
    32
  0
VERTEX
  8
01
  5
16CE2
 10
-1360.33
 20
-1568.02
 30
0.000000
  70
    32
  0
VERTEX
  8
01
  5
16CE3
 10
-1360.33
 20
-1568.01
 30
0.000000
  70
    32
  0
VERTEX
  8
01
  5
16CE4
 10
-1360.33
 20
-1568.01
 30
0.000000
  70
    32
  0
VERTEX
  8
01
  5
16CE5
 10
-1360.33
 20
-1568.00
 30
0.000000
  70
    32
  0
VERTEX
  8
01
  5
16CE6
 10
-1360.33
 20
-1568.00
 30
0.000000
  70
    32
  0
VERTEX
  8
01
  5
16CE7
 10
-1360.34
 20
-1567.99
 30
0.000000
  70
    32
  0
VERTEX
  8
01
  5
16CE8
 10
-1360.34
 20
-1567.99
 30
0.000000
  70
    32
  0
VERTEX
  8
01
  5
16CE9
 10
-1360.34
 20
-1567.98
 30
0.000000
  70
    32
  0
VERTEX
  8
01
  5
16CEA
 10
-1360.34
 20
-1567.98
 30
0.000000
  70
    32
  0
VERTEX
  8
01
  5
16CEB
 10
-1360.34
 20
-1567.97
 30
0.000000
  70
    32
  0
VERTEX
  8
01
  5
16CEC
 10
-1360.35
 20
-1567.97
 30
0.000000
  70
    32
  0
VERTEX
  8
01
  5
16CED
 10
-1360.35
 20
-1567.96
 30
0.000000
  70
    32
  0
VERTEX
  8
01
  5
16CEE
 10
-1360.35
 20
-1567.96
 30
0.000000
  70
    32
  0
VERTEX
  8
01
  5
16CEF
 10
-1360.35
 20
-1567.95
 30
0.000000
  70
    32
  0
VERTEX
  8
01
  5
16CF0
 10
-1360.35
 20
-1567.95
 30
0.000000
  70
    32
  0
VERTEX
  8
01
  5
16CF1
 10
-1360.36
 20
-1567.95
 30
0.000000
  70
    32
  0
VERTEX
  8
01
  5
16CF2
 10
-1360.36
 20
-1567.94
 30
0.000000
  70
    32
  0
VERTEX
  8
01
  5
16CF3
 10
-1360.36
 20
-1567.94
 30
0.000000
  70
    32
  0
VERTEX
  8
01
  5
16CF4
 10
-1360.36
 20
-1567.93
 30
0.000000
  70
    32
  0
VERTEX
  8
01
  5
16CF5
 10
-1360.36
 20
-1567.93
 30
0.000000
  70
    32
  0
VERTEX
  8
01
  5
16CF6
 10
-1360.37
 20
-1567.92
 30
0.000000
  70
    32
  0
VERTEX
  8
01
  5
16CF7
 10
-1360.37
 20
-1567.92
 30
0.000000
  70
    32
  0
VERTEX
  8
01
  5
16CF8
 10
-1360.37
 20
-1567.91
 30
0.000000
  70
    32
  0
VERTEX
  8
01
  5
16CF9
 10
-1360.37
 20
-1567.91
 30
0.000000
  70
    32
  0
VERTEX
  8
01
  5
16CFA
 10
-1360.37
 20
-1567.90
 30
0.000000
  70
    32
  0
VERTEX
  8
01
  5
16CFB
 10
-1360.37
 20
-1567.90
 30
0.000000
  70
    32
  0
VERTEX
  8
01
  5
16CFC
 10
-1360.38
 20
-1567.89
 30
0.000000
  70
    32
  0
VERTEX
  8
01
  5
16CFD
 10
-1360.38
 20
-1567.89
 30
0.000000
  70
    32
  0
VERTEX
  8
01
  5
16CFE
 10
-1360.38
 20
-1567.88
 30
0.000000
  70
    32
  0
VERTEX
  8
01
  5
16CFF
 10
-1360.38
 20
-1567.88
 30
0.000000
  70
    32
  0
VERTEX
  8
01
  5
16D00
 10
-1360.38
 20
-1567.87
 30
0.000000
  70
    32
  0
VERTEX
  8
01
  5
16D01
 10
-1360.39
 20
-1567.87
 30
0.000000
  70
    32
  0
VERTEX
  8
01
  5
16D02
 10
-1360.39
 20
-1567.86
 30
0.000000
  70
    32
  0
VERTEX
  8
01
  5
16D03
 10
-1360.39
 20
-1567.86
 30
0.000000
  70
    32
  0
VERTEX
  8
01
  5
16D04
 10
-1360.39
 20
-1567.86
 30
0.000000
  70
    32
  0
VERTEX
  8
01
  5
16D05
 10
-1360.39
 20
-1567.85
 30
0.000000
  70
    32
  0
VERTEX
  8
01
  5
16D06
 10
-1360.40
 20
-1567.85
 30
0.000000
  70
    32
  0
VERTEX
  8
01
  5
16D07
 10
-1360.40
 20
-1567.84
 30
0.000000
  70
    32
  0
VERTEX
  8
01
  5
16D08
 10
-1360.40
 20
-1567.84
 30
0.000000
  70
    32
  0
VERTEX
  8
01
  5
16D09
 10
-1360.40
 20
-1567.83
 30
0.000000
  70
    32
  0
VERTEX
  8
01
  5
16D0A
 10
-1360.40
 20
-1567.83
 30
0.000000
  70
    32
  0
VERTEX
  8
01
  5
16D0B
 10
-1360.40
 20
-1567.82
 30
0.000000
  70
    32
  0
VERTEX
  8
01
  5
16D0C
 10
-1360.41
 20
-1567.82
 30
0.000000
  70
    32
  0
VERTEX
  8
01
  5
16D0D
 10
-1360.41
 20
-1567.81
 30
0.000000
  70
    32
  0
VERTEX
  8
01
  5
16D0E
 10
-1360.41
 20
-1567.81
 30
0.000000
  70
    32
  0
VERTEX
  8
01
  5
16D0F
 10
-1360.41
 20
-1567.80
 30
0.000000
  70
    32
  0
VERTEX
  8
01
  5
16D10
 10
-1360.41
 20
-1567.80
 30
0.000000
  70
    32
  0
VERTEX
  8
01
  5
16D11
 10
-1360.42
 20
-1567.79
 30
0.000000
  70
    32
  0
VERTEX
  8
01
  5
16D12
 10
-1360.42
 20
-1567.79
 30
0.000000
  70
    32
  0
VERTEX
  8
01
  5
16D13
 10
-1360.42
 20
-1567.78
 30
0.000000
  70
    32
  0
VERTEX
  8
01
  5
16D14
 10
-1360.42
 20
-1567.78
 30
0.000000
  70
    32
  0
VERTEX
  8
01
  5
16D15
 10
-1360.42
 20
-1567.77
 30
0.000000
  70
    32
  0
VERTEX
  8
01
  5
16D16
 10
-1360.42
 20
-1567.77
 30
0.000000
  70
    32
  0
VERTEX
  8
01
  5
16D17
 10
-1360.43
 20
-1567.76
 30
0.000000
  70
    32
  0
VERTEX
  8
01
  5
16D18
 10
-1360.43
 20
-1567.76
 30
0.000000
  70
    32
  0
VERTEX
  8
01
  5
16D19
 10
-1360.43
 20
-1567.75
 30
0.000000
  70
    32
  0
VERTEX
  8
01
  5
16D1A
 10
-1360.43
 20
-1567.75
 30
0.000000
  70
    32
  0
VERTEX
  8
01
  5
16D1B
 10
-1360.43
 20
-1567.75
 30
0.000000
  70
    32
  0
VERTEX
  8
01
  5
16D1C
 10
-1360.43
 20
-1567.74
 30
0.000000
  70
    32
  0
VERTEX
  8
01
  5
16D1D
 10
-1360.44
 20
-1567.74
 30
0.000000
  70
    32
  0
VERTEX
  8
01
  5
16D1E
 10
-1360.44
 20
-1567.73
 30
0.000000
  70
    32
  0
VERTEX
  8
01
  5
16D1F
 10
-1360.44
 20
-1567.73
 30
0.000000
  70
    32
  0
VERTEX
  8
01
  5
16D20
 10
-1360.44
 20
-1567.72
 30
0.000000
  70
    32
  0
VERTEX
  8
01
  5
16D21
 10
-1360.44
 20
-1567.72
 30
0.000000
  70
    32
  0
VERTEX
  8
01
  5
16D22
 10
-1360.45
 20
-1567.71
 30
0.000000
  70
    32
  0
VERTEX
  8
01
  5
16D23
 10
-1360.45
 20
-1567.71
 30
0.000000
  70
    32
  0
VERTEX
  8
01
  5
16D24
 10
-1360.45
 20
-1567.70
 30
0.000000
  70
    32
  0
VERTEX
  8
01
  5
16D25
 10
-1360.45
 20
-1567.70
 30
0.000000
  70
    32
  0
VERTEX
  8
01
  5
16D26
 10
-1360.45
 20
-1567.69
 30
0.000000
  70
    32
  0
VERTEX
  8
01
  5
16D27
 10
-1360.45
 20
-1567.69
 30
0.000000
  70
    32
  0
VERTEX
  8
01
  5
16D28
 10
-1360.46
 20
-1567.68
 30
0.000000
  70
    32
  0
VERTEX
  8
01
  5
16D29
 10
-1360.46
 20
-1567.68
 30
0.000000
  70
    32
  0
VERTEX
  8
01
  5
16D2A
 10
-1360.46
 20
-1567.67
 30
0.000000
  70
    32
  0
VERTEX
  8
01
  5
16D2B
 10
-1360.46
 20
-1567.67
 30
0.000000
  70
    32
  0
VERTEX
  8
01
  5
16D2C
 10
-1360.46
 20
-1567.66
 30
0.000000
  70
    32
  0
VERTEX
  8
01
  5
16D2D
 10
-1360.46
 20
-1567.66
 30
0.000000
  70
    32
  0
VERTEX
  8
01
  5
16D2E
 10
-1360.47
 20
-1567.65
 30
0.000000
  70
    32
  0
VERTEX
  8
01
  5
16D2F
 10
-1360.47
 20
-1567.65
 30
0.000000
  70
    32
  0
VERTEX
  8
01
  5
16D30
 10
-1360.47
 20
-1567.64
 30
0.000000
  70
    32
  0
VERTEX
  8
01
  5
16D31
 10
-1360.47
 20
-1567.64
 30
0.000000
  70
    32
  0
VERTEX
  8
01
  5
16D32
 10
-1360.47
 20
-1567.64
 30
0.000000
  70
    32
  0
VERTEX
  8
01
  5
16D33
 10
-1360.47
 20
-1567.63
 30
0.000000
  70
    32
  0
VERTEX
  8
01
  5
16D34
 10
-1360.48
 20
-1567.63
 30
0.000000
  70
    32
  0
VERTEX
  8
01
  5
16D35
 10
-1360.48
 20
-1567.62
 30
0.000000
  70
    32
  0
VERTEX
  8
01
  5
16D36
 10
-1360.48
 20
-1567.62
 30
0.000000
  70
    32
  0
VERTEX
  8
01
  5
16D37
 10
-1360.48
 20
-1567.61
 30
0.000000
  70
    32
  0
VERTEX
  8
01
  5
16D38
 10
-1360.48
 20
-1567.61
 30
0.000000
  70
    32
  0
VERTEX
  8
01
  5
16D39
 10
-1360.48
 20
-1567.60
 30
0.000000
  70
    32
  0
VERTEX
  8
01
  5
16D3A
 10
-1360.49
 20
-1567.60
 30
0.000000
  70
    32
  0
VERTEX
  8
01
  5
16D3B
 10
-1360.49
 20
-1567.59
 30
0.000000
  70
    32
  0
VERTEX
  8
01
  5
16D3C
 10
-1360.49
 20
-1567.59
 30
0.000000
  70
    32
  0
VERTEX
  8
01
  5
16D3D
 10
-1360.49
 20
-1567.58
 30
0.000000
  70
    32
  0
VERTEX
  8
01
  5
16D3E
 10
-1360.49
 20
-1567.58
 30
0.000000
  70
    32
  0
VERTEX
  8
01
  5
16D3F
 10
-1360.49
 20
-1567.57
 30
0.000000
  70
    32
  0
VERTEX
  8
01
  5
16D40
 10
-1360.50
 20
-1567.57
 30
0.000000
  70
    32
  0
VERTEX
  8
01
  5
16D41
 10
-1360.50
 20
-1567.56
 30
0.000000
  70
    32
  0
VERTEX
  8
01
  5
16D42
 10
-1360.50
 20
-1567.56
 30
0.000000
  70
    32
  0
VERTEX
  8
01
  5
16D43
 10
-1360.50
 20
-1567.55
 30
0.000000
  70
    32
  0
VERTEX
  8
01
  5
16D44
 10
-1360.50
 20
-1567.55
 30
0.000000
  70
    32
  0
VERTEX
  8
01
  5
16D45
 10
-1360.50
 20
-1567.54
 30
0.000000
  70
    32
  0
VERTEX
  8
01
  5
16D46
 10
-1360.51
 20
-1567.54
 30
0.000000
  70
    32
  0
VERTEX
  8
01
  5
16D47
 10
-1360.51
 20
-1567.53
 30
0.000000
  70
    32
  0
VERTEX
  8
01
  5
16D48
 10
-1360.51
 20
-1567.53
 30
0.000000
  70
    32
  0
VERTEX
  8
01
  5
16D49
 10
-1360.51
 20
-1567.52
 30
0.000000
  70
    32
  0
VERTEX
  8
01
  5
16D4A
 10
-1360.51
 20
-1567.52
 30
0.000000
  70
    32
  0
VERTEX
  8
01
  5
16D4B
 10
-1360.51
 20
-1567.51
 30
0.000000
  70
    32
  0
VERTEX
  8
01
  5
16D4C
 10
-1360.52
 20
-1567.51
 30
0.000000
  70
    32
  0
VERTEX
  8
01
  5
16D4D
 10
-1360.52
 20
-1567.50
 30
0.000000
  70
    32
  0
VERTEX
  8
01
  5
16D4E
 10
-1360.52
 20
-1567.50
 30
0.000000
  70
    32
  0
VERTEX
  8
01
  5
16D4F
 10
-1360.52
 20
-1567.49
 30
0.000000
  70
    32
  0
VERTEX
  8
01
  5
16D50
 10
-1360.52
 20
-1567.49
 30
0.000000
  70
    32
  0
VERTEX
  8
01
  5
16D51
 10
-1360.52
 20
-1567.49
 30
0.000000
  70
    32
  0
VERTEX
  8
01
  5
16D52
 10
-1360.52
 20
-1567.48
 30
0.000000
  70
    32
  0
VERTEX
  8
01
  5
16D53
 10
-1360.53
 20
-1567.48
 30
0.000000
  70
    32
  0
VERTEX
  8
01
  5
16D54
 10
-1360.53
 20
-1567.47
 30
0.000000
  70
    32
  0
VERTEX
  8
01
  5
16D55
 10
-1360.53
 20
-1567.47
 30
0.000000
  70
    32
  0
VERTEX
  8
01
  5
16D56
 10
-1360.53
 20
-1567.46
 30
0.000000
  70
    32
  0
VERTEX
  8
01
  5
16D57
 10
-1360.53
 20
-1567.46
 30
0.000000
  70
    32
  0
VERTEX
  8
01
  5
16D58
 10
-1360.53
 20
-1567.45
 30
0.000000
  70
    32
  0
VERTEX
  8
01
  5
16D59
 10
-1360.54
 20
-1567.45
 30
0.000000
  70
    32
  0
VERTEX
  8
01
  5
16D5A
 10
-1360.54
 20
-1567.44
 30
0.000000
  70
    32
  0
VERTEX
  8
01
  5
16D5B
 10
-1360.54
 20
-1567.44
 30
0.000000
  70
    32
  0
VERTEX
  8
01
  5
16D5C
 10
-1360.54
 20
-1567.43
 30
0.000000
  70
    32
  0
VERTEX
  8
01
  5
16D5D
 10
-1360.54
 20
-1567.43
 30
0.000000
  70
    32
  0
VERTEX
  8
01
  5
16D5E
 10
-1360.54
 20
-1567.42
 30
0.000000
  70
    32
  0
VERTEX
  8
01
  5
16D5F
 10
-1360.55
 20
-1567.42
 30
0.000000
  70
    32
  0
VERTEX
  8
01
  5
16D60
 10
-1360.55
 20
-1567.41
 30
0.000000
  70
    32
  0
VERTEX
  8
01
  5
16D61
 10
-1360.55
 20
-1567.41
 30
0.000000
  70
    32
  0
VERTEX
  8
01
  5
16D62
 10
-1360.55
 20
-1567.40
 30
0.000000
  70
    32
  0
VERTEX
  8
01
  5
16D63
 10
-1360.55
 20
-1567.40
 30
0.000000
  70
    32
  0
VERTEX
  8
01
  5
16D64
 10
-1360.55
 20
-1567.39
 30
0.000000
  70
    32
  0
VERTEX
  8
01
  5
16D65
 10
-1360.55
 20
-1567.39
 30
0.000000
  70
    32
  0
VERTEX
  8
01
  5
16D66
 10
-1360.56
 20
-1567.38
 30
0.000000
  70
    32
  0
VERTEX
  8
01
  5
16D67
 10
-1360.56
 20
-1567.38
 30
0.000000
  70
    32
  0
VERTEX
  8
01
  5
16D68
 10
-1360.56
 20
-1567.37
 30
0.000000
  70
    32
  0
VERTEX
  8
01
  5
16D69
 10
-1360.56
 20
-1567.37
 30
0.000000
  70
    32
  0
VERTEX
  8
01
  5
16D6A
 10
-1360.56
 20
-1567.36
 30
0.000000
  70
    32
  0
VERTEX
  8
01
  5
16D6B
 10
-1360.56
 20
-1567.36
 30
0.000000
  70
    32
  0
VERTEX
  8
01
  5
16D6C
 10
-1360.56
 20
-1567.35
 30
0.000000
  70
    32
  0
VERTEX
  8
01
  5
16D6D
 10
-1360.57
 20
-1567.35
 30
0.000000
  70
    32
  0
VERTEX
  8
01
  5
16D6E
 10
-1360.57
 20
-1567.34
 30
0.000000
  70
    32
  0
VERTEX
  8
01
  5
16D6F
 10
-1360.57
 20
-1567.34
 30
0.000000
  70
    32
  0
VERTEX
  8
01
  5
16D70
 10
-1360.57
 20
-1567.33
 30
0.000000
  70
    32
  0
VERTEX
  8
01
  5
16D71
 10
-1360.57
 20
-1567.33
 30
0.000000
  70
    32
  0
VERTEX
  8
01
  5
16D72
 10
-1360.57
 20
-1567.32
 30
0.000000
  70
    32
  0
VERTEX
  8
01
  5
16D73
 10
-1360.57
 20
-1567.32
 30
0.000000
  70
    32
  0
VERTEX
  8
01
  5
16D74
 10
-1360.58
 20
-1567.31
 30
0.000000
  70
    32
  0
VERTEX
  8
01
  5
16D75
 10
-1360.58
 20
-1567.31
 30
0.000000
  70
    32
  0
VERTEX
  8
01
  5
16D76
 10
-1360.58
 20
-1567.31
 30
0.000000
  70
    32
  0
VERTEX
  8
01
  5
16D77
 10
-1360.58
 20
-1567.30
 30
0.000000
  70
    32
  0
VERTEX
  8
01
  5
16D78
 10
-1360.58
 20
-1567.30
 30
0.000000
  70
    32
  0
VERTEX
  8
01
  5
16D79
 10
-1360.58
 20
-1567.29
 30
0.000000
  70
    32
  0
VERTEX
  8
01
  5
16D7A
 10
-1360.59
 20
-1567.29
 30
0.000000
  70
    32
  0
VERTEX
  8
01
  5
16D7B
 10
-1360.59
 20
-1567.28
 30
0.000000
  70
    32
  0
VERTEX
  8
01
  5
16D7C
 10
-1360.59
 20
-1567.28
 30
0.000000
  70
    32
  0
VERTEX
  8
01
  5
16D7D
 10
-1360.59
 20
-1567.27
 30
0.000000
  70
    32
  0
VERTEX
  8
01
  5
16D7E
 10
-1360.59
 20
-1567.27
 30
0.000000
  70
    32
  0
VERTEX
  8
01
  5
16D7F
 10
-1360.59
 20
-1567.26
 30
0.000000
  70
    32
  0
VERTEX
  8
01
  5
16D80
 10
-1360.59
 20
-1567.26
 30
0.000000
  70
    32
  0
VERTEX
  8
01
  5
16D81
 10
-1360.60
 20
-1567.25
 30
0.000000
  70
    32
  0
VERTEX
  8
01
  5
16D82
 10
-1360.60
 20
-1567.25
 30
0.000000
  70
    32
  0
VERTEX
  8
01
  5
16D83
 10
-1360.60
 20
-1567.24
 30
0.000000
  70
    32
  0
VERTEX
  8
01
  5
16D84
 10
-1360.60
 20
-1567.24
 30
0.000000
  70
    32
  0
VERTEX
  8
01
  5
16D85
 10
-1360.60
 20
-1567.23
 30
0.000000
  70
    32
  0
VERTEX
  8
01
  5
16D86
 10
-1360.60
 20
-1567.23
 30
0.000000
  70
    32
  0
VERTEX
  8
01
  5
16D87
 10
-1360.60
 20
-1567.22
 30
0.000000
  70
    32
  0
VERTEX
  8
01
  5
16D88
 10
-1360.60
 20
-1567.22
 30
0.000000
  70
    32
  0
VERTEX
  8
01
  5
16D89
 10
-1360.61
 20
-1567.21
 30
0.000000
  70
    32
  0
VERTEX
  8
01
  5
16D8A
 10
-1360.61
 20
-1567.21
 30
0.000000
  70
    32
  0
VERTEX
  8
01
  5
16D8B
 10
-1360.61
 20
-1567.20
 30
0.000000
  70
    32
  0
VERTEX
  8
01
  5
16D8C
 10
-1360.61
 20
-1567.20
 30
0.000000
  70
    32
  0
VERTEX
  8
01
  5
16D8D
 10
-1360.61
 20
-1567.19
 30
0.000000
  70
    32
  0
VERTEX
  8
01
  5
16D8E
 10
-1360.61
 20
-1567.19
 30
0.000000
  70
    32
  0
VERTEX
  8
01
  5
16D8F
 10
-1360.61
 20
-1567.18
 30
0.000000
  70
    32
  0
VERTEX
  8
01
  5
16D90
 10
-1360.62
 20
-1567.18
 30
0.000000
  70
    32
  0
VERTEX
  8
01
  5
16D91
 10
-1360.62
 20
-1567.17
 30
0.000000
  70
    32
  0
VERTEX
  8
01
  5
16D92
 10
-1360.62
 20
-1567.17
 30
0.000000
  70
    32
  0
VERTEX
  8
01
  5
16D93
 10
-1360.62
 20
-1567.16
 30
0.000000
  70
    32
  0
VERTEX
  8
01
  5
16D94
 10
-1360.62
 20
-1567.16
 30
0.000000
  70
    32
  0
VERTEX
  8
01
  5
16D95
 10
-1360.62
 20
-1567.15
 30
0.000000
  70
    32
  0
VERTEX
  8
01
  5
16D96
 10
-1360.62
 20
-1567.15
 30
0.000000
  70
    32
  0
VERTEX
  8
01
  5
16D97
 10
-1360.63
 20
-1567.14
 30
0.000000
  70
    32
  0
VERTEX
  8
01
  5
16D98
 10
-1360.63
 20
-1567.14
 30
0.000000
  70
    32
  0
VERTEX
  8
01
  5
16D99
 10
-1360.63
 20
-1567.13
 30
0.000000
  70
    32
  0
VERTEX
  8
01
  5
16D9A
 10
-1360.63
 20
-1567.13
 30
0.000000
  70
    32
  0
VERTEX
  8
01
  5
16D9B
 10
-1360.63
 20
-1567.12
 30
0.000000
  70
    32
  0
VERTEX
  8
01
  5
16D9C
 10
-1360.63
 20
-1567.12
 30
0.000000
  70
    32
  0
VERTEX
  8
01
  5
16D9D
 10
-1360.63
 20
-1567.11
 30
0.000000
  70
    32
  0
VERTEX
  8
01
  5
16D9E
 10
-1360.63
 20
-1567.11
 30
0.000000
  70
    32
  0
VERTEX
  8
01
  5
16D9F
 10
-1360.64
 20
-1567.10
 30
0.000000
  70
    32
  0
VERTEX
  8
01
  5
16DA0
 10
-1360.64
 20
-1567.10
 30
0.000000
  70
    32
  0
VERTEX
  8
01
  5
16DA1
 10
-1360.64
 20
-1567.09
 30
0.000000
  70
    32
  0
VERTEX
  8
01
  5
16DA2
 10
-1360.64
 20
-1567.09
 30
0.000000
  70
    32
  0
VERTEX
  8
01
  5
16DA3
 10
-1360.64
 20
-1567.08
 30
0.000000
  70
    32
  0
VERTEX
  8
01
  5
16DA4
 10
-1360.64
 20
-1567.08
 30
0.000000
  70
    32
  0
VERTEX
  8
01
  5
16DA5
 10
-1360.64
 20
-1567.07
 30
0.000000
  70
    32
  0
VERTEX
  8
01
  5
16DA6
 10
-1360.64
 20
-1567.07
 30
0.000000
  70
    32
  0
VERTEX
  8
01
  5
16DA7
 10
-1360.65
 20
-1567.06
 30
0.000000
  70
    32
  0
VERTEX
  8
01
  5
16DA8
 10
-1360.65
 20
-1567.06
 30
0.000000
  70
    32
  0
VERTEX
  8
01
  5
16DA9
 10
-1360.65
 20
-1567.05
 30
0.000000
  70
    32
  0
VERTEX
  8
01
  5
16DAA
 10
-1360.65
 20
-1567.05
 30
0.000000
  70
    32
  0
VERTEX
  8
01
  5
16DAB
 10
-1360.65
 20
-1567.04
 30
0.000000
  70
    32
  0
VERTEX
  8
01
  5
16DAC
 10
-1360.65
 20
-1567.04
 30
0.000000
  70
    32
  0
VERTEX
  8
01
  5
16DAD
 10
-1360.65
 20
-1567.03
 30
0.000000
  70
    32
  0
VERTEX
  8
01
  5
16DAE
 10
-1360.66
 20
-1567.03
 30
0.000000
  70
    32
  0
VERTEX
  8
01
  5
16DAF
 10
-1360.66
 20
-1567.02
 30
0.000000
  70
    32
  0
VERTEX
  8
01
  5
16DB0
 10
-1360.66
 20
-1567.02
 30
0.000000
  70
    32
  0
VERTEX
  8
01
  5
16DB1
 10
-1360.66
 20
-1567.01
 30
0.000000
  70
    32
  0
VERTEX
  8
01
  5
16DB2
 10
-1360.66
 20
-1567.01
 30
0.000000
  70
    32
  0
VERTEX
  8
01
  5
16DB3
 10
-1360.66
 20
-1567.01
 30
0.000000
  70
    32
  0
VERTEX
  8
01
  5
16DB4
 10
-1360.66
 20
-1567.00
 30
0.000000
  70
    32
  0
VERTEX
  8
01
  5
16DB5
 10
-1360.66
 20
-1567.00
 30
0.000000
  70
    32
  0
VERTEX
  8
01
  5
16DB6
 10
-1360.66
 20
-1566.99
 30
0.000000
  70
    32
  0
VERTEX
  8
01
  5
16DB7
 10
-1360.67
 20
-1566.99
 30
0.000000
  70
    32
  0
VERTEX
  8
01
  5
16DB8
 10
-1360.67
 20
-1566.98
 30
0.000000
  70
    32
  0
VERTEX
  8
01
  5
16DB9
 10
-1360.67
 20
-1566.98
 30
0.000000
  70
    32
  0
VERTEX
  8
01
  5
16DBA
 10
-1360.67
 20
-1566.97
 30
0.000000
  70
    32
  0
VERTEX
  8
01
  5
16DBB
 10
-1360.67
 20
-1566.97
 30
0.000000
  70
    32
  0
VERTEX
  8
01
  5
16DBC
 10
-1360.67
 20
-1566.96
 30
0.000000
  70
    32
  0
VERTEX
  8
01
  5
16DBD
 10
-1360.67
 20
-1566.96
 30
0.000000
  70
    32
  0
VERTEX
  8
01
  5
16DBE
 10
-1360.67
 20
-1566.95
 30
0.000000
  70
    32
  0
VERTEX
  8
01
  5
16DBF
 10
-1360.68
 20
-1566.95
 30
0.000000
  70
    32
  0
VERTEX
  8
01
  5
16DC0
 10
-1360.68
 20
-1566.94
 30
0.000000
  70
    32
  0
VERTEX
  8
01
  5
16DC1
 10
-1360.68
 20
-1566.94
 30
0.000000
  70
    32
  0
VERTEX
  8
01
  5
16DC2
 10
-1360.68
 20
-1566.93
 30
0.000000
  70
    32
  0
VERTEX
  8
01
  5
16DC3
 10
-1360.68
 20
-1566.93
 30
0.000000
  70
    32
  0
VERTEX
  8
01
  5
16DC4
 10
-1360.68
 20
-1566.92
 30
0.000000
  70
    32
  0
VERTEX
  8
01
  5
16DC5
 10
-1360.68
 20
-1566.92
 30
0.000000
  70
    32
  0
VERTEX
  8
01
  5
16DC6
 10
-1360.68
 20
-1566.91
 30
0.000000
  70
    32
  0
VERTEX
  8
01
  5
16DC7
 10
-1360.69
 20
-1566.91
 30
0.000000
  70
    32
  0
VERTEX
  8
01
  5
16DC8
 10
-1360.69
 20
-1566.90
 30
0.000000
  70
    32
  0
VERTEX
  8
01
  5
16DC9
 10
-1360.69
 20
-1566.90
 30
0.000000
  70
    32
  0
VERTEX
  8
01
  5
16DCA
 10
-1360.69
 20
-1566.89
 30
0.000000
  70
    32
  0
VERTEX
  8
01
  5
16DCB
 10
-1360.69
 20
-1566.89
 30
0.000000
  70
    32
  0
VERTEX
  8
01
  5
16DCC
 10
-1360.69
 20
-1566.88
 30
0.000000
  70
    32
  0
VERTEX
  8
01
  5
16DCD
 10
-1360.69
 20
-1566.88
 30
0.000000
  70
    32
  0
VERTEX
  8
01
  5
16DCE
 10
-1360.69
 20
-1566.87
 30
0.000000
  70
    32
  0
VERTEX
  8
01
  5
16DCF
 10
-1360.69
 20
-1566.87
 30
0.000000
  70
    32
  0
VERTEX
  8
01
  5
16DD0
 10
-1360.70
 20
-1566.86
 30
0.000000
  70
    32
  0
VERTEX
  8
01
  5
16DD1
 10
-1360.70
 20
-1566.86
 30
0.000000
  70
    32
  0
VERTEX
  8
01
  5
16DD2
 10
-1360.70
 20
-1566.85
 30
0.000000
  70
    32
  0
VERTEX
  8
01
  5
16DD3
 10
-1360.70
 20
-1566.85
 30
0.000000
  70
    32
  0
VERTEX
  8
01
  5
16DD4
 10
-1360.70
 20
-1566.84
 30
0.000000
  70
    32
  0
VERTEX
  8
01
  5
16DD5
 10
-1360.70
 20
-1566.84
 30
0.000000
  70
    32
  0
VERTEX
  8
01
  5
16DD6
 10
-1360.70
 20
-1566.83
 30
0.000000
  70
    32
  0
VERTEX
  8
01
  5
16DD7
 10
-1360.70
 20
-1566.83
 30
0.000000
  70
    32
  0
VERTEX
  8
01
  5
16DD8
 10
-1360.70
 20
-1566.82
 30
0.000000
  70
    32
  0
VERTEX
  8
01
  5
16DD9
 10
-1360.71
 20
-1566.82
 30
0.000000
  70
    32
  0
VERTEX
  8
01
  5
16DDA
 10
-1360.71
 20
-1566.81
 30
0.000000
  70
    32
  0
VERTEX
  8
01
  5
16DDB
 10
-1360.71
 20
-1566.81
 30
0.000000
  70
    32
  0
VERTEX
  8
01
  5
16DDC
 10
-1360.71
 20
-1566.80
 30
0.000000
  70
    32
  0
VERTEX
  8
01
  5
16DDD
 10
-1360.71
 20
-1566.80
 30
0.000000
  70
    32
  0
VERTEX
  8
01
  5
16DDE
 10
-1360.71
 20
-1566.79
 30
0.000000
  70
    32
  0
VERTEX
  8
01
  5
16DDF
 10
-1360.71
 20
-1566.79
 30
0.000000
  70
    32
  0
VERTEX
  8
01
  5
16DE0
 10
-1360.71
 20
-1566.78
 30
0.000000
  70
    32
  0
VERTEX
  8
01
  5
16DE1
 10
-1360.71
 20
-1566.78
 30
0.000000
  70
    32
  0
VERTEX
  8
01
  5
16DE2
 10
-1360.72
 20
-1566.77
 30
0.000000
  70
    32
  0
VERTEX
  8
01
  5
16DE3
 10
-1360.72
 20
-1566.77
 30
0.000000
  70
    32
  0
VERTEX
  8
01
  5
16DE4
 10
-1360.72
 20
-1566.76
 30
0.000000
  70
    32
  0
VERTEX
  8
01
  5
16DE5
 10
-1360.72
 20
-1566.76
 30
0.000000
  70
    32
  0
VERTEX
  8
01
  5
16DE6
 10
-1360.72
 20
-1566.75
 30
0.000000
  70
    32
  0
VERTEX
  8
01
  5
16DE7
 10
-1360.72
 20
-1566.75
 30
0.000000
  70
    32
  0
VERTEX
  8
01
  5
16DE8
 10
-1360.72
 20
-1566.74
 30
0.000000
  70
    32
  0
VERTEX
  8
01
  5
16DE9
 10
-1360.72
 20
-1566.74
 30
0.000000
  70
    32
  0
VERTEX
  8
01
  5
16DEA
 10
-1360.72
 20
-1566.73
 30
0.000000
  70
    32
  0
VERTEX
  8
01
  5
16DEB
 10
-1360.72
 20
-1566.73
 30
0.000000
  70
    32
  0
VERTEX
  8
01
  5
16DEC
 10
-1360.73
 20
-1566.72
 30
0.000000
  70
    32
  0
VERTEX
  8
01
  5
16DED
 10
-1360.73
 20
-1566.72
 30
0.000000
  70
    32
  0
VERTEX
  8
01
  5
16DEE
 10
-1360.73
 20
-1566.71
 30
0.000000
  70
    32
  0
VERTEX
  8
01
  5
16DEF
 10
-1360.73
 20
-1566.71
 30
0.000000
  70
    32
  0
VERTEX
  8
01
  5
16DF0
 10
-1360.73
 20
-1566.70
 30
0.000000
  70
    32
  0
VERTEX
  8
01
  5
16DF1
 10
-1360.73
 20
-1566.70
 30
0.000000
  70
    32
  0
VERTEX
  8
01
  5
16DF2
 10
-1360.73
 20
-1566.69
 30
0.000000
  70
    32
  0
VERTEX
  8
01
  5
16DF3
 10
-1360.73
 20
-1566.69
 30
0.000000
  70
    32
  0
VERTEX
  8
01
  5
16DF4
 10
-1360.73
 20
-1566.68
 30
0.000000
  70
    32
  0
VERTEX
  8
01
  5
16DF5
 10
-1360.74
 20
-1566.68
 30
0.000000
  70
    32
  0
VERTEX
  8
01
  5
16DF6
 10
-1360.74
 20
-1566.67
 30
0.000000
  70
    32
  0
VERTEX
  8
01
  5
16DF7
 10
-1360.74
 20
-1566.67
 30
0.000000
  70
    32
  0
VERTEX
  8
01
  5
16DF8
 10
-1360.74
 20
-1566.66
 30
0.000000
  70
    32
  0
VERTEX
  8
01
  5
16DF9
 10
-1360.74
 20
-1566.66
 30
0.000000
  70
    32
  0
VERTEX
  8
01
  5
16DFA
 10
-1360.74
 20
-1566.65
 30
0.000000
  70
    32
  0
VERTEX
  8
01
  5
16DFB
 10
-1360.74
 20
-1566.65
 30
0.000000
  70
    32
  0
VERTEX
  8
01
  5
16DFC
 10
-1360.74
 20
-1566.64
 30
0.000000
  70
    32
  0
VERTEX
  8
01
  5
16DFD
 10
-1360.74
 20
-1566.64
 30
0.000000
  70
    32
  0
VERTEX
  8
01
  5
16DFE
 10
-1360.74
 20
-1566.63
 30
0.000000
  70
    32
  0
VERTEX
  8
01
  5
16DFF
 10
-1360.74
 20
-1566.63
 30
0.000000
  70
    32
  0
VERTEX
  8
01
  5
16E00
 10
-1360.75
 20
-1566.62
 30
0.000000
  70
    32
  0
VERTEX
  8
01
  5
16E01
 10
-1360.75
 20
-1566.62
 30
0.000000
  70
    32
  0
VERTEX
  8
01
  5
16E02
 10
-1360.75
 20
-1566.61
 30
0.000000
  70
    32
  0
VERTEX
  8
01
  5
16E03
 10
-1360.75
 20
-1566.61
 30
0.000000
  70
    32
  0
VERTEX
  8
01
  5
16E04
 10
-1360.75
 20
-1566.60
 30
0.000000
  70
    32
  0
VERTEX
  8
01
  5
16E05
 10
-1360.75
 20
-1566.60
 30
0.000000
  70
    32
  0
VERTEX
  8
01
  5
16E06
 10
-1360.75
 20
-1566.59
 30
0.000000
  70
    32
  0
VERTEX
  8
01
  5
16E07
 10
-1360.75
 20
-1566.59
 30
0.000000
  70
    32
  0
VERTEX
  8
01
  5
16E08
 10
-1360.75
 20
-1566.58
 30
0.000000
  70
    32
  0
VERTEX
  8
01
  5
16E09
 10
-1360.75
 20
-1566.58
 30
0.000000
  70
    32
  0
VERTEX
  8
01
  5
16E0A
 10
-1360.76
 20
-1566.57
 30
0.000000
  70
    32
  0
VERTEX
  8
01
  5
16E0B
 10
-1360.76
 20
-1566.57
 30
0.000000
  70
    32
  0
VERTEX
  8
01
  5
16E0C
 10
-1360.76
 20
-1566.56
 30
0.000000
  70
    32
  0
SEQEND
  8
01
  5
16E0D
  0
LINE
  5
15512
  8
01
 10
-1639.113186339099
 20
-1561.078906727229
 30
0.0
 11
-1639.113186339099
 21
-1615.320630785109
 31
0.0
  0
ARC
  5
15513
  8
01
 10
-1638.113186339099
 20
-1561.078906727229
 30
0.0
 40
1.0
 50
90.0
 51
180.0
  0
LINE
  5
1551C
  8
01
 10
-1629.113186339099
 20
-1571.0789067272281
 30
0.0
 11
-1629.113186339099
 21
-1605.320630785109
 31
0.0
  0
ARC
  5
1551D
  8
01
 10
-1628.113186339099
 20
-1605.320630785109
 30
0.0
 40
1.0
 50
180.0
 51
270.0
  0
LINE
  5
1551E
  8
01
 10
-1496.113186339099
 20
-1560.578906727229
 30
0.0
 11
-1496.113186339099
 21
-1569.578906727229
 31
0.0
  0
ARC
  5
1551F
  8
01
 10
-1496.613186339099
 20
-1569.578906727229
 30
0.0
 40
0.5
 50
270.0
 51
0.0
  0
ARC
  5
15520
  8
01
 10
-1496.613186339099
 20
-1560.578906727229
 30
0.0
 40
0.5
 50
0.0
 51
90.0
  0
LINE
  5
15523
  8
01
 10
-1638.113186339099
 20
-1616.3206307851101
 30
0.0
 11
-1494.113186339099
 21
-1616.3206307851101
 31
0.0
  0
ARC
  5
15524
  8
01
 10
-1638.113186339099
 20
-1615.320630785109
 30
0.0
 40
1.0
 50
180.0
 51
270.0
  0
LINE
  5
15526
  8
01
 10
-1628.113186339099
 20
-1606.320630785119
 30
0.0
 11
-1494.113186339099
 21
-1606.320630785109
 31
0.0
  0
LINE
  5
15527
  8
01
 10
-1628.113186339099
 20
-1570.0789067272281
 30
0.0
 11
-1627.113186339099
 21
-1570.0789067272281
 31
0.0
  0
LINE
  5
15528
  8
01
 10
-1497.113186339099
 20
-1570.0789067272281
 30
0.0
 11
-1496.613186339099
 21
-1570.078906727229
 31
0.0
  0
ARC
  5
15529
  8
01
 10
-1628.113186339099
 20
-1571.0789067272281
 30
0.0
 40
1.0
 50
90.0
 51
180.0
  0
LINE
  5
1552A
  8
01
 10
-1638.113186339099
 20
-1560.078906727229
 30
0.0
 11
-1627.113186339099
 21
-1560.078906727229
 31
0.0
  0
LINE
  5
1552E
  8
01
 10
-1595.863186339099
 20
-1564.272360974803
 30
0.0
 11
-1595.863186339099
 21
-1557.9289067272291
 31
0.0
  0
ARC
  5
1552F
  8
01
 10
-1592.863186339099
 20
-1564.272360974803
 30
0.0
 40
3.0
 50
180.0
 51
270.0
  0
LINE
  5
15533
  8
01
 10
-1627.113186339099
 20
-1580.350284739741
 30
0.0
 11
-1627.113186339099
 21
-1557.9289067272291
 31
0.0
  0
LINE
  5
15534
  8
01
 10
-1528.363186339099
 20
-1557.9289067272291
 30
0.0
 11
-1497.113186339099
 21
-1557.9289067272291
 31
0.0
  0
LINE
  5
15535
  8
01
 10
-1627.113186339099
 20
-1557.9289067272291
 30
0.0
 11
-1595.863186339099
 21
-1557.9289067272291
 31
0.0
  0
LINE
  5
15536
  8
01
 10
-1592.863186339099
 20
-1567.2723609748041
 30
0.0
 11
-1531.3631558215211
 21
-1567.2723609748041
 31
0.0
  0
LINE
  5
1554E
  8
01
 10
-1491.113186339099
 20
-1620.820630785109
 30
0.0
 11
-1491.113186339099
 21
-1601.820630785109
 31
0.0
  0
ARC
  5
1554F
  8
01
 10
-1491.613186339099
 20
-1601.820630785109
 30
0.0
 40
0.5
 50
0.0
 51
90.0
  0
ARC
  5
15550
  8
01
 10
-1491.613186339099
 20
-1620.820630785109
 30
0.0
 40
0.5
 50
270.0
 51
0.0
  0
ARC
  5
15551
  8
01
 10
-1493.613186339099
 20
-1620.820630785109
 30
0.0
 40
0.5
 50
180.0
 51
270.0
  0
LINE
  5
15552
  8
01
 10
-1494.113186339099
 20
-1620.820630785109
 30
0.0
 11
-1494.113186339099
 21
-1601.820630785109
 31
0.0
  0
ARC
  5
15553
  8
01
 10
-1493.613186339099
 20
-1601.820630785109
 30
0.0
 40
0.5
 50
90.0
 51
180.0
  0
LINE
  5
15554
  8
01
 10
-1491.613186339099
 20
-1601.320630785109
 30
0.0
 11
-1493.613186339099
 21
-1601.320630785109
 31
0.0
  0
LINE
  5
15555
  8
01
 10
-1491.613186339099
 20
-1621.320630785109
 30
0.0
 11
-1493.613186339099
 21
-1621.320630785109
 31
0.0
  0
ARC
  5
15584
  8
01
 10
-1628.799657498671
 20
-1615.4427988898631
 30
0.0
 40
8.9872310686327488
 50
96.673019351051153
 51
163.26928707505351
  0
ARC
  5
15585
  8
01
 10
-1640.5887527134671
 20
-1572.1722771024599
 30
0.0
 40
11.139638848472449
 50
14.46403845279989
 51
75.535961547196223
  0
LINE
  5
15587
  8
01
 10
-1594.863186339099
 20
-1557.9289067272291
 30
0.0
 11
-1594.863186339099
 21
-1566.5084289523029
 31
0.0
  0
LINE
  5
15588
  8
01
 10
-1594.863186339099
 20
-1557.9289067272291
 30
0.0
 11
-1595.863186339099
 21
-1557.9289067272291
 31
0.0
  0
LINE
  5
155C6
  8
01
 10
-1571.113186339099
 20
-1551.7652021765809
 30
0.0
 11
-1577.113186339099
 21
-1551.7652021765809
 31
0.0
  0
LINE
  5
155C7
  8
01
 10
-1574.113186339099
 20
-1548.76520217658
 30
0.0
 11
-1574.113186339099
 21
-1554.7652021765809
 31
0.0
  0
LINE
  5
155C8
  8
01
 10
-1553.113186339099
 20
-1551.7652021765809
 30
0.0
 11
-1547.113186339099
 21
-1551.7652021765809
 31
0.0
  0
LINE
  5
155C9
  8
01
 10
-1550.113186339099
 20
-1548.76520217658
 30
0.0
 11
-1550.113186339099
 21
-1554.7652021765809
 31
0.0
  0
LINE
  5
156D0
  8
01
 10
-1528.3631558215211
 20
-1564.272360974803
 30
0.0
 11
-1528.3631558215211
 21
-1557.9289067272291
 31
0.0
  0
ARC
  5
156D1
  8
01
 10
-1531.3631558215211
 20
-1564.272360974803
 30
0.0
 40
2.9999999999999991
 50
270.0
 51
0.0
  0
LINE
  5
156D2
  8
01
 10
-1529.3631558215211
 20
-1557.9289067272291
 30
0.0
 11
-1529.3631558215211
 21
-1566.5084289523029
 31
0.0
  0
LINE
  5
156D3
  8
01
 10
-1529.3631558215211
 20
-1557.9289067272291
 30
0.0
 11
-1528.3631558215211
 21
-1557.9289067272291
 31
0.0
  0
ARC
  5
156D4
  8
01
 10
-1500.1131558215211
 20
-1580.350284739741
 30
0.0
 40
3.0
 50
270.0
 51
0.0
  0
LINE
  5
156D5
  8
01
 10
-1497.113186339099
 20
-1560.0789067272281
 30
0.0
 11
-1496.613186339099
 21
-1560.078906727229
 31
0.0
  0
CIRCLE
  5
156D8
  8
01
 10
-1399.613186339099
 20
-1624.820630785109
 30
0.0
 40
18.5
  0
CIRCLE
  5
156D9
  8
01
 10
-1399.613186339099
 20
-1624.820630785109
 30
0.0
 40
57.5
  0
LINE
  5
156DA
  8
01
 10
-1505.47520556936
 20
-1567.320630785109
 30
0.0
 11
-1505.4752055693609
 21
-1682.3206307851101
 31
0.0
  0
LINE
  5
156DB
  8
01
 10
-1619.47520556936
 20
-1567.320630785109
 30
0.0
 11
-1619.47520556936
 21
-1682.3206307851101
 31
0.0
  0
LINE
  5
156DC
  8
01
 10
-1505.47520556936
 20
-1567.320630785109
 30
0.0
 11
-1619.47520556936
 21
-1567.320630785109
 31
0.0
  0
LINE
  5
156DD
  8
01
 10
-1505.4752055693609
 20
-1682.3206307851101
 30
0.0
 11
-1619.47520556936
 21
-1682.3206307851101
 31
0.0
  0
LINE
  5
156E5
  8
01
 10
-1348.702146945524
 20
-1570.307799058801
 30
0.0
 11
-1350.1163605078921
 21
-1571.7220126211689
 31
0.0
  0
ARC
  5
156EC
  8
01
 10
-1347.2172227050271
 20
-1569.671402955729
 30
0.0
 40
2.0
 50
314.99999999999079
 51
351.55241537281933
  0
LINE
  5
156EE
  8
01
 10
-1345.803009142654
 20
-1571.0856165181019
 30
0.0
 11
-1347.9243294862149
 21
-1573.206936861661
 31
0.0
  0
LINE
  5
156EF
  8
01
 10
-1350.1163605078921
 20
-1571.7220126211689
 30
0.0
 11
-1351.177020679673
 21
-1572.7826727929489
 31
0.0
  0
ARC
  5
156F0
  8
01
 10
-1349.338543048588
 20
-1571.7927232992879
 30
0.0
 40
2.0
 50
224.99999999999079
 51
314.99999999999079
  0
LINE
  5
156F1
  8
01
 10
-1351.177020679673
 20
-1572.7826727929489
 30
0.0
 11
-1350.7527566109609
 21
-1573.206936861661
 31
0.0
  0
LINE
  5
158AF
  8
01
 10
-1334.336299405179
 20
-1547.9652116492889
 30
0.0
 11
-1333.336299405179
 21
-1547.9652116492889
 31
0.0
  0
LINE
  5
158B0
  8
01
 10
-1334.336299405179
 20
-1555.565211649289
 30
0.0
 11
-1333.336299405179
 21
-1555.565211649289
 31
0.0
  0
LINE
  5
158B1
  8
01
 10
-1334.336299405179
 20
-1552.2652114992891
 30
0.0
 11
-1333.336299405179
 21
-1551.2652117992891
 31
0.0
  0
LINE
  5
158B2
  8
01
 10
-1334.336299405179
 20
-1555.565211649289
 30
0.0
 11
-1334.336299405179
 21
-1547.9652116492889
 31
0.0
  0
LINE
  5
158B3
  8
01
 10
-1333.336299405179
 20
-1555.565211649289
 30
0.0
 11
-1333.336299405179
 21
-1547.9652116492889
 31
0.0
  0
LINE
  5
158BD
  8
01
 10
-1553.913186339099
 20
-1403.7652019124359
 30
0.0
 11
-1553.913186339099
 21
-1402.7652019124359
 31
0.0
  0
LINE
  5
158BE
  8
01
 10
-1546.313186339099
 20
-1403.7652019124359
 30
0.0
 11
-1546.313186339099
 21
-1402.7652019124359
 31
0.0
  0
LINE
  5
158BF
  8
01
 10
-1549.613186489099
 20
-1403.7652019124359
 30
0.0
 11
-1550.613186189099
 21
-1402.7652019124359
 31
0.0
  0
LINE
  5
158C0
  8
01
 10
-1546.313186339099
 20
-1403.7652019124359
 30
0.0
 11
-1553.913186339099
 21
-1403.7652019124359
 31
0.0
  0
LINE
  5
158C1
  8
01
 10
-1546.313186339099
 20
-1402.7652019124359
 30
0.0
 11
-1553.913186339099
 21
-1402.7652019124359
 31
0.0
  0
LINE
  5
158C4
  8
01
 10
-1577.913186339099
 20
-1403.7652019124359
 30
0.0
 11
-1577.913186339099
 21
-1402.7652019124359
 31
0.0
  0
LINE
  5
158C5
  8
01
 10
-1570.313186339099
 20
-1403.7652019124359
 30
0.0
 11
-1570.313186339099
 21
-1402.7652019124359
 31
0.0
  0
LINE
  5
158C6
  8
01
 10
-1573.613186489099
 20
-1403.7652019124359
 30
0.0
 11
-1574.613186189099
 21
-1402.7652019124359
 31
0.0
  0
LINE
  5
158C7
  8
01
 10
-1570.313186339099
 20
-1403.7652019124359
 30
0.0
 11
-1577.913186339099
 21
-1403.7652019124359
 31
0.0
  0
LINE
  5
158C8
  8
01
 10
-1570.313186339099
 20
-1402.7652019124359
 30
0.0
 11
-1577.913186339099
 21
-1402.7652019124359
 31
0.0
  0
TEXT
  5
158F8
  8
01
 10
-1414.257753636788
 20
-1386.7652019124359
 30
0.0
 40
8.0
  1
SC-283-XX
  0
LINE
  5
158F9
  8
01
 10
-1315.2577537223051
 20
-1511.7652116492891
 30
0.0
 11
-1315.2577537223051
 21
-1591.7652116492891
 31
0.0
  0
LINE
  5
158FA
  8
01
 10
-1306.2577537223051
 20
-1511.7652116492891
 30
0.0
 11
-1306.2577537223051
 21
-1591.7652116492891
 31
0.0
  0
LINE
  5
158FB
  8
01
 10
-1324.2577537223051
 20
-1511.7652116492891
 30
0.0
 11
-1324.2577537223051
 21
-1591.7652116492891
 31
0.0
  0
LINE
  5
15900
  8
01
 10
-1324.2577537223051
 20
-1551.7652116492891
 30
0.0
 11
-1306.2577537223051
 21
-1551.7652116492891
 31
0.0
  0
LINE
  5
15A6A
  8
01
 10
-1353.724418245821
 20
-1568.272267149008
 30
0.0
 11
-1353.724418245821
 21
-1562.272267149008
 31
0.0
  0
LINE
  5
15A6B
  8
01
 10
-1356.7244182458201
 20
-1565.272267149008
 30
0.0
 11
-1350.7244182458201
 21
-1565.272267149008
 31
0.0
  0
LINE
  5
15DBB
  8
01
 10
-1339.257756097739
 20
-1564.3288050933791
 30
0.0
 11
-1339.257756097739
 21
-1573.2650936971349
 31
0.0
  0
LINE
  5
15DC5
  8
01
 10
-1500.1131558215211
 20
-1583.350284739741
 30
0.0
 11
-1624.113186339099
 21
-1583.350284739741
 31
0.0
  0
LINE
  5
15DC6
  8
01
 10
-1500.1131558215211
 20
-1582.685690164426
 30
0.0
 11
-1624.113186339099
 21
-1582.685690164426
 31
0.0
  0
ARC
  5
15DC7
  8
01
 10
-1500.1131558215211
 20
-1579.685690164426
 30
0.0
 40
3.0
 50
270.0
 51
0.0
  0
LINE
  5
15DCA
  8
01
 10
-1497.113186339099
 20
-1580.3638163522401
 30
0.0
 11
-1497.113186339099
 21
-1557.9289067272291
 31
0.0
  0
ARC
  5
15DCB
  8
01
 10
-1624.113186339099
 20
-1580.350284739741
 30
0.0
 40
3.0
 50
180.0
 51
270.0
  0
ARC
  5
15DCC
  8
01
 10
-1624.113186339099
 20
-1579.685690164426
 30
0.0
 40
3.0
 50
180.0
 51
270.0
  0
ARC
  5
162CA
  8
01
  6
CONTINUOUS
 10
-1353.7795734406061
 20
-1535.2651446703719
 30
0.0
 40
0.5
 50
89.999994991036544
 51
179.99999499103649
  0
LINE
  5
162CB
  8
01
  6
CONTINUOUS
 10
-1324.2795733968951
 20
-1534.765147249344
 30
0.0
 11
-1353.7795733968951
 21
-1534.7651446703719
 31
0.0
  0
LINE
  5
162CC
  8
01
 10
-1354.7795744459679
 20
-1534.7651460691361
 30
0.0
 11
-1443.7795744459679
 21
-1534.7651460691361
 31
0.0
  0
ARC
  5
162CD
  8
01
 10
-1443.7795744459679
 20
-1535.2651460691361
 30
0.0
 40
0.5
 50
90.0
 51
180.0
  0
LINE
  5
162CE
  8
01
 10
-1354.2795744459679
 20
-1535.2651460691361
 30
0.0
 11
-1354.279574445969
 21
-1546.2651460691361
 31
0.0
  0
ARC
  5
162CF
  8
01
 10
-1354.7795744459679
 20
-1535.2651460691361
 30
0.0
 40
0.5
 50
0.0
 51
90.0
  0
LINE
  5
162D0
  8
01
 10
-1444.279574445967
 20
-1535.2651460691361
 30
0.0
 11
-1444.279574445969
 21
-1546.265212436093
 31
0.0
  0
ARC
  5
162D2
  8
01
 10
-1443.779574445969
 20
-1546.265212436093
 30
0.0
 40
0.5
 50
179.99999999999289
 51
269.99999999999977
  0
ARC
  5
162D3
  8
01
 10
-1353.7795744022569
 20
-1546.2651446703719
 30
0.0
 40
0.5
 50
179.99999499103649
 51
269.99999499103649
  0
ARC
  5
162D4
  8
01
 10
-1354.7795744459679
 20
-1546.2651460691361
 30
0.0
 40
0.5
 50
270.0
 51
0.0
  0
LINE
  5
162D7
  8
01
 10
-1646.613186339099
 20
-1546.7652019055679
 30
0.0
 11
-1477.613186339099
 21
-1546.7652019055711
 31
0.0
  0
ARC
  5
162D8
  8
01
 10
-1477.613186339099
 20
-1546.265201905569
 30
0.0
 40
0.5
 50
270.0
 51
0.0
  0
LINE
  5
162D9
  8
01
 10
-1646.613186339099
 20
-1534.765201905569
 30
0.0
 11
-1477.613186339099
 21
-1534.7652019055699
 31
0.0
  0
ARC
  5
162DA
  8
01
 10
-1646.6131863390981
 20
-1535.2652019055679
 30
0.0
 40
0.5
 50
90.0
 51
180.0
  0
LINE
  5
162DB
  8
01
 10
-1647.113186339099
 20
-1535.265201905569
 30
0.0
 11
-1647.113186339099
 21
-1546.2652019055679
 31
0.0
  0
ARC
  5
162DC
  8
01
 10
-1646.6131863390981
 20
-1546.265201905567
 30
0.0
 40
0.5
 50
180.0
 51
270.0
  0
LINE
  5
162DD
  8
01
 10
-1477.113186339099
 20
-1535.2652019055699
 30
0.0
 11
-1477.1131863390999
 21
-1546.2652019055699
 31
0.0
  0
ARC
  5
162DE
  8
01
 10
-1477.613186339099
 20
-1535.265201905569
 30
0.0
 40
0.5
 50
0.0
 51
90.0
  0
LINE
  5
162E0
  8
01
 10
-1477.613186339099
 20
-1421.7652030489321
 30
0.0
 11
-1646.613186339099
 21
-1421.7652030489321
 31
0.0
  0
ARC
  5
162E1
  8
01
 10
-1477.613186339099
 20
-1422.2652030489321
 30
0.0
 40
0.5
 50
0.0
 51
90.0
  0
LINE
  5
162E2
  8
01
 10
-1644.1131863390981
 20
-1511.7652030489321
 30
0.0
 11
-1480.113186339099
 21
-1511.7652030489321
 31
0.0
  0
ARC
  5
162E3
  8
01
 10
-1480.113186339099
 20
-1508.7652030489321
 30
0.0
 40
3.0
 50
270.0
 51
0.0
  0
LINE
  5
162E4
  8
01
 10
-1647.113186339099
 20
-1422.2652030489321
 30
0.0
 11
-1647.1131863390981
 21
-1508.7652030489321
 31
0.0
  0
ARC
  5
162E5
  8
01
 10
-1646.613186339099
 20
-1422.2652030489321
 30
0.0
 40
0.5
 50
90.0
 51
180.0
  0
ARC
  5
162E6
  8
01
 10
-1644.1131863390981
 20
-1508.7652030489321
 30
0.0
 40
3.0
 50
180.0
 51
270.0
  0
LINE
  5
162E7
  8
01
 10
-1477.113186339099
 20
-1422.2652030489321
 30
0.0
 11
-1477.113186339099
 21
-1508.7652030489321
 31
0.0
  0
LINE
  5
162ED
  8
01
  6
CONTINUOUS
 10
-1477.113186339099
 20
-1391.765203092644
 30
0.0
 11
-1477.113186339099
 21
-1421.265203835738
 31
0.0
  0
LINE
  5
162EE
  8
01
  6
CONTINUOUS
 10
-1477.113186339099
 20
-1392.265203092644
 30
0.0
 11
-1477.113186339099
 21
-1394.765203092644
 31
0.0
  0
LINE
  5
162F0
  8
01
 10
-1477.613186339099
 20
-1421.765203835738
 30
0.0
 11
-1646.613186339099
 21
-1421.7652038357371
 31
0.0
  0
LINE
  5
162F1
  8
01
  6
CONTINUOUS
 10
-1647.113186339099
 20
-1421.2652038357371
 30
0.0
 11
-1647.113186339099
 21
-1394.765203835738
 31
0.0
  0
LINE
  5
162F2
  8
01
  6
CONTINUOUS
 10
-1647.113186339099
 20
-1392.265203092644
 30
0.0
 11
-1647.113186339099
 21
-1394.765203092644
 31
0.0
  0
LINE
  5
162F3
  8
01
  6
CONTINUOUS
 10
-1646.613186339099
 20
-1391.765203092644
 30
0.0
 11
-1477.113186339099
 21
-1391.765203092644
 31
0.0
  0
ARC
  5
162F4
  8
01
 10
-1477.613186339099
 20
-1421.2652038357371
 30
0.0
 40
0.5
 50
270.0
 51
0.0
  0
ARC
  5
162F5
  8
01
  6
CONTINUOUS
 10
-1477.613186339099
 20
-1392.265203092644
 30
0.0
 40
0.5
 50
0.0
 51
90.0
  0
ARC
  5
162F6
  8
01
 10
-1646.613186339099
 20
-1421.2652038357371
 30
0.0
 40
0.5
 50
180.0
 51
270.0
  0
ARC
  5
162F7
  8
01
  6
CONTINUOUS
 10
-1646.613186339099
 20
-1392.265203092644
 30
0.0
 40
0.5
 50
90.0
 51
180.0
  0
LINE
  5
16529
  8
01
 10
-1449.257753636788
 20
-1398.7652019124371
 30
0.0
 11
-1309.257753636788
 21
-1398.7652019124371
 31
0.0
  0
TEXT
  5
1652A
  8
01
 10
-1375.724420303455
 20
-1397.2652019124371
 30
0.0
 40
4.0
  1
表面処理：棚
 72
     1
 11
-1361.8577536367879
 21
-1397.2652019124371
 31
0.0
  0
LINE
  5
1652B
  8
01
 10
-1449.257753636788
 20
-1391.7652019124371
 30
0.0
 11
-1309.257753636788
 21
-1391.7652019124371
 31
0.0
  0
TEXT
  5
1652C
  8
01
 10
-1333.5244203034549
 20
-1397.2652019124371
 30
0.0
 40
4.0
  1
コード
 72
     1
 11
-1326.8577536367879
 21
-1397.2652019124371
 31
0.0
  0
LINE
  5
1652D
  8
01
 10
-1379.257753636788
 20
-1405.7652019124371
 30
0.0
 11
-1309.257753636788
 21
-1405.7652019124371
 31
0.0
  0
TEXT
  5
1652E
  8
01
 10
-1378.1244203034539
 20
-1411.4795588960869
 30
0.0
 40
4.0
  1
ライトブラウン
 72
     1
 11
-1361.857753636787
 21
-1411.4795588960869
 31
0.0
  0
LINE
  5
1652F
  8
01
 10
-1414.257753636788
 20
-1391.7652019124371
 30
0.0
 11
-1414.257753636788
 21
-1419.7652019124371
 31
0.0
  0
LINE
  5
16530
  8
01
 10
-1344.257753636788
 20
-1391.7652019124371
 30
0.0
 11
-1344.2577536367889
 21
-1419.7652019124371
 31
0.0
  0
LINE
  5
16531
  8
01
 10
-1309.257753636788
 20
-1391.7652019124371
 30
0.0
 11
-1309.257753636788
 21
-1419.7652019124371
 31
0.0
  0
TEXT
  5
16532
  8
01
 10
-1343.2291822082159
 20
-1411.479558896086
 30
0.0
 40
4.0
  1
SC-283-LC
 41
0.9
 72
     1
 11
-1326.857753636787
 21
-1411.479558896086
 31
0.0
  0
TEXT
  5
16533
  8
01
 10
-1448.1244203034551
 20
-1397.2652019124371
 30
0.0
 40
4.0
  1
表面処理：本体
 72
     1
 11
-1431.8577536367879
 21
-1397.2652019124371
 31
0.0
  0
LINE
  5
16534
  8
01
 10
-1449.257753636788
 20
-1391.7652019124371
 30
0.0
 11
-1449.257753636788
 21
-1419.7652019124371
 31
0.0
  0
LINE
  5
16535
  8
01
 10
-1379.257753636788
 20
-1412.7652019124371
 30
0.0
 11
-1309.257753636788
 21
-1412.7652019124371
 31
0.0
  0
TEXT
  5
16536
  8
01
 10
-1440.9244203034541
 20
-1411.479558896086
 30
0.0
 40
4.0
  1
クローム
 72
     1
 11
-1431.857753636787
 21
-1411.479558896086
 31
0.0
  0
LINE
  5
16537
  8
01
 10
-1449.257753636788
 20
-1419.7652019124371
 30
0.0
 11
-1309.257753636788
 21
-1419.7652019124371
 31
0.0
  0
TEXT
  5
16538
  8
01
 10
-1378.1244203034539
 20
-1418.4795588960869
 30
0.0
 40
4.0
  1
ダークブラウン
 72
     1
 11
-1361.857753636787
 21
-1418.4795588960869
 31
0.0
  0
TEXT
  5
16539
  8
01
 10
-1343.572039351073
 20
-1418.4795588960869
 30
0.0
 40
4.0
  1
SC-283-DC
 41
0.9
 72
     1
 11
-1326.857753636787
 21
-1418.4795588960869
 31
0.0
  0
TEXT
  5
1653A
  8
01
 10
-1411.7910869701209
 20
-1397.2652019124371
 30
0.0
 40
4.0
  1
表面処理：カバー
 41
0.8
 72
     1
 11
-1396.8577536367879
 21
-1397.2652019124371
 31
0.0
  0
TEXT
  5
1653B
  8
01
 10
-1408.324420303454
 20
-1411.479558896086
 30
0.0
 40
4.0
  1
ヘアライン
 72
     1
 11
-1396.857753636787
 21
-1411.479558896086
 31
0.0
  0
LINE
  5
1653C
  8
01
 10
-1379.257753636788
 20
-1391.7652019124371
 30
0.0
 11
-1379.257753636788
 21
-1419.7652019124371
 31
0.0
  0
TEXT
  5
1653D
  8
01
 10
-1370.9244203034541
 20
-1404.4795588960869
 30
0.0
 40
4.0
  1
ホワイト
 72
     1
 11
-1361.857753636787
 21
-1404.4795588960869
 31
0.0
  0
TEXT
  5
1653E
  8
01
 10
-1343.4863250653591
 20
-1404.479558896086
 30
0.0
 40
4.0
  1
SC-283-SC
 41
0.9
 72
     1
 11
-1326.857753636787
 21
-1404.479558896086
 31
0.0
  0
LINE
  5
1662F
  8
01
 10
-1574.113186339099
 20
-1554.7652021765809
 30
0.0
 11
-1574.113186339099
 21
-1596.638133248126
 31
0.0
  0
LINE
  5
16632
  8
01
 10
-1550.113186339099
 20
-1554.7652021765809
 30
0.0
 11
-1550.113186339099
 21
-1596.638133248126
 31
0.0
  0
LINE
  5
16633
  8
01
 10
-1572.113186339099
 20
-1595.638133248126
 30
0.0
 11
-1552.113186339099
 21
-1595.638133248126
 31
0.0
  0
TEXT
  5
16637
  8
01
 10
-1468.959540065362
 20
-1519.3372258237989
 30
0.0
 40
3.5
  1
材質：天然木（ビーチ）
  0
TEXT
  5
16638
  8
01
 10
-1460.092873398695
 20
-1525.1705591571319
 30
0.0
 40
3.5
  1
仕上げ：各種仕上げ
  0
TEXT
  5
1663B
  8
01
 10
-1491.4010295899859
 20
-1582.9334666576269
 30
0.0
 40
3.5
  1
材質：亜鉛ダイキャスト
  0
TEXT
  5
1663C
  8
01
 10
-1491.4010295899859
 20
-1588.7667999909611
 30
0.0
 40
3.5
  1
仕上げ：クローム
  0
TEXT
  5
1663F
  8
01
 10
-1476.861770984066
 20
-1560.8308362692551
 30
0.0
 40
3.5
  1
材質：ステンレス
  0
TEXT
  5
16640
  8
01
 10
-1481.061770984066
 20
-1566.6641696025879
 30
0.0
 40
3.5
  1
仕上げ：ヘアライン
  0
TEXT
  5
16643
  8
01
 10
-1407.145814879975
 20
-1514.585932089876
 30
0.0
 40
3.5
  1
材質：亜鉛ダイキャスト
  0
TEXT
  5
16644
  8
01
 10
-1394.5458148799751
 20
-1520.4192654232099
 30
0.0
 40
3.5
  1
仕上げ：クローム
  0
LINE
  5
16647
  8
01
 10
-1647.113186339099
 20
-1392.265203092644
 30
0.0
 11
-1647.113186339099
 21
-1380.7652019124371
 31
0.0
  0
LINE
  5
16648
  8
01
 10
-1477.113186339099
 20
-1392.265203092644
 30
0.0
 11
-1477.113186339099
 21
-1380.7652019124371
 31
0.0
  0
LINE
  5
16649
  8
01
 10
-1645.113186339099
 20
-1381.7652019124359
 30
0.0
 11
-1479.113186339099
 21
-1381.7652019124359
 31
0.0
  0
LINE
  5
1664D
  8
01
 10
-1627.113186339099
 20
-1580.350284739741
 30
0.0
 11
-1627.113186339099
 21
-1629.634890116253
 31
0.0
  0
LINE
  5
1664E
  8
01
 10
-1497.113186339099
 20
-1580.3638163522619
 30
0.0
 11
-1497.113186339099
 21
-1629.634890116253
 31
0.0
  0
LINE
  5
1664F
  8
01
 10
-1625.113186339099
 20
-1628.634890116253
 30
0.0
 11
-1499.113186339099
 21
-1628.634890116253
 31
0.0
  0
LINE
  5
16653
  8
01
 10
-1457.113186339099
 20
-1624.820630785109
 30
0.0
 11
-1457.113186339099
 21
-1503.7652019124359
 31
0.0
  0
LINE
  5
16654
  8
01
 10
-1324.2577537223051
 20
-1511.7652116492891
 30
0.0
 11
-1324.2577537223051
 21
-1503.7652019124359
 31
0.0
  0
LINE
  5
16655
  8
01
 10
-1455.113186339099
 20
-1504.7652019124359
 30
0.0
 11
-1326.2577537223051
 21
-1504.7652019124359
 31
0.0
  0
LINE
  5
16659
  8
01
 10
-1497.113186339099
 20
-1391.7652019124359
 30
0.0
 11
-1466.113186339099
 21
-1391.7652019124359
 31
0.0
  0
LINE
  5
1665A
  8
01
 10
-1480.113186339099
 20
-1511.7652030489321
 30
0.0
 11
-1466.113186339099
 21
-1511.7652030489321
 31
0.0
  0
LINE
  5
1665B
  8
01
 10
-1467.113186339099
 20
-1393.7652019124359
 30
0.0
 11
-1467.113186339099
 21
-1509.765203048933
 31
0.0
  0
LINE
  5
1665F
  8
01
 10
-1324.257753636788
 20
-1590.7870190819131
 30
0.0
 11
-1324.257753636788
 21
-1595.8088362513899
 31
0.0
  0
LINE
  5
16660
  8
01
 10
-1339.257756097739
 20
-1573.2650936971349
 30
0.0
 11
-1339.257756097739
 21
-1595.8088362513899
 31
0.0
  0
LINE
  5
16661
  8
01
 10
-1326.257753636788
 20
-1594.8088362513899
 30
0.0
 11
-1337.257756097739
 21
-1594.8088362513899
 31
0.0
  0
TEXT
  5
16665
  8
01
 10
-1321.2693191465801
 20
-1491.473368842625
 30
0.0
 40
3.5
  1
PB
  0
TEXT
  5
1666A
  8
01
 10
-1314.4353079853749
 20
-1497.4747148597489
 30
0.0
 40
3.5
  1
合板9mm以上
  0
LINE
  5
1666B
  8
01
 10
-1353.724418245821
 20
-1562.272267149008
 30
0.0
 11
-1353.724418245821
 21
-1523.7652019124359
 31
0.0
  0
LINE
  5
1666C
  8
01
 10
-1324.257753636788
 20
-1534.7652019124359
 30
0.0
 11
-1324.257753636788
 21
-1523.7652019124359
 31
0.0
  0
LINE
  5
1666D
  8
01
 10
-1351.7244182458201
 20
-1524.7652019124359
 30
0.0
 11
-1326.257753636788
 21
-1524.7652019124359
 31
0.0
  0
LINE
  5
16671
  8
01
 10
-1647.113186339099
 20
-1539.7652018837141
 30
0.0
 11
-1647.113186339099
 21
-1523.7652019124359
 31
0.0
  0
LINE
  5
16672
  8
01
 10
-1477.113186339099
 20
-1539.7652018837141
 30
0.0
 11
-1477.113186339099
 21
-1523.7652019124359
 31
0.0
  0
LINE
  5
16673
  8
01
 10
-1645.113186339099
 20
-1524.7652019124359
 30
0.0
 11
-1479.113186339099
 21
-1524.7652019124359
 31
0.0
  0
LINE
  5
16678
  8
01
 10
-1574.113186339099
 20
-1370.8042873212901
 30
0.0
 11
-1574.113186339099
 21
-1407.435478321745
 31
0.0
  0
LINE
  5
16679
  8
01
 10
-1575.2075101530941
 20
-1375.865199366277
 30
0.0
 11
-1573.245175064219
 21
-1375.065203932226
 31
0.0
  0
LINE
  5
1667A
  8
01
 10
-1573.245175064219
 20
-1375.065203932226
 30
0.0
 11
-1573.8334516392611
 21
-1374.753434075973
 31
0.0
  0
LINE
  5
1667B
  8
01
 10
-1576.113139803201
 20
-1398.265197259067
 30
0.0
 11
-1572.113139803201
 21
-1397.4652065662481
 31
0.0
  0
LINE
  5
1667C
  8
01
 10
-1576.113139803201
 20
-1387.065197259062
 30
0.0
 11
-1572.113139803201
 21
-1386.2652065662401
 31
0.0
  0
LINE
  5
1667D
  8
01
 10
-1576.113139803201
 20
-1383.8651972590619
 30
0.0
 11
-1572.113139803201
 21
-1383.06520656624
 31
0.0
  0
LINE
  5
1667E
  8
01
 10
-1572.113139803201
 20
-1383.06520656624
 30
0.0
 11
-1572.613139803201
 21
-1382.965205402842
 31
0.0
  0
LINE
  5
1667F
  8
01
 10
-1575.613139803201
 20
-1382.36519842246
 30
0.0
 11
-1576.113139803201
 21
-1382.265197259062
 31
0.0
  0
LINE
  5
16680
  8
01
 10
-1572.113139803201
 20
-1386.2652065662401
 30
0.0
 11
-1572.613139803201
 21
-1386.165205402843
 31
0.0
  0
LINE
  5
16681
  8
01
 10
-1572.113139803201
 20
-1384.665206566239
 30
0.0
 11
-1572.613139803201
 21
-1384.5652054028419
 31
0.0
  0
LINE
  5
16682
  8
01
 10
-1575.613139803201
 20
-1383.965198422459
 30
0.0
 11
-1576.113139803201
 21
-1383.8651972590619
 31
0.0
  0
LINE
  5
16683
  8
01
 10
-1575.613139803201
 20
-1385.5651984224589
 30
0.0
 11
-1576.113139803201
 21
-1385.4651972590621
 31
0.0
  0
LINE
  5
16684
  8
01
 10
-1576.113139803201
 20
-1385.4651972590621
 30
0.0
 11
-1572.113139803201
 21
-1384.665206566239
 31
0.0
  0
LINE
  5
16685
  8
01
 10
-1572.792360959812
 20
-1376.665204985831
 30
0.0
 11
-1573.3441104236149
 21
-1376.482440843203
 31
0.0
  0
LINE
  5
16686
  8
01
 10
-1572.113139803201
 20
-1379.86520656624
 30
0.0
 11
-1572.613139803201
 21
-1379.7652054028431
 31
0.0
  0
LINE
  5
16687
  8
01
 10
-1572.113139803201
 20
-1381.4652065662401
 30
0.0
 11
-1572.613139803201
 21
-1381.365205402843
 31
0.0
  0
LINE
  5
16688
  8
01
 10
-1572.3395468554049
 20
-1378.2652060394371
 30
0.0
 11
-1572.876140590676
 21
-1378.135935341807
 31
0.0
  0
LINE
  5
16689
  8
01
 10
-1575.1922252059931
 20
-1377.5779678250219
 30
0.0
 11
-1575.660323661142
 21
-1377.4651983126721
 31
0.0
  0
LINE
  5
1668A
  8
01
 10
-1575.613139803201
 20
-1380.765198422459
 30
0.0
 11
-1576.113139803201
 21
-1380.6651972590621
 31
0.0
  0
LINE
  5
1668B
  8
01
 10
-1575.613139803201
 20
-1379.1651984224591
 30
0.0
 11
-1576.113139803201
 21
-1379.065197259062
 31
0.0
  0
LINE
  5
1668C
  8
01
 10
-1574.7503383124631
 20
-1376.016635162717
 30
0.0
 11
-1575.2075101530941
 21
-1375.865199366277
 31
0.0
  0
LINE
  5
1668D
  8
01
 10
-1575.660323661142
 20
-1377.4651983126721
 30
0.0
 11
-1572.792360959812
 21
-1376.665204985831
 31
0.0
  0
LINE
  5
1668E
  8
01
 10
-1576.113139803201
 20
-1380.6651972590621
 30
0.0
 11
-1572.113139803201
 21
-1379.86520656624
 31
0.0
  0
LINE
  5
1668F
  8
01
 10
-1576.113139803201
 20
-1379.065197259062
 30
0.0
 11
-1572.3395468554049
 21
-1378.2652060394371
 31
0.0
  0
LINE
  5
16690
  8
01
 10
-1576.113139803201
 20
-1382.265197259062
 30
0.0
 11
-1572.113139803201
 21
-1381.4652065662401
 31
0.0
  0
LINE
  5
16691
  8
01
 10
-1576.113139803201
 20
-1395.065197259067
 30
0.0
 11
-1572.113139803201
 21
-1394.265206566248
 31
0.0
  0
LINE
  5
16692
  8
01
 10
-1572.113139803201
 20
-1394.265206566248
 30
0.0
 11
-1572.613139803201
 21
-1394.1652054028509
 31
0.0
  0
LINE
  5
16693
  8
01
 10
-1575.613139803201
 20
-1393.5651984224601
 30
0.0
 11
-1576.113139803201
 21
-1393.4651972590621
 31
0.0
  0
LINE
  5
16694
  8
01
 10
-1572.113139803201
 20
-1395.8652065662479
 30
0.0
 11
-1572.613139803201
 21
-1395.7652054028511
 31
0.0
  0
LINE
  5
16695
  8
01
 10
-1572.113139803201
 20
-1397.4652065662481
 30
0.0
 11
-1572.613139803201
 21
-1397.365205402851
 31
0.0
  0
LINE
  5
16696
  8
01
 10
-1575.613139803201
 20
-1395.1651984224641
 30
0.0
 11
-1576.113139803201
 21
-1395.065197259067
 31
0.0
  0
LINE
  5
16697
  8
01
 10
-1575.613139803201
 20
-1396.765198422464
 30
0.0
 11
-1576.113139803201
 21
-1396.6651972590671
 31
0.0
  0
LINE
  5
16698
  8
01
 10
-1576.113139803201
 20
-1396.6651972590671
 30
0.0
 11
-1572.113139803201
 21
-1395.8652065662479
 31
0.0
  0
LINE
  5
16699
  8
01
 10
-1572.113139803201
 20
-1389.465206566244
 30
0.0
 11
-1572.613139803201
 21
-1389.365205402846
 31
0.0
  0
LINE
  5
1669A
  8
01
 10
-1572.113139803201
 20
-1387.86520656624
 30
0.0
 11
-1572.613139803201
 21
-1387.7652054028431
 31
0.0
  0
LINE
  5
1669B
  8
01
 10
-1572.113139803201
 20
-1392.665206566244
 30
0.0
 11
-1572.613139803201
 21
-1392.565205402846
 31
0.0
  0
LINE
  5
1669C
  8
01
 10
-1572.113139803201
 20
-1391.0652065662439
 30
0.0
 11
-1572.613139803201
 21
-1390.9652054028461
 31
0.0
  0
LINE
  5
1669D
  8
01
 10
-1575.613139803201
 20
-1387.1651984224591
 30
0.0
 11
-1576.113139803201
 21
-1387.065197259062
 31
0.0
  0
LINE
  5
1669E
  8
01
 10
-1575.613139803201
 20
-1388.7651984224599
 30
0.0
 11
-1576.113139803201
 21
-1388.6651972590621
 31
0.0
  0
LINE
  5
1669F
  8
01
 10
-1575.613139803201
 20
-1391.9651984224599
 30
0.0
 11
-1576.113139803201
 21
-1391.8651972590619
 31
0.0
  0
LINE
  5
166A0
  8
01
 10
-1575.613139803201
 20
-1390.36519842246
 30
0.0
 11
-1576.113139803201
 21
-1390.265197259062
 31
0.0
  0
LINE
  5
166A1
  8
01
 10
-1576.113139803201
 20
-1390.265197259062
 30
0.0
 11
-1572.113139803201
 21
-1389.465206566244
 31
0.0
  0
LINE
  5
166A2
  8
01
 10
-1576.113139803201
 20
-1388.6651972590621
 30
0.0
 11
-1572.113139803201
 21
-1387.86520656624
 31
0.0
  0
LINE
  5
166A3
  8
01
 10
-1576.113139803201
 20
-1391.8651972590619
 30
0.0
 11
-1572.113139803201
 21
-1391.0652065662439
 31
0.0
  0
LINE
  5
166A4
  8
01
 10
-1576.113139803201
 20
-1393.4651972590621
 30
0.0
 11
-1572.113139803201
 21
-1392.665206566244
 31
0.0
  0
LINE
  5
166A5
  8
01
 10
-1572.613139803201
 20
-1403.7652054027369
 30
0.0
 11
-1575.613139803201
 21
-1403.7651984223519
 31
0.0
  0
LINE
  5
166A6
  8
01
 10
-1575.613139803201
 20
-1403.1651984224679
 30
0.0
 11
-1576.113139803201
 21
-1403.0651972590711
 31
0.0
  0
LINE
  5
166A7
  8
01
 10
-1576.113139803201
 20
-1403.0651972590711
 30
0.0
 11
-1572.113139803201
 21
-1402.265206566253
 31
0.0
  0
LINE
  5
166A8
  8
01
 10
-1572.113139803201
 20
-1402.265206566253
 30
0.0
 11
-1572.613139803201
 21
-1402.165205402855
 31
0.0
  0
LINE
  5
166A9
  8
01
 10
-1575.613139803201
 20
-1401.5651984224689
 30
0.0
 11
-1576.113139803201
 21
-1401.4651972590709
 31
0.0
  0
LINE
  5
166AA
  8
01
 10
-1575.613139803201
 20
-1399.965198422469
 30
0.0
 11
-1576.113139803201
 21
-1399.865197259071
 31
0.0
  0
LINE
  5
166AB
  8
01
 10
-1576.113139803201
 20
-1399.865197259071
 30
0.0
 11
-1572.113139803201
 21
-1399.065206566253
 31
0.0
  0
LINE
  5
166AC
  8
01
 10
-1572.113139803201
 20
-1400.6652065662529
 30
0.0
 11
-1572.613139803201
 21
-1400.5652054028551
 31
0.0
  0
LINE
  5
166AD
  8
01
 10
-1572.113139803201
 20
-1399.065206566253
 30
0.0
 11
-1572.613139803201
 21
-1398.965205402855
 31
0.0
  0
LINE
  5
166AE
  8
01
 10
-1576.113139803201
 20
-1401.4651972590709
 30
0.0
 11
-1572.113139803201
 21
-1400.6652065662529
 31
0.0
  0
LINE
  5
166AF
  8
01
 10
-1575.613139803201
 20
-1398.3651984224639
 30
0.0
 11
-1576.113139803201
 21
-1398.265197259067
 31
0.0
  0
LINE
  5
166B1
  8
01
 10
-1550.113186339099
 20
-1370.8042873212901
 30
0.0
 11
-1550.113186339099
 21
-1407.435478321745
 31
0.0
  0
LINE
  5
166B2
  8
01
 10
-1551.2075101530941
 20
-1375.865199366277
 30
0.0
 11
-1549.245175064219
 21
-1375.065203932226
 31
0.0
  0
LINE
  5
166B3
  8
01
 10
-1549.245175064219
 20
-1375.065203932226
 30
0.0
 11
-1549.8334516392611
 21
-1374.753434075973
 31
0.0
  0
LINE
  5
166B4
  8
01
 10
-1552.113139803201
 20
-1398.265197259067
 30
0.0
 11
-1548.113139803201
 21
-1397.4652065662481
 31
0.0
  0
LINE
  5
166B5
  8
01
 10
-1552.113139803201
 20
-1387.065197259062
 30
0.0
 11
-1548.113139803201
 21
-1386.2652065662401
 31
0.0
  0
LINE
  5
166B6
  8
01
 10
-1552.113139803201
 20
-1383.8651972590619
 30
0.0
 11
-1548.113139803201
 21
-1383.06520656624
 31
0.0
  0
LINE
  5
166B7
  8
01
 10
-1548.113139803201
 20
-1383.06520656624
 30
0.0
 11
-1548.613139803201
 21
-1382.965205402842
 31
0.0
  0
LINE
  5
166B8
  8
01
 10
-1551.613139803201
 20
-1382.36519842246
 30
0.0
 11
-1552.113139803201
 21
-1382.265197259062
 31
0.0
  0
LINE
  5
166B9
  8
01
 10
-1548.113139803201
 20
-1386.2652065662401
 30
0.0
 11
-1548.613139803201
 21
-1386.165205402843
 31
0.0
  0
LINE
  5
166BA
  8
01
 10
-1548.113139803201
 20
-1384.665206566239
 30
0.0
 11
-1548.613139803201
 21
-1384.5652054028419
 31
0.0
  0
LINE
  5
166BB
  8
01
 10
-1551.613139803201
 20
-1383.965198422459
 30
0.0
 11
-1552.113139803201
 21
-1383.8651972590619
 31
0.0
  0
LINE
  5
166BC
  8
01
 10
-1551.613139803201
 20
-1385.5651984224589
 30
0.0
 11
-1552.113139803201
 21
-1385.4651972590621
 31
0.0
  0
LINE
  5
166BD
  8
01
 10
-1552.113139803201
 20
-1385.4651972590621
 30
0.0
 11
-1548.113139803201
 21
-1384.665206566239
 31
0.0
  0
LINE
  5
166BE
  8
01
 10
-1548.792360959812
 20
-1376.665204985831
 30
0.0
 11
-1549.3441104236149
 21
-1376.482440843203
 31
0.0
  0
LINE
  5
166BF
  8
01
 10
-1548.113139803201
 20
-1379.86520656624
 30
0.0
 11
-1548.613139803201
 21
-1379.7652054028431
 31
0.0
  0
LINE
  5
166C0
  8
01
 10
-1548.113139803201
 20
-1381.4652065662401
 30
0.0
 11
-1548.613139803201
 21
-1381.365205402843
 31
0.0
  0
LINE
  5
166C1
  8
01
 10
-1548.3395468554049
 20
-1378.2652060394371
 30
0.0
 11
-1548.876140590676
 21
-1378.135935341807
 31
0.0
  0
LINE
  5
166C2
  8
01
 10
-1551.1922252059931
 20
-1377.5779678250219
 30
0.0
 11
-1551.660323661142
 21
-1377.4651983126721
 31
0.0
  0
LINE
  5
166C3
  8
01
 10
-1551.613139803201
 20
-1380.765198422459
 30
0.0
 11
-1552.113139803201
 21
-1380.6651972590621
 31
0.0
  0
LINE
  5
166C4
  8
01
 10
-1551.613139803201
 20
-1379.1651984224591
 30
0.0
 11
-1552.113139803201
 21
-1379.065197259062
 31
0.0
  0
LINE
  5
166C5
  8
01
 10
-1550.7503383124631
 20
-1376.016635162717
 30
0.0
 11
-1551.2075101530941
 21
-1375.865199366277
 31
0.0
  0
LINE
  5
166C6
  8
01
 10
-1551.660323661142
 20
-1377.4651983126721
 30
0.0
 11
-1548.792360959812
 21
-1376.665204985831
 31
0.0
  0
LINE
  5
166C7
  8
01
 10
-1552.113139803201
 20
-1380.6651972590621
 30
0.0
 11
-1548.113139803201
 21
-1379.86520656624
 31
0.0
  0
LINE
  5
166C8
  8
01
 10
-1552.113139803201
 20
-1379.065197259062
 30
0.0
 11
-1548.3395468554049
 21
-1378.2652060394371
 31
0.0
  0
LINE
  5
166C9
  8
01
 10
-1552.113139803201
 20
-1382.265197259062
 30
0.0
 11
-1548.113139803201
 21
-1381.4652065662401
 31
0.0
  0
LINE
  5
166CA
  8
01
 10
-1552.113139803201
 20
-1395.065197259067
 30
0.0
 11
-1548.113139803201
 21
-1394.265206566248
 31
0.0
  0
LINE
  5
166CB
  8
01
 10
-1548.113139803201
 20
-1394.265206566248
 30
0.0
 11
-1548.613139803201
 21
-1394.1652054028509
 31
0.0
  0
LINE
  5
166CC
  8
01
 10
-1551.613139803201
 20
-1393.5651984224601
 30
0.0
 11
-1552.113139803201
 21
-1393.4651972590621
 31
0.0
  0
LINE
  5
166CD
  8
01
 10
-1548.113139803201
 20
-1395.8652065662479
 30
0.0
 11
-1548.613139803201
 21
-1395.7652054028511
 31
0.0
  0
LINE
  5
166CE
  8
01
 10
-1548.113139803201
 20
-1397.4652065662481
 30
0.0
 11
-1548.613139803201
 21
-1397.365205402851
 31
0.0
  0
LINE
  5
166CF
  8
01
 10
-1551.613139803201
 20
-1395.1651984224641
 30
0.0
 11
-1552.113139803201
 21
-1395.065197259067
 31
0.0
  0
LINE
  5
166D0
  8
01
 10
-1551.613139803201
 20
-1396.765198422464
 30
0.0
 11
-1552.113139803201
 21
-1396.6651972590671
 31
0.0
  0
LINE
  5
166D1
  8
01
 10
-1552.113139803201
 20
-1396.6651972590671
 30
0.0
 11
-1548.113139803201
 21
-1395.8652065662479
 31
0.0
  0
LINE
  5
166D2
  8
01
 10
-1548.113139803201
 20
-1389.465206566244
 30
0.0
 11
-1548.613139803201
 21
-1389.365205402846
 31
0.0
  0
LINE
  5
166D3
  8
01
 10
-1548.113139803201
 20
-1387.86520656624
 30
0.0
 11
-1548.613139803201
 21
-1387.7652054028431
 31
0.0
  0
LINE
  5
166D4
  8
01
 10
-1548.113139803201
 20
-1392.665206566244
 30
0.0
 11
-1548.613139803201
 21
-1392.565205402846
 31
0.0
  0
LINE
  5
166D5
  8
01
 10
-1548.113139803201
 20
-1391.0652065662439
 30
0.0
 11
-1548.613139803201
 21
-1390.9652054028461
 31
0.0
  0
LINE
  5
166D6
  8
01
 10
-1551.613139803201
 20
-1387.1651984224591
 30
0.0
 11
-1552.113139803201
 21
-1387.065197259062
 31
0.0
  0
LINE
  5
166D7
  8
01
 10
-1551.613139803201
 20
-1388.7651984224599
 30
0.0
 11
-1552.113139803201
 21
-1388.6651972590621
 31
0.0
  0
LINE
  5
166D8
  8
01
 10
-1551.613139803201
 20
-1391.9651984224599
 30
0.0
 11
-1552.113139803201
 21
-1391.8651972590619
 31
0.0
  0
LINE
  5
166D9
  8
01
 10
-1551.613139803201
 20
-1390.36519842246
 30
0.0
 11
-1552.113139803201
 21
-1390.265197259062
 31
0.0
  0
LINE
  5
166DA
  8
01
 10
-1552.113139803201
 20
-1390.265197259062
 30
0.0
 11
-1548.113139803201
 21
-1389.465206566244
 31
0.0
  0
LINE
  5
166DB
  8
01
 10
-1552.113139803201
 20
-1388.6651972590621
 30
0.0
 11
-1548.113139803201
 21
-1387.86520656624
 31
0.0
  0
LINE
  5
166DC
  8
01
 10
-1552.113139803201
 20
-1391.8651972590619
 30
0.0
 11
-1548.113139803201
 21
-1391.0652065662439
 31
0.0
  0
LINE
  5
166DD
  8
01
 10
-1552.113139803201
 20
-1393.4651972590621
 30
0.0
 11
-1548.113139803201
 21
-1392.665206566244
 31
0.0
  0
LINE
  5
166DE
  8
01
 10
-1548.613139803201
 20
-1403.7652054027369
 30
0.0
 11
-1551.613139803201
 21
-1403.7651984223519
 31
0.0
  0
LINE
  5
166DF
  8
01
 10
-1551.613139803201
 20
-1403.1651984224679
 30
0.0
 11
-1552.113139803201
 21
-1403.0651972590711
 31
0.0
  0
LINE
  5
166E0
  8
01
 10
-1552.113139803201
 20
-1403.0651972590711
 30
0.0
 11
-1548.113139803201
 21
-1402.265206566253
 31
0.0
  0
LINE
  5
166E1
  8
01
 10
-1548.113139803201
 20
-1402.265206566253
 30
0.0
 11
-1548.613139803201
 21
-1402.165205402855
 31
0.0
  0
LINE
  5
166E2
  8
01
 10
-1551.613139803201
 20
-1401.5651984224689
 30
0.0
 11
-1552.113139803201
 21
-1401.4651972590709
 31
0.0
  0
LINE
  5
166E3
  8
01
 10
-1551.613139803201
 20
-1399.965198422469
 30
0.0
 11
-1552.113139803201
 21
-1399.865197259071
 31
0.0
  0
LINE
  5
166E4
  8
01
 10
-1552.113139803201
 20
-1399.865197259071
 30
0.0
 11
-1548.113139803201
 21
-1399.065206566253
 31
0.0
  0
LINE
  5
166E5
  8
01
 10
-1548.113139803201
 20
-1400.6652065662529
 30
0.0
 11
-1548.613139803201
 21
-1400.5652054028551
 31
0.0
  0
LINE
  5
166E6
  8
01
 10
-1548.113139803201
 20
-1399.065206566253
 30
0.0
 11
-1548.613139803201
 21
-1398.965205402855
 31
0.0
  0
LINE
  5
166E7
  8
01
 10
-1552.113139803201
 20
-1401.4651972590709
 30
0.0
 11
-1548.113139803201
 21
-1400.6652065662529
 31
0.0
  0
LINE
  5
166E8
  8
01
 10
-1551.613139803201
 20
-1398.3651984224639
 30
0.0
 11
-1552.113139803201
 21
-1398.265197259067
 31
0.0
  0
LINE
  5
166EA
  8
01
 10
-1301.3753848140329
 20
-1551.7652116492891
 30
0.0
 11
-1338.006575814487
 21
-1551.7652116492891
 31
0.0
  0
LINE
  5
166EB
  8
01
 10
-1306.436296859019
 20
-1550.670887835294
 30
0.0
 11
-1305.636301424968
 21
-1552.6332229241691
 31
0.0
  0
LINE
  5
166EC
  8
01
 10
-1305.636301424968
 20
-1552.6332229241691
 30
0.0
 11
-1305.3245315687161
 21
-1552.044946349127
 31
0.0
  0
LINE
  5
166ED
  8
01
 10
-1328.836294751809
 20
-1549.7652581851869
 30
0.0
 11
-1328.0363040589909
 21
-1553.7652581851869
 31
0.0
  0
LINE
  5
166EE
  8
01
 10
-1317.6362947518039
 20
-1549.7652581851869
 30
0.0
 11
-1316.836304058982
 21
-1553.7652581851869
 31
0.0
  0
LINE
  5
166EF
  8
01
 10
-1314.4362947518041
 20
-1549.7652581851869
 30
0.0
 11
-1313.636304058982
 21
-1553.7652581851869
 31
0.0
  0
LINE
  5
166F0
  8
01
 10
-1313.636304058982
 20
-1553.7652581851869
 30
0.0
 11
-1313.5363028955851
 21
-1553.2652581851869
 31
0.0
  0
LINE
  5
166F1
  8
01
 10
-1312.936295915202
 20
-1550.2652581851869
 30
0.0
 11
-1312.8362947518051
 21
-1549.7652581851869
 31
0.0
  0
LINE
  5
166F2
  8
01
 10
-1316.836304058982
 20
-1553.7652581851869
 30
0.0
 11
-1316.7363028955849
 21
-1553.2652581851869
 31
0.0
  0
LINE
  5
166F3
  8
01
 10
-1315.2363040589819
 20
-1553.7652581851869
 30
0.0
 11
-1315.136302895585
 21
-1553.2652581851869
 31
0.0
  0
LINE
  5
166F4
  8
01
 10
-1314.5362959152019
 20
-1550.2652581851869
 30
0.0
 11
-1314.4362947518041
 21
-1549.7652581851869
 31
0.0
  0
LINE
  5
166F5
  8
01
 10
-1316.1362959152009
 20
-1550.2652581851869
 30
0.0
 11
-1316.036294751804
 21
-1549.7652581851869
 31
0.0
  0
LINE
  5
166F6
  8
01
 10
-1316.036294751804
 20
-1549.7652581851869
 30
0.0
 11
-1315.2363040589819
 21
-1553.7652581851869
 31
0.0
  0
LINE
  5
166F7
  8
01
 10
-1307.2363024785741
 20
-1553.0860370285759
 30
0.0
 11
-1307.0535383359449
 21
-1552.534287564773
 31
0.0
  0
LINE
  5
166F8
  8
01
 10
-1310.4363040589819
 20
-1553.7652581851869
 30
0.0
 11
-1310.336302895585
 21
-1553.2652581851869
 31
0.0
  0
LINE
  5
166F9
  8
01
 10
-1312.0363040589821
 20
-1553.7652581851869
 30
0.0
 11
-1311.936302895585
 21
-1553.2652581851869
 31
0.0
  0
LINE
  5
166FA
  8
01
 10
-1308.836303532179
 20
-1553.5388511329829
 30
0.0
 11
-1308.707032834549
 21
-1553.0022573977119
 31
0.0
  0
LINE
  5
166FB
  8
01
 10
-1308.1490653177641
 20
-1550.6861727823959
 30
0.0
 11
-1308.036295805415
 21
-1550.2180743272461
 31
0.0
  0
LINE
  5
166FC
  8
01
 10
-1311.3362959152009
 20
-1550.2652581851869
 30
0.0
 11
-1311.2362947518041
 21
-1549.7652581851869
 31
0.0
  0
LINE
  5
166FD
  8
01
 10
-1309.736295915201
 20
-1550.2652581851869
 30
0.0
 11
-1309.6362947518039
 21
-1549.7652581851869
 31
0.0
  0
LINE
  5
166FE
  8
01
 10
-1306.5877326554589
 20
-1551.128059675925
 30
0.0
 11
-1306.436296859019
 21
-1550.670887835294
 31
0.0
  0
LINE
  5
166FF
  8
01
 10
-1308.036295805415
 20
-1550.2180743272461
 30
0.0
 11
-1307.2363024785741
 21
-1553.0860370285759
 31
0.0
  0
LINE
  5
16700
  8
01
 10
-1311.2362947518041
 20
-1549.7652581851869
 30
0.0
 11
-1310.4363040589819
 21
-1553.7652581851869
 31
0.0
  0
LINE
  5
16701
  8
01
 10
-1309.6362947518039
 20
-1549.7652581851869
 30
0.0
 11
-1308.836303532179
 21
-1553.5388511329829
 31
0.0
  0
LINE
  5
16702
  8
01
 10
-1312.8362947518051
 20
-1549.7652581851869
 30
0.0
 11
-1312.0363040589821
 21
-1553.7652581851869
 31
0.0
  0
LINE
  5
16703
  8
01
 10
-1325.6362947518089
 20
-1549.7652581851869
 30
0.0
 11
-1324.83630405899
 21
-1553.7652581851869
 31
0.0
  0
LINE
  5
16704
  8
01
 10
-1324.83630405899
 20
-1553.7652581851869
 30
0.0
 11
-1324.7363028955931
 21
-1553.2652581851869
 31
0.0
  0
LINE
  5
16705
  8
01
 10
-1324.136295915202
 20
-1550.2652581851869
 30
0.0
 11
-1324.036294751804
 21
-1549.7652581851869
 31
0.0
  0
LINE
  5
16706
  8
01
 10
-1326.436304058991
 20
-1553.7652581851869
 30
0.0
 11
-1326.336302895593
 21
-1553.2652581851869
 31
0.0
  0
LINE
  5
16707
  8
01
 10
-1328.0363040589909
 20
-1553.7652581851869
 30
0.0
 11
-1327.9363028955929
 21
-1553.2652581851869
 31
0.0
  0
LINE
  5
16708
  8
01
 10
-1325.7362959152069
 20
-1550.2652581851869
 30
0.0
 11
-1325.6362947518089
 21
-1549.7652581851869
 31
0.0
  0
LINE
  5
16709
  8
01
 10
-1327.3362959152071
 20
-1550.2652581851869
 30
0.0
 11
-1327.2362947518091
 21
-1549.7652581851869
 31
0.0
  0
LINE
  5
1670A
  8
01
 10
-1327.2362947518091
 20
-1549.7652581851869
 30
0.0
 11
-1326.436304058991
 21
-1553.7652581851869
 31
0.0
  0
LINE
  5
1670B
  8
01
 10
-1320.0363040589859
 20
-1553.7652581851869
 30
0.0
 11
-1319.9363028955891
 21
-1553.2652581851869
 31
0.0
  0
LINE
  5
1670C
  8
01
 10
-1318.4363040589819
 20
-1553.7652581851869
 30
0.0
 11
-1318.336302895585
 21
-1553.2652581851869
 31
0.0
  0
LINE
  5
1670D
  8
01
 10
-1323.236304058986
 20
-1553.7652581851869
 30
0.0
 11
-1323.136302895588
 21
-1553.2652581851869
 31
0.0
  0
LINE
  5
1670E
  8
01
 10
-1321.6363040589861
 20
-1553.7652581851869
 30
0.0
 11
-1321.536302895589
 21
-1553.2652581851869
 31
0.0
  0
LINE
  5
1670F
  8
01
 10
-1317.736295915201
 20
-1550.2652581851869
 30
0.0
 11
-1317.6362947518039
 21
-1549.7652581851869
 31
0.0
  0
LINE
  5
16710
  8
01
 10
-1319.3362959152021
 20
-1550.2652581851869
 30
0.0
 11
-1319.2362947518041
 21
-1549.7652581851869
 31
0.0
  0
LINE
  5
16711
  8
01
 10
-1322.5362959152019
 20
-1550.2652581851869
 30
0.0
 11
-1322.436294751805
 21
-1549.7652581851869
 31
0.0
  0
LINE
  5
16712
  8
01
 10
-1320.936295915202
 20
-1550.2652581851869
 30
0.0
 11
-1320.8362947518051
 21
-1549.7652581851869
 31
0.0
  0
LINE
  5
16713
  8
01
 10
-1320.8362947518051
 20
-1549.7652581851869
 30
0.0
 11
-1320.0363040589859
 21
-1553.7652581851869
 31
0.0
  0
LINE
  5
16714
  8
01
 10
-1319.2362947518041
 20
-1549.7652581851869
 30
0.0
 11
-1318.4363040589819
 21
-1553.7652581851869
 31
0.0
  0
LINE
  5
16715
  8
01
 10
-1322.436294751805
 20
-1549.7652581851869
 30
0.0
 11
-1321.6363040589861
 21
-1553.7652581851869
 31
0.0
  0
LINE
  5
16716
  8
01
 10
-1324.036294751804
 20
-1549.7652581851869
 30
0.0
 11
-1323.236304058986
 21
-1553.7652581851869
 31
0.0
  0
LINE
  5
16717
  8
01
 10
-1334.3363028954791
 20
-1553.2652581851869
 30
0.0
 11
-1334.336295915095
 21
-1550.2652581851869
 31
0.0
  0
LINE
  5
16718
  8
01
 10
-1333.736295915211
 20
-1550.2652581851869
 30
0.0
 11
-1333.636294751813
 21
-1549.7652581851869
 31
0.0
  0
LINE
  5
16719
  8
01
 10
-1333.636294751813
 20
-1549.7652581851869
 30
0.0
 11
-1332.836304058995
 21
-1553.7652581851869
 31
0.0
  0
LINE
  5
1671A
  8
01
 10
-1332.836304058995
 20
-1553.7652581851869
 30
0.0
 11
-1332.736302895597
 21
-1553.2652581851869
 31
0.0
  0
LINE
  5
1671B
  8
01
 10
-1332.1362959152109
 20
-1550.2652581851869
 30
0.0
 11
-1332.0362947518131
 21
-1549.7652581851869
 31
0.0
  0
LINE
  5
1671C
  8
01
 10
-1330.536295915211
 20
-1550.2652581851869
 30
0.0
 11
-1330.436294751813
 21
-1549.7652581851869
 31
0.0
  0
LINE
  5
1671D
  8
01
 10
-1330.436294751813
 20
-1549.7652581851869
 30
0.0
 11
-1329.6363040589949
 21
-1553.7652581851869
 31
0.0
  0
LINE
  5
1671E
  8
01
 10
-1331.2363040589951
 20
-1553.7652581851869
 30
0.0
 11
-1331.1363028955971
 21
-1553.2652581851869
 31
0.0
  0
LINE
  5
1671F
  8
01
 10
-1329.6363040589949
 20
-1553.7652581851869
 30
0.0
 11
-1329.5363028955969
 21
-1553.2652581851869
 31
0.0
  0
LINE
  5
16720
  8
01
 10
-1332.0362947518131
 20
-1549.7652581851869
 30
0.0
 11
-1331.2363040589951
 21
-1553.7652581851869
 31
0.0
  0
LINE
  5
16721
  8
01
 10
-1328.936295915207
 20
-1550.2652581851869
 30
0.0
 11
-1328.836294751809
 21
-1549.7652581851869
 31
0.0
  0
LINE
  5
16722
  8
01
 10
-1304.3362994053409
 20
-1551.7652581851869
 30
0.0
 11
-1309.6362959152029
 21
-1550.2652581851869
 31
0.0
  0
LINE
  5
16723
  8
01
 10
-1309.6362959152029
 20
-1550.2652581851869
 30
0.0
 11
-1334.336295915095
 21
-1550.2652581851869
 31
0.0
  0
LINE
  5
16724
  8
01
 10
-1304.3362994053409
 20
-1551.7652581851869
 30
0.0
 11
-1309.6363028955859
 21
-1553.2652581851869
 31
0.0
  0
LINE
  5
16725
  8
01
 10
-1334.3362912613959
 20
-1548.2652116492891
 30
0.0
 11
-1334.336295915095
 21
-1550.2652581851869
 31
0.0
  0
LINE
  5
16726
  8
01
 10
-1309.6363028955859
 20
-1553.2652581851869
 30
0.0
 11
-1334.3363028954791
 21
-1553.2652581851869
 31
0.0
  0
LINE
  5
16727
  8
01
 10
-1334.3362912613959
 20
-1548.2652116492891
 30
0.0
 11
-1335.436294751592
 21
-1548.2652116492891
 31
0.0
  0
LINE
  5
16728
  8
01
 10
-1334.3363028954791
 20
-1553.2652581851869
 30
0.0
 11
-1334.336307548961
 21
-1555.2652116492891
 31
0.0
  0
ARC
  5
16729
  8
01
 10
-1335.436294751592
 20
-1549.7652116492891
 30
0.0
 40
1.5
 50
90.0
 51
179.9998666844663
  0
LINE
  5
1672A
  8
01
 10
-1334.336307548961
 20
-1555.2652116492891
 30
0.0
 11
-1335.4363040587709
 21
-1555.2652116492891
 31
0.0
  0
LINE
  5
1672B
  8
01
 10
-1336.9362947515881
 20
-1549.7652081590959
 30
0.0
 11
-1336.9363040587671
 21
-1553.7652081590959
 31
0.0
  0
ARC
  5
1672C
  8
01
 10
-1335.4363040587709
 20
-1553.7652116492891
 30
0.0
 40
1.5
 50
179.9998666844663
 51
270.0
  0
LINE
  5
1672D
  8
01
 10
-1550.113139803201
 20
-1373.765201912599
 30
0.0
 11
-1551.613139803201
 21
-1379.065198422461
 31
0.0
  0
LINE
  5
1672E
  8
01
 10
-1551.613139803201
 20
-1379.065198422461
 30
0.0
 11
-1551.613139803201
 21
-1403.7651984223519
 31
0.0
  0
LINE
  5
1672F
  8
01
 10
-1550.113139803201
 20
-1373.765201912599
 30
0.0
 11
-1548.613139803201
 21
-1379.065205402844
 31
0.0
  0
LINE
  5
16730
  8
01
 10
-1553.613186339099
 20
-1403.7651937686539
 30
0.0
 11
-1551.613139803201
 21
-1403.7651984223519
 31
0.0
  0
LINE
  5
16731
  8
01
 10
-1548.613139803201
 20
-1379.065205402844
 30
0.0
 11
-1548.613139803201
 21
-1403.7652054027369
 31
0.0
  0
LINE
  5
16732
  8
01
 10
-1553.613186339099
 20
-1403.7651937686539
 30
0.0
 11
-1553.613186339099
 21
-1404.86519725885
 31
0.0
  0
LINE
  5
16733
  8
01
 10
-1548.613139803201
 20
-1403.7652054027369
 30
0.0
 11
-1546.613186339099
 21
-1403.7652100562191
 31
0.0
  0
ARC
  5
16734
  8
01
 10
-1552.113186339099
 20
-1404.86519725885
 30
0.0
 40
1.5
 50
180.0
 51
269.99986668446621
  0
LINE
  5
16735
  8
01
 10
-1546.613186339099
 20
-1403.7652100562191
 30
0.0
 11
-1546.613186339099
 21
-1404.865206566029
 31
0.0
  0
LINE
  5
16736
  8
01
 10
-1552.113189829292
 20
-1406.365197258845
 30
0.0
 11
-1548.1131898292911
 21
-1406.3652065660251
 31
0.0
  0
ARC
  5
16737
  8
01
 10
-1548.113186339099
 20
-1404.865206566029
 30
0.0
 40
1.5
 50
269.99986668446633
 51
0.0000000000000799
  0
LINE
  5
16738
  8
01
 10
-1574.113139803201
 20
-1373.765201912599
 30
0.0
 11
-1575.613139803201
 21
-1379.065198422461
 31
0.0
  0
LINE
  5
16739
  8
01
 10
-1575.613139803201
 20
-1379.065198422461
 30
0.0
 11
-1575.613139803201
 21
-1403.7651984223519
 31
0.0
  0
LINE
  5
1673A
  8
01
 10
-1574.113139803201
 20
-1373.765201912599
 30
0.0
 11
-1572.613139803201
 21
-1379.065205402844
 31
0.0
  0
LINE
  5
1673B
  8
01
 10
-1577.613186339099
 20
-1403.7651937686539
 30
0.0
 11
-1575.613139803201
 21
-1403.7651984223519
 31
0.0
  0
LINE
  5
1673C
  8
01
 10
-1572.613139803201
 20
-1379.065205402844
 30
0.0
 11
-1572.613139803201
 21
-1403.7652054027369
 31
0.0
  0
LINE
  5
1673D
  8
01
 10
-1577.613186339099
 20
-1403.7651937686539
 30
0.0
 11
-1577.613186339099
 21
-1404.86519725885
 31
0.0
  0
LINE
  5
1673E
  8
01
 10
-1572.613139803201
 20
-1403.7652054027369
 30
0.0
 11
-1570.613186339099
 21
-1403.7652100562191
 31
0.0
  0
ARC
  5
1673F
  8
01
 10
-1576.113186339099
 20
-1404.86519725885
 30
0.0
 40
1.5
 50
180.0
 51
269.99986668446621
  0
LINE
  5
16740
  8
01
 10
-1570.613186339099
 20
-1403.7652100562191
 30
0.0
 11
-1570.613186339099
 21
-1404.865206566029
 31
0.0
  0
LINE
  5
16741
  8
01
 10
-1576.113189829292
 20
-1406.365197258845
 30
0.0
 11
-1572.1131898292911
 21
-1406.3652065660251
 31
0.0
  0
ARC
  5
16742
  8
01
 10
-1572.113186339099
 20
-1404.865206566029
 30
0.0
 40
1.5
 50
269.99986668446633
 51
0.0000000000000799
  0
TEXT
  5
16743
  8
01
 10
-1567.363186339099
 20
-1524.0652019124359
 30
0.0
 40
3.5
  1
170
  0
LINE
  5
16744
  8
01
  6
BYBLOCK
 10
-1479.113186339099
 20
-1524.229303532436
 30
0.0
 11
-1477.113186339099
 21
-1524.7652019124359
 31
0.0
  0
LINE
  5
16745
  8
01
  6
BYBLOCK
 10
-1477.113186339099
 20
-1524.7652019124359
 30
0.0
 11
-1479.113186339099
 21
-1525.3011002924361
 31
0.0
  0
LINE
  5
16746
  8
01
  6
BYBLOCK
 10
-1477.113186339099
 20
-1524.7652019124359
 30
0.0
 11
-1479.113186339099
 21
-1524.7652019124359
 31
0.0
  0
LINE
  5
16747
  8
01
  6
BYBLOCK
 10
-1645.113186339099
 20
-1525.3011002924361
 30
0.0
 11
-1647.113186339099
 21
-1524.7652019124359
 31
0.0
  0
LINE
  5
16748
  8
01
  6
BYBLOCK
 10
-1647.113186339099
 20
-1524.7652019124359
 30
0.0
 11
-1645.113186339099
 21
-1524.229303532436
 31
0.0
  0
LINE
  5
16749
  8
01
  6
BYBLOCK
 10
-1647.113186339099
 20
-1524.7652019124359
 30
0.0
 11
-1645.113186339099
 21
-1524.7652019124359
 31
0.0
  0
TEXT
  5
1674A
  8
01
 10
-1344.824419274637
 20
-1524.0652019124359
 30
0.0
 40
3.5
  1
29.5
  0
LINE
  5
1674B
  8
01
  6
BYBLOCK
 10
-1326.257753636788
 20
-1524.229303532436
 30
0.0
 11
-1324.257753636788
 21
-1524.7652019124359
 31
0.0
  0
LINE
  5
1674C
  8
01
  6
BYBLOCK
 10
-1324.257753636788
 20
-1524.7652019124359
 30
0.0
 11
-1326.257753636788
 21
-1525.3011002924361
 31
0.0
  0
LINE
  5
1674D
  8
01
  6
BYBLOCK
 10
-1324.257753636788
 20
-1524.7652019124359
 30
0.0
 11
-1326.257753636788
 21
-1524.7652019124359
 31
0.0
  0
LINE
  5
1674E
  8
01
  6
BYBLOCK
 10
-1351.7244182458201
 20
-1525.3011002924361
 30
0.0
 11
-1353.724418245821
 21
-1524.7652019124359
 31
0.0
  0
LINE
  5
1674F
  8
01
  6
BYBLOCK
 10
-1353.724418245821
 20
-1524.7652019124359
 30
0.0
 11
-1351.7244182458201
 21
-1524.229303532436
 31
0.0
  0
LINE
  5
16750
  8
01
  6
BYBLOCK
 10
-1353.724418245821
 20
-1524.7652019124359
 30
0.0
 11
-1351.7244182458201
 21
-1524.7652019124359
 31
0.0
  0
LINE
  5
16751
  8
01
 10
-1311.9427295464279
 20
-1510.757670819771
 30
0.0
 11
-1317.135307985375
 21
-1498.174714859749
 31
0.0
  0
LINE
  5
16752
  8
01
 10
-1317.135307985375
 20
-1498.174714859749
 30
0.0
 11
-1285.2353079853749
 21
-1498.174714859749
 31
0.0
  0
LINE
  5
16753
  8
01
  6
BYBLOCK
 10
-1311.447353673301
 20
-1510.553245239156
 30
0.0
 11
-1311.179802886285
 21
-1512.606438763901
 31
0.0
  0
LINE
  5
16754
  8
01
  6
BYBLOCK
 10
-1311.179802886285
 20
-1512.606438763901
 30
0.0
 11
-1312.438105419556
 21
-1510.9620964003859
 31
0.0
  0
LINE
  5
16755
  8
01
  6
BYBLOCK
 10
-1311.179802886285
 20
-1512.606438763901
 30
0.0
 11
-1311.9427295464279
 21
-1510.757670819771
 31
0.0
  0
LINE
  5
16756
  8
01
 10
-1320.0263541469669
 20
-1510.684224687438
 30
0.0
 11
-1323.3026524799141
 21
-1492.173368842625
 31
0.0
  0
LINE
  5
16757
  8
01
 10
-1323.3026524799141
 20
-1492.173368842625
 30
0.0
 11
-1320.602652479914
 21
-1492.173368842625
 31
0.0
  0
LINE
  5
16758
  8
01
  6
BYBLOCK
 10
-1319.498657511564
 20
-1510.590825893705
 30
0.0
 11
-1319.6777851002271
 21
-1512.6536153596139
 31
0.0
  0
LINE
  5
16759
  8
01
  6
BYBLOCK
 10
-1319.6777851002271
 20
-1512.6536153596139
 30
0.0
 11
-1320.55405078237
 21
-1510.7776234811711
 31
0.0
  0
LINE
  5
1675A
  8
01
  6
BYBLOCK
 10
-1319.6777851002271
 20
-1512.6536153596139
 30
0.0
 11
-1320.0263541469669
 21
-1510.684224687438
 31
0.0
  0
TEXT
  5
1675B
  8
01
 10
-1335.341088200596
 20
-1594.1088362513899
 30
0.0
 40
3.5
  1
15
  0
LINE
  5
1675C
  8
01
  6
BYBLOCK
 10
-1337.257756097739
 20
-1595.3447346313901
 30
0.0
 11
-1339.257756097739
 21
-1594.8088362513899
 31
0.0
  0
LINE
  5
1675D
  8
01
  6
BYBLOCK
 10
-1339.257756097739
 20
-1594.8088362513899
 30
0.0
 11
-1337.257756097739
 21
-1594.27293787139
 31
0.0
  0
LINE
  5
1675E
  8
01
  6
BYBLOCK
 10
-1339.257756097739
 20
-1594.8088362513899
 30
0.0
 11
-1337.257756097739
 21
-1594.8088362513899
 31
0.0
  0
LINE
  5
1675F
  8
01
  6
BYBLOCK
 10
-1326.257753636788
 20
-1594.27293787139
 30
0.0
 11
-1324.257753636788
 21
-1594.8088362513899
 31
0.0
  0
LINE
  5
16760
  8
01
  6
BYBLOCK
 10
-1324.257753636788
 20
-1594.8088362513899
 30
0.0
 11
-1326.257753636788
 21
-1595.3447346313901
 31
0.0
  0
LINE
  5
16761
  8
01
  6
BYBLOCK
 10
-1324.257753636788
 20
-1594.8088362513899
 30
0.0
 11
-1326.257753636788
 21
-1594.8088362513899
 31
0.0
  0
TEXT
  5
16762
  8
01
 10
-1467.813186339099
 20
-1457.015202480685
 30
0.0
 40
3.5
  1
120
 50
90.0
  0
LINE
  5
16763
  8
01
  6
BYBLOCK
 10
-1466.5772879590991
 20
-1509.765203048933
 30
0.0
 11
-1467.113186339099
 21
-1511.7652030489321
 31
0.0
  0
LINE
  5
16764
  8
01
  6
BYBLOCK
 10
-1467.113186339099
 20
-1511.7652030489321
 30
0.0
 11
-1467.6490847190989
 21
-1509.765203048933
 31
0.0
  0
LINE
  5
16765
  8
01
  6
BYBLOCK
 10
-1467.113186339099
 20
-1511.7652030489321
 30
0.0
 11
-1467.113186339099
 21
-1509.765203048933
 31
0.0
  0
LINE
  5
16766
  8
01
  6
BYBLOCK
 10
-1467.6490847190989
 20
-1393.7652019124359
 30
0.0
 11
-1467.113186339099
 21
-1391.7652019124359
 31
0.0
  0
LINE
  5
16767
  8
01
  6
BYBLOCK
 10
-1467.113186339099
 20
-1391.7652019124359
 30
0.0
 11
-1466.5772879590991
 21
-1393.7652019124359
 31
0.0
  0
LINE
  5
16768
  8
01
  6
BYBLOCK
 10
-1467.113186339099
 20
-1391.7652019124359
 30
0.0
 11
-1467.113186339099
 21
-1393.7652019124359
 31
0.0
  0
TEXT
  5
16769
  8
01
 10
-1419.052136697368
 20
-1504.0652019124359
 30
0.0
 40
3.5
  1
133（ペーパー付き最大値）
  0
LINE
  5
1676A
  8
01
  6
BYBLOCK
 10
-1326.2577537223051
 20
-1504.229303532436
 30
0.0
 11
-1324.2577537223051
 21
-1504.7652019124359
 31
0.0
  0
LINE
  5
1676B
  8
01
  6
BYBLOCK
 10
-1324.2577537223051
 20
-1504.7652019124359
 30
0.0
 11
-1326.2577537223051
 21
-1505.3011002924361
 31
0.0
  0
LINE
  5
1676C
  8
01
  6
BYBLOCK
 10
-1324.2577537223051
 20
-1504.7652019124359
 30
0.0
 11
-1326.2577537223051
 21
-1504.7652019124359
 31
0.0
  0
LINE
  5
1676D
  8
01
  6
BYBLOCK
 10
-1455.113186339099
 20
-1505.3011002924361
 30
0.0
 11
-1457.113186339099
 21
-1504.7652019124359
 31
0.0
  0
LINE
  5
1676E
  8
01
  6
BYBLOCK
 10
-1457.113186339099
 20
-1504.7652019124359
 30
0.0
 11
-1455.113186339099
 21
-1504.229303532436
 31
0.0
  0
LINE
  5
1676F
  8
01
  6
BYBLOCK
 10
-1457.113186339099
 20
-1504.7652019124359
 30
0.0
 11
-1455.113186339099
 21
-1504.7652019124359
 31
0.0
  0
TEXT
  5
16770
  8
01
 10
-1567.363186339099
 20
-1627.934890116253
 30
0.0
 40
3.5
  1
130
  0
LINE
  5
16771
  8
01
  6
BYBLOCK
 10
-1499.113186339099
 20
-1628.0989917362531
 30
0.0
 11
-1497.113186339099
 21
-1628.634890116253
 31
0.0
  0
LINE
  5
16772
  8
01
  6
BYBLOCK
 10
-1497.113186339099
 20
-1628.634890116253
 30
0.0
 11
-1499.113186339099
 21
-1629.170788496252
 31
0.0
  0
LINE
  5
16773
  8
01
  6
BYBLOCK
 10
-1497.113186339099
 20
-1628.634890116253
 30
0.0
 11
-1499.113186339099
 21
-1628.634890116253
 31
0.0
  0
LINE
  5
16774
  8
01
  6
BYBLOCK
 10
-1625.113186339099
 20
-1629.170788496252
 30
0.0
 11
-1627.113186339099
 21
-1628.634890116253
 31
0.0
  0
LINE
  5
16775
  8
01
  6
BYBLOCK
 10
-1627.113186339099
 20
-1628.634890116253
 30
0.0
 11
-1625.113186339099
 21
-1628.0989917362531
 31
0.0
  0
LINE
  5
16776
  8
01
  6
BYBLOCK
 10
-1627.113186339099
 20
-1628.634890116253
 30
0.0
 11
-1625.113186339099
 21
-1628.634890116253
 31
0.0
  0
TEXT
  5
16777
  8
01
 10
-1567.363186339099
 20
-1381.0652019124359
 30
0.0
 40
3.5
  1
170
  0
LINE
  5
16778
  8
01
  6
BYBLOCK
 10
-1479.113186339099
 20
-1381.229303532436
 30
0.0
 11
-1477.113186339099
 21
-1381.7652019124359
 31
0.0
  0
LINE
  5
16779
  8
01
  6
BYBLOCK
 10
-1477.113186339099
 20
-1381.7652019124359
 30
0.0
 11
-1479.113186339099
 21
-1382.3011002924361
 31
0.0
  0
LINE
  5
1677A
  8
01
  6
BYBLOCK
 10
-1477.113186339099
 20
-1381.7652019124359
 30
0.0
 11
-1479.113186339099
 21
-1381.7652019124359
 31
0.0
  0
LINE
  5
1677B
  8
01
  6
BYBLOCK
 10
-1645.113186339099
 20
-1382.3011002924361
 30
0.0
 11
-1647.113186339099
 21
-1381.7652019124359
 31
0.0
  0
LINE
  5
1677C
  8
01
  6
BYBLOCK
 10
-1647.113186339099
 20
-1381.7652019124359
 30
0.0
 11
-1645.113186339099
 21
-1381.229303532436
 31
0.0
  0
LINE
  5
1677D
  8
01
  6
BYBLOCK
 10
-1647.113186339099
 20
-1381.7652019124359
 30
0.0
 11
-1645.113186339099
 21
-1381.7652019124359
 31
0.0
  0
LINE
  5
1677E
  8
01
 10
-1348.3912558505051
 20
-1533.2696221254739
 30
0.0
 11
-1359.1791482133081
 21
-1521.11926542321
 31
0.0
  0
LINE
  5
1677F
  8
01
 10
-1359.1791482133081
 20
-1521.11926542321
 30
0.0
 11
-1361.8791482133081
 21
-1521.11926542321
 31
0.0
  0
LINE
  5
16780
  8
01
  6
BYBLOCK
 10
-1347.990516992227
 20
-1532.9138195943531
 30
0.0
 11
-1347.063382714849
 21
-1534.7651999187051
 31
0.0
  0
LINE
  5
16781
  8
01
  6
BYBLOCK
 10
-1347.063382714849
 20
-1534.7651999187051
 30
0.0
 11
-1348.791994708783
 21
-1533.6254246565959
 31
0.0
  0
LINE
  5
16782
  8
01
  6
BYBLOCK
 10
-1347.063382714849
 20
-1534.7651999187051
 30
0.0
 11
-1348.3912558505051
 21
-1533.2696221254739
 31
0.0
  0
LINE
  5
16783
  8
01
 10
-1434.881302864369
 20
-1574.8132656919561
 30
0.0
 11
-1441.495104317399
 21
-1567.3641696025879
 31
0.0
  0
LINE
  5
16784
  8
01
 10
-1441.495104317399
 20
-1567.3641696025879
 30
0.0
 11
-1444.195104317399
 21
-1567.3641696025879
 31
0.0
  0
LINE
  5
16785
  8
01
  6
BYBLOCK
 10
-1434.4805640060911
 20
-1574.4574631608341
 30
0.0
 11
-1433.553429728714
 21
-1576.3088434851859
 31
0.0
  0
LINE
  5
16786
  8
01
  6
BYBLOCK
 10
-1433.553429728714
 20
-1576.3088434851859
 30
0.0
 11
-1435.2820417226469
 21
-1575.1690682230769
 31
0.0
  0
LINE
  5
16787
  8
01
  6
BYBLOCK
 10
-1433.553429728714
 20
-1576.3088434851859
 30
0.0
 11
-1434.881302864369
 21
-1574.8132656919561
 31
0.0
  0
LINE
  5
16788
  8
01
 10
-1510.07315645433
 20
-1607.4561376826091
 30
0.0
 11
-1494.101029589986
 21
-1589.4667999909609
 31
0.0
  0
LINE
  5
16789
  8
01
 10
-1494.101029589986
 20
-1589.4667999909609
 30
0.0
 11
-1491.4010295899859
 21
-1589.4667999909609
 31
0.0
  0
LINE
  5
1678A
  8
01
  6
BYBLOCK
 10
-1509.6724175960519
 20
-1607.8119402137299
 30
0.0
 11
-1511.4010295899859
 21
-1608.9517154758389
 31
0.0
  0
LINE
  5
1678B
  8
01
  6
BYBLOCK
 10
-1511.4010295899859
 20
-1608.9517154758389
 30
0.0
 11
-1510.473895312608
 21
-1607.1003351514869
 31
0.0
  0
LINE
  5
1678C
  8
01
  6
BYBLOCK
 10
-1511.4010295899859
 20
-1608.9517154758389
 30
0.0
 11
-1510.07315645433
 21
-1607.4561376826091
 31
0.0
  0
LINE
  5
1678D
  8
01
 10
-1413.956875812727
 20
-1533.2695682759061
 30
0.0
 11
-1420.526206732028
 21
-1525.870559157132
 31
0.0
  0
LINE
  5
1678E
  8
01
 10
-1420.526206732028
 20
-1525.870559157132
 30
0.0
 11
-1423.226206732028
 21
-1525.870559157132
 31
0.0
  0
LINE
  5
1678F
  8
01
  6
BYBLOCK
 10
-1413.5561369544489
 20
-1532.9137657447841
 30
0.0
 11
-1412.629002677071
 21
-1534.7651460691361
 31
0.0
  0
LINE
  5
16790
  8
01
  6
BYBLOCK
 10
-1412.629002677071
 20
-1534.7651460691361
 30
0.0
 11
-1414.357614671005
 21
-1533.6253708070269
 31
0.0
  0
LINE
  5
16791
  8
01
  6
BYBLOCK
 10
-1412.629002677071
 20
-1534.7651460691361
 30
0.0
 11
-1413.956875812727
 21
-1533.2695682759061
 31
0.0
  0
TEXT
  5
16792
  8
01
 10
-1565.529853005766
 20
-1594.938133248126
 30
0.0
 40
3.5
  1
24
  0
LINE
  5
16793
  8
01
  6
BYBLOCK
 10
-1552.113186339099
 20
-1595.1022348681261
 30
0.0
 11
-1550.113186339099
 21
-1595.638133248126
 31
0.0
  0
LINE
  5
16794
  8
01
  6
BYBLOCK
 10
-1550.113186339099
 20
-1595.638133248126
 30
0.0
 11
-1552.113186339099
 21
-1596.1740316281259
 31
0.0
  0
LINE
  5
16795
  8
01
  6
BYBLOCK
 10
-1550.113186339099
 20
-1595.638133248126
 30
0.0
 11
-1552.113186339099
 21
-1595.638133248126
 31
0.0
  0
LINE
  5
16796
  8
01
  6
BYBLOCK
 10
-1572.113186339099
 20
-1596.1740316281259
 30
0.0
 11
-1574.113186339099
 21
-1595.638133248126
 31
0.0
  0
LINE
  5
16797
  8
01
  6
BYBLOCK
 10
-1574.113186339099
 20
-1595.638133248126
 30
0.0
 11
-1572.113186339099
 21
-1595.1022348681261
 31
0.0
  0
LINE
  5
16798
  8
01
  6
BYBLOCK
 10
-1574.113186339099
 20
-1595.638133248126
 30
0.0
 11
-1572.113186339099
 21
-1595.638133248126
 31
0.0
  0
VIEWPORT
  5
57
 67
     1
  8
0
 10
81.091596732107206
 20
9.8327104872672635
 30
0.0
 40
583.12886769869192
 41
268.11287356825193
 68
     1
 69
     1
1001
ACAD
1000
MVIEW
1002
{
1070
    16
1010
0.0
1020
0.0
1030
0.0
1010
0.0
1020
0.0
1030
1.0
1040
0.0
1040
268.11287356825193
1040
81.091596732107206
1040
9.8327104872672635
1040
50.0
1040
0.0
1040
0.0
1070
     0
1070
  1000
1070
     1
1070
     1
1070
     0
1070
     0
1070
     0
1070
     0
1040
0.0
1040
0.0
1040
0.0
1040
10.0
1040
10.0
1040
10.0
1040
10.0
1070
     0
1002
{
1002
}
1002
}
  0
ENDSEC
  0
EOF
