  0
SECTION
  2
HEADER
  9
$ACADVER
  1
AC1009
  9
$INSBASE
 10
0.0
 20
0.0
 30
0.0
  9
$EXTMIN
 10
-4.8864460923321547
 20
-975.33843576704601
 30
0.0
  9
$EXTMAX
 10
485.26559732690339
 20
-709.37131569788539
 30
0.0
  9
$LIMMIN
 10
0.0
 20
0.0
  9
$LIMMAX
 10
420.0
 20
297.0
  9
$ORTHOMODE
 70
     0
  9
$REGENMODE
 70
     1
  9
$FILLMODE
 70
     1
  9
$QTEXTMODE
 70
     0
  9
$MIRRTEXT
 70
     0
  9
$DRAGMODE
 70
     2
  9
$LTSCALE
 40
0.5
  9
$OSMODE
 70
    63
  9
$ATTMODE
 70
     1
  9
$TEXTSIZE
 40
4.0
  9
$TRACEWID
 40
1.0
  9
$TEXTSTYLE
  7
STANDARD
  9
$CLAYER
  8
1TEXT
  9
$CELTYPE
  6
BYLAYER
  9
$CECOLOR
 62
   256
  9
$DIMSCALE
 40
1.0
  9
$DIMASZ
 40
2.0
  9
$DIMEXO
 40
0.0
  9
$DIMDLI
 40
7.0
  9
$DIMRND
 40
0.0
  9
$DIMDLE
 40
0.0
  9
$DIMEXE
 40
1.0
  9
$DIMTP
 40
0.0
  9
$DIMTM
 40
0.0
  9
$DIMTXT
 40
3.5
  9
$DIMCEN
 40
0.0
  9
$DIMTSZ
 40
0.0
  9
$DIMTOL
 70
     0
  9
$DIMLIM
 70
     0
  9
$DIMTIH
 70
     0
  9
$DIMTOH
 70
     0
  9
$DIMSE1
 70
     0
  9
$DIMSE2
 70
     0
  9
$DIMTAD
 70
     1
  9
$DIMZIN
 70
     8
  9
$DIMBLK
  1

  9
$DIMASO
 70
     1
  9
$DIMSHO
 70
     1
  9
$DIMPOST
  1
 
  9
$DIMAPOST
  1

  9
$DIMALT
 70
     0
  9
$DIMALTD
 70
     2
  9
$DIMALTF
 40
25.399999999999999
  9
$DIMLFAC
 40
1.0
  9
$DIMTOFL
 70
     1
  9
$DIMTVP
 40
0.0
  9
$DIMTIX
 70
     0
  9
$DIMSOXD
 70
     0
  9
$DIMSAH
 70
     1
  9
$DIMBLK1
  1
OPEN30
  9
$DIMBLK2
  1
OPEN30
  9
$DIMSTYLE
  2
NEWX10
  9
$DIMCLRD
 70
   256
  9
$DIMCLRE
 70
   256
  9
$DIMCLRT
 70
   201
  9
$DIMTFAC
 40
0.7
  9
$DIMGAP
 40
0.7
  9
$LUNITS
 70
     2
  9
$LUPREC
 70
     4
  9
$SKETCHINC
 40
1.0
  9
$FILLETRAD
 40
0.0
  9
$AUNITS
 70
     0
  9
$AUPREC
 70
     2
  9
$MENU
  1
acad
  9
$ELEVATION
 40
0.0
  9
$PELEVATION
 40
0.0
  9
$THICKNESS
 40
0.0
  9
$LIMCHECK
 70
     0
  9
$BLIPMODE
 70
     0
  9
$CHAMFERA
 40
10.0
  9
$CHAMFERB
 40
10.0
  9
$SKPOLY
 70
     0
  9
$TDCREATE
 40
2453033.7326634838
  9
$TDUPDATE
 40
2453798.429753866
  9
$TDINDWG
 40
1.6580468866
  9
$TDUSRTIMER
 40
1.6580468866
  9
$USRTIMER
 70
     1
  9
$ANGBASE
 50
0.0
  9
$ANGDIR
 70
     0
  9
$PDMODE
 70
     0
  9
$PDSIZE
 40
0.0
  9
$PLINEWID
 40
0.0
  9
$COORDS
 70
     2
  9
$SPLFRAME
 70
     0
  9
$SPLINETYPE
 70
     6
  9
$SPLINESEGS
 70
     8
  9
$ATTDIA
 70
     0
  9
$ATTREQ
 70
     1
  9
$HANDLING
 70
     1
  9
$HANDSEED
  5
18D1C
  9
$SURFTAB1
 70
     6
  9
$SURFTAB2
 70
     6
  9
$SURFTYPE
 70
     6
  9
$SURFU
 70
     6
  9
$SURFV
 70
     6
  9
$UCSNAME
  2

  9
$UCSORG
 10
0.0
 20
0.0
 30
0.0
  9
$UCSXDIR
 10
1.0
 20
0.0
 30
0.0
  9
$UCSYDIR
 10
0.0
 20
1.0
 30
0.0
  9
$PUCSNAME
  2

  9
$PUCSORG
 10
0.0
 20
0.0
 30
0.0
  9
$PUCSXDIR
 10
1.0
 20
0.0
 30
0.0
  9
$PUCSYDIR
 10
0.0
 20
1.0
 30
0.0
  9
$USERI1
 70
     0
  9
$USERI2
 70
     0
  9
$USERI3
 70
     0
  9
$USERI4
 70
     0
  9
$USERI5
 70
     0
  9
$USERR1
 40
0.0
  9
$USERR2
 40
0.0
  9
$USERR3
 40
0.0
  9
$USERR4
 40
0.0
  9
$USERR5
 40
0.0
  9
$WORLDVIEW
 70
     1
  9
$SHADEDGE
 70
     3
  9
$SHADEDIF
 70
    70
  9
$TILEMODE
 70
     1
  9
$MAXACTVP
 70
    48
  9
$PLIMCHECK
 70
     0
  9
$PEXTMIN
 10
1.0000000000000000E+020
 20
1.0000000000000000E+020
 30
1.0000000000000000E+020
  9
$PEXTMAX
 10
-1.0000000000000000E+020
 20
-1.0000000000000000E+020
 30
-1.0000000000000000E+020
  9
$PLIMMIN
 10
0.0
 20
0.0
  9
$PLIMMAX
 10
420.0
 20
297.0
  9
$UNITMODE
 70
     0
  9
$VISRETAIN
 70
     1
  9
$PLINEGEN
 70
     0
  9
$PSLTSCALE
 70
     1
  0
ENDSEC
  0
SECTION
  2
TABLES
  0
TABLE
  2
VPORT
 70
     4
  0
VPORT
  2
*ACTIVE
 70
     0
 10
0.0
 20
0.0
 11
1.0
 21
1.0
 12
240.18957675850999
 22
-842.34047113727536
 13
0.0
 23
0.0
 14
10.0
 24
10.0
 15
10.0
 25
10.0
 16
0.0
 26
0.0
 36
1.0
 17
0.0
 27
0.0
 37
0.0
 40
343.97498145393632
 41
1.508086253369272
 42
50.0
 43
0.0
 44
0.0
 50
0.0
 51
0.0
 71
     0
 72
   100
 73
     1
 74
     1
 75
     0
 76
     0
 77
     0
 78
     0
  0
ENDTAB
  0
TABLE
  2
LTYPE
 70
    15
  0
LTYPE
  2
CONTINUOUS
 70
     0
  3
Solid line
 72
    65
 73
     0
 40
0.0
  0
LTYPE
  2
CENTER2
 70
     0
  3
Center (.5x) ___ _ ___ _ ___ _ ___ _ ___ _ ___
 72
    65
 73
     4
 40
28.574999999999999
 49
19.050000000000001
 49
-3.1749999999999989
 49
3.1749999999999989
 49
-3.1749999999999989
  0
LTYPE
  2
XREF1|CENTER2
 70
    48
  3
Center (.5x) ___ _ ___ _ ___ _ ___ _ ___ _ ___
 72
    65
 73
     4
 40
28.574999999999999
 49
19.050000000000001
 49
-3.1749999999999989
 49
3.1749999999999989
 49
-3.1749999999999989
  0
LTYPE
  2
HIDDEN
 70
     0
  3
Hidden __ __ __ __ __ __ __ __ __ __ __ __ __ _
 72
    65
 73
     2
 40
9.5249999999999986
 49
6.3499999999999988
 49
-3.1749999999999989
  0
LTYPE
  2
PHANTOM2
 70
     0
  3
Phantom (.5x) ___ _ _ ___ _ _ ___ _ _ ___ _ _
 72
    65
 73
     6
 40
31.75
 49
15.875
 49
-3.1749999999999989
 49
3.1749999999999989
 49
-3.1749999999999989
 49
3.1749999999999989
 49
-3.1749999999999989
  0
LTYPE
  2
A3WAKUDAKE|CENTER2
 70
    48
  3
Center (.5x) ___ _ ___ _ ___ _ ___ _ ___ _ ___
 72
    65
 73
     4
 40
28.574999999999999
 49
19.050000000000001
 49
-3.1749999999999989
 49
3.1749999999999989
 49
-3.1749999999999989
  0
ENDTAB
  0
TABLE
  2
LAYER
 70
    44
  0
LAYER
  2
0
 70
     0
 62
     7
  6
CONTINUOUS
  0
LAYER
  2
1CENTER
 70
     0
 62
     7
  6
CENTER2
  0
LAYER
  2
1TEXT
 70
     0
 62
     7
  6
CONTINUOUS
  0
LAYER
  2
1DIM
 70
     0
 62
     7
  6
CONTINUOUS
  0
LAYER
  2
1HIDDEN
 70
     0
 62
     7
  6
HIDDEN
  0
LAYER
  2
1PHANTOM
 70
     0
 62
     7
  6
PHANTOM2
  0
LAYER
  2
01
 70
     0
 62
     1
  6
CONTINUOUS
  0
LAYER
  2
1DIM1
 70
     0
 62
     7
  6
CONTINUOUS
  0
LAYER
  2
1HATCH
 70
     0
 62
     7
  6
CONTINUOUS
  0
LAYER
  2
XREF1|1CENTER
 70
    48
 62
     7
  6
XREF1|CENTER2
  0
LAYER
  2
A3WAKUDAKE|THICK
 70
    48
 62
     7
  6
CONTINUOUS
  0
LAYER
  2
A3WAKUDAKE|POINT
 70
    48
 62
     7
  6
CONTINUOUS
  0
LAYER
  2
A3WAKUDAKE|1CENTER
 70
    48
 62
     7
  6
A3WAKUDAKE|CENTER2
  0
LAYER
  2
A3WAKUDAKE|0-6
 70
    48
 62
     7
  6
CONTINUOUS
  0
LAYER
  2
A3WAKUDAKE|1DIM
 70
    48
 62
     7
  6
CONTINUOUS
  0
ENDTAB
  0
TABLE
  2
STYLE
 70
    22
  0
STYLE
  2
STANDARD
 70
     0
 40
0.0
 41
1.0
 50
0.0
 71
     0
 42
4.0
  3
txt.shx
  4
extfont.shx
  0
ENDTAB
  0
TABLE
  2
VIEW
 70
     0
  0
ENDTAB
  0
TABLE
  2
UCS
 70
     0
  0
ENDTAB
  0
TABLE
  2
APPID
 70
     9
  0
APPID
  2
ACAD
 70
     0
  0
APPID
  2
DRAWINGVARIABLESXDATA
 70
     0
  0
APPID
  2
CONTENTTABDATA
 70
     0
  0
APPID
  2
CONTENTCURRENTTAB
 70
     0
  0
APPID
  2
CONTENTBLOCKDESCRIPTION
 70
     0
  0
APPID
  2
CONTENTBLOCKICON
 70
     0
  0
APPID
  2
CONTENTLONGBLOCKNAME
 70
     0
  0
APPID
  2
ACAD_PSEXT
 70
     0
  0
APPID
  2
ACAD_DSTYLE_DIMTEXT_FILL
 70
     0
  0
ENDTAB
  0
TABLE
  2
DIMSTYLE
 70
     9
  0
DIMSTYLE
  2
NEWX10
 70
     0
  3
 
  4

  5

  6
OPEN30
  7
OPEN30
 40
1.0
 41
2.0
 42
0.0
 43
7.0
 44
1.0
 45
0.0
 46
0.0
 47
0.0
 48
0.0
140
3.5
141
0.0
142
0.0
143
25.399999999999999
144
1.0
145
0.0
146
0.7
147
0.7
 71
     0
 72
     0
 73
     0
 74
     0
 75
     0
 76
     0
 77
     1
 78
     8
170
     0
171
     2
172
     1
173
     1
174
     0
175
     0
176
   256
177
   256
178
   201
  0
ENDTAB
  0
ENDSEC
  0
SECTION
  2
BLOCKS
  0
BLOCK
  8
0
  2
$MODEL_SPACE
 70
     0
 10
0.0
 20
0.0
 30
0.0
  3
$MODEL_SPACE
  1

  0
ENDBLK
  5
1A
  8
0
  0
BLOCK
 67
     1
  8
0
  2
$PAPER_SPACE
 70
     0
 10
0.0
 20
0.0
 30
0.0
  3
$PAPER_SPACE
  1

  0
ENDBLK
  5
17
 67
     1
  8
0
  0
BLOCK
  8
0
  2
_OPEN30
 70
     0
 10
0.0
 20
0.0
 30
0.0
  3
_OPEN30
  1

  0
LINE
  5
44
  8
0
  6
BYBLOCK
 62
     0
 10
-1.0
 20
0.26794919
 30
0.0
 11
0.0
 21
0.0
 31
0.0
  0
LINE
  5
45
  8
0
  6
BYBLOCK
 62
     0
 10
0.0
 20
0.0
 30
0.0
 11
-1.0
 21
-0.26794919
 31
0.0
  0
LINE
  5
46
  8
0
  6
BYBLOCK
 62
     0
 10
0.0
 20
0.0
 30
0.0
 11
-1.0
 21
0.0
 31
0.0
  0
ENDBLK
  5
47
  8
0
  0
BLOCK
  8
0
  2
XREF1
 70
    36
 10
0.0
 20
0.0
 30
0.0
  3
XREF1
  1
D:\ACLT\FORMAT\KAWAJUN(9)図面用.dwg
  0
ENDBLK
  5
5D
  8
0
  0
BLOCK
  8
0
  2
A3WAKUDAKE
 70
    36
 10
0.0
 20
0.0
 30
0.0
  3
A3WAKUDAKE
  1
D:\ACLT\FORMAT\A3WAKUdake.dwg
  0
ENDBLK
  5
6DC
  8
0
  0
BLOCK
  8
0
  2
*U14
 70
     1
 10
0.0
 20
0.0
 30
0.0
  3
*U14
  1

  0
TEXT
  5
18D01
  8
1DIM
 62
   201
 10
480.72421407944722
 20
-870.41298216911218
 30
0.0
 40
3.5
  1
10 
 50
90.0
  0
ENDBLK
  5
18D03
  8
0
  0
BLOCK
  8
0
  2
*U15
 70
     1
 10
0.0
 20
0.0
 30
0.0
  3
*U15
  1

  0
TEXT
  5
18D05
  8
1DIM1
 62
   201
 10
140.92421407944761
 20
-940.2384357670461
 30
0.0
 40
10.5
  1
P300 
  0
ENDBLK
  5
18D07
  8
0
  0
BLOCK
  8
0
  2
*U16
 70
     1
 10
0.0
 20
0.0
 30
0.0
  3
*U16
  1

  0
TEXT
  5
18D09
  8
1DIM1
 62
   201
 10
144.42421407944721
 20
-970.23843576704598
 30
0.0
 40
10.5
  1
326 
  0
ENDBLK
  5
18D0B
  8
0
  0
BLOCK
  8
0
  2
*U17
 70
     1
 10
0.0
 20
0.0
 30
0.0
  3
*U17
  1

  0
TEXT
  5
18D0D
  8
1DIM
 62
   201
 10
350.72421407944688
 20
-875.99631569794963
 30
0.0
 40
3.5
  1
20 
 50
90.0
  0
ENDBLK
  5
18D0F
  8
0
  0
BLOCK
  8
0
  2
*U18
 70
     1
 10
0.0
 20
0.0
 30
0.0
  3
*U18
  1

  0
TEXT
  5
18D11
  8
1DIM
 62
   201
 10
245.72421407944961
 20
-788.28798236455168
 30
0.0
 40
3.5
  1
64
 50
90.0
  0
ENDBLK
  5
18D13
  8
0
  0
BLOCK
  8
0
  2
*U19
 70
     1
 10
0.0
 20
0.0
 30
0.0
  3
*U19
  1

  0
TEXT
  5
18D15
  8
1DIM
 62
   201
 10
324.0408807461144
 20
-742.67131569788512
 30
0.0
 40
3.5
  1
25 
  0
ENDBLK
  5
18D17
  8
0
  0
BLOCK
  8
0
  2
*U20
 70
     1
 10
0.0
 20
0.0
 30
0.0
  3
*U20
  1

  0
TEXT
  5
18D19
  8
1DIM
 62
   201
 10
398.79921407944829
 20
-911.63843576704596
 30
0.0
 40
3.5
  1
80 
  0
ENDBLK
  5
18D1B
  8
0
  0
ENDSEC
  0
SECTION
  2
ENTITIES
  0
LINE
  5
1202D
  8
01
 10
450.42421407944721
 20
-833.37131530700708
 30
0.0
 11
450.42421407944721
 21
-913.37131530700674
 31
0.0
  0
LINE
  5
1202E
  8
01
 10
462.4242140794471
 20
-833.37131530700708
 30
0.0
 11
462.4242140794471
 21
-913.37131530700674
 31
0.0
  0
LINE
  5
1202F
  8
01
 10
441.4242140794471
 20
-833.37131530700708
 30
0.0
 11
441.4242140794471
 21
-913.37131530700674
 31
0.0
  0
LINE
  5
12034
  8
1CENTER
 10
441.4242140794471
 20
-873.37131530700697
 30
0.0
 11
459.42421407944721
 21
-873.37131530700697
 31
0.0
  0
LINE
  5
17F6D
  8
1CENTER
 10
8.4242140794440274
 20
-876.37131569788426
 30
0.0
 11
8.4242140794440274
 21
-870.37131569788426
 31
0.0
  0
LINE
  5
17F6E
  8
1CENTER
 10
5.4242140794440266
 20
-873.37131569788426
 30
0.0
 11
11.424214079444029
 21
-873.37131569788426
 31
0.0
  0
TEXT
  5
17F7B
  8
1TEXT
 10
155.52968553593061
 20
-717.37131569788551
 30
0.0
 40
8.0
  1
SC291--L
  0
LINE
  5
18096
  8
1DIM
 10
155.52968553593061
 20
-729.37131569788562
 30
0.0
 11
260.52968553593109
 21
-729.37131569788562
 31
0.0
  0
TEXT
  5
18097
  8
1TEXT
 10
156.66301886926411
 20
-727.87131569788562
 30
0.0
 40
4.0
  1
表面処理：本体
 72
     1
 11
172.9296855359307
 21
-727.87131569788562
 31
0.0
  0
LINE
  5
18098
  8
1DIM
 10
155.52968553593061
 20
-722.37131569788562
 30
0.0
 11
260.52968553593109
 21
-722.37131569788562
 31
0.0
  0
TEXT
  5
18099
  8
1TEXT
 10
236.12968553593069
 20
-727.87131569788562
 30
0.0
 40
4.0
  1
コード
 72
     1
 11
242.9296855359307
 21
-727.87131569788562
 31
0.0
  0
TEXT
  5
1809A
  8
1TEXT
 10
193.2096855359307
 20
-727.87131569788562
 30
0.0
 40
4.0
  1
表面処理：カバー
 41
0.8
 72
     1
 11
207.9296855359307
 21
-727.87131569788562
 31
0.0
  0
LINE
  5
1809B
  8
1DIM
 10
190.5296855359297
 20
-736.37131569788596
 30
0.0
 11
225.52968553593021
 21
-736.37131569788653
 31
0.0
  0
LINE
  5
1809C
  8
1DIM
 10
225.52968553593061
 20
-736.37131569788596
 30
0.0
 11
260.52968553593109
 21
-736.37131569788562
 31
0.0
  0
LINE
  5
1809D
  8
1DIM
 10
155.52968553593061
 20
-743.37131569788517
 30
0.0
 11
260.52968553593109
 21
-743.37131569788608
 31
0.0
  0
TEXT
  5
1809E
  8
1TEXT
 10
195.3963522025978
 20
-742.08567268153547
 30
0.0
 40
4.0
  1
黒【艶消し】
 72
     1
 11
207.92968553593121
 21
-742.08567268153547
 31
0.0
  0
TEXT
  5
1809F
  8
1TEXT
 10
195.12968553593109
 20
-735.08567268153536
 30
0.0
 40
4.0
  1
白【艶消し】
 72
     1
 11
207.92968553593121
 21
-735.08567268153536
 31
0.0
  0
TEXT
  5
180A0
  8
1TEXT
 10
163.59635220259781
 20
-738.34921071787028
 30
0.0
 40
4.0
  1
クローム
 72
     1
 11
172.92968553593121
 21
-738.34921071787028
 31
0.0
  0
LINE
  5
180A1
  8
1DIM
 10
190.52968553593061
 20
-722.37131569788562
 30
0.0
 11
190.52968553593021
 21
-743.3713156978846
 31
0.0
  0
LINE
  5
180A2
  8
1DIM
 10
225.52968553593061
 20
-722.37131569788562
 30
0.0
 11
225.52968553593061
 21
-743.37131569788608
 31
0.0
  0
LINE
  5
180A3
  8
1DIM
 10
260.52968553593109
 20
-722.37131569788562
 30
0.0
 11
260.52968553593109
 21
-743.37131569788608
 31
0.0
  0
LINE
  5
180A4
  8
1DIM
 10
155.52968553593061
 20
-722.37131569788562
 30
0.0
 11
155.52968553593061
 21
-743.37131569788517
 31
0.0
  0
TEXT
  5
180A5
  8
1TEXT
 10
228.26301886926501
 20
-742.08567268153502
 30
0.0
 40
4.0
  1
SC291KCL
 72
     1
 11
242.9296855359317
 21
-742.08567268153502
 31
0.0
  0
TEXT
  5
180A6
  8
1TEXT
 10
228.26301886926501
 20
-735.08567268153502
 30
0.0
 40
4.0
  1
SC291SCL
 72
     1
 11
242.9296855359317
 21
-735.08567268153502
 31
0.0
  0
LINE
  5
185E7
  8
01
 10
-4.2757859205512432
 20
-878.12131569788232
 30
0.0
 11
321.12421407944657
 21
-878.12131569788517
 31
0.0
  0
ARC
  5
185E8
  8
01
 10
165.42421407944951
 20
-877.12131569788426
 30
0.0
 40
1.0
 50
228.59037789050311
 51
270.0
  0
ARC
  5
185E9
  8
1DIM
 10
165.58135754215891
 20
-877.12131569788426
 30
0.0
 40
1.0
 50
228.59037789050311
 51
270.0
  0
LINE
  5
185EA
  8
01
 10
-4.2757859205521518
 20
-868.62131569788505
 30
0.0
 11
321.12421407944748
 21
-868.62131569788426
 31
0.0
  0
ARC
  5
185EB
  8
01
 10
321.12421407944748
 20
-868.32131569788396
 30
0.0
 40
0.3
 50
270.0
 51
0.0
  0
LINE
  5
185EC
  8
01
 10
-3.0757859205523341
 20
-833.37131569788517
 30
0.0
 11
319.92421407944772
 21
-833.37131569788517
 31
0.0
  0
ARC
  5
185ED
  8
01
 10
-3.0757859205523341
 20
-831.87131569788426
 30
0.0
 40
1.5
 50
180.0
 51
270.0
  0
LINE
  5
185F1
  8
1PHANTOM
 10
154.42421407944761
 20
-820.37131569788505
 30
0.0
 11
154.42421407944761
 21
-822.87131569788426
 31
0.0
  0
LINE
  5
185F2
  8
1PHANTOM
 10
162.42421407944761
 20
-820.37131569788505
 30
0.0
 11
162.42421407944761
 21
-822.87131569788335
 31
0.0
  0
LINE
  5
185F3
  8
1PHANTOM
 10
164.57559210554061
 20
-821.3364162011826
 30
0.0
 11
164.42421407944951
 21
-825.67131569788535
 31
0.0
  0
LINE
  5
185F4
  8
01
 10
23.42421407944585
 20
-817.37131569788426
 30
0.0
 11
293.42421407944948
 21
-817.37131569788517
 31
0.0
  0
LINE
  5
185F5
  8
1PHANTOM
 10
293.38929330995512
 20
-821.37131569788426
 30
0.0
 11
295.4591348489385
 21
-821.37131569788505
 31
0.0
  0
LINE
  5
185F6
  8
1PHANTOM
 10
165.57498293256049
 20
-820.37131569788426
 30
0.0
 11
184.3886837656564
 21
-820.37131569788596
 31
0.0
  0
ARC
  5
185F7
  8
1PHANTOM
 10
165.57498293256049
 20
-821.37131569788426
 30
0.0
 40
1.0
 50
90.0
 51
178.00000000004809
  0
LINE
  5
185F8
  8
1PHANTOM
 10
188.45974439323709
 20
-820.37131569788505
 30
0.0
 11
211.3886837656564
 21
-820.37131569788505
 31
0.0
  0
LINE
  5
185F9
  8
1PHANTOM
 10
215.45974439323709
 20
-820.37131569788505
 30
0.0
 11
238.3886837656564
 21
-820.37131569788505
 31
0.0
  0
LINE
  5
185FA
  8
1PHANTOM
 10
242.45974439323709
 20
-820.37131569788426
 30
0.0
 11
265.38868376565642
 21
-820.37131569788505
 31
0.0
  0
LINE
  5
185FB
  8
1PHANTOM
 10
269.45974439323709
 20
-820.37131569788687
 30
0.0
 11
292.38868376565642
 21
-820.37131569788426
 31
0.0
  0
LINE
  5
185FC
  8
1PHANTOM
 10
296.45974439323709
 20
-820.37131569788687
 30
0.0
 11
300.67421412131898
 21
-820.37131569788505
 31
0.0
  0
LINE
  5
185FD
  8
1DIM
 10
301.42421407944948
 20
-780.87131569788517
 30
0.0
 11
301.4211761047672
 21
-781.17131569788353
 31
0.0
  0
LINE
  5
185FE
  8
1PHANTOM
 10
300.4241189591221
 20
-780.87131569788517
 30
0.0
 11
300.02411895912252
 21
-820.37131569788505
 31
0.0
  0
LINE
  5
185FF
  8
01
 10
296.42421407944948
 20
-753.37131569788505
 30
0.0
 11
297.92421407944772
 21
-753.37131569788596
 31
0.0
  0
LINE
  5
18600
  8
01
 10
297.92421407944772
 20
-753.37131569788596
 30
0.0
 11
315.02421407946258
 21
-753.37131569788505
 31
0.0
  0
LINE
  5
18601
  8
01
 10
315.02421407946258
 20
-753.37131569788505
 30
0.0
 11
321.42421407944948
 21
-753.37131569788505
 31
0.0
  0
LINE
  5
18602
  8
01
 10
321.42421407944772
 20
-831.87131569788426
 30
0.0
 11
321.42421407944772
 21
-753.37131569788505
 31
0.0
  0
ARC
  5
18603
  8
01
 10
319.92421407944772
 20
-831.87131569788426
 30
0.0
 40
1.5
 50
270.0
 51
0.0
  0
LINE
  5
18604
  8
01
 10
296.42421407944948
 20
-753.37131569788505
 30
0.0
 11
296.42421407944948
 21
-814.37131569788596
 31
0.0
  0
ARC
  5
18605
  8
01
 10
293.42421407944948
 20
-814.37131569788596
 30
0.0
 40
3.0
 50
270.0
 51
0.0
  0
LINE
  5
18606
  8
1PHANTOM
 10
316.52421407946258
 20
-753.37131569788505
 30
0.0
 11
316.4242140794604
 21
-758.37131569788505
 31
0.0
  0
LINE
  5
18607
  8
1PHANTOM
 10
303.92421407944948
 20
-758.37131569788505
 30
0.0
 11
304.9242140794413
 21
-758.37131569788505
 31
0.0
  0
LINE
  5
18608
  8
1PHANTOM
 10
312.22421407943961
 20
-756.37132453970696
 30
0.0
 11
312.67421407944948
 21
-756.37131569788517
 31
0.0
  0
LINE
  5
18609
  8
1PHANTOM
 10
306.17421407944948
 20
-756.37131569788517
 30
0.0
 11
306.17421407944948
 21
-753.67131569788444
 31
0.0
  0
LINE
  5
1860A
  8
1PHANTOM
 10
310.67421407944948
 20
-756.37131569788517
 30
0.0
 11
310.67421407944948
 21
-753.67131569788444
 31
0.0
  0
LINE
  5
1860B
  8
1PHANTOM
 10
304.17421407944948
 20
-758.37131569788505
 30
0.0
 11
304.17421407944948
 21
-756.37131569788517
 31
0.0
  0
LINE
  5
1860C
  8
1PHANTOM
 10
312.67421407944948
 20
-758.37131569788505
 30
0.0
 11
312.67421407944948
 21
-756.37131569788517
 31
0.0
  0
LINE
  5
1860E
  8
1PHANTOM
 10
303.92421407944948
 20
-758.37131569788596
 30
0.0
 11
303.79681681802958
 21
-767.92611030446506
 31
0.0
  0
LINE
  5
1860F
  8
1PHANTOM
 10
303.72688074611688
 20
-773.17131569788353
 30
0.0
 11
303.72421407944972
 21
-773.37131569788505
 31
0.0
  0
LINE
  5
18610
  8
1PHANTOM
 10
301.42421407944948
 20
-765.37131569788596
 30
0.0
 11
301.42421407944948
 21
-773.37131569788505
 31
0.0
  0
LINE
  5
18611
  8
1PHANTOM
 10
303.83088074611629
 20
-765.37131569788596
 30
0.0
 11
301.42421407944948
 21
-765.37131569788505
 31
0.0
  0
LINE
  5
18612
  8
1PHANTOM
 10
301.42421407944948
 20
-773.37131569788505
 30
0.0
 11
303.72421407944972
 21
-773.37131569788505
 31
0.0
  0
LINE
  5
18613
  8
1PHANTOM
 10
300.4241189591221
 20
-780.87131569788517
 30
0.0
 11
301.9242140794513
 21
-780.87131569788517
 31
0.0
  0
LINE
  5
18614
  8
1PHANTOM
 10
301.9242140794513
 20
-780.87131569788517
 30
0.0
 11
303.72421407944972
 21
-773.37131569788505
 31
0.0
  0
LINE
  5
18615
  8
01
 10
-4.0757859205523337
 20
-863.37131569788335
 30
0.0
 11
320.92421407944772
 21
-863.37131569785697
 31
0.0
  0
LINE
  5
18616
  8
01
 10
-4.0757859205541527
 20
-883.37131569788426
 30
0.0
 11
320.92421407944948
 21
-883.37131569788426
 31
0.0
  0
LINE
  5
18617
  8
01
 10
-4.5757859205523337
 20
-831.87131569788426
 30
0.0
 11
-4.5757859205523337
 21
-753.37131569788505
 31
0.0
  0
LINE
  5
18618
  8
01
 10
361.72421407944779
 20
-868.62131569788596
 30
0.0
 11
441.42421407944772
 21
-868.62131569788426
 31
0.0
  0
LINE
  5
18619
  8
01
 10
361.72421407944688
 20
-878.12131569788608
 30
0.0
 11
441.42421407944772
 21
-878.12131569788426
 31
0.0
  0
LINE
  5
1861A
  8
01
 10
441.42421407944857
 20
-863.37131569788426
 30
0.0
 11
441.42421407944579
 21
-883.37131569801522
 31
0.0
  0
LINE
  5
1861B
  8
01
 10
361.42421407944772
 20
-863.87131569788426
 30
0.0
 11
361.42421407944772
 21
-868.32131569788578
 31
0.0
  0
ARC
  5
1861C
  8
01
 10
361.72421407944779
 20
-868.32131569788555
 30
0.0
 40
0.3
 50
180.0
 51
270.0
  0
LINE
  5
1861D
  8
01
 10
361.42421407944681
 20
-878.42131569788535
 30
0.0
 11
361.42421407944948
 21
-882.87131569801522
 31
0.0
  0
ARC
  5
1861E
  8
01
 10
361.72421407944688
 20
-878.42131569788501
 30
0.0
 40
0.3
 50
89.999999999999986
 51
180.0
  0
LINE
  5
1861F
  8
01
 10
372.4242140794459
 20
-868.62131569788426
 30
0.0
 11
372.4242140794459
 21
-868.87131569788505
 31
0.0
  0
LINE
  5
18620
  8
01
 10
372.4242140794459
 20
-877.87131569788426
 30
0.0
 11
372.4242140794459
 21
-878.12131569788426
 31
0.0
  0
LINE
  5
18622
  8
01
 10
436.42422040971002
 20
-878.12131569788517
 30
0.0
 11
436.42422023387098
 21
-877.87131569788608
 31
0.0
  0
LINE
  5
18623
  8
01
 10
436.42421390360681
 20
-868.87131569788698
 30
0.0
 11
436.42421372776607
 21
-868.62131569788505
 31
0.0
  0
LINE
  5
18624
  8
01
 10
413.92421407944579
 20
-868.62131569788426
 30
0.0
 11
413.9242140794467
 21
-868.87131569788608
 31
0.0
  0
LINE
  5
18625
  8
01
 10
413.9242140794467
 20
-877.87131569788505
 30
0.0
 11
413.92421407944579
 21
-878.12131569788426
 31
0.0
  0
LINE
  5
18626
  8
01
 10
421.42421407944772
 20
-868.62131569788426
 30
0.0
 11
421.42421407944772
 21
-868.87131569788698
 31
0.0
  0
LINE
  5
18627
  8
01
 10
421.42421407944852
 20
-877.87131569788608
 30
0.0
 11
421.42421407944772
 21
-878.12131569788426
 31
0.0
  0
LINE
  5
18628
  8
1PHANTOM
 10
154.42421407944761
 20
-820.37131569788505
 30
0.0
 11
162.42421407944761
 21
-820.37131569788505
 31
0.0
  0
LINE
  5
18629
  8
1PHANTOM
 10
152.32643592487051
 20
-822.87131569788426
 30
0.0
 11
154.92421412131799
 21
-822.87131569788426
 31
0.0
  0
LINE
  5
1862A
  8
1PHANTOM
 10
161.92421412131901
 20
-822.87131569788335
 30
0.0
 11
164.52199223402471
 21
-822.87131569788335
 31
0.0
  0
LINE
  5
1862B
  8
1PHANTOM
 10
293.38807459267531
 20
-821.33641620118169
 30
0.0
 11
293.38929330995421
 21
-821.37131569788596
 31
0.0
  0
ARC
  5
1862C
  8
1PHANTOM
 10
292.38868376565642
 20
-821.37131569788426
 30
0.0
 40
1.0
 50
2.0000000000039528
 51
90.0
  0
LINE
  5
1862D
  8
1PHANTOM
 10
295.46035356621809
 20
-821.33641620118533
 30
0.0
 11
295.45913484893748
 21
-821.37131569788687
 31
0.0
  0
ARC
  5
1862E
  8
1PHANTOM
 10
296.45974439323709
 20
-821.37131569788687
 30
0.0
 40
1.0
 50
90.0
 51
178.00000000004809
  0
LINE
  5
1862F
  8
1PHANTOM
 10
152.2728360533529
 20
-821.33641620118078
 30
0.0
 11
152.42421407944579
 21
-825.67131569788626
 31
0.0
  0
ARC
  5
18630
  8
1PHANTOM
 10
151.27344522633391
 20
-821.37131569788335
 30
0.0
 40
1.0
 50
2.0000000000039528
 51
90.0
  0
LINE
  5
18631
  8
1PHANTOM
 10
23.45913484894027
 20
-821.37131569788426
 30
0.0
 11
21.38929330995688
 21
-821.37131569788505
 31
0.0
  0
LINE
  5
18632
  8
1PHANTOM
 10
151.27344522633391
 20
-820.37131569788335
 30
0.0
 11
132.45974439323891
 21
-820.37131569788596
 31
0.0
  0
LINE
  5
18633
  8
1PHANTOM
 10
128.38868376565819
 20
-820.37131569788426
 30
0.0
 11
105.45974439323891
 21
-820.37131569788426
 31
0.0
  0
LINE
  5
18634
  8
1PHANTOM
 10
101.3886837656582
 20
-820.37131569788426
 30
0.0
 11
78.459744393238907
 21
-820.37131569788505
 31
0.0
  0
LINE
  5
18635
  8
1PHANTOM
 10
74.388683765658243
 20
-820.37131569788505
 30
0.0
 11
51.4597443932389
 21
-820.37131569788505
 31
0.0
  0
LINE
  5
18636
  8
1PHANTOM
 10
47.388683765658243
 20
-820.37131569788778
 30
0.0
 11
24.45974439323891
 21
-820.37131569788335
 31
0.0
  0
LINE
  5
18637
  8
1PHANTOM
 10
20.388683765658239
 20
-820.37131569788778
 30
0.0
 11
16.17421412131716
 21
-820.37131569788335
 31
0.0
  0
LINE
  5
18638
  8
1DIM
 10
15.424214079445839
 20
-780.87131569788517
 30
0.0
 11
15.42725205412898
 21
-781.17131569788262
 31
0.0
  0
LINE
  5
18639
  8
1PHANTOM
 10
16.42430919977323
 20
-780.87131569788517
 30
0.0
 11
16.82430919977287
 21
-820.37131569788505
 31
0.0
  0
LINE
  5
1863A
  8
01
 10
20.42421407944585
 20
-753.37131569788505
 30
0.0
 11
20.42421407944585
 21
-814.37131569788596
 31
0.0
  0
ARC
  5
1863B
  8
01
 10
23.42421407944585
 20
-814.37131569788596
 30
0.0
 40
3.0
 50
180.0
 51
270.0
  0
LINE
  5
1863C
  8
1PHANTOM
 10
0.3242140794327497
 20
-753.37131569788505
 30
0.0
 11
0.4242140794349325
 21
-758.37131569788505
 31
0.0
  0
LINE
  5
1863D
  8
1PHANTOM
 10
12.92421407944585
 20
-758.37131569788505
 30
0.0
 11
11.924214079441301
 21
-758.37131569788426
 31
0.0
  0
LINE
  5
1863E
  8
1PHANTOM
 10
4.9242140794412981
 20
-758.37131569788505
 30
0.0
 11
0.4242140794349325
 21
-758.37131569788505
 31
0.0
  0
LINE
  5
1863F
  8
1PHANTOM
 10
12.674214079445839
 20
-756.37131569788517
 30
0.0
 11
12.22421407946012
 21
-756.37131569788517
 31
0.0
  0
LINE
  5
18640
  8
1PHANTOM
 10
12.674214079445839
 20
-758.37131569788505
 30
0.0
 11
12.674214079445839
 21
-756.37131569788517
 31
0.0
  0
LINE
  5
18641
  8
1PHANTOM
 10
4.1742140794458464
 20
-758.37131569788505
 30
0.0
 11
4.1742140794458464
 21
-756.37131569788517
 31
0.0
  0
LINE
  5
18643
  8
1PHANTOM
 10
12.92421407944585
 20
-758.37131569788596
 30
0.0
 11
13.051611338573821
 21
-767.92611013239684
 31
0.0
  0
LINE
  5
18644
  8
1PHANTOM
 10
13.121547412779361
 20
-773.17131569788353
 30
0.0
 11
13.124214079445659
 21
-773.37131569788505
 31
0.0
  0
LINE
  5
18645
  8
1PHANTOM
 10
15.424214079445839
 20
-765.37131569788596
 30
0.0
 11
15.424214079445839
 21
-773.37131569788505
 31
0.0
  0
LINE
  5
18646
  8
1PHANTOM
 10
13.01754741277909
 20
-765.37131569788596
 30
0.0
 11
15.424214079445839
 21
-765.37131569788505
 31
0.0
  0
LINE
  5
18647
  8
1PHANTOM
 10
15.424214079445839
 20
-773.37131569788505
 30
0.0
 11
13.124214079445659
 21
-773.37131569788505
 31
0.0
  0
LINE
  5
18648
  8
1PHANTOM
 10
16.42430919977323
 20
-780.87131569788517
 30
0.0
 11
14.924214079444029
 21
-780.87131569788517
 31
0.0
  0
LINE
  5
18649
  8
1PHANTOM
 10
14.924214079444029
 20
-780.87131569788517
 30
0.0
 11
13.124214079445659
 21
-773.37131569788505
 31
0.0
  0
LINE
  5
1864A
  8
1PHANTOM
 10
23.460353566219961
 20
-821.33641620118078
 30
0.0
 11
23.45913484893936
 21
-821.37131569788596
 31
0.0
  0
ARC
  5
1864B
  8
1PHANTOM
 10
24.45974439323891
 20
-821.37131569788335
 30
0.0
 40
1.0
 50
90.0
 51
177.99999999999599
  0
LINE
  5
1864C
  8
1PHANTOM
 10
21.388074592677182
 20
-821.33641620118624
 30
0.0
 11
21.38929330995688
 21
-821.37131569788505
 31
0.0
  0
ARC
  5
1864D
  8
1PHANTOM
 10
20.388683765658239
 20
-821.37131569788789
 30
0.0
 40
1.0
 50
1.9999999999518741
 51
90.0
  0
LINE
  5
1864E
  8
1PHANTOM
 10
50.459134848940259
 20
-821.37131569788426
 30
0.0
 11
48.389293309956876
 21
-821.37131569788505
 31
0.0
  0
LINE
  5
1864F
  8
1PHANTOM
 10
50.460353566219062
 20
-821.3364162011826
 30
0.0
 11
50.459134848939357
 21
-821.37131569788596
 31
0.0
  0
ARC
  5
18650
  8
1PHANTOM
 10
51.4597443932389
 20
-821.37131569788505
 30
0.0
 40
1.0
 50
90.0
 51
177.99999999999599
  0
LINE
  5
18651
  8
1PHANTOM
 10
48.388074592677192
 20
-821.33641620118624
 30
0.0
 11
48.389293309957793
 21
-821.37131569788687
 31
0.0
  0
ARC
  5
18652
  8
1PHANTOM
 10
47.388683765658243
 20
-821.37131569788789
 30
0.0
 40
1.0
 50
1.9999999999518741
 51
90.0
  0
LINE
  5
18653
  8
01
 10
374.42421407944221
 20
-868.62131569788596
 30
0.0
 11
374.42421407944221
 21
-868.87131569788505
 31
0.0
  0
LINE
  5
18654
  8
01
 10
374.42421407944312
 20
-877.87131569788426
 30
0.0
 11
374.42421407944221
 21
-878.12131569788517
 31
0.0
  0
LINE
  5
18655
  8
01
 10
369.12421407944112
 20
-878.12131569788517
 30
0.0
 11
369.37421407944112
 21
-877.87131569788505
 31
0.0
  0
LINE
  5
18656
  8
01
 10
369.12421407944112
 20
-868.62131569788426
 30
0.0
 11
369.37421407944112
 21
-868.87131569788505
 31
0.0
  0
ARC
  5
18657
  8
01
 10
165.42421407944951
 20
-869.62131569788505
 30
0.0
 40
1.0
 50
90.0
 51
131.40962210908469
  0
ARC
  5
18658
  8
1DIM
 10
165.58135754215891
 20
-869.62131569788505
 30
0.0
 40
1.0
 50
90.0
 51
131.40962210908469
  0
LINE
  5
18659
  8
01
 10
321.42421407944772
 20
-863.87131569788426
 30
0.0
 11
321.42421407944772
 21
-868.32131569788396
 31
0.0
  0
ARC
  5
1865A
  8
01
 10
320.92421407944772
 20
-863.87131569788426
 30
0.0
 40
0.5
 50
0.0
 51
90.0
  0
LINE
  5
1865B
  8
01
 10
321.42421407944579
 20
-878.42131569788535
 30
0.0
 11
321.42421407944948
 21
-882.87131569788426
 31
0.0
  0
ARC
  5
1865C
  8
01
 10
321.12421407944657
 20
-878.42131569788535
 30
0.0
 40
0.3
 50
0.0000000000521102
 51
90.0
  0
ARC
  5
1865D
  8
01
 10
320.92421407944948
 20
-882.87131569788426
 30
0.0
 40
0.5
 50
270.0
 51
0.0000000000521102
  0
LINE
  5
1865E
  8
01
 10
316.4242140794604
 20
-868.62131569788426
 30
0.0
 11
316.4242140794604
 21
-868.87131569788426
 31
0.0
  0
LINE
  5
1865F
  8
01
 10
316.42421407945949
 20
-877.87131569787971
 30
0.0
 11
316.42421407945858
 21
-878.12131569788426
 31
0.0
  0
LINE
  5
18660
  8
01
 10
301.42421407944948
 20
-878.12131569788426
 30
0.0
 11
301.42421407944948
 21
-877.87131569787971
 31
0.0
  0
LINE
  5
18661
  8
01
 10
301.42421407944948
 20
-868.87131569788335
 30
0.0
 11
301.42421407944948
 21
-868.62131569788426
 31
0.0
  0
LINE
  5
18662
  8
01
 10
316.52421407946258
 20
-868.62131569788426
 30
0.0
 11
316.52421407946258
 21
-868.87131569788426
 31
0.0
  0
LINE
  5
18663
  8
01
 10
316.5242140794644
 20
-877.8713156978788
 30
0.0
 11
316.52421407946258
 21
-878.12131569788232
 31
0.0
  0
LINE
  5
18664
  8
01
 10
301.22411895912143
 20
-878.12131569788426
 30
0.0
 11
301.22411895912143
 21
-877.87131569787971
 31
0.0
  0
LINE
  5
18665
  8
01
 10
301.2241189591204
 20
-868.87131569788335
 30
0.0
 11
301.22411895912143
 21
-868.62131569788426
 31
0.0
  0
LINE
  5
18666
  8
01
 10
301.9242140794513
 20
-868.62131569788426
 30
0.0
 11
301.92421407945221
 21
-868.87131569788335
 31
0.0
  0
LINE
  5
18667
  8
01
 10
301.9242140794513
 20
-877.8713156978788
 30
0.0
 11
301.9242140794513
 21
-878.12131569788232
 31
0.0
  0
LINE
  5
18668
  8
01
 10
303.72421407944972
 20
-868.62131569788426
 30
0.0
 11
303.72421407944972
 21
-868.87131569788335
 31
0.0
  0
LINE
  5
18669
  8
01
 10
303.72421407944972
 20
-877.8713156978788
 30
0.0
 11
303.72421407944972
 21
-878.12131569788232
 31
0.0
  0
LINE
  5
1866A
  8
01
 10
303.92421407944948
 20
-868.62131569788426
 30
0.0
 11
303.92421407944857
 21
-868.87131569788335
 31
0.0
  0
LINE
  5
1866B
  8
01
 10
303.92421407945039
 20
-877.8713156978788
 30
0.0
 11
303.92421407944948
 21
-878.12131569788232
 31
0.0
  0
LINE
  5
1866D
  8
1HIDDEN
 10
-3.0757858786819261
 20
-831.67131569788353
 30
0.0
 11
319.92421412131807
 21
-831.67131569788353
 31
0.0
  0
LINE
  5
1866E
  8
1HIDDEN
 10
154.92421412131799
 20
-820.97131569788644
 30
0.0
 11
161.92421412131799
 21
-820.97131569788644
 31
0.0
  0
LINE
  5
1866F
  8
1HIDDEN
 10
165.42421412131799
 20
-821.37131569788426
 30
0.0
 11
298.67421412131989
 21
-821.37131569788426
 31
0.0
  0
LINE
  5
18670
  8
1HIDDEN
 10
154.92421412131799
 20
-820.97131569788644
 30
0.0
 11
154.92421412131799
 21
-825.67131569788535
 31
0.0
  0
LINE
  5
18671
  8
1HIDDEN
 10
161.92421412131799
 20
-820.97131569788644
 30
0.0
 11
161.92421412131799
 21
-825.67131569788341
 31
0.0
  0
LINE
  5
18672
  8
1HIDDEN
 10
165.42421412131799
 20
-821.37131569788426
 30
0.0
 11
165.42421412131711
 21
-825.67131569788341
 31
0.0
  0
LINE
  5
18673
  8
1HIDDEN
 10
319.92421412133081
 20
-753.37131569788426
 30
0.0
 11
319.92421412131807
 21
-831.67131569788353
 31
0.0
  0
LINE
  5
18674
  8
1HIDDEN
 10
316.92421412133262
 20
-756.37131569788426
 30
0.0
 11
318.42421412133081
 21
-753.37131569788426
 31
0.0
  0
LINE
  5
18675
  8
1HIDDEN
 10
300.67421412131989
 20
-781.17131569788353
 30
0.0
 11
300.67421412131989
 21
-823.67131569788171
 31
0.0
  0
LINE
  5
18676
  8
1HIDDEN
 10
298.67421412131989
 20
-821.37131569788426
 30
0.0
 11
298.67421412132171
 21
-823.6713156978808
 31
0.0
  0
LINE
  5
18677
  8
1HIDDEN
 10
316.9242141213299
 20
-765.17131569788353
 30
0.0
 11
305.17421412131807
 21
-765.17131569788353
 31
0.0
  0
LINE
  5
18678
  8
1HIDDEN
 10
316.92421412133262
 20
-756.37131569788426
 30
0.0
 11
316.9242141213299
 21
-765.17131569788353
 31
0.0
  0
LINE
  5
18679
  8
1HIDDEN
 10
304.17421412131989
 20
-773.17131569788353
 30
0.0
 11
304.17421412131807
 21
-781.17131569788353
 31
0.0
  0
LINE
  5
1867A
  8
1HIDDEN
 10
303.17421412131989
 20
-773.17131569788353
 30
0.0
 11
304.17421412131989
 21
-773.17131569788353
 31
0.0
  0
LINE
  5
1867B
  8
1HIDDEN
 10
305.17421412131807
 20
-765.17131569788353
 30
0.0
 11
303.17421412131989
 21
-769.17131569788353
 31
0.0
  0
LINE
  5
1867C
  8
1HIDDEN
 10
300.67421412131989
 20
-781.17131569788353
 30
0.0
 11
304.17421412131807
 21
-781.17131569788353
 31
0.0
  0
LINE
  5
1867D
  8
1HIDDEN
 10
303.17421412131989
 20
-769.17131569788353
 30
0.0
 11
303.17421412131989
 21
-773.17131569788353
 31
0.0
  0
LINE
  5
1867F
  8
1HIDDEN
 10
298.67421412132171
 20
-823.6713156978808
 30
0.0
 11
300.67421412131989
 21
-823.67131569788171
 31
0.0
  0
LINE
  5
18680
  8
01
 10
319.72421412131638
 20
-868.87131569788335
 30
0.0
 11
-2.875785878682108
 21
-868.87131569788335
 31
0.0
  0
LINE
  5
18681
  8
01
 10
319.72421412132098
 20
-877.87131569787971
 30
0.0
 11
-2.8757858786848369
 21
-877.87131569788335
 31
0.0
  0
ARC
  5
18682
  8
01
 10
269.19921412126678
 20
-873.37131569789426
 30
0.0
 40
50.725000000050748
 50
354.91039124038969
 51
5.0896087596102459
  0
LINE
  5
18683
  8
1HIDDEN
 10
161.92421412131799
 20
-825.67131569788341
 30
0.0
 11
165.42421412131711
 21
-825.67131569788341
 31
0.0
  0
LINE
  5
18684
  8
1HIDDEN
 10
151.4242141213181
 20
-821.37131569788426
 30
0.0
 11
18.17421412131625
 21
-821.37131569788426
 31
0.0
  0
LINE
  5
18685
  8
1HIDDEN
 10
151.4242141213181
 20
-821.37131569788426
 30
0.0
 11
151.4242141213181
 21
-825.67131569788432
 31
0.0
  0
LINE
  5
18686
  8
1HIDDEN
 10
-3.075785878694659
 20
-753.37131569788426
 30
0.0
 11
-3.0757858786819261
 21
-831.67131569788353
 31
0.0
  0
LINE
  5
18687
  8
1HIDDEN
 10
-0.0757858786964789
 20
-756.37131569788426
 30
0.0
 11
-1.575785878694659
 21
-753.37131569788426
 31
0.0
  0
LINE
  5
18688
  8
1HIDDEN
 10
16.17421412131625
 20
-781.17131569788353
 30
0.0
 11
16.17421412131625
 21
-823.67131569788262
 31
0.0
  0
LINE
  5
18689
  8
1HIDDEN
 10
18.17421412131625
 20
-821.37131569788426
 30
0.0
 11
18.17421412131625
 21
-823.67131569788444
 31
0.0
  0
LINE
  5
1868A
  8
1HIDDEN
 10
-0.0757858786946599
 20
-765.17131569788444
 30
0.0
 11
11.674214121318069
 21
-765.17131569788353
 31
0.0
  0
LINE
  5
1868B
  8
1HIDDEN
 10
-0.0757858786964789
 20
-756.37131569788426
 30
0.0
 11
-0.0757858786946599
 21
-765.17131569788444
 31
0.0
  0
LINE
  5
1868C
  8
1HIDDEN
 10
12.67421412131625
 20
-773.17131569788353
 30
0.0
 11
12.674214121315339
 21
-781.17131569788353
 31
0.0
  0
LINE
  5
1868D
  8
1HIDDEN
 10
13.67421412131625
 20
-773.17131569788353
 30
0.0
 11
12.67421412131625
 21
-773.17131569788353
 31
0.0
  0
LINE
  5
1868E
  8
1HIDDEN
 10
11.674214121318069
 20
-765.17131569788353
 30
0.0
 11
13.67421412131625
 21
-769.17131569788353
 31
0.0
  0
LINE
  5
1868F
  8
1HIDDEN
 10
16.17421412131625
 20
-781.17131569788353
 30
0.0
 11
12.674214121315339
 21
-781.17131569788353
 31
0.0
  0
LINE
  5
18690
  8
1HIDDEN
 10
13.67421412131625
 20
-769.17131569788353
 30
0.0
 11
13.67421412131625
 21
-773.17131569788353
 31
0.0
  0
LINE
  5
18692
  8
1HIDDEN
 10
154.92421412131799
 20
-825.67131569788535
 30
0.0
 11
151.4242141213181
 21
-825.67131569788432
 31
0.0
  0
LINE
  5
18693
  8
01
 10
363.32421407944003
 20
-877.87131569788426
 30
0.0
 11
441.42421407944772
 21
-877.87131569788608
 31
0.0
  0
LINE
  5
18694
  8
01
 10
363.32421407944003
 20
-868.87131569788426
 30
0.0
 11
441.42421407944772
 21
-868.87131569788608
 31
0.0
  0
LINE
  5
18695
  8
01
 10
441.42421407944772
 20
-877.87131569788608
 30
0.0
 11
441.42421407944772
 21
-868.87131569788608
 31
0.0
  0
ARC
  5
18696
  8
01
 10
413.84921407949241
 20
-873.37131569788494
 30
0.0
 40
50.725000000044972
 50
174.91039124039091
 51
185.08960875960901
  0
ARC
  5
1869A
  8
1DIM
 10
292.3543725404661
 20
-877.12131569788244
 30
0.0
 40
1.0
 50
270.0
 51
311.40962210949692
  0
ARC
  5
1869B
  8
01
 10
292.42421407944857
 20
-877.12131569788153
 30
0.0
 40
1.0
 50
270.0
 51
311.40962210935407
  0
ARC
  5
1869C
  8
1DIM
 10
292.3543725404661
 20
-869.62131569788426
 30
0.0
 40
1.0
 50
48.590377890787579
 51
90.0
  0
ARC
  5
1869D
  8
01
 10
292.42421407944857
 20
-869.62131569788335
 30
0.0
 40
1.0
 50
48.590377890645847
 51
90.0
  0
ARC
  5
1869E
  8
01
 10
296.42421407944857
 20
-877.12131569788062
 30
0.0
 40
1.0
 50
228.5903778906459
 51
270.0
  0
ARC
  5
1869F
  8
1DIM
 10
296.49405561843292
 20
-877.12131569788153
 30
0.0
 40
1.0
 50
228.5903778906459
 51
270.0
  0
ARC
  5
186A0
  8
1DIM
 10
296.49405561843292
 20
-869.62131569788505
 30
0.0
 40
1.0
 50
90.0
 51
131.40962210908469
  0
ARC
  5
186A1
  8
01
 10
296.42421407944857
 20
-869.62131569788335
 30
0.0
 40
1.0
 50
90.0
 51
131.4096221093541
  0
LINE
  5
186A4
  8
1PHANTOM
 10
315.02421407946258
 20
-753.67131569788535
 30
0.0
 11
315.02421407946258
 21
-753.37131569788505
 31
0.0
  0
LINE
  5
186A5
  8
1PHANTOM
 10
297.92421407944772
 20
-753.67131569788535
 30
0.0
 11
297.92421407944772
 21
-753.37131569788505
 31
0.0
  0
LINE
  5
186A6
  8
1PHANTOM
 10
315.02421407946258
 20
-753.67131569788535
 30
0.0
 11
309.92426061533843
 21
-753.67131569788535
 31
0.0
  0
LINE
  5
186A7
  8
01
 10
20.42421407944585
 20
-753.37131569788505
 30
0.0
 11
18.924214079447658
 21
-753.37131569788596
 31
0.0
  0
LINE
  5
186A8
  8
01
 10
18.924214079447658
 20
-753.37131569788596
 30
0.0
 11
9.9242606153384259
 21
-753.37131569788426
 31
0.0
  0
LINE
  5
186A9
  8
01
 10
6.924260615336606
 20
-753.37131569788426
 30
0.0
 11
1.824214079432749
 21
-753.37131569788505
 31
0.0
  0
LINE
  5
186AA
  8
01
 10
1.824214079432749
 20
-753.37131569788505
 30
0.0
 11
-4.5757859205541527
 21
-753.37131569788505
 31
0.0
  0
LINE
  5
186AB
  8
1PHANTOM
 10
10.674214079445839
 20
-756.37131569788517
 30
0.0
 11
10.674214079445839
 21
-753.67131569788444
 31
0.0
  0
LINE
  5
186AC
  8
1PHANTOM
 10
6.1742140794458464
 20
-756.37131569788517
 30
0.0
 11
6.1742140794458464
 21
-753.67131569788444
 31
0.0
  0
LINE
  5
186AD
  8
1PHANTOM
 10
1.824214079432749
 20
-753.67131569788535
 30
0.0
 11
1.824214079432749
 21
-753.37131569788505
 31
0.0
  0
LINE
  5
186AE
  8
1PHANTOM
 10
18.924214079447658
 20
-753.67131569788535
 30
0.0
 11
18.924214079447658
 21
-753.37131569788505
 31
0.0
  0
LINE
  5
186AF
  8
1PHANTOM
 10
1.824214079432749
 20
-753.67131569788535
 30
0.0
 11
6.9242606153356974
 21
-753.67131569788614
 31
0.0
  0
LINE
  5
186B0
  8
1PHANTOM
 10
9.9242606153375164
 20
-753.67131569788535
 30
0.0
 11
18.924214079447658
 21
-753.67131569788535
 31
0.0
  0
LINE
  5
186B4
  8
01
 10
361.92421407945039
 20
-883.37131569801522
 30
0.0
 11
441.4242140794467
 21
-883.37131569801522
 31
0.0
  0
ARC
  5
186B5
  8
01
 10
361.92421407944948
 20
-882.871315698015
 30
0.0
 40
0.5
 50
180.0
 51
270.00000000010419
  0
LINE
  5
186B6
  8
01
 10
441.42421407944772
 20
-863.37131569788426
 30
0.0
 11
361.92421407944772
 21
-863.37131569788426
 31
0.0
  0
ARC
  5
186B7
  8
01
 10
361.92421407944772
 20
-863.87131569788221
 30
0.0
 40
0.5
 50
89.999999999999986
 51
180.00000000020839
  0
LINE
  5
186B8
  8
1PHANTOM
 10
77.459134848940266
 20
-821.37131569788426
 30
0.0
 11
75.389293309956884
 21
-821.37131569788505
 31
0.0
  0
LINE
  5
186B9
  8
1PHANTOM
 10
77.460353566219055
 20
-821.3364162011826
 30
0.0
 11
77.459134848939357
 21
-821.37131569788596
 31
0.0
  0
ARC
  5
186BA
  8
1PHANTOM
 10
78.459744393238907
 20
-821.37131569788505
 30
0.0
 40
1.0
 50
90.0
 51
177.99999999999599
  0
LINE
  5
186BB
  8
1PHANTOM
 10
75.388074592677185
 20
-821.33641620118624
 30
0.0
 11
75.389293309956884
 21
-821.37131569788426
 31
0.0
  0
ARC
  5
186BC
  8
1PHANTOM
 10
74.388683765658243
 20
-821.37131569788789
 30
0.0
 40
1.0
 50
1.9999999999518741
 51
90.0
  0
LINE
  5
186BD
  8
1PHANTOM
 10
104.4591348489402
 20
-821.37131569788426
 30
0.0
 11
102.3892933099568
 21
-821.37131569788505
 31
0.0
  0
LINE
  5
186BE
  8
1PHANTOM
 10
104.460353566219
 20
-821.3364162011826
 30
0.0
 11
104.4591348489393
 21
-821.37131569788596
 31
0.0
  0
ARC
  5
186BF
  8
1PHANTOM
 10
105.45974439323891
 20
-821.37131569788505
 30
0.0
 40
1.0
 50
90.0
 51
177.99999999999599
  0
LINE
  5
186C0
  8
1PHANTOM
 10
102.3880745926772
 20
-821.33641620118624
 30
0.0
 11
102.3892933099568
 21
-821.37131569788426
 31
0.0
  0
ARC
  5
186C1
  8
1PHANTOM
 10
101.3886837656582
 20
-821.37131569788789
 30
0.0
 40
1.0
 50
1.9999999999518741
 51
90.0
  0
LINE
  5
186C2
  8
1PHANTOM
 10
131.45913484894021
 20
-821.37131569788426
 30
0.0
 11
129.3892933099568
 21
-821.37131569788505
 31
0.0
  0
LINE
  5
186C3
  8
1PHANTOM
 10
131.460353566219
 20
-821.3364162011826
 30
0.0
 11
131.4591348489393
 21
-821.37131569788596
 31
0.0
  0
ARC
  5
186C4
  8
1PHANTOM
 10
132.45974439323891
 20
-821.37131569788505
 30
0.0
 40
1.0
 50
90.0
 51
177.99999999999599
  0
LINE
  5
186C5
  8
1PHANTOM
 10
129.38807459267721
 20
-821.33641620118624
 30
0.0
 11
129.3892933099568
 21
-821.37131569788426
 31
0.0
  0
ARC
  5
186C6
  8
1PHANTOM
 10
128.38868376565819
 20
-821.37131569788789
 30
0.0
 40
1.0
 50
1.9999999999518741
 51
90.0
  0
ARC
  5
186C7
  8
1DIM
 10
269.49405561843099
 20
-877.12131569788323
 30
0.0
 40
1.0
 50
228.59037789043171
 51
270.0
  0
ARC
  5
186C8
  8
01
 10
269.42421407944761
 20
-877.12131569788244
 30
0.0
 40
1.0
 50
228.59037789050311
 51
270.0
  0
ARC
  5
186C9
  8
1DIM
 10
269.49405561843099
 20
-869.62131569788505
 30
0.0
 40
1.0
 50
90.0
 51
131.40962210908469
  0
ARC
  5
186CA
  8
01
 10
269.42421407944761
 20
-869.62131569788426
 30
0.0
 40
1.0
 50
90.0
 51
131.40962210921239
  0
ARC
  5
186CB
  8
01
 10
265.42421407944761
 20
-877.12131569788153
 30
0.0
 40
1.0
 50
270.0
 51
311.40962210935407
  0
ARC
  5
186CC
  8
1DIM
 10
265.35437254046428
 20
-877.12131569788244
 30
0.0
 40
1.0
 50
270.0
 51
311.40962210949692
  0
ARC
  5
186CD
  8
1DIM
 10
265.35437254046428
 20
-869.62131569788596
 30
0.0
 40
1.0
 50
48.590377890915278
 51
90.0
  0
ARC
  5
186CE
  8
01
 10
265.42421407944761
 20
-869.62131569788426
 30
0.0
 40
1.0
 50
48.590377890787579
 51
90.0
  0
ARC
  5
186CF
  8
1DIM
 10
242.49405561843099
 20
-877.12131569788323
 30
0.0
 40
1.0
 50
228.59037789043171
 51
270.0
  0
ARC
  5
186D0
  8
01
 10
242.42421407944761
 20
-877.12131569788244
 30
0.0
 40
1.0
 50
228.59037789050311
 51
270.0
  0
ARC
  5
186D1
  8
1DIM
 10
242.49405561843099
 20
-869.62131569788505
 30
0.0
 40
1.0
 50
90.0
 51
131.40962210908469
  0
ARC
  5
186D2
  8
01
 10
242.42421407944761
 20
-869.62131569788426
 30
0.0
 40
1.0
 50
90.0
 51
131.40962210921239
  0
ARC
  5
186D3
  8
01
 10
238.42421407944761
 20
-877.12131569788153
 30
0.0
 40
1.0
 50
270.0
 51
311.40962210935407
  0
ARC
  5
186D4
  8
1DIM
 10
238.35437254046431
 20
-877.12131569788244
 30
0.0
 40
1.0
 50
270.0
 51
311.40962210949692
  0
ARC
  5
186D5
  8
1DIM
 10
238.35437254046431
 20
-869.62131569788596
 30
0.0
 40
1.0
 50
48.590377890915278
 51
90.0
  0
ARC
  5
186D6
  8
01
 10
238.42421407944761
 20
-869.62131569788426
 30
0.0
 40
1.0
 50
48.590377890787579
 51
90.0
  0
ARC
  5
186D7
  8
1DIM
 10
215.49405561843099
 20
-877.12131569788323
 30
0.0
 40
1.0
 50
228.59037789043171
 51
270.0
  0
ARC
  5
186D8
  8
01
 10
215.42421407944761
 20
-877.12131569788244
 30
0.0
 40
1.0
 50
228.59037789050311
 51
270.0
  0
ARC
  5
186D9
  8
1DIM
 10
215.49405561843099
 20
-869.62131569788505
 30
0.0
 40
1.0
 50
90.0
 51
131.40962210908469
  0
ARC
  5
186DA
  8
01
 10
215.42421407944761
 20
-869.62131569788426
 30
0.0
 40
1.0
 50
90.0
 51
131.40962210921239
  0
ARC
  5
186DB
  8
01
 10
211.42421407944761
 20
-877.12131569788153
 30
0.0
 40
1.0
 50
270.0
 51
311.40962210935407
  0
ARC
  5
186DC
  8
1DIM
 10
211.35437254046431
 20
-877.12131569788244
 30
0.0
 40
1.0
 50
270.0
 51
311.40962210949692
  0
ARC
  5
186DD
  8
1DIM
 10
211.35437254046431
 20
-869.62131569788596
 30
0.0
 40
1.0
 50
48.590377890915278
 51
90.0
  0
ARC
  5
186DE
  8
01
 10
211.42421407944761
 20
-869.62131569788426
 30
0.0
 40
1.0
 50
48.590377890787579
 51
90.0
  0
ARC
  5
186DF
  8
1DIM
 10
188.49405561843099
 20
-877.12131569788323
 30
0.0
 40
1.0
 50
228.59037789050311
 51
270.0
  0
ARC
  5
186E0
  8
01
 10
188.42421407944761
 20
-877.12131569788244
 30
0.0
 40
1.0
 50
228.5903778906459
 51
270.0
  0
ARC
  5
186E1
  8
1DIM
 10
188.49405561843099
 20
-869.62131569788505
 30
0.0
 40
1.0
 50
90.0
 51
131.40962210908469
  0
ARC
  5
186E2
  8
01
 10
188.42421407944761
 20
-869.62131569788426
 30
0.0
 40
1.0
 50
90.0
 51
131.40962210921239
  0
ARC
  5
186E3
  8
01
 10
184.42421407944761
 20
-877.12131569788153
 30
0.0
 40
1.0
 50
270.0
 51
311.40962210921242
  0
ARC
  5
186E4
  8
1DIM
 10
184.35437254046431
 20
-877.12131569788244
 30
0.0
 40
1.0
 50
270.0
 51
311.40962210935407
  0
ARC
  5
186E5
  8
1DIM
 10
184.35437254046431
 20
-869.62131569788596
 30
0.0
 40
1.0
 50
48.590377890915278
 51
90.0
  0
ARC
  5
186E6
  8
01
 10
184.42421407944761
 20
-869.62131569788426
 30
0.0
 40
1.0
 50
48.590377890787579
 51
90.0
  0
LINE
  5
186E7
  8
1PHANTOM
 10
266.38929330995512
 20
-821.37131569788426
 30
0.0
 11
268.4591348489385
 21
-821.37131569788505
 31
0.0
  0
LINE
  5
186E8
  8
1PHANTOM
 10
266.38807459267628
 20
-821.3364162011826
 30
0.0
 11
266.38929330995512
 21
-821.37131569788596
 31
0.0
  0
ARC
  5
186E9
  8
1PHANTOM
 10
265.38868376565642
 20
-821.37131569788505
 30
0.0
 40
1.0
 50
2.0000000000039528
 51
90.0
  0
LINE
  5
186EA
  8
1PHANTOM
 10
268.46035356621809
 20
-821.33641620118624
 30
0.0
 11
268.4591348489385
 21
-821.37131569788426
 31
0.0
  0
ARC
  5
186EB
  8
1PHANTOM
 10
269.45974439323709
 20
-821.37131569788789
 30
0.0
 40
1.0
 50
90.0
 51
178.00000000004809
  0
LINE
  5
186EC
  8
1PHANTOM
 10
239.38929330995509
 20
-821.37131569788426
 30
0.0
 11
241.4591348489385
 21
-821.37131569788505
 31
0.0
  0
LINE
  5
186ED
  8
1PHANTOM
 10
239.3880745926763
 20
-821.3364162011826
 30
0.0
 11
239.38929330995509
 21
-821.37131569788596
 31
0.0
  0
ARC
  5
186EE
  8
1PHANTOM
 10
238.3886837656564
 20
-821.37131569788505
 30
0.0
 40
1.0
 50
2.0000000000039528
 51
90.0
  0
LINE
  5
186EF
  8
1PHANTOM
 10
241.46035356621809
 20
-821.33641620118624
 30
0.0
 11
241.4591348489385
 21
-821.37131569788426
 31
0.0
  0
ARC
  5
186F0
  8
1PHANTOM
 10
242.45974439323709
 20
-821.37131569788789
 30
0.0
 40
1.0
 50
90.0
 51
178.00000000004809
  0
LINE
  5
186F1
  8
1PHANTOM
 10
212.38929330995509
 20
-821.37131569788426
 30
0.0
 11
214.4591348489385
 21
-821.37131569788505
 31
0.0
  0
LINE
  5
186F2
  8
1PHANTOM
 10
212.3880745926763
 20
-821.3364162011826
 30
0.0
 11
212.38929330995509
 21
-821.37131569788596
 31
0.0
  0
ARC
  5
186F3
  8
1PHANTOM
 10
211.3886837656564
 20
-821.37131569788505
 30
0.0
 40
1.0
 50
2.0000000000039528
 51
90.0
  0
LINE
  5
186F4
  8
1PHANTOM
 10
214.46035356621809
 20
-821.33641620118624
 30
0.0
 11
214.4591348489385
 21
-821.37131569788426
 31
0.0
  0
ARC
  5
186F5
  8
1PHANTOM
 10
215.45974439323709
 20
-821.37131569788789
 30
0.0
 40
1.0
 50
90.0
 51
178.00000000004809
  0
LINE
  5
186F6
  8
1PHANTOM
 10
185.38929330995501
 20
-821.37131569788426
 30
0.0
 11
187.45913484893839
 21
-821.37131569788505
 31
0.0
  0
LINE
  5
186F7
  8
1PHANTOM
 10
185.3880745926763
 20
-821.3364162011826
 30
0.0
 11
185.38929330995501
 21
-821.37131569788596
 31
0.0
  0
ARC
  5
186F8
  8
1PHANTOM
 10
184.3886837656564
 20
-821.37131569788505
 30
0.0
 40
1.0
 50
2.0000000000039528
 51
90.0
  0
LINE
  5
186F9
  8
1PHANTOM
 10
187.46035356621809
 20
-821.33641620118624
 30
0.0
 11
187.45913484893839
 21
-821.37131569788426
 31
0.0
  0
ARC
  5
186FA
  8
1PHANTOM
 10
188.45974439323709
 20
-821.37131569788789
 30
0.0
 40
1.0
 50
90.0
 51
178.00000000004809
  0
LINE
  5
186FB
  8
1CENTER
 10
8.4242140794476654
 20
-721.52613638881894
 30
0.0
 11
8.4242140794476654
 21
-760.80291619676018
 31
0.0
  0
LINE
  5
1879C
  8
1HIDDEN
 10
16.17421412131625
 20
-823.67131569788262
 30
0.0
 11
18.17421412131625
 21
-823.67131569788444
 31
0.0
  0
ARC
  5
1879D
  8
01
 10
151.42421407944579
 20
-877.12131569788426
 30
0.0
 40
1.0
 50
270.0
 51
311.40962210949692
  0
ARC
  5
1879E
  8
1DIM
 10
151.26707061673639
 20
-877.12131569788426
 30
0.0
 40
1.0
 50
270.0
 51
311.40962210949692
  0
ARC
  5
1879F
  8
01
 10
-4.2757859205530622
 20
-868.32131569788396
 30
0.0
 40
0.3
 50
180.0
 51
270.0
  0
ARC
  5
187A0
  8
01
 10
151.42421407944579
 20
-869.62131569788505
 30
0.0
 40
1.0
 50
48.590377890915278
 51
90.0
  0
ARC
  5
187A1
  8
1DIM
 10
151.26707061673639
 20
-869.62131569788505
 30
0.0
 40
1.0
 50
48.590377890915278
 51
90.0
  0
LINE
  5
187A2
  8
01
 10
-4.5757859205532441
 20
-863.87131569788426
 30
0.0
 11
-4.5757859205532441
 21
-868.32131569788396
 31
0.0
  0
ARC
  5
187A3
  8
01
 10
-4.0757859205532441
 20
-863.87131569788426
 30
0.0
 40
0.5
 50
90.0
 51
180.0
  0
LINE
  5
187A4
  8
01
 10
-4.5757859205514251
 20
-878.42131569788535
 30
0.0
 11
-4.5757859205550631
 21
-882.87131569788426
 31
0.0
  0
ARC
  5
187A5
  8
01
 10
-4.2757859205521518
 20
-878.42131569788535
 30
0.0
 40
0.3
 50
90.0
 51
179.9999999999479
  0
ARC
  5
187A6
  8
01
 10
-4.0757859205550631
 20
-882.87131569788426
 30
0.0
 40
0.5
 50
179.9999999999479
 51
270.0
  0
LINE
  5
187A7
  8
01
 10
0.424214079434023
 20
-868.62131569788426
 30
0.0
 11
0.424214079434023
 21
-868.87131569788426
 31
0.0
  0
LINE
  5
187A8
  8
01
 10
0.4242140794349325
 20
-877.87131569787971
 30
0.0
 11
0.424214079435842
 21
-878.12131569788426
 31
0.0
  0
LINE
  5
187A9
  8
01
 10
15.42421407944494
 20
-878.12131569788426
 30
0.0
 11
15.42421407944494
 21
-877.87131569787971
 31
0.0
  0
LINE
  5
187AA
  8
01
 10
15.42421407944494
 20
-868.87131569788335
 30
0.0
 11
15.42421407944494
 21
-868.62131569788426
 31
0.0
  0
LINE
  5
187AB
  8
01
 10
0.3242140794318402
 20
-868.62131569788426
 30
0.0
 11
0.3242140794318402
 21
-868.87131569788426
 31
0.0
  0
LINE
  5
187AC
  8
01
 10
0.3242140794300212
 20
-877.8713156978788
 30
0.0
 11
0.3242140794318402
 21
-878.12131569788232
 31
0.0
  0
LINE
  5
187AD
  8
01
 10
15.62430919977305
 20
-878.12131569788426
 30
0.0
 11
15.62430919977305
 21
-877.87131569787971
 31
0.0
  0
LINE
  5
187AE
  8
01
 10
15.624309199773959
 20
-868.87131569788335
 30
0.0
 11
15.62430919977305
 21
-868.62131569788426
 31
0.0
  0
LINE
  5
187AF
  8
01
 10
14.92421407944312
 20
-868.62131569788426
 30
0.0
 11
14.92421407944221
 21
-868.87131569788335
 31
0.0
  0
LINE
  5
187B0
  8
01
 10
14.92421407944312
 20
-877.8713156978788
 30
0.0
 11
14.92421407944312
 21
-878.12131569788232
 31
0.0
  0
LINE
  5
187B1
  8
01
 10
13.12421407944475
 20
-868.62131569788426
 30
0.0
 11
13.12421407944475
 21
-868.87131569788335
 31
0.0
  0
LINE
  5
187B2
  8
01
 10
13.12421407944475
 20
-877.8713156978788
 30
0.0
 11
13.12421407944475
 21
-878.12131569788232
 31
0.0
  0
LINE
  5
187B3
  8
01
 10
12.92421407944494
 20
-868.62131569788426
 30
0.0
 11
12.92421407944585
 21
-868.87131569788335
 31
0.0
  0
LINE
  5
187B4
  8
01
 10
12.92421407944402
 20
-877.8713156978788
 30
0.0
 11
12.92421407944494
 21
-878.12131569788232
 31
0.0
  0
ARC
  5
187B5
  8
01
 10
47.649214037627637
 20
-873.37131569789426
 30
0.0
 40
50.725000000050748
 50
174.9103912403898
 51
185.0896087596102
  0
ARC
  5
187B6
  8
1DIM
 10
24.49405561842832
 20
-877.12131569788244
 30
0.0
 40
1.0
 50
228.59037789050311
 51
270.0
  0
ARC
  5
187B7
  8
01
 10
24.42421407944585
 20
-877.12131569788153
 30
0.0
 40
1.0
 50
228.5903778906459
 51
270.0
  0
ARC
  5
187B8
  8
1DIM
 10
24.49405561842832
 20
-869.62131569788426
 30
0.0
 40
1.0
 50
90.0
 51
131.40962210921239
  0
ARC
  5
187B9
  8
01
 10
24.42421407944585
 20
-869.62131569788335
 30
0.0
 40
1.0
 50
90.0
 51
131.4096221093541
  0
ARC
  5
187BA
  8
01
 10
20.42421407944585
 20
-877.12131569788062
 30
0.0
 40
1.0
 50
270.0
 51
311.40962210935407
  0
ARC
  5
187BB
  8
1DIM
 10
20.354372540461561
 20
-877.12131569788153
 30
0.0
 40
1.0
 50
270.0
 51
311.40962210935407
  0
ARC
  5
187BC
  8
1DIM
 10
20.354372540461561
 20
-869.62131569788505
 30
0.0
 40
1.0
 50
48.590377890915278
 51
90.0
  0
ARC
  5
187BD
  8
01
 10
20.42421407944585
 20
-869.62131569788335
 30
0.0
 40
1.0
 50
48.590377890645847
 51
90.0
  0
ARC
  5
187BF
  8
1DIM
 10
47.354372540463373
 20
-877.12131569788323
 30
0.0
 40
1.0
 50
270.0
 51
311.40962210956832
  0
ARC
  5
187C0
  8
01
 10
47.424214079446749
 20
-877.12131569788244
 30
0.0
 40
1.0
 50
270.0
 51
311.40962210949692
  0
ARC
  5
187C1
  8
1DIM
 10
47.354372540463373
 20
-869.62131569788505
 30
0.0
 40
1.0
 50
48.590377890915278
 51
90.0
  0
ARC
  5
187C2
  8
01
 10
47.424214079446749
 20
-869.62131569788426
 30
0.0
 40
1.0
 50
48.590377890787579
 51
90.0
  0
ARC
  5
187C3
  8
01
 10
51.424214079446749
 20
-877.12131569788153
 30
0.0
 40
1.0
 50
228.5903778906459
 51
270.0
  0
ARC
  5
187C4
  8
1DIM
 10
51.494055618430139
 20
-877.12131569788244
 30
0.0
 40
1.0
 50
228.59037789050311
 51
270.0
  0
ARC
  5
187C5
  8
1DIM
 10
51.494055618430139
 20
-869.62131569788596
 30
0.0
 40
1.0
 50
90.0
 51
131.40962210908469
  0
ARC
  5
187C6
  8
01
 10
51.424214079446749
 20
-869.62131569788426
 30
0.0
 40
1.0
 50
90.0
 51
131.40962210921239
  0
ARC
  5
187C7
  8
1DIM
 10
74.354372540464283
 20
-877.12131569788323
 30
0.0
 40
1.0
 50
270.0
 51
311.40962210956832
  0
ARC
  5
187C8
  8
01
 10
74.424214079447665
 20
-877.12131569788244
 30
0.0
 40
1.0
 50
270.0
 51
311.40962210949692
  0
ARC
  5
187C9
  8
1DIM
 10
74.354372540464283
 20
-869.62131569788505
 30
0.0
 40
1.0
 50
48.590377890915278
 51
90.0
  0
ARC
  5
187CA
  8
01
 10
74.424214079447665
 20
-869.62131569788426
 30
0.0
 40
1.0
 50
48.590377890787579
 51
90.0
  0
ARC
  5
187CB
  8
01
 10
78.424214079447665
 20
-877.12131569788153
 30
0.0
 40
1.0
 50
228.5903778906459
 51
270.0
  0
ARC
  5
187CC
  8
1DIM
 10
78.494055618431048
 20
-877.12131569788244
 30
0.0
 40
1.0
 50
228.59037789050311
 51
270.0
  0
ARC
  5
187CD
  8
1DIM
 10
78.494055618431048
 20
-869.62131569788596
 30
0.0
 40
1.0
 50
90.0
 51
131.40962210908469
  0
ARC
  5
187CE
  8
01
 10
78.424214079447665
 20
-869.62131569788426
 30
0.0
 40
1.0
 50
90.0
 51
131.40962210921239
  0
ARC
  5
187CF
  8
1DIM
 10
101.3543725404643
 20
-877.12131569788323
 30
0.0
 40
1.0
 50
270.0
 51
311.40962210956832
  0
ARC
  5
187D0
  8
01
 10
101.42421407944759
 20
-877.12131569788244
 30
0.0
 40
1.0
 50
270.0
 51
311.40962210949692
  0
ARC
  5
187D1
  8
1DIM
 10
101.3543725404643
 20
-869.62131569788505
 30
0.0
 40
1.0
 50
48.590377890915278
 51
90.0
  0
ARC
  5
187D2
  8
01
 10
101.42421407944759
 20
-869.62131569788426
 30
0.0
 40
1.0
 50
48.590377890787579
 51
90.0
  0
ARC
  5
187D3
  8
01
 10
105.42421407944759
 20
-877.12131569788153
 30
0.0
 40
1.0
 50
228.5903778906459
 51
270.0
  0
ARC
  5
187D4
  8
1DIM
 10
105.49405561843101
 20
-877.12131569788244
 30
0.0
 40
1.0
 50
228.59037789050311
 51
270.0
  0
ARC
  5
187D5
  8
1DIM
 10
105.49405561843101
 20
-869.62131569788596
 30
0.0
 40
1.0
 50
90.0
 51
131.40962210908469
  0
ARC
  5
187D6
  8
01
 10
105.42421407944759
 20
-869.62131569788426
 30
0.0
 40
1.0
 50
90.0
 51
131.40962210921239
  0
ARC
  5
187D7
  8
1DIM
 10
128.35437254046431
 20
-877.12131569788323
 30
0.0
 40
1.0
 50
270.0
 51
311.40962210949692
  0
ARC
  5
187D8
  8
01
 10
128.42421407944761
 20
-877.12131569788244
 30
0.0
 40
1.0
 50
270.0
 51
311.40962210935407
  0
ARC
  5
187D9
  8
1DIM
 10
128.35437254046431
 20
-869.62131569788505
 30
0.0
 40
1.0
 50
48.590377890915278
 51
90.0
  0
ARC
  5
187DA
  8
01
 10
128.42421407944761
 20
-869.62131569788426
 30
0.0
 40
1.0
 50
48.590377890787579
 51
90.0
  0
ARC
  5
187DB
  8
01
 10
132.42421407944761
 20
-877.12131569788153
 30
0.0
 40
1.0
 50
228.59037789078761
 51
270.0
  0
ARC
  5
187DC
  8
1DIM
 10
132.49405561843099
 20
-877.12131569788244
 30
0.0
 40
1.0
 50
228.5903778906459
 51
270.0
  0
ARC
  5
187DD
  8
1DIM
 10
132.49405561843099
 20
-869.62131569788596
 30
0.0
 40
1.0
 50
90.0
 51
131.40962210908469
  0
ARC
  5
187DE
  8
01
 10
132.42421407944761
 20
-869.62131569788426
 30
0.0
 40
1.0
 50
90.0
 51
131.40962210921239
  0
LINE
  5
187DF
  8
1CENTER
 10
308.42421407944772
 20
-721.52613638881894
 30
0.0
 11
308.42421407944772
 21
-760.80291619676018
 31
0.0
  0
LINE
  5
187E0
  8
1PHANTOM
 10
312.22421407943961
 20
-756.37132453970696
 30
0.0
 11
304.62421407945573
 21
-756.37130685606144
 31
0.0
  0
LINE
  5
187E1
  8
1PHANTOM
 10
312.22421175264662
 20
-757.37132453970708
 30
0.0
 11
304.62421175266257
 21
-757.37130685605234
 31
0.0
  0
LINE
  5
187E2
  8
1PHANTOM
 10
308.92416639167368
 20
-757.37131742805514
 30
0.0
 11
307.92416901847628
 21
-756.37131510126198
 31
0.0
  0
LINE
  5
187E3
  8
1PHANTOM
 10
312.22421175264662
 20
-757.37132453970708
 30
0.0
 11
312.22421407943961
 21
-756.37132453970696
 31
0.0
  0
LINE
  5
187E4
  8
1PHANTOM
 10
309.92421407944039
 20
-757.37131975496641
 30
0.0
 11
306.92421407944039
 21
-757.37131277458184
 31
0.0
  0
LINE
  5
187E5
  8
1PHANTOM
 10
304.62421175266257
 20
-757.37130685605234
 30
0.0
 11
304.62421407945573
 21
-756.37130685606144
 31
0.0
  0
LINE
  5
187E6
  8
1PHANTOM
 10
307.3298902654451
 20
-724.47131371861406
 30
0.0
 11
309.29222535432109
 21
-723.67131828456195
 31
0.0
  0
LINE
  5
187E7
  8
1PHANTOM
 10
309.29222535432109
 20
-723.67131828456195
 30
0.0
 11
308.70394877927811
 21
-723.35954842831086
 31
0.0
  0
LINE
  5
187E8
  8
1PHANTOM
 10
306.42426061533752
 20
-746.87131161140348
 30
0.0
 11
310.42426061533752
 21
-746.07132091858546
 31
0.0
  0
LINE
  5
187E9
  8
1PHANTOM
 10
306.42426061533752
 20
-735.67131161139923
 30
0.0
 11
310.42426061533752
 21
-734.87132091857575
 31
0.0
  0
LINE
  5
187EA
  8
1PHANTOM
 10
306.42426061533752
 20
-732.47131161139851
 30
0.0
 11
310.42426061533752
 21
-731.67132091857684
 31
0.0
  0
LINE
  5
187EB
  8
1PHANTOM
 10
310.42426061533752
 20
-731.67132091857684
 30
0.0
 11
309.92426061533752
 21
-731.57131975517814
 31
0.0
  0
LINE
  5
187EC
  8
1PHANTOM
 10
306.92426061533752
 20
-730.97131277479684
 30
0.0
 11
306.42426061533752
 21
-730.87131161139814
 31
0.0
  0
LINE
  5
187ED
  8
1PHANTOM
 10
310.42426061533752
 20
-734.87132091857575
 30
0.0
 11
309.92426061533752
 21
-734.77131975517875
 31
0.0
  0
LINE
  5
187EE
  8
1PHANTOM
 10
310.42426061533752
 20
-733.27132091857538
 30
0.0
 11
309.92426061533752
 21
-733.1713197551785
 31
0.0
  0
LINE
  5
187EF
  8
1PHANTOM
 10
306.92426061533752
 20
-732.57131277479527
 30
0.0
 11
306.42426061533752
 21
-732.47131161139851
 31
0.0
  0
LINE
  5
187F0
  8
1PHANTOM
 10
306.92426061533752
 20
-734.17131277479575
 30
0.0
 11
306.42426061533752
 21
-734.07131161139876
 31
0.0
  0
LINE
  5
187F1
  8
1PHANTOM
 10
306.42426061533752
 20
-734.07131161139876
 30
0.0
 11
310.42426061533752
 21
-733.27132091857538
 31
0.0
  0
LINE
  5
187F2
  8
1PHANTOM
 10
309.74503945872772
 20
-725.27131933816827
 30
0.0
 11
309.19328999492342
 21
-725.08855519554015
 31
0.0
  0
LINE
  5
187F3
  8
1PHANTOM
 10
310.42426061533752
 20
-728.47132091857611
 30
0.0
 11
309.92426061533752
 21
-728.37131975517923
 31
0.0
  0
LINE
  5
187F4
  8
1PHANTOM
 10
310.42426061533752
 20
-730.07132091857636
 30
0.0
 11
309.92426061533752
 21
-729.97131975517948
 31
0.0
  0
LINE
  5
187F5
  8
1PHANTOM
 10
310.19785356313417
 20
-726.87132039177277
 30
0.0
 11
309.66125982786161
 21
-726.74204969414347
 31
0.0
  0
LINE
  5
187F6
  8
1PHANTOM
 10
307.34517521254662
 20
-726.18408217735885
 30
0.0
 11
306.87707675739603
 21
-726.07131266500846
 31
0.0
  0
LINE
  5
187F7
  8
1PHANTOM
 10
306.92426061533752
 20
-729.37131277479637
 30
0.0
 11
306.42426061533752
 21
-729.27131161139948
 31
0.0
  0
LINE
  5
187F8
  8
1PHANTOM
 10
306.92426061533752
 20
-727.771312774796
 30
0.0
 11
306.42426061533752
 21
-727.67131161139923
 31
0.0
  0
LINE
  5
187F9
  8
1PHANTOM
 10
307.7870621060747
 20
-724.62274951505276
 30
0.0
 11
307.3298902654451
 21
-724.47131371861406
 31
0.0
  0
LINE
  5
187FA
  8
1PHANTOM
 10
306.87707675739603
 20
-726.07131266500846
 30
0.0
 11
309.74503945872772
 21
-725.27131933816827
 31
0.0
  0
LINE
  5
187FB
  8
1PHANTOM
 10
306.42426061533752
 20
-729.27131161139948
 30
0.0
 11
310.42426061533752
 21
-728.47132091857611
 31
0.0
  0
LINE
  5
187FC
  8
1PHANTOM
 10
306.42426061533752
 20
-727.67131161139923
 30
0.0
 11
310.19785356313417
 21
-726.87132039177277
 31
0.0
  0
LINE
  5
187FD
  8
1PHANTOM
 10
306.42426061533752
 20
-730.87131161139814
 30
0.0
 11
310.42426061533752
 21
-730.07132091857636
 31
0.0
  0
LINE
  5
187FE
  8
1PHANTOM
 10
306.42426061533752
 20
-743.67131161140276
 30
0.0
 11
310.42426061533752
 21
-742.87132091858484
 31
0.0
  0
LINE
  5
187FF
  8
1PHANTOM
 10
310.42426061533752
 20
-742.87132091858484
 30
0.0
 11
309.92426061533752
 21
-742.77131975518785
 31
0.0
  0
LINE
  5
18800
  8
1PHANTOM
 10
306.92426061533752
 20
-742.17131277479575
 30
0.0
 11
306.42426061533752
 21
-742.07131161139876
 31
0.0
  0
LINE
  5
18801
  8
1PHANTOM
 10
310.42426061533752
 20
-744.47132091858509
 30
0.0
 11
309.92426061533752
 21
-744.37131975518651
 31
0.0
  0
LINE
  5
18802
  8
1PHANTOM
 10
310.42426061533752
 20
-746.07132091858546
 30
0.0
 11
309.92426061533752
 21
-745.97131975518676
 31
0.0
  0
LINE
  5
18803
  8
1PHANTOM
 10
306.92426061533752
 20
-743.77131277480157
 30
0.0
 11
306.42426061533752
 21
-743.67131161140276
 31
0.0
  0
LINE
  5
18804
  8
1PHANTOM
 10
306.92426061533752
 20
-745.37131277480012
 30
0.0
 11
306.42426061533752
 21
-745.27131161140323
 31
0.0
  0
LINE
  5
18805
  8
1PHANTOM
 10
306.42426061533752
 20
-745.27131161140323
 30
0.0
 11
310.42426061533752
 21
-744.47132091858509
 31
0.0
  0
LINE
  5
18806
  8
1PHANTOM
 10
310.42426061533752
 20
-738.07132091858011
 30
0.0
 11
309.92426061533752
 21
-737.97131975518323
 31
0.0
  0
LINE
  5
18807
  8
1PHANTOM
 10
310.42426061533752
 20
-736.47132091857611
 30
0.0
 11
309.92426061533752
 21
-736.37131975517923
 31
0.0
  0
LINE
  5
18808
  8
1PHANTOM
 10
310.42426061533752
 20
-741.27132091858084
 30
0.0
 11
309.92426061533752
 21
-741.17131975518214
 31
0.0
  0
LINE
  5
18809
  8
1PHANTOM
 10
310.42426061533752
 20
-739.67132091858036
 30
0.0
 11
309.92426061533752
 21
-739.57131975518348
 31
0.0
  0
LINE
  5
1880A
  8
1PHANTOM
 10
306.92426061533752
 20
-735.77131277479612
 30
0.0
 11
306.42426061533752
 21
-735.67131161139923
 31
0.0
  0
LINE
  5
1880B
  8
1PHANTOM
 10
306.92426061533752
 20
-737.37131277479637
 30
0.0
 11
306.42426061533752
 21
-737.27131161139948
 31
0.0
  0
LINE
  5
1880C
  8
1PHANTOM
 10
306.92426061533752
 20
-740.57131277479721
 30
0.0
 11
306.42426061533752
 21
-740.47131161139851
 31
0.0
  0
LINE
  5
1880D
  8
1PHANTOM
 10
306.92426061533752
 20
-738.97131277479684
 30
0.0
 11
306.42426061533752
 21
-738.87131161139814
 31
0.0
  0
LINE
  5
1880E
  8
1PHANTOM
 10
306.42426061533752
 20
-738.87131161139814
 30
0.0
 11
310.42426061533752
 21
-738.07132091858011
 31
0.0
  0
LINE
  5
1880F
  8
1PHANTOM
 10
306.42426061533752
 20
-737.27131161139948
 30
0.0
 11
310.42426061533752
 21
-736.47132091857611
 31
0.0
  0
LINE
  5
18810
  8
1PHANTOM
 10
306.42426061533752
 20
-740.47131161139851
 30
0.0
 11
310.42426061533752
 21
-739.67132091858036
 31
0.0
  0
LINE
  5
18811
  8
1PHANTOM
 10
306.42426061533752
 20
-742.07131161139876
 30
0.0
 11
310.42426061533752
 21
-741.27132091858084
 31
0.0
  0
LINE
  5
18812
  8
1PHANTOM
 10
309.92426061533752
 20
-757.37131975507373
 30
0.0
 11
306.92426061533752
 21
-757.37131277468904
 31
0.0
  0
LINE
  5
18813
  8
1PHANTOM
 10
306.92426061533752
 20
-750.17131277480485
 30
0.0
 11
306.42426061533752
 21
-750.07131161140785
 31
0.0
  0
LINE
  5
18814
  8
1PHANTOM
 10
306.92426061533752
 20
-748.57131277480437
 30
0.0
 11
306.42426061533752
 21
-748.47131161140749
 31
0.0
  0
LINE
  5
18815
  8
1PHANTOM
 10
306.42426061533752
 20
-748.47131161140749
 30
0.0
 11
310.42426061533752
 21
-747.67132091858946
 31
0.0
  0
LINE
  5
18816
  8
1PHANTOM
 10
310.42426061533752
 20
-749.27132091858994
 30
0.0
 11
309.92426061533752
 21
-749.17131975519123
 31
0.0
  0
LINE
  5
18817
  8
1PHANTOM
 10
310.42426061533752
 20
-747.67132091858946
 30
0.0
 11
309.92426061533752
 21
-747.57131975519076
 31
0.0
  0
LINE
  5
18818
  8
1PHANTOM
 10
306.42426061533752
 20
-750.07131161140785
 30
0.0
 11
310.42426061533752
 21
-749.27132091858994
 31
0.0
  0
LINE
  5
18819
  8
1PHANTOM
 10
306.92426061533752
 20
-746.97131277480037
 30
0.0
 11
306.42426061533752
 21
-746.87131161140348
 31
0.0
  0
LINE
  5
1881A
  8
1PHANTOM
 10
308.42426061533752
 20
-722.37131626493499
 30
0.0
 11
306.92426061533752
 21
-727.67131277479939
 31
0.0
  0
LINE
  5
1881B
  8
1PHANTOM
 10
306.92426061533752
 20
-727.67131277479939
 30
0.0
 11
306.92426061533661
 21
-756.37131220780009
 31
0.0
  0
LINE
  5
1881C
  8
1PHANTOM
 10
308.42426061533752
 20
-722.37131626493499
 30
0.0
 11
309.92426061533752
 21
-727.67131975517748
 31
0.0
  0
LINE
  5
1881E
  8
1PHANTOM
 10
309.92426061533752
 20
-727.67131975517748
 30
0.0
 11
309.92426061533843
 21
-756.37131918818557
 31
0.0
  0
LINE
  5
1881F
  8
1PHANTOM
 10
304.92421407944039
 20
-757.37130812099031
 30
0.0
 11
304.92421407944039
 21
-758.47131161118557
 31
0.0
  0
ARC
  5
18821
  8
1PHANTOM
 10
306.42421407943863
 20
-758.47131161118557
 30
0.0
 40
1.5
 50
180.0
 51
269.99986668447491
  0
LINE
  5
18822
  8
1PHANTOM
 10
311.92421407944039
 20
-757.3713244085543
 30
0.0
 11
311.92421407944039
 21
-758.47132091836511
 31
0.0
  0
LINE
  5
18823
  8
1PHANTOM
 10
306.4242105892472
 20
-759.97131161118205
 30
0.0
 11
310.4242105892472
 21
-759.97132091836136
 31
0.0
  0
ARC
  5
18824
  8
1PHANTOM
 10
310.42421407943863
 20
-758.47132091836511
 30
0.0
 40
1.5
 50
269.99986668447491
 51
0.0
  0
LINE
  5
18825
  8
1PHANTOM
 10
306.42426061533752
 20
-753.27131161140869
 30
0.0
 11
310.42426061533752
 21
-752.47132091859066
 31
0.0
  0
LINE
  5
18826
  8
1PHANTOM
 10
310.42426061533752
 20
-750.8713209185903
 30
0.0
 11
309.92426061533752
 21
-750.7713197551916
 31
0.0
  0
LINE
  5
18827
  8
1PHANTOM
 10
310.42426061533752
 20
-752.47132091859066
 30
0.0
 11
309.92426061533752
 21
-752.37131975519185
 31
0.0
  0
LINE
  5
18828
  8
1PHANTOM
 10
306.92426061533752
 20
-751.77131277480521
 30
0.0
 11
306.42426061533752
 21
-751.67131161140821
 31
0.0
  0
LINE
  5
18829
  8
1PHANTOM
 10
306.42426061533752
 20
-751.67131161140821
 30
0.0
 11
310.42426061533752
 21
-750.8713209185903
 31
0.0
  0
LINE
  5
1882A
  8
1PHANTOM
 10
306.92426061533752
 20
-754.97131277480958
 30
0.0
 11
306.42426061533752
 21
-754.87131161141269
 31
0.0
  0
LINE
  5
1882B
  8
1PHANTOM
 10
306.42426061533752
 20
-754.87131161141269
 30
0.0
 11
310.42426061533752
 21
-754.07132091859467
 31
0.0
  0
LINE
  5
1882C
  8
1PHANTOM
 10
310.42426061533752
 20
-755.67132091859503
 30
0.0
 11
309.92426061533752
 21
-755.57131975519633
 31
0.0
  0
LINE
  5
1882D
  8
1PHANTOM
 10
310.42426061533752
 20
-754.07132091859467
 30
0.0
 11
309.92426061533752
 21
-753.97131975519585
 31
0.0
  0
LINE
  5
1882E
  8
1PHANTOM
 10
306.92426345038888
 20
-756.37131220780645
 30
0.0
 11
310.42426061533752
 21
-755.67132091859503
 31
0.0
  0
LINE
  5
1882F
  8
1PHANTOM
 10
306.92426061533752
 20
-753.37131277480557
 30
0.0
 11
306.42426061533752
 21
-753.27131161140869
 31
0.0
  0
LINE
  5
188CC
  8
1PHANTOM
 10
311.92421407944039
 20
-758.37131569788505
 30
0.0
 11
316.4242140794604
 21
-758.37131569788505
 31
0.0
  0
LINE
  5
188CD
  8
1PHANTOM
 10
304.17421407944948
 20
-756.37131569788517
 30
0.0
 11
304.62421407945573
 21
-756.37130685606144
 31
0.0
  0
LINE
  5
188CE
  8
1PHANTOM
 10
306.92426061533621
 20
-753.67131569788535
 30
0.0
 11
297.92421407944772
 21
-753.67131569788535
 31
0.0
  0
LINE
  5
188CF
  8
1PHANTOM
 10
12.22421407943966
 20
-756.37132453970798
 30
0.0
 11
4.6242140794556681
 21
-756.37130685606235
 31
0.0
  0
LINE
  5
188D0
  8
1PHANTOM
 10
12.224211752646619
 20
-757.37132453970798
 30
0.0
 11
4.6242117526626307
 21
-757.37130685605325
 31
0.0
  0
LINE
  5
188D1
  8
1PHANTOM
 10
8.9241663916736798
 20
-757.37131742805605
 30
0.0
 11
7.9241690184762774
 21
-756.37131510126289
 31
0.0
  0
LINE
  5
188D2
  8
1PHANTOM
 10
12.224211752646619
 20
-757.37132453970798
 30
0.0
 11
12.22421407943966
 21
-756.37132453970798
 31
0.0
  0
LINE
  5
188D3
  8
1PHANTOM
 10
9.9242140794403895
 20
-757.37131975496732
 30
0.0
 11
6.9242140794403886
 21
-757.37131277458275
 31
0.0
  0
LINE
  5
188D4
  8
1PHANTOM
 10
4.6242117526626307
 20
-757.37130685605325
 30
0.0
 11
4.6242140794556681
 21
-756.37130685606235
 31
0.0
  0
LINE
  5
188D5
  8
1PHANTOM
 10
7.3298902654451012
 20
-724.47131371861485
 30
0.0
 11
9.2922253543210882
 21
-723.67131828456274
 31
0.0
  0
LINE
  5
188D6
  8
1PHANTOM
 10
9.2922253543210882
 20
-723.67131828456274
 30
0.0
 11
8.7039487792781074
 21
-723.35954842831177
 31
0.0
  0
LINE
  5
188D7
  8
1PHANTOM
 10
6.4242606153375164
 20
-746.87131161140451
 30
0.0
 11
10.424260615337509
 21
-746.07132091858648
 31
0.0
  0
LINE
  5
188D8
  8
1PHANTOM
 10
6.4242606153375164
 20
-735.67131161140014
 30
0.0
 11
10.424260615337509
 21
-734.87132091857654
 31
0.0
  0
LINE
  5
188D9
  8
1PHANTOM
 10
6.4242606153375164
 20
-732.47131161139941
 30
0.0
 11
10.424260615337509
 21
-731.67132091857775
 31
0.0
  0
LINE
  5
188DA
  8
1PHANTOM
 10
10.424260615337509
 20
-731.67132091857775
 30
0.0
 11
9.9242606153375164
 21
-731.57131975517905
 31
0.0
  0
LINE
  5
188DB
  8
1PHANTOM
 10
6.9242606153375164
 20
-730.97131277479775
 30
0.0
 11
6.4242606153375164
 21
-730.87131161139905
 31
0.0
  0
LINE
  5
188DC
  8
1PHANTOM
 10
10.424260615337509
 20
-734.87132091857654
 30
0.0
 11
9.9242606153375164
 21
-734.77131975517966
 31
0.0
  0
LINE
  5
188DD
  8
1PHANTOM
 10
10.424260615337509
 20
-733.27132091857618
 30
0.0
 11
9.9242606153375164
 21
-733.17131975517941
 31
0.0
  0
LINE
  5
188DE
  8
1PHANTOM
 10
6.9242606153375164
 20
-732.57131277479618
 30
0.0
 11
6.4242606153375164
 21
-732.47131161139941
 31
0.0
  0
LINE
  5
188DF
  8
1PHANTOM
 10
6.9242606153375164
 20
-734.17131277479655
 30
0.0
 11
6.4242606153375164
 21
-734.07131161139966
 31
0.0
  0
LINE
  5
188E0
  8
1PHANTOM
 10
6.4242606153375164
 20
-734.07131161139966
 30
0.0
 11
10.424260615337509
 21
-733.27132091857618
 31
0.0
  0
LINE
  5
188E1
  8
1PHANTOM
 10
9.7450394587276605
 20
-725.27131933816906
 30
0.0
 11
9.1932899949233615
 21
-725.08855519554118
 31
0.0
  0
LINE
  5
188E2
  8
1PHANTOM
 10
10.424260615337509
 20
-728.47132091857702
 30
0.0
 11
9.9242606153375164
 21
-728.37131975518014
 31
0.0
  0
LINE
  5
188E3
  8
1PHANTOM
 10
10.424260615337509
 20
-730.07132091857727
 30
0.0
 11
9.9242606153375164
 21
-729.97131975518039
 31
0.0
  0
LINE
  5
188E4
  8
1PHANTOM
 10
10.197853563134229
 20
-726.87132039177357
 30
0.0
 11
9.6612598278616133
 21
-726.74204969414438
 31
0.0
  0
LINE
  5
188E5
  8
1PHANTOM
 10
7.3451752125465637
 20
-726.18408217735976
 30
0.0
 11
6.8770767573960248
 21
-726.07131266500926
 31
0.0
  0
LINE
  5
188E6
  8
1PHANTOM
 10
6.9242606153375164
 20
-729.37131277479739
 30
0.0
 11
6.4242606153375164
 21
-729.27131161140051
 31
0.0
  0
LINE
  5
188E7
  8
1PHANTOM
 10
6.9242606153375164
 20
-727.77131277479702
 30
0.0
 11
6.4242606153375164
 21
-727.67131161140014
 31
0.0
  0
LINE
  5
188E8
  8
1PHANTOM
 10
7.787062106074699
 20
-724.62274951505367
 30
0.0
 11
7.3298902654451012
 21
-724.47131371861485
 31
0.0
  0
LINE
  5
188E9
  8
1PHANTOM
 10
6.8770767573960248
 20
-726.07131266500926
 30
0.0
 11
9.7450394587276605
 21
-725.27131933816906
 31
0.0
  0
LINE
  5
188EA
  8
1PHANTOM
 10
6.4242606153375164
 20
-729.27131161140051
 30
0.0
 11
10.424260615337509
 21
-728.47132091857702
 31
0.0
  0
LINE
  5
188EB
  8
1PHANTOM
 10
6.4242606153375164
 20
-727.67131161140014
 30
0.0
 11
10.197853563134229
 21
-726.87132039177357
 31
0.0
  0
LINE
  5
188EC
  8
1PHANTOM
 10
6.4242606153375164
 20
-730.87131161139905
 30
0.0
 11
10.424260615337509
 21
-730.07132091857727
 31
0.0
  0
LINE
  5
188ED
  8
1PHANTOM
 10
6.4242606153375164
 20
-743.67131161140367
 30
0.0
 11
10.424260615337509
 21
-742.87132091858575
 31
0.0
  0
LINE
  5
188EE
  8
1PHANTOM
 10
10.424260615337509
 20
-742.87132091858575
 30
0.0
 11
9.9242606153375164
 21
-742.77131975518876
 31
0.0
  0
LINE
  5
188EF
  8
1PHANTOM
 10
6.9242606153375164
 20
-742.17131277479655
 30
0.0
 11
6.4242606153375164
 21
-742.07131161139966
 31
0.0
  0
LINE
  5
188F0
  8
1PHANTOM
 10
10.424260615337509
 20
-744.47132091858612
 30
0.0
 11
9.9242606153375164
 21
-744.37131975518741
 31
0.0
  0
LINE
  5
188F1
  8
1PHANTOM
 10
10.424260615337509
 20
-746.07132091858648
 30
0.0
 11
9.9242606153375164
 21
-745.97131975518766
 31
0.0
  0
LINE
  5
188F2
  8
1PHANTOM
 10
6.9242606153375164
 20
-743.77131277480248
 30
0.0
 11
6.4242606153375164
 21
-743.67131161140367
 31
0.0
  0
LINE
  5
188F3
  8
1PHANTOM
 10
6.9242606153375164
 20
-745.37131277480091
 30
0.0
 11
6.4242606153375164
 21
-745.27131161140414
 31
0.0
  0
LINE
  5
188F4
  8
1PHANTOM
 10
6.4242606153375164
 20
-745.27131161140414
 30
0.0
 11
10.424260615337509
 21
-744.47132091858612
 31
0.0
  0
LINE
  5
188F5
  8
1PHANTOM
 10
10.424260615337509
 20
-738.07132091858102
 30
0.0
 11
9.9242606153375164
 21
-737.97131975518414
 31
0.0
  0
LINE
  5
188F6
  8
1PHANTOM
 10
10.424260615337509
 20
-736.47132091857702
 30
0.0
 11
9.9242606153375164
 21
-736.37131975518014
 31
0.0
  0
LINE
  5
188F7
  8
1PHANTOM
 10
10.424260615337509
 20
-741.27132091858175
 30
0.0
 11
9.9242606153375164
 21
-741.17131975518305
 31
0.0
  0
LINE
  5
188F8
  8
1PHANTOM
 10
10.424260615337509
 20
-739.67132091858127
 30
0.0
 11
9.9242606153375164
 21
-739.57131975518439
 31
0.0
  0
LINE
  5
188F9
  8
1PHANTOM
 10
6.9242606153375164
 20
-735.77131277479702
 30
0.0
 11
6.4242606153375164
 21
-735.67131161140014
 31
0.0
  0
LINE
  5
188FA
  8
1PHANTOM
 10
6.9242606153375164
 20
-737.37131277479739
 30
0.0
 11
6.4242606153375164
 21
-737.27131161140051
 31
0.0
  0
LINE
  5
188FB
  8
1PHANTOM
 10
6.9242606153375164
 20
-740.57131277479812
 30
0.0
 11
6.4242606153375164
 21
-740.47131161139941
 31
0.0
  0
LINE
  5
188FC
  8
1PHANTOM
 10
6.9242606153375164
 20
-738.97131277479775
 30
0.0
 11
6.4242606153375164
 21
-738.87131161139905
 31
0.0
  0
LINE
  5
188FD
  8
1PHANTOM
 10
6.4242606153375164
 20
-738.87131161139905
 30
0.0
 11
10.424260615337509
 21
-738.07132091858102
 31
0.0
  0
LINE
  5
188FE
  8
1PHANTOM
 10
6.4242606153375164
 20
-737.27131161140051
 30
0.0
 11
10.424260615337509
 21
-736.47132091857702
 31
0.0
  0
LINE
  5
188FF
  8
1PHANTOM
 10
6.4242606153375164
 20
-740.47131161139941
 30
0.0
 11
10.424260615337509
 21
-739.67132091858127
 31
0.0
  0
LINE
  5
18900
  8
1PHANTOM
 10
6.4242606153375164
 20
-742.07131161139966
 30
0.0
 11
10.424260615337509
 21
-741.27132091858175
 31
0.0
  0
LINE
  5
18901
  8
1PHANTOM
 10
9.9242606153375164
 20
-757.37131975507464
 30
0.0
 11
6.9242606153375164
 21
-757.37131277468995
 31
0.0
  0
LINE
  5
18902
  8
1PHANTOM
 10
6.9242606153375164
 20
-750.17131277480576
 30
0.0
 11
6.4242606153375164
 21
-750.07131161140887
 31
0.0
  0
LINE
  5
18903
  8
1PHANTOM
 10
6.9242606153375164
 20
-748.57131277480539
 30
0.0
 11
6.4242606153375164
 21
-748.47131161140851
 31
0.0
  0
LINE
  5
18904
  8
1PHANTOM
 10
6.4242606153375164
 20
-748.47131161140851
 30
0.0
 11
10.424260615337509
 21
-747.67132091859048
 31
0.0
  0
LINE
  5
18905
  8
1PHANTOM
 10
10.424260615337509
 20
-749.27132091859085
 30
0.0
 11
9.9242606153375164
 21
-749.17131975519214
 31
0.0
  0
LINE
  5
18906
  8
1PHANTOM
 10
10.424260615337509
 20
-747.67132091859048
 30
0.0
 11
9.9242606153375164
 21
-747.57131975519167
 31
0.0
  0
LINE
  5
18907
  8
1PHANTOM
 10
6.4242606153375164
 20
-750.07131161140887
 30
0.0
 11
10.424260615337509
 21
-749.27132091859085
 31
0.0
  0
LINE
  5
18908
  8
1PHANTOM
 10
6.9242606153375164
 20
-746.97131277480139
 30
0.0
 11
6.4242606153375164
 21
-746.87131161140451
 31
0.0
  0
LINE
  5
18909
  8
1PHANTOM
 10
8.4242606153375164
 20
-722.37131626493601
 30
0.0
 11
6.9242606153375164
 21
-727.6713127748003
 31
0.0
  0
LINE
  5
1890A
  8
1PHANTOM
 10
6.9242606153375164
 20
-727.6713127748003
 30
0.0
 11
6.924260615336606
 21
-756.37131220780111
 31
0.0
  0
LINE
  5
1890B
  8
1PHANTOM
 10
8.4242606153375164
 20
-722.37131626493601
 30
0.0
 11
9.9242606153375164
 21
-727.6713197551785
 31
0.0
  0
LINE
  5
1890C
  8
1PHANTOM
 10
9.9242606153375164
 20
-727.6713197551785
 30
0.0
 11
9.9242606153384259
 21
-756.37131918818648
 31
0.0
  0
LINE
  5
1890D
  8
1PHANTOM
 10
4.9242140794403886
 20
-757.37130812099122
 30
0.0
 11
4.9242140794403886
 21
-758.47131161118648
 31
0.0
  0
ARC
  5
1890E
  8
1PHANTOM
 10
6.4242140794385696
 20
-758.47131161118648
 30
0.0
 40
1.5
 50
180.0
 51
269.99986668447491
  0
LINE
  5
1890F
  8
1PHANTOM
 10
11.924214079440389
 20
-757.37132440855521
 30
0.0
 11
11.924214079440389
 21
-758.47132091836602
 31
0.0
  0
LINE
  5
18910
  8
1PHANTOM
 10
6.4242105892471946
 20
-759.97131161118295
 30
0.0
 11
10.42421058924719
 21
-759.97132091836227
 31
0.0
  0
ARC
  5
18911
  8
1PHANTOM
 10
10.42421407943857
 20
-758.47132091836602
 30
0.0
 40
1.5
 50
269.99986668447491
 51
0.0
  0
LINE
  5
18912
  8
1PHANTOM
 10
6.4242606153375164
 20
-753.2713116114096
 30
0.0
 11
10.424260615337509
 21
-752.47132091859146
 31
0.0
  0
LINE
  5
18913
  8
1PHANTOM
 10
10.424260615337509
 20
-750.87132091859121
 30
0.0
 11
9.9242606153375164
 21
-750.77131975519239
 31
0.0
  0
LINE
  5
18914
  8
1PHANTOM
 10
10.424260615337509
 20
-752.47132091859146
 30
0.0
 11
9.9242606153375164
 21
-752.37131975519276
 31
0.0
  0
LINE
  5
18915
  8
1PHANTOM
 10
6.9242606153375164
 20
-751.77131277480612
 30
0.0
 11
6.4242606153375164
 21
-751.67131161140924
 31
0.0
  0
LINE
  5
18916
  8
1PHANTOM
 10
6.4242606153375164
 20
-751.67131161140924
 30
0.0
 11
10.424260615337509
 21
-750.87132091859121
 31
0.0
  0
LINE
  5
18917
  8
1PHANTOM
 10
6.9242606153375164
 20
-754.97131277481049
 30
0.0
 11
6.4242606153375164
 21
-754.8713116114136
 31
0.0
  0
LINE
  5
18918
  8
1PHANTOM
 10
6.4242606153375164
 20
-754.8713116114136
 30
0.0
 11
10.424260615337509
 21
-754.07132091859546
 31
0.0
  0
LINE
  5
18919
  8
1PHANTOM
 10
10.424260615337509
 20
-755.67132091859594
 30
0.0
 11
9.9242606153375164
 21
-755.57131975519724
 31
0.0
  0
LINE
  5
1891A
  8
1PHANTOM
 10
10.424260615337509
 20
-754.07132091859546
 30
0.0
 11
9.9242606153375164
 21
-753.97131975519676
 31
0.0
  0
LINE
  5
1891B
  8
1PHANTOM
 10
6.924263450388934
 20
-756.37131220780736
 30
0.0
 11
10.424260615337509
 21
-755.67132091859594
 31
0.0
  0
LINE
  5
1891C
  8
1PHANTOM
 10
6.9242606153375164
 20
-753.37131277480648
 30
0.0
 11
6.4242606153375164
 21
-753.2713116114096
 31
0.0
  0
LINE
  5
1891E
  8
1PHANTOM
 10
4.1742140794494844
 20
-756.37131569788517
 30
0.0
 11
4.6242140794352053
 21
-756.37131569788517
 31
0.0
  0
LINE
  5
18921
  8
1PHANTOM
 10
438.4242052376203
 20
-877.17131530699896
 30
0.0
 11
438.42421407944209
 21
-877.62131530700879
 31
0.0
  0
LINE
  5
18922
  8
1PHANTOM
 10
436.42421407944221
 20
-869.1213153070089
 30
0.0
 11
438.42421407944209
 21
-869.1213153070089
 31
0.0
  0
LINE
  5
18923
  8
1PHANTOM
 10
436.42421407944221
 20
-877.62131530700879
 30
0.0
 11
438.42421407944209
 21
-877.62131530700879
 31
0.0
  0
LINE
  5
18924
  8
1CENTER
 10
473.26939338850838
 20
-873.37131530700697
 30
0.0
 11
433.99261358056708
 21
-873.37131530700697
 31
0.0
  0
LINE
  5
18925
  8
1PHANTOM
 10
438.4242052376203
 20
-877.17131530699896
 30
0.0
 11
438.42422292126588
 21
-869.57131530701508
 31
0.0
  0
LINE
  5
18926
  8
1PHANTOM
 10
437.42420523762019
 20
-877.17131298020604
 30
0.0
 11
437.42422292127497
 21
-869.57131298022205
 31
0.0
  0
LINE
  5
18927
  8
1PHANTOM
 10
437.42421234927218
 20
-873.87126761923309
 30
0.0
 11
438.42421467606522
 21
-872.87127024603558
 31
0.0
  0
LINE
  5
18928
  8
1PHANTOM
 10
437.42420523762019
 20
-877.17131298020604
 30
0.0
 11
438.4242052376203
 21
-877.17131530699896
 31
0.0
  0
LINE
  5
18929
  8
1PHANTOM
 10
437.42421002236091
 20
-874.87131530699969
 30
0.0
 11
437.42421700274548
 21
-871.8713153069998
 31
0.0
  0
LINE
  5
1892A
  8
1PHANTOM
 10
437.42422292127497
 20
-869.57131298022205
 30
0.0
 11
438.42422292126588
 21
-869.57131530701508
 31
0.0
  0
LINE
  5
1892B
  8
1PHANTOM
 10
470.32421605871332
 20
-872.27699149300452
 30
0.0
 11
471.12421149276543
 21
-874.2393265818805
 31
0.0
  0
LINE
  5
1892C
  8
1PHANTOM
 10
471.12421149276543
 20
-874.2393265818805
 30
0.0
 11
471.4359813490164
 21
-873.65105000683752
 31
0.0
  0
LINE
  5
1892D
  8
1PHANTOM
 10
447.92421816592378
 20
-871.37136184289682
 30
0.0
 11
448.7242088587418
 21
-875.37136184289693
 31
0.0
  0
LINE
  5
1892E
  8
1PHANTOM
 10
459.12421816592808
 20
-871.37136184289682
 30
0.0
 11
459.92420885875163
 21
-875.37136184289693
 31
0.0
  0
LINE
  5
1892F
  8
1PHANTOM
 10
462.32421816592881
 20
-871.37136184289682
 30
0.0
 11
463.12420885875048
 21
-875.37136184289693
 31
0.0
  0
LINE
  5
18930
  8
1PHANTOM
 10
463.12420885875048
 20
-875.37136184289693
 30
0.0
 11
463.22421002214918
 21
-874.87136184289682
 31
0.0
  0
LINE
  5
18931
  8
1PHANTOM
 10
463.82421700253047
 20
-871.87136184289693
 30
0.0
 11
463.92421816592918
 21
-871.37136184289682
 31
0.0
  0
LINE
  5
18932
  8
1PHANTOM
 10
459.92420885875163
 20
-875.37136184289693
 30
0.0
 11
460.02421002214851
 21
-874.87136184289682
 31
0.0
  0
LINE
  5
18933
  8
1PHANTOM
 10
461.52420885875188
 20
-875.37136184289693
 30
0.0
 11
461.62421002214882
 21
-874.87136184289682
 31
0.0
  0
LINE
  5
18934
  8
1PHANTOM
 10
462.22421700253199
 20
-871.87136184289693
 30
0.0
 11
462.32421816592881
 21
-871.37136184289682
 31
0.0
  0
LINE
  5
18935
  8
1PHANTOM
 10
460.62421700253162
 20
-871.87136184289693
 30
0.0
 11
460.72421816592851
 21
-871.37136184289682
 31
0.0
  0
LINE
  5
18936
  8
1PHANTOM
 10
460.72421816592851
 20
-871.37136184289682
 30
0.0
 11
461.52420885875188
 21
-875.37136184289693
 31
0.0
  0
LINE
  5
18937
  8
1PHANTOM
 10
469.52421043915899
 20
-874.69214068628696
 30
0.0
 11
469.70697458178711
 21
-874.14039122248266
 31
0.0
  0
LINE
  5
18938
  8
1PHANTOM
 10
466.32420885875121
 20
-875.37136184289693
 30
0.0
 11
466.42421002214809
 21
-874.87136184289682
 31
0.0
  0
LINE
  5
18939
  8
1PHANTOM
 10
464.7242088587509
 20
-875.37136184289693
 30
0.0
 11
464.82421002214772
 21
-874.87136184289682
 31
0.0
  0
LINE
  5
1893A
  8
1PHANTOM
 10
467.92420938555449
 20
-875.14495479069365
 30
0.0
 11
468.05348008318367
 21
-874.60836105542103
 31
0.0
  0
LINE
  5
1893B
  8
1PHANTOM
 10
468.61144759996841
 20
-872.29227644010598
 30
0.0
 11
468.7242171123188
 21
-871.82417798495544
 31
0.0
  0
LINE
  5
1893C
  8
1PHANTOM
 10
465.4242170025309
 20
-871.87136184289693
 30
0.0
 11
465.52421816592778
 21
-871.37136184289682
 31
0.0
  0
LINE
  5
1893D
  8
1PHANTOM
 10
467.0242170025312
 20
-871.87136184289693
 30
0.0
 11
467.12421816592808
 21
-871.37136184289682
 31
0.0
  0
LINE
  5
1893E
  8
1PHANTOM
 10
470.1727802622745
 20
-872.734163333634
 30
0.0
 11
470.32421605871332
 21
-872.27699149300452
 31
0.0
  0
LINE
  5
1893F
  8
1PHANTOM
 10
468.7242171123188
 20
-871.82417798495544
 30
0.0
 11
469.52421043915899
 21
-874.69214068628696
 31
0.0
  0
LINE
  5
18940
  8
1PHANTOM
 10
465.52421816592778
 20
-871.37136184289682
 30
0.0
 11
466.32420885875121
 21
-875.37136184289693
 31
0.0
  0
LINE
  5
18941
  8
1PHANTOM
 10
467.12421816592808
 20
-871.37136184289682
 30
0.0
 11
467.92420938555449
 21
-875.14495479069365
 31
0.0
  0
LINE
  5
18942
  8
1PHANTOM
 10
463.92421816592918
 20
-871.37136184289682
 30
0.0
 11
464.7242088587509
 21
-875.37136184289693
 31
0.0
  0
LINE
  5
18943
  8
1PHANTOM
 10
451.1242181659245
 20
-871.37136184289682
 30
0.0
 11
451.92420885874247
 21
-875.37136184289693
 31
0.0
  0
LINE
  5
18944
  8
1PHANTOM
 10
451.92420885874247
 20
-875.37136184289693
 30
0.0
 11
452.02421002213941
 21
-874.87136184289682
 31
0.0
  0
LINE
  5
18945
  8
1PHANTOM
 10
452.62421700253162
 20
-871.87136184289693
 30
0.0
 11
452.72421816592851
 21
-871.37136184289682
 31
0.0
  0
LINE
  5
18946
  8
1PHANTOM
 10
450.32420885874222
 20
-875.37136184289693
 30
0.0
 11
450.42421002214081
 21
-874.87136184289682
 31
0.0
  0
LINE
  5
18947
  8
1PHANTOM
 10
448.7242088587418
 20
-875.37136184289693
 30
0.0
 11
448.82421002214051
 21
-874.87136184289682
 31
0.0
  0
LINE
  5
18948
  8
1PHANTOM
 10
451.02421700252569
 20
-871.87136184289693
 30
0.0
 11
451.1242181659245
 21
-871.37136184289682
 31
0.0
  0
LINE
  5
18949
  8
1PHANTOM
 10
449.4242170025272
 20
-871.87136184289693
 30
0.0
 11
449.52421816592408
 21
-871.37136184289682
 31
0.0
  0
LINE
  5
1894A
  8
1PHANTOM
 10
449.52421816592408
 20
-871.37136184289682
 30
0.0
 11
450.32420885874222
 21
-875.37136184289693
 31
0.0
  0
LINE
  5
1894B
  8
1PHANTOM
 10
456.7242088587472
 20
-875.37136184289693
 30
0.0
 11
456.82421002214409
 21
-874.87136184289682
 31
0.0
  0
LINE
  5
1894C
  8
1PHANTOM
 10
458.32420885875121
 20
-875.37136184289693
 30
0.0
 11
458.42421002214809
 21
-874.87136184289682
 31
0.0
  0
LINE
  5
1894D
  8
1PHANTOM
 10
453.52420885874648
 20
-875.37136184289693
 30
0.0
 11
453.62421002214518
 21
-874.87136184289682
 31
0.0
  0
LINE
  5
1894E
  8
1PHANTOM
 10
455.1242088587469
 20
-875.37136184289693
 30
0.0
 11
455.22421002214372
 21
-874.87136184289682
 31
0.0
  0
LINE
  5
1894F
  8
1PHANTOM
 10
459.0242170025312
 20
-871.87136184289693
 30
0.0
 11
459.12421816592808
 21
-871.37136184289682
 31
0.0
  0
LINE
  5
18950
  8
1PHANTOM
 10
457.4242170025309
 20
-871.87136184289693
 30
0.0
 11
457.52421816592778
 21
-871.37136184289682
 31
0.0
  0
LINE
  5
18951
  8
1PHANTOM
 10
454.22421700253022
 20
-871.87136184289693
 30
0.0
 11
454.32421816592881
 21
-871.37136184289682
 31
0.0
  0
LINE
  5
18952
  8
1PHANTOM
 10
455.82421700253047
 20
-871.87136184289693
 30
0.0
 11
455.92421816592918
 21
-871.37136184289682
 31
0.0
  0
LINE
  5
18953
  8
1PHANTOM
 10
455.92421816592918
 20
-871.37136184289682
 30
0.0
 11
456.7242088587472
 21
-875.37136184289693
 31
0.0
  0
LINE
  5
18954
  8
1PHANTOM
 10
457.52421816592778
 20
-871.37136184289682
 30
0.0
 11
458.32420885875121
 21
-875.37136184289693
 31
0.0
  0
LINE
  5
18955
  8
1PHANTOM
 10
454.32421816592881
 20
-871.37136184289682
 30
0.0
 11
455.1242088587469
 21
-875.37136184289693
 31
0.0
  0
LINE
  5
18956
  8
1PHANTOM
 10
452.72421816592851
 20
-871.37136184289682
 30
0.0
 11
453.52420885874648
 21
-875.37136184289693
 31
0.0
  0
LINE
  5
18957
  8
1PHANTOM
 10
437.42421002225359
 20
-874.87136184289682
 30
0.0
 11
437.42421700263822
 21
-871.87136184289693
 31
0.0
  0
LINE
  5
18958
  8
1PHANTOM
 10
444.62421700252253
 20
-871.87136184289693
 30
0.0
 11
444.72421816591941
 21
-871.37136184289682
 31
0.0
  0
LINE
  5
18959
  8
1PHANTOM
 10
446.22421700252289
 20
-871.87136184289693
 30
0.0
 11
446.32421816591977
 21
-871.37136184289682
 31
0.0
  0
LINE
  5
1895A
  8
1PHANTOM
 10
446.32421816591977
 20
-871.37136184289682
 30
0.0
 11
447.1242088587378
 21
-875.37136184289693
 31
0.0
  0
LINE
  5
1895B
  8
1PHANTOM
 10
445.52420885873738
 20
-875.37136184289693
 30
0.0
 11
445.62421002213608
 21
-874.87136184289682
 31
0.0
  0
LINE
  5
1895C
  8
1PHANTOM
 10
447.1242088587378
 20
-875.37136184289693
 30
0.0
 11
447.2242100221365
 21
-874.87136184289682
 31
0.0
  0
LINE
  5
1895D
  8
1PHANTOM
 10
444.72421816591941
 20
-871.37136184289682
 30
0.0
 11
445.52420885873738
 21
-875.37136184289693
 31
0.0
  0
LINE
  5
1895E
  8
1PHANTOM
 10
447.82421700252689
 20
-871.87136184289693
 30
0.0
 11
447.92421816592378
 21
-871.37136184289682
 31
0.0
  0
LINE
  5
1895F
  8
1PHANTOM
 10
472.42421351239221
 20
-873.37136184289704
 30
0.0
 11
467.12421700252793
 21
-871.87136184289693
 31
0.0
  0
LINE
  5
18960
  8
1PHANTOM
 10
467.12421700252793
 20
-871.87136184289693
 30
0.0
 11
438.42421756952717
 21
-871.87136184289602
 31
0.0
  0
LINE
  5
18961
  8
1PHANTOM
 10
472.42421351239221
 20
-873.37136184289704
 30
0.0
 11
467.12421002214978
 21
-874.87136184289682
 31
0.0
  0
LINE
  5
18962
  8
1PHANTOM
 10
467.12421002214978
 20
-874.87136184289682
 30
0.0
 11
438.42421058914158
 21
-874.87136184289773
 31
0.0
  0
LINE
  5
18963
  8
1PHANTOM
 10
437.42422165633701
 20
-869.87131530699992
 30
0.0
 11
436.32421816614169
 21
-869.87131530699992
 31
0.0
  0
ARC
  5
18964
  8
1PHANTOM
 10
436.32421816614169
 20
-871.37131530699776
 30
0.0
 40
1.5
 50
89.999999999999986
 51
179.99986668447491
  0
LINE
  5
18965
  8
1PHANTOM
 10
437.42420536877302
 20
-876.87131530699969
 30
0.0
 11
436.32420885896221
 21
-876.87131530699969
 31
0.0
  0
LINE
  5
18966
  8
1PHANTOM
 10
434.82421816614527
 20
-871.3713118168065
 30
0.0
 11
434.8242088589659
 21
-875.37131181680661
 31
0.0
  0
ARC
  5
18967
  8
1PHANTOM
 10
436.32420885896221
 20
-875.37131530699764
 30
0.0
 40
1.5
 50
179.99986668447491
 51
270.0
  0
LINE
  5
18968
  8
1PHANTOM
 10
441.52421816591868
 20
-871.37136184289682
 30
0.0
 11
442.3242088587366
 21
-875.37136184289693
 31
0.0
  0
LINE
  5
18969
  8
1PHANTOM
 10
443.92420885873702
 20
-875.37136184289693
 30
0.0
 11
444.02421002213572
 21
-874.87136184289682
 31
0.0
  0
LINE
  5
1896A
  8
1PHANTOM
 10
442.3242088587366
 20
-875.37136184289693
 30
0.0
 11
442.42421002213541
 21
-874.87136184289682
 31
0.0
  0
LINE
  5
1896B
  8
1PHANTOM
 10
443.02421700252222
 20
-871.87136184289693
 30
0.0
 11
443.12421816591899
 21
-871.37136184289682
 31
0.0
  0
LINE
  5
1896C
  8
1PHANTOM
 10
443.12421816591899
 20
-871.37136184289682
 30
0.0
 11
443.92420885873702
 21
-875.37136184289693
 31
0.0
  0
LINE
  5
1896D
  8
1PHANTOM
 10
439.82421700251768
 20
-871.87136184289693
 30
0.0
 11
439.92421816591462
 21
-871.37136184289682
 31
0.0
  0
LINE
  5
1896E
  8
1PHANTOM
 10
439.92421816591462
 20
-871.37136184289682
 30
0.0
 11
440.7242088587326
 21
-875.37136184289693
 31
0.0
  0
LINE
  5
1896F
  8
1PHANTOM
 10
439.12420885873229
 20
-875.37136184289693
 30
0.0
 11
439.22421002213099
 21
-874.87136184289682
 31
0.0
  0
LINE
  5
18970
  8
1PHANTOM
 10
440.7242088587326
 20
-875.37136184289693
 30
0.0
 11
440.82421002213141
 21
-874.87136184289682
 31
0.0
  0
LINE
  5
18971
  8
1PHANTOM
 10
438.42421756952081
 20
-871.87136467794835
 30
0.0
 11
439.12420885873229
 21
-875.37136184289693
 31
0.0
  0
LINE
  5
18972
  8
1PHANTOM
 10
441.42421700252169
 20
-871.87136184289693
 30
0.0
 11
441.52421816591868
 21
-871.37136184289682
 31
0.0
  0
LINE
  5
18973
  8
1PHANTOM
 10
438.42421407944209
 20
-869.1213153070089
 30
0.0
 11
438.42422292126588
 21
-869.57131530701508
 31
0.0
  0
LINE
  5
18975
  8
1PHANTOM
 10
436.42421390360681
 20
-868.87131569788653
 30
0.0
 11
436.42421460694908
 21
-869.87131530699992
 31
0.0
  0
LINE
  5
18976
  8
1PHANTOM
 10
436.42422023387098
 20
-877.87131569788608
 30
0.0
 11
436.42419561618487
 21
-876.87131530699969
 31
0.0
  0
LINE
  5
18977
  8
1CENTER
 10
308.4242140794513
 20
-876.37131569788426
 30
0.0
 11
308.4242140794513
 21
-870.37131569788426
 31
0.0
  0
LINE
  5
18978
  8
1CENTER
 10
311.4242140794513
 20
-873.37131569788426
 30
0.0
 11
305.4242140794513
 21
-873.37131569788426
 31
0.0
  0
LINE
  5
18C80
  8
1DIM
 10
321.42421407944772
 20
-753.37131569788505
 30
0.0
 11
321.42421407944772
 21
-742.37131569788505
 31
0.0
  0
LINE
  5
18C81
  8
1DIM
 10
296.42421407944948
 20
-753.37131569788505
 30
0.0
 11
296.42421407944948
 21
-742.37131569788505
 31
0.0
  0
LINE
  5
18C82
  8
1DIM
 10
298.42421407944948
 20
-743.37131569788517
 30
0.0
 11
319.42421407944761
 21
-743.37131569788517
 31
0.0
  0
LINE
  5
18C83
  8
1DIM
 10
321.42421407944772
 20
-743.37131569788517
 30
0.0
 11
330.49088074611433
 21
-743.37131569788517
 31
0.0
  0
LINE
  5
18C87
  8
1DIM
 10
441.4242140794471
 20
-913.37131530700674
 30
0.0
 11
441.4242140794471
 21
-911.33843576704624
 31
0.0
  0
LINE
  5
18C88
  8
1DIM
 10
361.42421407944948
 20
-882.871315698015
 30
0.0
 11
361.42421407944948
 21
-913.33843576704612
 31
0.0
  0
LINE
  5
18C89
  8
1DIM
 10
439.42421407944721
 20
-912.33843576704612
 30
0.0
 11
363.42421407944948
 21
-912.33843576704612
 31
0.0
  0
TEXT
  5
18C8D
  8
1DIM
 10
394.37779058905522
 20
-813.30078012263107
 30
0.0
 40
3.5
  1
材質：亜鉛ダイキャスト
  0
TEXT
  5
18C8E
  8
1DIM
 10
394.37779058905522
 20
-819.13411345596455
 30
0.0
 40
3.5
  1
仕上げ：クローム
  0
SOLID
  5
18C8F
  8
1DIM
 10
366.52067212270822
 20
-864.31839796020301
 30
0.0
 11
365.2357409417088
 21
-865.88685674869782
 31
0.0
 12
365.94252704638558
 22
-863.98644507925701
 32
0.0
 13
365.94252704638558
 23
-863.98644507925701
 33
0.0
  0
TEXT
  5
18C91
  8
1DIM
 10
407.87680605429932
 20
-827.31505500194214
 30
0.0
 40
3.5
  1
材質：ABS樹脂
  0
TEXT
  5
18C92
  8
1DIM
 10
407.87680605429932
 20
-833.1483883352754
 30
0.0
 40
3.5
  1
仕上げ：表参照
  0
SOLID
  5
18C93
  8
1DIM
 10
383.51367248961668
 20
-872.27946433954287
 30
0.0
 11
382.22930937634789
 21
-873.84838833527544
 31
0.0
 12
382.93540724163489
 22
-871.94772084311705
 32
0.0
 13
382.93540724163489
 23
-871.94772084311705
 33
0.0
  0
TEXT
  5
18C95
  8
1TEXT
 10
452.73226399356997
 20
-819.13006646834936
 30
0.0
 40
3.5
  1
合板12mm以上
  0
SOLID
  5
18C96
  8
1DIM
 10
455.62063966702908
 20
-832.26283086083527
 30
0.0
 11
456.08845468595598
 21
-834.23571205826647
 31
0.0
 12
455.00607360402051
 22
-832.52119687764571
 32
0.0
 13
455.00607360402051
 23
-832.52119687764571
 33
0.0
  0
LINE
  5
18C98
  8
1DIM
 10
296.42421407944948
 20
-753.37131569788505
 30
0.0
 11
245.42421407944951
 21
-753.37131569788505
 31
0.0
  0
LINE
  5
18C99
  8
1DIM
 10
246.42421407944951
 20
-815.37131569788505
 30
0.0
 11
246.42421407944951
 21
-755.37131569788505
 31
0.0
  0
TEXT
  5
18C9D
  8
1HATCH
 10
445.07931532183812
 20
-813.07947250034294
 30
0.0
 40
3.5
  1
PB
  0
SOLID
  5
18C9E
  8
1HATCH
 10
445.98384543348089
 20
-832.23223350403271
 30
0.0
 11
446.00418270152511
 21
-834.25971901733226
 31
0.0
 12
445.32738187608879
 22
-832.34842318627955
 32
0.0
 13
445.32738187608879
 23
-832.34842318627955
 33
0.0
  0
LINE
  5
18CA0
  8
1DIM
 10
361.92421407945039
 20
-883.37131569801522
 30
0.0
 11
350.42421407944681
 21
-883.37131569801522
 31
0.0
  0
LINE
  5
18CA1
  8
1DIM
 10
361.92421407944772
 20
-863.37131569788426
 30
0.0
 11
350.42421407944681
 21
-863.37131569788426
 31
0.0
  0
LINE
  5
18CA2
  8
1DIM
 10
351.4242140794467
 20
-881.37131569801534
 30
0.0
 11
351.4242140794467
 21
-865.37131569788426
 31
0.0
  0
LINE
  5
18CA6
  8
1DIM1
 10
-4.5757859205550631
 20
-882.87131569788369
 30
0.0
 11
-4.5757859205550684
 21
-975.33843576704601
 31
0.0
  0
LINE
  5
18CA7
  8
1DIM1
 10
321.42421407944948
 20
-882.87131569788369
 30
0.0
 11
321.42421407944948
 21
-975.33843576704601
 31
0.0
  0
LINE
  5
18CA8
  8
1DIM1
 10
1.4242140794449309
 20
-972.33843576704612
 30
0.0
 11
315.42421407944948
 21
-972.33843576704612
 31
0.0
  0
LINE
  5
18CAC
  8
1DIM1
 10
8.4242140794440274
 20
-876.37131569788426
 30
0.0
 11
8.4242140794440221
 21
-945.33843576704612
 31
0.0
  0
LINE
  5
18CAD
  8
1DIM1
 10
308.4242140794513
 20
-876.37131569788426
 30
0.0
 11
308.4242140794513
 21
-945.33843576704612
 31
0.0
  0
LINE
  5
18CAE
  8
1DIM1
 10
14.42421407944402
 20
-942.33843576704601
 30
0.0
 11
302.4242140794513
 21
-942.33843576704601
 31
0.0
  0
LINE
  5
18CB2
  8
1DIM
 10
473.26939338850838
 20
-873.37131530700697
 30
0.0
 11
482.4242140794471
 21
-873.37131530700697
 31
0.0
  0
LINE
  5
18CB3
  8
1DIM
 10
441.42421407944857
 20
-863.37131569788426
 30
0.0
 11
482.4242140794471
 21
-863.37131569788426
 31
0.0
  0
LINE
  5
18CB4
  8
1DIM
 10
481.4242140794471
 20
-871.37131530700697
 30
0.0
 11
481.4242140794471
 21
-865.37131569788426
 31
0.0
  0
TEXT
  5
18CB8
  8
1DIM
 10
480.72421407944722
 20
-870.41298216911218
 30
0.0
 40
3.5
  1
10 
 50
90.0
  0
LINE
  5
18CB9
  8
0
  6
BYBLOCK
 10
480.88831569944711
 20
-865.37131569788426
 30
0.0
 11
481.4242140794471
 21
-863.37131569788426
 31
0.0
  0
LINE
  5
18CBA
  8
0
  6
BYBLOCK
 10
481.4242140794471
 20
-863.37131569788426
 30
0.0
 11
481.96011245944709
 21
-865.37131569788426
 31
0.0
  0
LINE
  5
18CBB
  8
0
  6
BYBLOCK
 10
481.4242140794471
 20
-863.37131569788426
 30
0.0
 11
481.4242140794471
 21
-865.37131569788426
 31
0.0
  0
LINE
  5
18CBC
  8
0
  6
BYBLOCK
 10
481.96011245944709
 20
-871.37131530700697
 30
0.0
 11
481.4242140794471
 21
-873.37131530700697
 31
0.0
  0
LINE
  5
18CBD
  8
0
  6
BYBLOCK
 10
481.4242140794471
 20
-873.37131530700697
 30
0.0
 11
480.88831569944711
 21
-871.37131530700697
 31
0.0
  0
LINE
  5
18CBE
  8
0
  6
BYBLOCK
 10
481.4242140794471
 20
-873.37131530700697
 30
0.0
 11
481.4242140794471
 21
-871.37131530700697
 31
0.0
  0
TEXT
  5
18CBF
  8
1DIM1
 10
140.92421407944761
 20
-940.2384357670461
 30
0.0
 40
10.5
  1
P300 
  0
LINE
  5
18CC0
  8
0
  6
BYBLOCK
 10
302.4242140794513
 20
-940.73074062704598
 30
0.0
 11
308.4242140794513
 21
-942.33843576704601
 31
0.0
  0
LINE
  5
18CC1
  8
0
  6
BYBLOCK
 10
308.4242140794513
 20
-942.33843576704601
 30
0.0
 11
302.4242140794513
 21
-943.94613090704615
 31
0.0
  0
LINE
  5
18CC2
  8
0
  6
BYBLOCK
 10
308.4242140794513
 20
-942.33843576704601
 30
0.0
 11
302.4242140794513
 21
-942.33843576704601
 31
0.0
  0
LINE
  5
18CC3
  8
0
  6
BYBLOCK
 10
14.42421407944402
 20
-943.94613090704615
 30
0.0
 11
8.4242140794440221
 21
-942.33843576704601
 31
0.0
  0
LINE
  5
18CC4
  8
0
  6
BYBLOCK
 10
8.4242140794440221
 20
-942.33843576704601
 30
0.0
 11
14.42421407944402
 21
-940.73074062704598
 31
0.0
  0
LINE
  5
18CC5
  8
0
  6
BYBLOCK
 10
8.4242140794440221
 20
-942.33843576704601
 30
0.0
 11
14.42421407944402
 21
-942.33843576704601
 31
0.0
  0
TEXT
  5
18CC6
  8
1DIM1
 10
144.42421407944721
 20
-970.23843576704598
 30
0.0
 40
10.5
  1
326 
  0
LINE
  5
18CC7
  8
0
  6
BYBLOCK
 10
315.42421407944948
 20
-970.73074062704598
 30
0.0
 11
321.42421407944948
 21
-972.33843576704612
 31
0.0
  0
LINE
  5
18CC8
  8
0
  6
BYBLOCK
 10
321.42421407944948
 20
-972.33843576704612
 30
0.0
 11
315.42421407944948
 21
-973.94613090704615
 31
0.0
  0
LINE
  5
18CC9
  8
0
  6
BYBLOCK
 10
321.42421407944948
 20
-972.33843576704612
 30
0.0
 11
315.42421407944948
 21
-972.33843576704612
 31
0.0
  0
LINE
  5
18CCA
  8
0
  6
BYBLOCK
 10
1.4242140794449309
 20
-973.94613090704615
 30
0.0
 11
-4.5757859205550684
 21
-972.33843576704612
 31
0.0
  0
LINE
  5
18CCB
  8
0
  6
BYBLOCK
 10
-4.5757859205550684
 20
-972.33843576704612
 30
0.0
 11
1.4242140794449309
 21
-970.73074062704598
 31
0.0
  0
LINE
  5
18CCC
  8
0
  6
BYBLOCK
 10
-4.5757859205550684
 20
-972.33843576704612
 30
0.0
 11
1.4242140794449309
 21
-972.33843576704612
 31
0.0
  0
TEXT
  5
18CCD
  8
1DIM
 10
350.72421407944688
 20
-875.99631569794963
 30
0.0
 40
3.5
  1
20 
 50
90.0
  0
LINE
  5
18CCE
  8
0
  6
BYBLOCK
 10
350.88831569944682
 20
-865.37131569788426
 30
0.0
 11
351.4242140794467
 21
-863.37131569788426
 31
0.0
  0
LINE
  5
18CCF
  8
0
  6
BYBLOCK
 10
351.4242140794467
 20
-863.37131569788426
 30
0.0
 11
351.96011245944669
 21
-865.37131569788426
 31
0.0
  0
LINE
  5
18CD0
  8
0
  6
BYBLOCK
 10
351.4242140794467
 20
-863.37131569788426
 30
0.0
 11
351.4242140794467
 21
-865.37131569788426
 31
0.0
  0
LINE
  5
18CD1
  8
0
  6
BYBLOCK
 10
351.96011245944669
 20
-881.37131569801534
 30
0.0
 11
351.4242140794467
 21
-883.37131569801522
 31
0.0
  0
LINE
  5
18CD2
  8
0
  6
BYBLOCK
 10
351.4242140794467
 20
-883.37131569801522
 30
0.0
 11
350.88831569944682
 21
-881.37131569801534
 31
0.0
  0
LINE
  5
18CD3
  8
0
  6
BYBLOCK
 10
351.4242140794467
 20
-883.37131569801522
 30
0.0
 11
351.4242140794467
 21
-881.37131569801534
 31
0.0
  0
LINE
  5
18CD4
  8
1HATCH
 10
445.65561365478487
 20
-832.29032834515613
 30
0.0
 11
442.37931532183802
 21
-813.77947250034288
 31
0.0
  0
LINE
  5
18CD5
  8
1HATCH
 10
442.37931532183802
 20
-813.77947250034288
 30
0.0
 11
450.91264865517138
 21
-813.77947250034288
 31
0.0
  0
TEXT
  5
18CD6
  8
1DIM
 10
245.72421407944961
 20
-788.28798236455168
 30
0.0
 40
3.5
  1
64
 50
90.0
  0
LINE
  5
18CD7
  8
0
  6
BYBLOCK
 10
245.88831569944949
 20
-755.37131569788505
 30
0.0
 11
246.42421407944951
 21
-753.37131569788505
 31
0.0
  0
LINE
  5
18CD8
  8
0
  6
BYBLOCK
 10
246.42421407944951
 20
-753.37131569788505
 30
0.0
 11
246.9601124594495
 21
-755.37131569788505
 31
0.0
  0
LINE
  5
18CD9
  8
0
  6
BYBLOCK
 10
246.42421407944951
 20
-753.37131569788505
 30
0.0
 11
246.42421407944951
 21
-755.37131569788505
 31
0.0
  0
LINE
  5
18CDA
  8
0
  6
BYBLOCK
 10
246.9601124594495
 20
-815.37131569788505
 30
0.0
 11
246.42421407944951
 21
-817.37131569788505
 31
0.0
  0
LINE
  5
18CDB
  8
0
  6
BYBLOCK
 10
246.42421407944951
 20
-817.37131569788505
 30
0.0
 11
245.88831569944949
 21
-815.37131569788505
 31
0.0
  0
LINE
  5
18CDC
  8
0
  6
BYBLOCK
 10
246.42421407944951
 20
-817.37131569788505
 30
0.0
 11
246.42421407944951
 21
-815.37131569788505
 31
0.0
  0
LINE
  5
18CDD
  8
1DIM
 10
455.31335663552483
 20
-832.39201386924037
 30
0.0
 11
450.0322639935701
 21
-819.83006646834951
 31
0.0
  0
LINE
  5
18CDE
  8
1DIM
 10
450.0322639935701
 20
-819.83006646834951
 30
0.0
 11
485.26559732690339
 21
-819.83006646834951
 31
0.0
  0
LINE
  5
18CDF
  8
1DIM
 10
383.22453986562579
 20
-872.11359259132996
 30
0.0
 11
405.17680605429928
 21
-833.84838833527556
 31
0.0
  0
LINE
  5
18CE0
  8
1DIM
 10
405.17680605429928
 20
-833.84838833527556
 30
0.0
 11
437.7768060542993
 21
-833.84838833527556
 31
0.0
  0
LINE
  5
18CE1
  8
1DIM
 10
366.23159958454693
 20
-864.15242151972996
 30
0.0
 11
391.67779058905518
 21
-819.8341134559646
 31
0.0
  0
LINE
  5
18CE2
  8
1DIM
 10
391.67779058905518
 20
-819.8341134559646
 30
0.0
 11
439.64445725572187
 21
-819.8341134559646
 31
0.0
  0
TEXT
  5
18CE3
  8
1DIM
 10
398.79921407944829
 20
-911.63843576704596
 30
0.0
 40
3.5
  1
80 
  0
LINE
  5
18CE4
  8
0
  6
BYBLOCK
 10
363.42421407944948
 20
-912.87433414704617
 30
0.0
 11
361.42421407944948
 21
-912.33843576704612
 31
0.0
  0
LINE
  5
18CE5
  8
0
  6
BYBLOCK
 10
361.42421407944948
 20
-912.33843576704612
 30
0.0
 11
363.42421407944948
 21
-911.80253738704607
 31
0.0
  0
LINE
  5
18CE6
  8
0
  6
BYBLOCK
 10
361.42421407944948
 20
-912.33843576704612
 30
0.0
 11
363.42421407944948
 21
-912.33843576704612
 31
0.0
  0
LINE
  5
18CE7
  8
0
  6
BYBLOCK
 10
439.42421407944721
 20
-911.80253738704607
 30
0.0
 11
441.4242140794471
 21
-912.33843576704612
 31
0.0
  0
LINE
  5
18CE8
  8
0
  6
BYBLOCK
 10
441.4242140794471
 20
-912.33843576704612
 30
0.0
 11
439.42421407944721
 21
-912.87433414704617
 31
0.0
  0
LINE
  5
18CE9
  8
0
  6
BYBLOCK
 10
441.4242140794471
 20
-912.33843576704612
 30
0.0
 11
439.42421407944721
 21
-912.33843576704612
 31
0.0
  0
TEXT
  5
18CEA
  8
1DIM
 10
324.0408807461144
 20
-742.67131569788512
 30
0.0
 40
3.5
  1
25 
  0
LINE
  5
18CEB
  8
0
  6
BYBLOCK
 10
319.42421407944761
 20
-742.83541731788512
 30
0.0
 11
321.42421407944772
 21
-743.37131569788517
 31
0.0
  0
LINE
  5
18CEC
  8
0
  6
BYBLOCK
 10
321.42421407944772
 20
-743.37131569788517
 30
0.0
 11
319.42421407944761
 21
-743.90721407788521
 31
0.0
  0
LINE
  5
18CED
  8
0
  6
BYBLOCK
 10
321.42421407944772
 20
-743.37131569788517
 30
0.0
 11
319.42421407944761
 21
-743.37131569788517
 31
0.0
  0
LINE
  5
18CEE
  8
0
  6
BYBLOCK
 10
298.42421407944948
 20
-743.90721407788521
 30
0.0
 11
296.42421407944948
 21
-743.37131569788517
 31
0.0
  0
LINE
  5
18CEF
  8
0
  6
BYBLOCK
 10
296.42421407944948
 20
-743.37131569788517
 30
0.0
 11
298.42421407944948
 21
-742.83541731788512
 31
0.0
  0
LINE
  5
18CF0
  8
0
  6
BYBLOCK
 10
296.42421407944948
 20
-743.37131569788517
 30
0.0
 11
298.42421407944948
 21
-743.37131569788517
 31
0.0
  0
VIEWPORT
  5
57
 67
     1
  8
0
 10
-12.72701740255923
 20
96.446746480304725
 30
0.0
 40
745.11744609901575
 41
494.08145219434289
 68
     1
 69
     1
1001
ACAD
1000
MVIEW
1002
{
1070
    16
1010
0.0
1020
0.0
1030
0.0
1010
0.0
1020
0.0
1030
1.0
1040
0.0
1040
494.08145219434289
1040
-12.72701740255923
1040
96.446746480304725
1040
50.0
1040
0.0
1040
0.0
1070
     0
1070
   100
1070
     1
1070
     1
1070
     0
1070
     0
1070
     0
1070
     0
1040
0.0
1040
0.0
1040
0.0
1040
10.0
1040
10.0
1040
10.0
1040
10.0
1070
     0
1002
{
1002
}
1002
}
  0
ENDSEC
  0
EOF
