  0
SECTION
  2
HEADER
  9
$ACADVER
  1
AC1009
  9
$INSBASE
 10
0.0
 20
0.0
 30
0.0
  9
$EXTMIN
 10
1996.878318844889
 20
-2930.2222999858941
 30
0.0
  9
$EXTMAX
 10
2364.072279459549
 20
-2655.875633289128
 30
0.0
  9
$LIMMIN
 10
0.0
 20
0.0
  9
$LIMMAX
 10
420.0
 20
297.0
  9
$ORTHOMODE
 70
     0
  9
$REGENMODE
 70
     1
  9
$FILLMODE
 70
     1
  9
$QTEXTMODE
 70
     0
  9
$MIRRTEXT
 70
     0
  9
$DRAGMODE
 70
     2
  9
$LTSCALE
 40
0.5
  9
$OSMODE
 70
    63
  9
$ATTMODE
 70
     1
  9
$TEXTSIZE
 40
4.0
  9
$TRACEWID
 40
1.0
  9
$TEXTSTYLE
  7
STANDARD
  9
$CLAYER
  8
1TEXT
  9
$CELTYPE
  6
BYLAYER
  9
$CECOLOR
 62
   256
  9
$DIMSCALE
 40
1.0
  9
$DIMASZ
 40
2.0
  9
$DIMEXO
 40
0.0
  9
$DIMDLI
 40
7.0
  9
$DIMRND
 40
0.0
  9
$DIMDLE
 40
0.0
  9
$DIMEXE
 40
1.0
  9
$DIMTP
 40
0.0
  9
$DIMTM
 40
0.0
  9
$DIMTXT
 40
3.5
  9
$DIMCEN
 40
0.0
  9
$DIMTSZ
 40
0.0
  9
$DIMTOL
 70
     0
  9
$DIMLIM
 70
     0
  9
$DIMTIH
 70
     0
  9
$DIMTOH
 70
     0
  9
$DIMSE1
 70
     0
  9
$DIMSE2
 70
     0
  9
$DIMTAD
 70
     1
  9
$DIMZIN
 70
     8
  9
$DIMBLK
  1

  9
$DIMASO
 70
     1
  9
$DIMSHO
 70
     1
  9
$DIMPOST
  1
 
  9
$DIMAPOST
  1

  9
$DIMALT
 70
     0
  9
$DIMALTD
 70
     2
  9
$DIMALTF
 40
25.399999999999999
  9
$DIMLFAC
 40
1.0
  9
$DIMTOFL
 70
     1
  9
$DIMTVP
 40
0.0
  9
$DIMTIX
 70
     0
  9
$DIMSOXD
 70
     0
  9
$DIMSAH
 70
     1
  9
$DIMBLK1
  1
OPEN30
  9
$DIMBLK2
  1
OPEN30
  9
$DIMSTYLE
  2
NEWX10
  9
$DIMCLRD
 70
   256
  9
$DIMCLRE
 70
   256
  9
$DIMCLRT
 70
   201
  9
$DIMTFAC
 40
0.7
  9
$DIMGAP
 40
0.7
  9
$LUNITS
 70
     2
  9
$LUPREC
 70
     4
  9
$SKETCHINC
 40
1.0
  9
$FILLETRAD
 40
0.0
  9
$AUNITS
 70
     0
  9
$AUPREC
 70
     2
  9
$MENU
  1
acad
  9
$ELEVATION
 40
0.0
  9
$PELEVATION
 40
0.0
  9
$THICKNESS
 40
0.0
  9
$LIMCHECK
 70
     0
  9
$BLIPMODE
 70
     0
  9
$CHAMFERA
 40
10.0
  9
$CHAMFERB
 40
10.0
  9
$SKPOLY
 70
     0
  9
$TDCREATE
 40
2453033.7326634838
  9
$TDUPDATE
 40
2453798.4295882061
  9
$TDINDWG
 40
1.6822435532
  9
$TDUSRTIMER
 40
1.6822435532
  9
$USRTIMER
 70
     1
  9
$ANGBASE
 50
0.0
  9
$ANGDIR
 70
     0
  9
$PDMODE
 70
     0
  9
$PDSIZE
 40
0.0
  9
$PLINEWID
 40
0.0
  9
$COORDS
 70
     2
  9
$SPLFRAME
 70
     0
  9
$SPLINETYPE
 70
     6
  9
$SPLINESEGS
 70
     8
  9
$ATTDIA
 70
     0
  9
$ATTREQ
 70
     1
  9
$HANDLING
 70
     1
  9
$HANDSEED
  5
1DB0C
  9
$SURFTAB1
 70
     6
  9
$SURFTAB2
 70
     6
  9
$SURFTYPE
 70
     6
  9
$SURFU
 70
     6
  9
$SURFV
 70
     6
  9
$UCSNAME
  2

  9
$UCSORG
 10
0.0
 20
0.0
 30
0.0
  9
$UCSXDIR
 10
1.0
 20
0.0
 30
0.0
  9
$UCSYDIR
 10
0.0
 20
1.0
 30
0.0
  9
$PUCSNAME
  2

  9
$PUCSORG
 10
0.0
 20
0.0
 30
0.0
  9
$PUCSXDIR
 10
1.0
 20
0.0
 30
0.0
  9
$PUCSYDIR
 10
0.0
 20
1.0
 30
0.0
  9
$USERI1
 70
     0
  9
$USERI2
 70
     0
  9
$USERI3
 70
     0
  9
$USERI4
 70
     0
  9
$USERI5
 70
     0
  9
$USERR1
 40
0.0
  9
$USERR2
 40
0.0
  9
$USERR3
 40
0.0
  9
$USERR4
 40
0.0
  9
$USERR5
 40
0.0
  9
$WORLDVIEW
 70
     1
  9
$SHADEDGE
 70
     3
  9
$SHADEDIF
 70
    70
  9
$TILEMODE
 70
     1
  9
$MAXACTVP
 70
    48
  9
$PLIMCHECK
 70
     0
  9
$PEXTMIN
 10
1.0000000000000000E+020
 20
1.0000000000000000E+020
 30
1.0000000000000000E+020
  9
$PEXTMAX
 10
-1.0000000000000000E+020
 20
-1.0000000000000000E+020
 30
-1.0000000000000000E+020
  9
$PLIMMIN
 10
0.0
 20
0.0
  9
$PLIMMAX
 10
420.0
 20
297.0
  9
$UNITMODE
 70
     0
  9
$VISRETAIN
 70
     1
  9
$PLINEGEN
 70
     0
  9
$PSLTSCALE
 70
     1
  0
ENDSEC
  0
SECTION
  2
TABLES
  0
TABLE
  2
VPORT
 70
     4
  0
VPORT
  2
*ACTIVE
 70
     0
 10
0.0
 20
0.0
 11
1.0
 21
1.0
 12
2180.4432892604591
 22
-2793.0545128703839
 13
0.0
 23
0.0
 14
10.0
 24
10.0
 15
10.0
 25
10.0
 16
0.0
 26
0.0
 36
1.0
 17
0.0
 27
0.0
 37
0.0
 40
291.31524740705862
 41
1.508086253369272
 42
50.0
 43
0.0
 44
0.0
 50
0.0
 51
0.0
 71
     0
 72
   100
 73
     1
 74
     1
 75
     0
 76
     0
 77
     0
 78
     0
  0
ENDTAB
  0
TABLE
  2
LTYPE
 70
    15
  0
LTYPE
  2
CONTINUOUS
 70
     0
  3
Solid line
 72
    65
 73
     0
 40
0.0
  0
LTYPE
  2
CENTER2
 70
     0
  3
Center (.5x) ___ _ ___ _ ___ _ ___ _ ___ _ ___
 72
    65
 73
     4
 40
28.574999999999999
 49
19.050000000000001
 49
-3.1749999999999989
 49
3.1749999999999989
 49
-3.1749999999999989
  0
LTYPE
  2
XREF1|CENTER2
 70
    48
  3
Center (.5x) ___ _ ___ _ ___ _ ___ _ ___ _ ___
 72
    65
 73
     4
 40
28.574999999999999
 49
19.050000000000001
 49
-3.1749999999999989
 49
3.1749999999999989
 49
-3.1749999999999989
  0
LTYPE
  2
PHANTOM2
 70
     0
  3
Phantom (.5x) ___ _ _ ___ _ _ ___ _ _ ___ _ _
 72
    65
 73
     6
 40
31.75
 49
15.875
 49
-3.1749999999999989
 49
3.1749999999999989
 49
-3.1749999999999989
 49
3.1749999999999989
 49
-3.1749999999999989
  0
LTYPE
  2
A3WAKUDAKE|CENTER2
 70
    48
  3
Center (.5x) ___ _ ___ _ ___ _ ___ _ ___ _ ___
 72
    65
 73
     4
 40
28.574999999999999
 49
19.050000000000001
 49
-3.1749999999999989
 49
3.1749999999999989
 49
-3.1749999999999989
  0
ENDTAB
  0
TABLE
  2
LAYER
 70
    46
  0
LAYER
  2
0
 70
     0
 62
     7
  6
CONTINUOUS
  0
LAYER
  2
1CENTER
 70
     0
 62
     7
  6
CENTER2
  0
LAYER
  2
1TEXT
 70
     0
 62
     7
  6
CONTINUOUS
  0
LAYER
  2
1DIM
 70
     0
 62
     7
  6
CONTINUOUS
  0
LAYER
  2
1PHANTOM
 70
     0
 62
     7
  6
PHANTOM2
  0
LAYER
  2
01
 70
     0
 62
     1
  6
CONTINUOUS
  0
LAYER
  2
1HATCH
 70
     0
 62
     7
  6
CONTINUOUS
  0
LAYER
  2
XREF1|1CENTER
 70
    48
 62
     7
  6
XREF1|CENTER2
  0
LAYER
  2
A3WAKUDAKE|THICK
 70
    48
 62
     7
  6
CONTINUOUS
  0
LAYER
  2
A3WAKUDAKE|POINT
 70
    48
 62
     7
  6
CONTINUOUS
  0
LAYER
  2
A3WAKUDAKE|1CENTER
 70
    48
 62
     7
  6
A3WAKUDAKE|CENTER2
  0
LAYER
  2
A3WAKUDAKE|0-6
 70
    48
 62
     7
  6
CONTINUOUS
  0
LAYER
  2
A3WAKUDAKE|1DIM
 70
    48
 62
     7
  6
CONTINUOUS
  0
ENDTAB
  0
TABLE
  2
STYLE
 70
    22
  0
STYLE
  2
STANDARD
 70
     0
 40
0.0
 41
1.0
 50
0.0
 71
     0
 42
4.0
  3
txt.shx
  4
extfont.shx
  0
ENDTAB
  0
TABLE
  2
VIEW
 70
     0
  0
ENDTAB
  0
TABLE
  2
UCS
 70
     0
  0
ENDTAB
  0
TABLE
  2
APPID
 70
     9
  0
APPID
  2
ACAD
 70
     0
  0
APPID
  2
DRAWINGVARIABLESXDATA
 70
     0
  0
APPID
  2
CONTENTTABDATA
 70
     0
  0
APPID
  2
CONTENTCURRENTTAB
 70
     0
  0
APPID
  2
CONTENTBLOCKDESCRIPTION
 70
     0
  0
APPID
  2
CONTENTBLOCKICON
 70
     0
  0
APPID
  2
CONTENTLONGBLOCKNAME
 70
     0
  0
APPID
  2
ACAD_PSEXT
 70
     0
  0
APPID
  2
ACAD_DSTYLE_DIMTEXT_FILL
 70
     0
  0
ENDTAB
  0
TABLE
  2
DIMSTYLE
 70
     9
  0
DIMSTYLE
  2
NEWX10
 70
     0
  3
 
  4

  5

  6
OPEN30
  7
OPEN30
 40
1.0
 41
2.0
 42
0.0
 43
7.0
 44
1.0
 45
0.0
 46
0.0
 47
0.0
 48
0.0
140
3.5
141
0.0
142
0.0
143
25.399999999999999
144
1.0
145
0.0
146
0.7
147
0.7
 71
     0
 72
     0
 73
     0
 74
     0
 75
     0
 76
     0
 77
     1
 78
     8
170
     0
171
     2
172
     1
173
     1
174
     0
175
     0
176
   256
177
   256
178
   201
  0
ENDTAB
  0
ENDSEC
  0
SECTION
  2
BLOCKS
  0
BLOCK
  8
0
  2
$MODEL_SPACE
 70
     0
 10
0.0
 20
0.0
 30
0.0
  3
$MODEL_SPACE
  1

  0
ENDBLK
  5
1A
  8
0
  0
BLOCK
 67
     1
  8
0
  2
$PAPER_SPACE
 70
     0
 10
0.0
 20
0.0
 30
0.0
  3
$PAPER_SPACE
  1

  0
ENDBLK
  5
17
 67
     1
  8
0
  0
BLOCK
  8
0
  2
_OPEN30
 70
     0
 10
0.0
 20
0.0
 30
0.0
  3
_OPEN30
  1

  0
LINE
  5
44
  8
0
  6
BYBLOCK
 62
     0
 10
-1.0
 20
0.26794919
 30
0.0
 11
0.0
 21
0.0
 31
0.0
  0
LINE
  5
45
  8
0
  6
BYBLOCK
 62
     0
 10
0.0
 20
0.0
 30
0.0
 11
-1.0
 21
-0.26794919
 31
0.0
  0
LINE
  5
46
  8
0
  6
BYBLOCK
 62
     0
 10
0.0
 20
0.0
 30
0.0
 11
-1.0
 21
0.0
 31
0.0
  0
ENDBLK
  5
47
  8
0
  0
BLOCK
  8
0
  2
XREF1
 70
    36
 10
0.0
 20
0.0
 30
0.0
  3
XREF1
  1
D:\ACLT\FORMAT\KAWAJUN(9)図面用.dwg
  0
ENDBLK
  5
5D
  8
0
  0
BLOCK
  8
0
  2
A3WAKUDAKE
 70
    36
 10
0.0
 20
0.0
 30
0.0
  3
A3WAKUDAKE
  1
D:\ACLT\FORMAT\A3WAKUdake.dwg
  0
ENDBLK
  5
6DC
  8
0
  0
BLOCK
  8
0
  2
*U21
 70
     1
 10
0.0
 20
0.0
 30
0.0
  3
*U21
  1

  0
TEXT
  5
1D8CD
  8
1DIM
 62
   201
 10
2069.105645683333
 20
-2789.8080017469952
 30
0.0
 40
3.5
  1
152 
  0
ENDBLK
  5
1D8CF
  8
0
  0
BLOCK
  8
0
  2
*U22
 70
     1
 10
0.0
 20
0.0
 30
0.0
  3
*U22
  1

  0
TEXT
  5
1D8D1
  8
1DIM
 62
   201
 10
2158.4889790166681
 20
-2862.2246752993228
 30
0.0
 40
3.5
  1
19.5
 50
90.0
  0
ENDBLK
  5
1D8D3
  8
0
  0
BLOCK
  8
0
  2
*U23
 70
     1
 10
0.0
 20
0.0
 30
0.0
  3
*U23
  1

  0
TEXT
  5
1D8D5
  8
1DIM
 62
   201
 10
2077.7723123500009
 20
-2886.6080017469958
 30
0.0
 40
3.5
  1
25 
  0
ENDBLK
  5
1D8D7
  8
0
  0
BLOCK
  8
0
  2
*U24
 70
     1
 10
0.0
 20
0.0
 30
0.0
  3
*U24
  1

  0
TEXT
  5
1D8D9
  8
1DIM
 62
   201
 10
2076.6056456833339
 20
-2896.6080017469958
 30
0.0
 40
3.5
  1
125 
  0
ENDBLK
  5
1D8DB
  8
0
  0
BLOCK
  8
0
  2
*U25
 70
     1
 10
0.0
 20
0.0
 30
0.0
  3
*U25
  1

  0
TEXT
  5
1D8DD
  8
1DIM
 62
   201
 10
2293.5722794595922
 20
-2801.769818457954
 30
0.0
 40
3.5
  1
22.5 
  0
ENDBLK
  5
1D8DF
  8
0
  0
BLOCK
  8
0
  2
*U26
 70
     1
 10
0.0
 20
0.0
 30
0.0
  3
*U26
  1

  0
TEXT
  5
1D8E1
  8
1DIM
 62
   201
 10
2285.5722908920502
 20
-2791.769818457954
 30
0.0
 40
3.5
  1
38.5 
  0
ENDBLK
  5
1D8E3
  8
0
  0
BLOCK
  8
0
  2
*U27
 70
     1
 10
0.0
 20
0.0
 30
0.0
  3
*U27
  1

  0
TEXT
  5
1D8E5
  8
1DIM
 62
   201
 10
2229.6444420306461
 20
-2781.769818457954
 30
0.0
 40
3.5
  1
107 （ペーパー付き最大値）
  0
ENDBLK
  5
1D8E7
  8
0
  0
BLOCK
  8
0
  2
*U28
 70
     1
 10
0.0
 20
0.0
 30
0.0
  3
*U28
  1

  0
TEXT
  5
1D8E9
  8
1DIM
 62
   201
 10
2299.7389461262542
 20
-2898.375948298843
 30
0.0
 40
3.5
  1
16 
  0
ENDBLK
  5
1D8EB
  8
0
  0
BLOCK
  8
0
  2
*U29
 70
     1
 10
0.0
 20
0.0
 30
0.0
  3
*U29
  1

  0
TEXT
  5
1D8ED
  8
1DIM
 62
   201
 10
2352.3722794595501
 20
-2858.4926149655021
 30
0.0
 40
3.5
  1
28 
 50
90.0
  0
ENDBLK
  5
1D8EF
  8
0
  0
BLOCK
  8
0
  2
*U30
 70
     1
 10
0.0
 20
0.0
 30
0.0
  3
*U30
  1

  0
TEXT
  5
1D8F1
  8
1DIM
 62
   201
 10
2352.3722794595501
 20
-2832.2728833783922
 30
0.0
 40
3.5
  1
32.5
 50
90.0
  0
ENDBLK
  5
1D8F3
  8
0
  0
BLOCK
  8
0
  2
*U31
 70
     1
 10
0.0
 20
0.0
 30
0.0
  3
*U31
  1

  0
TEXT
  5
1D8F5
  8
1DIM
 62
   201
 10
2362.3722794595501
 20
-2848.6895500450642
 30
0.0
 40
3.5
  1
67 
 50
90.0
  0
ENDBLK
  5
1D8F7
  8
0
  0
BLOCK
  8
0
  2
*U32
 70
     1
 10
0.0
 20
0.0
 30
0.0
  3
*U32
  1

  0
TEXT
  5
1D8F9
  8
1DIM
 62
   201
 10
2158.4889790166708
 20
-2758.116776616574
 30
0.0
 40
3.5
  1
97 （ペーパー無し最小値）
 50
90.0
  0
ENDBLK
  5
1D8FB
  8
0
  0
BLOCK
  8
0
  2
*U33
 70
     1
 10
0.0
 20
0.0
 30
0.0
  3
*U33
  1

  0
TEXT
  5
1D8FD
  8
1DIM
 62
   201
 10
2048.6056456833348
 20
-2662.7588848194891
 30
0.0
 40
3.5
  1
114.5 
  0
ENDBLK
  5
1D8FF
  8
0
  0
BLOCK
  8
0
  2
*U34
 70
     1
 10
0.0
 20
0.0
 30
0.0
  3
*U34
  1

  0
TEXT
  5
1D901
  8
1DIM
 62
   201
 10
2033.688971498422
 20
-2672.7588848194891
 30
0.0
 40
3.5
  1
83.5 
  0
ENDBLK
  5
1D903
  8
0
  0
ENDSEC
  0
SECTION
  2
ENTITIES
  0
CIRCLE
  5
18E67
  8
1PHANTOM
 10
2221.5722794595849
 20
-2877.2394700314999
 30
0.0
 40
19.0
  0
LINE
  5
1A368
  8
01
 10
1997.688979016667
 20
-2867.3080017469961
 30
0.0
 11
2148.6889790166661
 21
-2867.3080017469961
 31
0.0
  0
ARC
  5
1A369
  8
01
 10
1997.688979016667
 20
-2866.8080017469961
 30
0.0
 40
0.5
 50
180.0
 51
270.0
  0
LINE
  5
1A36A
  8
01
 10
1997.188979016669
 20
-2848.3080017469961
 30
0.0
 11
1997.1889790166681
 21
-2852.0080017469959
 31
0.0
  0
ARC
  5
1A36B
  8
01
 10
1997.4889790166669
 20
-2852.0080017469959
 30
0.0
 40
0.3
 50
179.99999999997391
 51
270.0
  0
ARC
  5
1A36C
  8
01
 10
1997.6889790166699
 20
-2848.3080017469961
 30
0.0
 40
0.5
 50
90.0
 51
179.99999999997391
  0
LINE
  5
1A36D
  8
01
 10
1997.1889790166681
 20
-2863.1080017469958
 30
0.0
 11
1997.188979016667
 21
-2866.8080017469961
 31
0.0
  0
ARC
  5
1A36E
  8
01
 10
1997.4889790166669
 20
-2863.1080017469958
 30
0.0
 40
0.3
 50
90.0
 51
180.0
  0
LINE
  5
1A371
  8
01
 10
2061.3889790166668
 20
-2683.458884819489
 30
0.0
 11
1997.188979016667
 21
-2683.458884819489
 31
0.0
  0
LINE
  5
1A375
  8
01
 10
1998.688979016669
 20
-2777.458884819488
 30
0.0
 11
2018.1889790166681
 21
-2777.4588848194871
 31
0.0
  0
LINE
  5
1A376
  8
01
 10
2143.1889790166661
 20
-2777.458884819484
 30
0.0
 11
2147.6889790166701
 21
-2777.4588848194849
 31
0.0
  0
ARC
  5
1A377
  8
01
 10
1998.688979016669
 20
-2775.958884819488
 30
0.0
 40
1.5
 50
180.0
 51
270.0
  0
LINE
  5
1A37A
  8
01
 10
1997.188979016669
 20
-2775.958884819488
 30
0.0
 11
1997.188979016667
 21
-2683.458884819489
 31
0.0
  0
LINE
  5
1A37B
  8
01
 10
2149.1889790166701
 20
-2775.9588848194849
 30
0.0
 11
2149.1889790166651
 21
-2758.958884819484
 31
0.0
  0
ARC
  5
1A37C
  8
01
 10
2147.6889790166651
 20
-2758.9588848194849
 30
0.0
 40
1.5
 50
0.0000000000260551
 51
90.0
  0
ARC
  5
1A37D
  8
01
 10
2147.6889790166701
 20
-2775.9588848194849
 30
0.0
 40
1.5
 50
270.0
 51
0.0000000000260551
  0
LINE
  5
1A37E
  8
01
 10
2143.188979016667
 20
-2757.4588848194849
 30
0.0
 11
2147.6889790166651
 21
-2757.4588848194849
 31
0.0
  0
LINE
  5
1A38A
  8
01
 10
2148.6889790166651
 20
-2847.8080017469961
 30
0.0
 11
1997.6889790166699
 21
-2847.8080017469961
 31
0.0
  0
LINE
  5
1A38B
  8
01
 10
2011.5890236557671
 20
-2852.3080017469961
 30
0.0
 11
2011.5890236557671
 21
-2852.5580017469779
 31
0.0
  0
LINE
  5
1A38C
  8
01
 10
2011.5890236557691
 20
-2862.5580017469802
 30
0.0
 11
2011.5890236557691
 21
-2862.8080017469961
 31
0.0
  0
LINE
  5
1A38D
  8
01
 10
2144.1889787908099
 20
-2852.3080017469961
 30
0.0
 11
2144.1889787908099
 21
-2852.5580017469788
 31
0.0
  0
LINE
  5
1A38E
  8
01
 10
2144.1889787908099
 20
-2862.5580017469802
 30
0.0
 11
2144.1889787908099
 21
-2862.8080017469961
 31
0.0
  0
LINE
  5
1A38F
  8
01
 10
1997.4889790166669
 20
-2852.3080017469961
 30
0.0
 11
2148.8889790166681
 21
-2852.3080017469961
 31
0.0
  0
ARC
  5
1A390
  8
01
 10
2115.08897879082
 20
-2853.3080017469961
 30
0.0
 40
1.0
 50
90.0
 51
131.40962210773779
  0
ARC
  5
1A391
  8
1DIM
 10
2115.1413599450561
 20
-2853.3080017469961
 30
0.0
 40
1.0
 50
90.0
 51
131.40962210773779
  0
ARC
  5
1A392
  8
01
 10
2148.8889790166681
 20
-2852.0080017469959
 30
0.0
 40
0.3
 50
270.0
 51
0.0000000000260551
  0
LINE
  5
1A393
  8
01
 10
1997.4889790166669
 20
-2862.8080017469961
 30
0.0
 11
2148.8889790166681
 21
-2862.8080017469961
 31
0.0
  0
ARC
  5
1A394
  8
01
 10
2108.08897879082
 20
-2861.8080017469961
 30
0.0
 40
1.0
 50
270.0
 51
311.4096221106546
  0
ARC
  5
1A395
  8
1DIM
 10
2108.0365976365838
 20
-2861.8080017469961
 30
0.0
 40
1.0
 50
270.0
 51
311.4096221106546
  0
ARC
  5
1A396
  8
01
 10
2115.0889787908209
 20
-2861.8080017469961
 30
0.0
 40
1.0
 50
228.5903778893454
 51
270.0
  0
ARC
  5
1A397
  8
1DIM
 10
2115.1413599450561
 20
-2861.8080017469961
 30
0.0
 40
1.0
 50
228.5903778893454
 51
270.0
  0
LINE
  5
1A398
  8
01
 10
2149.1889790166651
 20
-2848.3080017469961
 30
0.0
 11
2149.188979016667
 21
-2852.0080017469959
 31
0.0
  0
ARC
  5
1A399
  8
01
 10
2148.6889790166651
 20
-2848.3080017469961
 30
0.0
 40
0.5
 50
0.0000000000260551
 51
90.0
  0
LINE
  5
1A39A
  8
01
 10
2149.188979016667
 20
-2863.1080017469958
 30
0.0
 11
2149.188979016667
 21
-2866.8080017469961
 31
0.0
  0
ARC
  5
1A39B
  8
01
 10
2148.8889790166681
 20
-2863.1080017469958
 30
0.0
 40
0.3
 50
359.99999999997402
 51
90.0
  0
ARC
  5
1A39C
  8
01
 10
2148.6889790166661
 20
-2866.8080017469961
 30
0.0
 40
0.5
 50
270.0
 51
359.99999999997402
  0
LINE
  5
1A39E
  8
01
 10
2111.6889790166688
 20
-2683.458884819489
 30
0.0
 11
2111.6889790166688
 21
-2692.4588848194908
 31
0.0
  0
LINE
  5
1A3A3
  8
01
 10
2310.0722794595881
 20
-2859.5759482988428
 30
0.0
 11
2310.0722794595881
 21
-2879.0759482988419
 31
0.0
  0
LINE
  5
1A3A4
  8
01
 10
2310.0722794595858
 20
-2879.0759482988419
 30
0.0
 11
2216.5722794595858
 21
-2879.0759482988419
 31
0.0
  0
ARC
  5
1A3A5
  8
01
 10
2235.5722794595881
 20
-2878.5759482988428
 30
0.0
 40
0.5
 50
270.0
 51
0.0
  0
LINE
  5
1A3A6
  8
01
 10
2235.7722794595879
 20
-2874.5759482988428
 30
0.0
 11
2216.3722794595878
 21
-2874.5759482988428
 31
0.0
  0
ARC
  5
1A3A7
  8
01
 10
2235.7722794595879
 20
-2874.8759482988421
 30
0.0
 40
0.3
 50
0.0
 51
89.999999999999986
  0
LINE
  5
1A3A8
  8
01
 10
2235.7722794595879
 20
-2864.0759482988428
 30
0.0
 11
2216.3722794595819
 21
-2864.0759482988428
 31
0.0
  0
ARC
  5
1A3A9
  8
01
 10
2235.7722794595879
 20
-2863.7759482988422
 30
0.0
 40
0.3
 50
270.0
 51
0.0
  0
LINE
  5
1A3AA
  8
01
 10
2310.0722794595881
 20
-2859.5759482988428
 30
0.0
 11
2298.0222794595838
 21
-2859.5759482988428
 31
0.0
  0
LINE
  5
1A3AB
  8
01
 10
2290.1222794595851
 20
-2859.5759482988428
 30
0.0
 11
2216.5722794595858
 21
-2859.5759482988442
 31
0.0
  0
ARC
  5
1A3AC
  8
01
 10
2235.5722794595881
 20
-2860.0759482988442
 30
0.0
 40
0.5
 50
0.0
 51
89.999999999999986
  0
ARC
  5
1A3AD
  8
01
 10
2216.5722794595858
 20
-2860.0759482988442
 30
0.0
 40
0.5
 50
89.999999999999986
 51
179.9999999999479
  0
LINE
  5
1A3AE
  8
01
 10
2216.0722794595858
 20
-2878.5759482988428
 30
0.0
 11
2216.0722794595881
 21
-2874.8759482988439
 31
0.0
  0
ARC
  5
1A3AF
  8
01
 10
2216.3722794595878
 20
-2874.8759482988439
 30
0.0
 40
0.3
 50
89.999999999999986
 51
179.99999999997391
  0
ARC
  5
1A3B0
  8
01
 10
2216.5722794595858
 20
-2878.5759482988428
 30
0.0
 40
0.5
 50
179.99999999997391
 51
270.0
  0
LINE
  5
1A3B1
  8
01
 10
2216.0722794595831
 20
-2863.7759482988431
 30
0.0
 11
2216.0722794595858
 21
-2860.0759482988419
 31
0.0
  0
ARC
  5
1A3B2
  8
01
 10
2216.3722794595819
 20
-2863.7759482988431
 30
0.0
 40
0.3
 50
179.9999999999479
 51
270.0
  0
LINE
  5
1A3B3
  8
01
 10
2222.572279459584
 20
-2874.5759482988428
 30
0.0
 11
2222.572279459584
 21
-2874.3259482988419
 31
0.0
  0
LINE
  5
1A3B4
  8
01
 10
2222.5722794595881
 20
-2864.3259482988451
 30
0.0
 11
2222.5722794595858
 21
-2864.0759482988428
 31
0.0
  0
LINE
  5
1A3B5
  8
01
 10
2236.0722794595872
 20
-2860.0759482988442
 30
0.0
 11
2236.0722794595872
 21
-2863.7759482988422
 31
0.0
  0
LINE
  5
1A3B6
  8
01
 10
2236.0722794595872
 20
-2874.8759482988421
 30
0.0
 11
2236.0722794595872
 21
-2878.5759482988428
 31
0.0
  0
LINE
  5
1A3B7
  8
01
 10
2286.072302324505
 20
-2878.5759482988419
 30
0.0
 11
2286.072302324505
 21
-2860.0759482988419
 31
0.0
  0
ARC
  5
1A3B8
  8
01
 10
2286.572302324505
 20
-2860.0759482988419
 30
0.0
 40
0.5
 50
89.999999999973937
 51
180.00000000010419
  0
ARC
  5
1A3B9
  8
01
 10
2286.572302324505
 20
-2878.5759482988419
 30
0.0
 40
0.5
 50
180.00000000010419
 51
270.00000000002598
  0
LINE
  5
1A3C1
  8
01
 10
2144.08897879082
 20
-2852.3080017469961
 30
0.0
 11
2144.08897879082
 21
-2852.5580017469788
 31
0.0
  0
LINE
  5
1A3C2
  8
01
 10
2144.08897879082
 20
-2862.5580017469802
 30
0.0
 11
2144.08897879082
 21
-2862.8080017469961
 31
0.0
  0
ARC
  5
1A3C3
  8
01
 10
2138.0889787908209
 20
-2853.3080017469961
 30
0.0
 40
1.0
 50
48.590377892262211
 51
90.0
  0
ARC
  5
1A3C4
  8
1DIM
 10
2138.0365976365829
 20
-2853.3080017469961
 30
0.0
 40
1.0
 50
48.590377892262211
 51
90.0
  0
ARC
  5
1A3C5
  8
01
 10
2138.0889787908209
 20
-2861.8080017469961
 30
0.0
 40
1.0
 50
270.0
 51
311.4096221106546
  0
ARC
  5
1A3C6
  8
1DIM
 10
2138.0365976365829
 20
-2861.8080017469961
 30
0.0
 40
1.0
 50
270.0
 51
311.4096221106546
  0
ARC
  5
1A3C7
  8
01
 10
2108.0889787908209
 20
-2853.3080017469961
 30
0.0
 40
1.0
 50
48.590377892262211
 51
90.0
  0
ARC
  5
1A3C8
  8
1DIM
 10
2108.0365976365838
 20
-2853.3080017469961
 30
0.0
 40
1.0
 50
48.590377892262211
 51
90.0
  0
ARC
  5
1A3C9
  8
01
 10
2085.0889787908209
 20
-2853.3080017469961
 30
0.0
 40
1.0
 50
90.0
 51
131.40962210773779
  0
ARC
  5
1A3CA
  8
1DIM
 10
2085.141359945057
 20
-2853.3080017469961
 30
0.0
 40
1.0
 50
90.0
 51
131.40962210773779
  0
ARC
  5
1A3CB
  8
01
 10
2078.08897879082
 20
-2861.8080017469961
 30
0.0
 40
1.0
 50
270.0
 51
311.4096221106546
  0
ARC
  5
1A3CC
  8
1DIM
 10
2078.0365976365838
 20
-2861.8080017469961
 30
0.0
 40
1.0
 50
270.0
 51
311.4096221106546
  0
ARC
  5
1A3CD
  8
01
 10
2085.0889787908209
 20
-2861.8080017469961
 30
0.0
 40
1.0
 50
228.5903778893454
 51
270.0
  0
ARC
  5
1A3CE
  8
1DIM
 10
2085.141359945057
 20
-2861.8080017469961
 30
0.0
 40
1.0
 50
228.5903778893454
 51
270.0
  0
ARC
  5
1A3CF
  8
01
 10
2078.08897879082
 20
-2853.3080017469961
 30
0.0
 40
1.0
 50
48.590377892262211
 51
90.0
  0
ARC
  5
1A3D0
  8
1DIM
 10
2078.0365976365838
 20
-2853.3080017469961
 30
0.0
 40
1.0
 50
48.590377892262211
 51
90.0
  0
ARC
  5
1A3D1
  8
01
 10
2055.08897879082
 20
-2853.3080017469961
 30
0.0
 40
1.0
 50
90.0
 51
131.40962210773779
  0
ARC
  5
1A3D2
  8
1DIM
 10
2055.1413599450561
 20
-2853.3080017469961
 30
0.0
 40
1.0
 50
90.0
 51
131.40962210773779
  0
ARC
  5
1A3D3
  8
01
 10
2048.08897879082
 20
-2861.8080017469961
 30
0.0
 40
1.0
 50
270.0
 51
311.4096221106546
  0
ARC
  5
1A3D4
  8
1DIM
 10
2048.0365976365838
 20
-2861.8080017469961
 30
0.0
 40
1.0
 50
270.0
 51
311.4096221106546
  0
ARC
  5
1A3D5
  8
01
 10
2055.0889787908209
 20
-2861.8080017469961
 30
0.0
 40
1.0
 50
228.5903778893454
 51
270.0
  0
ARC
  5
1A3D6
  8
1DIM
 10
2055.1413599450561
 20
-2861.8080017469961
 30
0.0
 40
1.0
 50
228.5903778893454
 51
270.0
  0
ARC
  5
1A3D7
  8
01
 10
2048.08897879082
 20
-2853.3080017469961
 30
0.0
 40
1.0
 50
48.590377892262211
 51
90.0
  0
ARC
  5
1A3D8
  8
1DIM
 10
2048.0365976365838
 20
-2853.3080017469961
 30
0.0
 40
1.0
 50
48.590377892262211
 51
90.0
  0
ARC
  5
1A3D9
  8
01
 10
2025.0889787908211
 20
-2853.3080017469961
 30
0.0
 40
1.0
 50
90.0
 51
131.40962210773779
  0
ARC
  5
1A3DA
  8
1DIM
 10
2025.1413599450559
 20
-2853.3080017469961
 30
0.0
 40
1.0
 50
90.0
 51
131.40962210773779
  0
ARC
  5
1A3DB
  8
01
 10
2018.08897879082
 20
-2861.8080017469961
 30
0.0
 40
1.0
 50
270.0
 51
311.4096221106546
  0
ARC
  5
1A3DC
  8
1DIM
 10
2018.036597636584
 20
-2861.8080017469961
 30
0.0
 40
1.0
 50
270.0
 51
311.4096221106546
  0
ARC
  5
1A3DD
  8
01
 10
2025.0889787908211
 20
-2861.8080017469961
 30
0.0
 40
1.0
 50
228.5903778893454
 51
270.0
  0
ARC
  5
1A3DE
  8
1DIM
 10
2025.1413599450559
 20
-2861.8080017469961
 30
0.0
 40
1.0
 50
228.5903778893454
 51
270.0
  0
ARC
  5
1A3DF
  8
01
 10
2018.08897879082
 20
-2853.3080017469961
 30
0.0
 40
1.0
 50
48.590377892262211
 51
90.0
  0
ARC
  5
1A3E0
  8
1DIM
 10
2018.036597636584
 20
-2853.3080017469961
 30
0.0
 40
1.0
 50
48.590377892262211
 51
90.0
  0
LINE
  5
1A3E1
  8
01
 10
2010.9890236557651
 20
-2852.3080017469961
 30
0.0
 11
2010.9890236557651
 21
-2852.5580017469779
 31
0.0
  0
LINE
  5
1A3E2
  8
01
 10
2010.9890236557669
 20
-2862.5580017469802
 30
0.0
 11
2010.9890236557669
 21
-2862.8080017469961
 31
0.0
  0
LINE
  5
1A3E3
  8
01
 10
2009.188979016669
 20
-2852.3080017469961
 30
0.0
 11
2009.188979016669
 21
-2852.5580017469788
 31
0.0
  0
LINE
  5
1A3E4
  8
01
 10
2009.188979016669
 20
-2862.5580017469802
 30
0.0
 11
2009.188979016669
 21
-2862.8080017469961
 31
0.0
  0
LINE
  5
1A3E5
  8
01
 10
2008.188979016669
 20
-2852.3080017469961
 30
0.0
 11
2008.188979016669
 21
-2852.5580017469788
 31
0.0
  0
LINE
  5
1A3E6
  8
01
 10
2008.188979016669
 20
-2862.5580017469802
 30
0.0
 11
2008.188979016669
 21
-2862.8080017469961
 31
0.0
  0
LINE
  5
1A3E8
  8
01
 10
2231.2722794595879
 20
-2874.5759482988428
 30
0.0
 11
2231.2722794595879
 21
-2874.3259482988428
 31
0.0
  0
LINE
  5
1A3E9
  8
01
 10
2231.272279459587
 20
-2864.3259482988451
 30
0.0
 11
2231.2722794595879
 21
-2864.0759482988428
 31
0.0
  0
LINE
  5
1A3FC
  8
1DIM
 10
2149.188979016667
 20
-2863.1080017469958
 30
0.0
 11
1997.188979016667
 21
-2863.1080017469958
 31
0.0
  0
LINE
  5
1A3FD
  8
1DIM
 10
2149.188979016667
 20
-2852.0080017469959
 30
0.0
 11
1997.188979016667
 21
-2852.0080017469959
 31
0.0
  0
LINE
  5
1A3FE
  8
1DIM
 10
2149.1889790166651
 20
-2848.3080017469961
 30
0.0
 11
1997.188979016669
 21
-2848.3080017469961
 31
0.0
  0
LINE
  5
1A3FF
  8
1DIM
 10
2149.188979016667
 20
-2866.8080017469961
 30
0.0
 11
1997.188979016667
 21
-2866.8080017469961
 31
0.0
  0
LINE
  5
1A400
  8
01
 10
2217.7722794595902
 20
-2874.325948298841
 30
0.0
 11
2234.5722794595872
 21
-2874.3259482988428
 31
0.0
  0
LINE
  5
1A401
  8
01
 10
2234.5722794595872
 20
-2864.3259482988451
 30
0.0
 11
2217.7722794595852
 21
-2864.3259482988451
 31
0.0
  0
LINE
  5
1A41C
  8
01
 10
2234.5722794595872
 20
-2874.3259482988428
 30
0.0
 11
2234.5722794595872
 21
-2864.3259482988451
 31
0.0
  0
ARC
  5
1A41D
  8
01
 10
2280.1722794595262
 20
-2869.325948298806
 30
0.0
 40
62.599999999939357
 50
175.41877991474931
 51
184.58122008531561
  0
LINE
  5
1A41E
  8
01
 10
1998.88897901667
 20
-2852.5580017469788
 30
0.0
 11
2147.4889790166681
 21
-2852.5580017469788
 31
0.0
  0
LINE
  5
1A41F
  8
01
 10
1998.8889790166691
 20
-2862.5580017469802
 30
0.0
 11
2147.4889790166708
 21
-2862.5580017469802
 31
0.0
  0
ARC
  5
1A420
  8
01
 10
2085.0889790166789
 20
-2857.5580017469961
 30
0.0
 40
62.599999999990807
 50
355.4187799147482
 51
4.5812200853037384
  0
ARC
  5
1A421
  8
01
 10
2061.2889790166601
 20
-2857.558001746982
 30
0.0
 40
62.599999999991148
 50
175.41877991472219
 51
184.58122008527769
  0
LINE
  5
1A423
  8
01
 10
2074.4389790166788
 20
-2826.0580017470002
 30
0.0
 11
2074.4389790166802
 21
-2833.5580017469752
 31
0.0
  0
ARC
  5
1A424
  8
01
 10
2074.9389790166779
 20
-2826.0580017470002
 30
0.0
 40
0.5
 50
90.0
 51
180.0
  0
ARC
  5
1A425
  8
01
 10
2074.9389790166802
 20
-2833.5580017469752
 30
0.0
 40
0.5
 50
180.0
 51
270.0
  0
LINE
  5
1A426
  8
01
 10
2086.9389790166551
 20
-2833.5580017469752
 30
0.0
 11
2086.9389790166551
 21
-2826.0580017470002
 31
0.0
  0
ARC
  5
1A427
  8
01
 10
2086.4389790166551
 20
-2826.0580017470002
 30
0.0
 40
0.5
 50
0.0
 51
90.0
  0
LINE
  5
1A428
  8
01
 10
2074.9389790166779
 20
-2825.5580017470011
 30
0.0
 11
2086.4389790166551
 21
-2825.5580017470002
 31
0.0
  0
LINE
  5
1A429
  8
01
 10
2074.9389790166802
 20
-2834.0580017469752
 30
0.0
 11
2086.4389790166551
 21
-2834.0580017469752
 31
0.0
  0
ARC
  5
1A42A
  8
01
 10
2086.4389790166551
 20
-2833.5580017469752
 30
0.0
 40
0.5
 50
270.0
 51
0.0
  0
ARC
  5
1A42B
  8
01
 10
2082.688979016667
 20
-2829.8080017469879
 30
0.0
 40
2.250000000008185
 50
270.0
 51
90.0
  0
ARC
  5
1A42C
  8
01
 10
2078.688979016667
 20
-2829.8080017469879
 30
0.0
 40
2.250000000008185
 50
90.000000000011553
 51
269.99999999998852
  0
LINE
  5
1A42F
  8
01
 10
2049.6889790166651
 20
-2815.827631589877
 30
0.0
 11
2049.6889790166661
 21
-2847.3080017469961
 31
0.0
  0
LINE
  5
1A432
  8
01
 10
2050.1889790166661
 20
-2847.8080017469961
 30
0.0
 11
2111.1889790166679
 21
-2847.8080017469961
 31
0.0
  0
ARC
  5
1A433
  8
01
 10
2111.1889790166679
 20
-2847.3080017469961
 30
0.0
 40
0.5
 50
270.0
 51
0.0
  0
ARC
  5
1A434
  8
01
 10
2050.1889790166661
 20
-2847.3080017469961
 30
0.0
 40
0.5
 50
180.0
 51
270.0
  0
LINE
  5
1A44A
  8
1DIM
 10
2050.1889790166679
 20
-2824.0080017469959
 30
0.0
 11
2111.188979016667
 21
-2824.0080017469959
 31
0.0
  0
LINE
  5
1A44B
  8
1DIM
 10
2050.1889790166679
 20
-2839.5080017469959
 30
0.0
 11
2111.188979016667
 21
-2839.5080017469959
 31
0.0
  0
LINE
  5
1A454
  8
01
 10
2049.6889790166638
 20
-2683.4588848194899
 30
0.0
 11
2049.6889790166651
 21
-2692.4588848194908
 31
0.0
  0
LINE
  5
1A457
  8
01
 10
2111.6889790166679
 20
-2683.4588848194871
 30
0.0
 11
2111.6889790166688
 21
-2692.4588848194899
 31
0.0
  0
LINE
  5
1A45B
  8
01
 10
2111.6889790166679
 20
-2683.4588848194871
 30
0.0
 11
2049.6889790166638
 21
-2683.4588848194899
 31
0.0
  0
LINE
  5
1A466
  8
01
 10
2310.0722794595858
 20
-2859.5759482988419
 30
0.0
 11
2298.0222794595838
 21
-2859.5759482988419
 31
0.0
  0
LINE
  5
1A467
  8
01
 10
2290.1222794595851
 20
-2859.5759482988419
 30
0.0
 11
2286.5723023245041
 21
-2859.5759482988419
 31
0.0
  0
ARC
  5
1A469
  8
01
 10
2286.5723023245041
 20
-2859.075948298841
 30
0.0
 40
0.5
 50
180.0
 51
270.0
  0
LINE
  5
1A46A
  8
01
 10
2310.0722794595858
 20
-2859.5759482988419
 30
0.0
 11
2310.072279459584
 21
-2835.7759482988399
 31
0.0
  0
LINE
  5
1A46B
  8
01
 10
2282.5723023245118
 20
-2833.7759482988408
 30
0.0
 11
2282.5723023245118
 21
-2829.9289054286478
 31
0.0
  0
LINE
  5
1A46C
  8
01
 10
2282.5723023245132
 20
-2829.9289054286478
 30
0.0
 11
2282.5723023245118
 21
-2829.0628110421781
 31
0.0
  0
ARC
  5
1A46D
  8
01
 10
2284.5723023245132
 20
-2829.0628110421781
 30
0.0
 40
2.0
 50
113.60837018101709
 51
180.00000000001299
  0
LINE
  5
1A46E
  8
01
 10
2310.072279459584
 20
-2835.7759482988399
 30
0.0
 11
2284.5723023245132
 21
-2835.7759482988399
 31
0.0
  0
ARC
  5
1A470
  8
01
 10
2284.5723023245132
 20
-2833.7759482988408
 30
0.0
 40
2.0
 50
180.00000000001299
 51
270.0
  0
ARC
  5
1A472
  8
01
 10
2287.5722794595931
 20
-2820.2759482988408
 30
0.0
 40
4.8499999999999988
 50
293.60837018101722
 51
318.71585019514532
  0
LINE
  5
1A473
  8
01
 10
2286.0723023245032
 20
-2851.2759482988422
 30
0.0
 11
2271.5723023245041
 21
-2835.7759482988399
 31
0.0
  0
LINE
  5
1A478
  8
01
 10
2286.0723023245032
 20
-2851.2759482988422
 30
0.0
 11
2286.0723023245032
 21
-2859.075948298841
 31
0.0
  0
LINE
  5
1A486
  8
01
 10
2283.7713365301811
 20
-2827.230202574362
 30
0.0
 11
2289.5146215108471
 21
-2824.7200238332939
 31
0.0
  0
LINE
  5
1A496
  8
01
 10
2141.688979016667
 20
-2692.458884819489
 30
0.0
 11
2019.688979016667
 21
-2692.4588848194908
 31
0.0
  0
LINE
  5
1A499
  8
01
 10
2018.188979016667
 20
-2779.508001746995
 30
0.0
 11
2018.1889790166681
 21
-2693.9588848194931
 31
0.0
  0
ARC
  5
1A49A
  8
01
 10
2019.6889790166681
 20
-2693.9588848194931
 30
0.0
 40
1.5
 50
90.0
 51
180.0
  0
LINE
  5
1A49B
  8
01
 10
2143.188979016667
 20
-2693.9588848194908
 30
0.0
 11
2143.188979016667
 21
-2779.508001746995
 31
0.0
  0
ARC
  5
1A49D
  8
01
 10
2141.688979016667
 20
-2693.9588848194908
 30
0.0
 40
1.5
 50
0.0
 51
90.0
  0
LINE
  5
1A4AE
  8
01
 10
2142.6889790166679
 20
-2800.508001746995
 30
0.0
 11
2018.688979016669
 21
-2800.508001746995
 31
0.0
  0
ARC
  5
1A4B2
  8
01
 10
2018.688979016669
 20
-2801.008001746995
 30
0.0
 40
0.5
 50
90.0
 51
180.0
  0
LINE
  5
1A4B4
  8
01
 10
2018.188979016667
 20
-2814.003294197656
 30
0.0
 11
2018.1889790166681
 21
-2801.008001746995
 31
0.0
  0
LINE
  5
1A4B6
  8
01
 10
2143.188979016667
 20
-2814.003294197656
 30
0.0
 11
2143.1889790166679
 21
-2801.008001746995
 31
0.0
  0
ARC
  5
1A4B7
  8
01
 10
2142.6889790166679
 20
-2801.008001746995
 30
0.0
 40
0.5
 50
0.0
 51
90.0
  0
POLYLINE
  5
1A4BC
  8
1DIM
 10
2020.188979016667
 20
-2815.0080017469945
 30
0.0
 66
     1
 70
     8
  0
VERTEX
  8
1DIM
  5
1D904
 10
2020.19
 20
-2815.01
 30
0.000000
  70
    32
  0
VERTEX
  8
1DIM
  5
1D905
 10
2020.16
 20
-2815.01
 30
0.000000
  70
    32
  0
VERTEX
  8
1DIM
  5
1D906
 10
2020.14
 20
-2815.01
 30
0.000000
  70
    32
  0
VERTEX
  8
1DIM
  5
1D907
 10
2020.12
 20
-2815.01
 30
0.000000
  70
    32
  0
VERTEX
  8
1DIM
  5
1D908
 10
2020.09
 20
-2815.01
 30
0.000000
  70
    32
  0
VERTEX
  8
1DIM
  5
1D909
 10
2020.07
 20
-2815.00
 30
0.000000
  70
    32
  0
VERTEX
  8
1DIM
  5
1D90A
 10
2020.04
 20
-2815.00
 30
0.000000
  70
    32
  0
VERTEX
  8
1DIM
  5
1D90B
 10
2020.02
 20
-2815.00
 30
0.000000
  70
    32
  0
VERTEX
  8
1DIM
  5
1D90C
 10
2019.99
 20
-2815.00
 30
0.000000
  70
    32
  0
VERTEX
  8
1DIM
  5
1D90D
 10
2019.97
 20
-2815.00
 30
0.000000
  70
    32
  0
VERTEX
  8
1DIM
  5
1D90E
 10
2019.94
 20
-2814.99
 30
0.000000
  70
    32
  0
VERTEX
  8
1DIM
  5
1D90F
 10
2019.92
 20
-2814.99
 30
0.000000
  70
    32
  0
VERTEX
  8
1DIM
  5
1D910
 10
2019.90
 20
-2814.99
 30
0.000000
  70
    32
  0
VERTEX
  8
1DIM
  5
1D911
 10
2019.87
 20
-2814.98
 30
0.000000
  70
    32
  0
VERTEX
  8
1DIM
  5
1D912
 10
2019.85
 20
-2814.98
 30
0.000000
  70
    32
  0
VERTEX
  8
1DIM
  5
1D913
 10
2019.82
 20
-2814.98
 30
0.000000
  70
    32
  0
VERTEX
  8
1DIM
  5
1D914
 10
2019.80
 20
-2814.97
 30
0.000000
  70
    32
  0
VERTEX
  8
1DIM
  5
1D915
 10
2019.77
 20
-2814.97
 30
0.000000
  70
    32
  0
VERTEX
  8
1DIM
  5
1D916
 10
2019.75
 20
-2814.96
 30
0.000000
  70
    32
  0
VERTEX
  8
1DIM
  5
1D917
 10
2019.73
 20
-2814.96
 30
0.000000
  70
    32
  0
VERTEX
  8
1DIM
  5
1D918
 10
2019.70
 20
-2814.95
 30
0.000000
  70
    32
  0
VERTEX
  8
1DIM
  5
1D919
 10
2019.68
 20
-2814.95
 30
0.000000
  70
    32
  0
VERTEX
  8
1DIM
  5
1D91A
 10
2019.66
 20
-2814.94
 30
0.000000
  70
    32
  0
VERTEX
  8
1DIM
  5
1D91B
 10
2019.63
 20
-2814.94
 30
0.000000
  70
    32
  0
VERTEX
  8
1DIM
  5
1D91C
 10
2019.61
 20
-2814.93
 30
0.000000
  70
    32
  0
VERTEX
  8
1DIM
  5
1D91D
 10
2019.58
 20
-2814.92
 30
0.000000
  70
    32
  0
VERTEX
  8
1DIM
  5
1D91E
 10
2019.56
 20
-2814.92
 30
0.000000
  70
    32
  0
VERTEX
  8
1DIM
  5
1D91F
 10
2019.54
 20
-2814.91
 30
0.000000
  70
    32
  0
VERTEX
  8
1DIM
  5
1D920
 10
2019.52
 20
-2814.90
 30
0.000000
  70
    32
  0
VERTEX
  8
1DIM
  5
1D921
 10
2019.49
 20
-2814.89
 30
0.000000
  70
    32
  0
VERTEX
  8
1DIM
  5
1D922
 10
2019.47
 20
-2814.89
 30
0.000000
  70
    32
  0
VERTEX
  8
1DIM
  5
1D923
 10
2019.45
 20
-2814.88
 30
0.000000
  70
    32
  0
VERTEX
  8
1DIM
  5
1D924
 10
2019.42
 20
-2814.87
 30
0.000000
  70
    32
  0
VERTEX
  8
1DIM
  5
1D925
 10
2019.40
 20
-2814.86
 30
0.000000
  70
    32
  0
VERTEX
  8
1DIM
  5
1D926
 10
2019.38
 20
-2814.85
 30
0.000000
  70
    32
  0
VERTEX
  8
1DIM
  5
1D927
 10
2019.36
 20
-2814.84
 30
0.000000
  70
    32
  0
VERTEX
  8
1DIM
  5
1D928
 10
2019.33
 20
-2814.83
 30
0.000000
  70
    32
  0
VERTEX
  8
1DIM
  5
1D929
 10
2019.31
 20
-2814.82
 30
0.000000
  70
    32
  0
VERTEX
  8
1DIM
  5
1D92A
 10
2019.29
 20
-2814.81
 30
0.000000
  70
    32
  0
VERTEX
  8
1DIM
  5
1D92B
 10
2019.27
 20
-2814.80
 30
0.000000
  70
    32
  0
VERTEX
  8
1DIM
  5
1D92C
 10
2019.25
 20
-2814.79
 30
0.000000
  70
    32
  0
VERTEX
  8
1DIM
  5
1D92D
 10
2019.22
 20
-2814.78
 30
0.000000
  70
    32
  0
VERTEX
  8
1DIM
  5
1D92E
 10
2019.20
 20
-2814.77
 30
0.000000
  70
    32
  0
VERTEX
  8
1DIM
  5
1D92F
 10
2019.18
 20
-2814.76
 30
0.000000
  70
    32
  0
VERTEX
  8
1DIM
  5
1D930
 10
2019.16
 20
-2814.75
 30
0.000000
  70
    32
  0
VERTEX
  8
1DIM
  5
1D931
 10
2019.14
 20
-2814.74
 30
0.000000
  70
    32
  0
VERTEX
  8
1DIM
  5
1D932
 10
2019.12
 20
-2814.72
 30
0.000000
  70
    32
  0
VERTEX
  8
1DIM
  5
1D933
 10
2019.10
 20
-2814.71
 30
0.000000
  70
    32
  0
VERTEX
  8
1DIM
  5
1D934
 10
2019.08
 20
-2814.70
 30
0.000000
  70
    32
  0
VERTEX
  8
1DIM
  5
1D935
 10
2019.06
 20
-2814.69
 30
0.000000
  70
    32
  0
VERTEX
  8
1DIM
  5
1D936
 10
2019.04
 20
-2814.68
 30
0.000000
  70
    32
  0
VERTEX
  8
1DIM
  5
1D937
 10
2019.02
 20
-2814.66
 30
0.000000
  70
    32
  0
VERTEX
  8
1DIM
  5
1D938
 10
2019.00
 20
-2814.65
 30
0.000000
  70
    32
  0
VERTEX
  8
1DIM
  5
1D939
 10
2018.98
 20
-2814.64
 30
0.000000
  70
    32
  0
VERTEX
  8
1DIM
  5
1D93A
 10
2018.96
 20
-2814.62
 30
0.000000
  70
    32
  0
VERTEX
  8
1DIM
  5
1D93B
 10
2018.94
 20
-2814.61
 30
0.000000
  70
    32
  0
VERTEX
  8
1DIM
  5
1D93C
 10
2018.92
 20
-2814.59
 30
0.000000
  70
    32
  0
VERTEX
  8
1DIM
  5
1D93D
 10
2018.90
 20
-2814.58
 30
0.000000
  70
    32
  0
VERTEX
  8
1DIM
  5
1D93E
 10
2018.88
 20
-2814.57
 30
0.000000
  70
    32
  0
VERTEX
  8
1DIM
  5
1D93F
 10
2018.86
 20
-2814.55
 30
0.000000
  70
    32
  0
VERTEX
  8
1DIM
  5
1D940
 10
2018.85
 20
-2814.54
 30
0.000000
  70
    32
  0
VERTEX
  8
1DIM
  5
1D941
 10
2018.83
 20
-2814.52
 30
0.000000
  70
    32
  0
VERTEX
  8
1DIM
  5
1D942
 10
2018.81
 20
-2814.50
 30
0.000000
  70
    32
  0
VERTEX
  8
1DIM
  5
1D943
 10
2018.79
 20
-2814.49
 30
0.000000
  70
    32
  0
VERTEX
  8
1DIM
  5
1D944
 10
2018.77
 20
-2814.47
 30
0.000000
  70
    32
  0
VERTEX
  8
1DIM
  5
1D945
 10
2018.76
 20
-2814.46
 30
0.000000
  70
    32
  0
VERTEX
  8
1DIM
  5
1D946
 10
2018.74
 20
-2814.44
 30
0.000000
  70
    32
  0
VERTEX
  8
1DIM
  5
1D947
 10
2018.72
 20
-2814.43
 30
0.000000
  70
    32
  0
VERTEX
  8
1DIM
  5
1D948
 10
2018.71
 20
-2814.41
 30
0.000000
  70
    32
  0
VERTEX
  8
1DIM
  5
1D949
 10
2018.69
 20
-2814.39
 30
0.000000
  70
    32
  0
VERTEX
  8
1DIM
  5
1D94A
 10
2018.67
 20
-2814.38
 30
0.000000
  70
    32
  0
VERTEX
  8
1DIM
  5
1D94B
 10
2018.66
 20
-2814.36
 30
0.000000
  70
    32
  0
VERTEX
  8
1DIM
  5
1D94C
 10
2018.64
 20
-2814.34
 30
0.000000
  70
    32
  0
VERTEX
  8
1DIM
  5
1D94D
 10
2018.63
 20
-2814.32
 30
0.000000
  70
    32
  0
VERTEX
  8
1DIM
  5
1D94E
 10
2018.61
 20
-2814.31
 30
0.000000
  70
    32
  0
VERTEX
  8
1DIM
  5
1D94F
 10
2018.60
 20
-2814.29
 30
0.000000
  70
    32
  0
VERTEX
  8
1DIM
  5
1D950
 10
2018.58
 20
-2814.27
 30
0.000000
  70
    32
  0
VERTEX
  8
1DIM
  5
1D951
 10
2018.57
 20
-2814.25
 30
0.000000
  70
    32
  0
VERTEX
  8
1DIM
  5
1D952
 10
2018.55
 20
-2814.23
 30
0.000000
  70
    32
  0
VERTEX
  8
1DIM
  5
1D953
 10
2018.54
 20
-2814.22
 30
0.000000
  70
    32
  0
VERTEX
  8
1DIM
  5
1D954
 10
2018.53
 20
-2814.20
 30
0.000000
  70
    32
  0
VERTEX
  8
1DIM
  5
1D955
 10
2018.51
 20
-2814.18
 30
0.000000
  70
    32
  0
VERTEX
  8
1DIM
  5
1D956
 10
2018.50
 20
-2814.16
 30
0.000000
  70
    32
  0
VERTEX
  8
1DIM
  5
1D957
 10
2018.49
 20
-2814.14
 30
0.000000
  70
    32
  0
VERTEX
  8
1DIM
  5
1D958
 10
2018.47
 20
-2814.12
 30
0.000000
  70
    32
  0
VERTEX
  8
1DIM
  5
1D959
 10
2018.46
 20
-2814.10
 30
0.000000
  70
    32
  0
VERTEX
  8
1DIM
  5
1D95A
 10
2018.45
 20
-2814.08
 30
0.000000
  70
    32
  0
VERTEX
  8
1DIM
  5
1D95B
 10
2018.44
 20
-2814.06
 30
0.000000
  70
    32
  0
VERTEX
  8
1DIM
  5
1D95C
 10
2018.43
 20
-2814.04
 30
0.000000
  70
    32
  0
VERTEX
  8
1DIM
  5
1D95D
 10
2018.41
 20
-2814.02
 30
0.000000
  70
    32
  0
VERTEX
  8
1DIM
  5
1D95E
 10
2018.40
 20
-2814.00
 30
0.000000
  70
    32
  0
VERTEX
  8
1DIM
  5
1D95F
 10
2018.39
 20
-2813.98
 30
0.000000
  70
    32
  0
VERTEX
  8
1DIM
  5
1D960
 10
2018.38
 20
-2813.96
 30
0.000000
  70
    32
  0
VERTEX
  8
1DIM
  5
1D961
 10
2018.37
 20
-2813.94
 30
0.000000
  70
    32
  0
VERTEX
  8
1DIM
  5
1D962
 10
2018.36
 20
-2813.92
 30
0.000000
  70
    32
  0
VERTEX
  8
1DIM
  5
1D963
 10
2018.35
 20
-2813.90
 30
0.000000
  70
    32
  0
VERTEX
  8
1DIM
  5
1D964
 10
2018.34
 20
-2813.88
 30
0.000000
  70
    32
  0
VERTEX
  8
1DIM
  5
1D965
 10
2018.33
 20
-2813.86
 30
0.000000
  70
    32
  0
VERTEX
  8
1DIM
  5
1D966
 10
2018.32
 20
-2813.84
 30
0.000000
  70
    32
  0
VERTEX
  8
1DIM
  5
1D967
 10
2018.31
 20
-2813.82
 30
0.000000
  70
    32
  0
VERTEX
  8
1DIM
  5
1D968
 10
2018.31
 20
-2813.80
 30
0.000000
  70
    32
  0
VERTEX
  8
1DIM
  5
1D969
 10
2018.30
 20
-2813.78
 30
0.000000
  70
    32
  0
VERTEX
  8
1DIM
  5
1D96A
 10
2018.29
 20
-2813.76
 30
0.000000
  70
    32
  0
VERTEX
  8
1DIM
  5
1D96B
 10
2018.28
 20
-2813.73
 30
0.000000
  70
    32
  0
VERTEX
  8
1DIM
  5
1D96C
 10
2018.28
 20
-2813.71
 30
0.000000
  70
    32
  0
VERTEX
  8
1DIM
  5
1D96D
 10
2018.27
 20
-2813.69
 30
0.000000
  70
    32
  0
VERTEX
  8
1DIM
  5
1D96E
 10
2018.26
 20
-2813.67
 30
0.000000
  70
    32
  0
VERTEX
  8
1DIM
  5
1D96F
 10
2018.26
 20
-2813.65
 30
0.000000
  70
    32
  0
VERTEX
  8
1DIM
  5
1D970
 10
2018.25
 20
-2813.63
 30
0.000000
  70
    32
  0
VERTEX
  8
1DIM
  5
1D971
 10
2018.24
 20
-2813.61
 30
0.000000
  70
    32
  0
VERTEX
  8
1DIM
  5
1D972
 10
2018.24
 20
-2813.58
 30
0.000000
  70
    32
  0
VERTEX
  8
1DIM
  5
1D973
 10
2018.23
 20
-2813.56
 30
0.000000
  70
    32
  0
VERTEX
  8
1DIM
  5
1D974
 10
2018.23
 20
-2813.54
 30
0.000000
  70
    32
  0
VERTEX
  8
1DIM
  5
1D975
 10
2018.22
 20
-2813.52
 30
0.000000
  70
    32
  0
VERTEX
  8
1DIM
  5
1D976
 10
2018.22
 20
-2813.50
 30
0.000000
  70
    32
  0
VERTEX
  8
1DIM
  5
1D977
 10
2018.21
 20
-2813.47
 30
0.000000
  70
    32
  0
VERTEX
  8
1DIM
  5
1D978
 10
2018.21
 20
-2813.45
 30
0.000000
  70
    32
  0
VERTEX
  8
1DIM
  5
1D979
 10
2018.21
 20
-2813.43
 30
0.000000
  70
    32
  0
VERTEX
  8
1DIM
  5
1D97A
 10
2018.20
 20
-2813.41
 30
0.000000
  70
    32
  0
VERTEX
  8
1DIM
  5
1D97B
 10
2018.20
 20
-2813.38
 30
0.000000
  70
    32
  0
VERTEX
  8
1DIM
  5
1D97C
 10
2018.20
 20
-2813.36
 30
0.000000
  70
    32
  0
VERTEX
  8
1DIM
  5
1D97D
 10
2018.20
 20
-2813.34
 30
0.000000
  70
    32
  0
VERTEX
  8
1DIM
  5
1D97E
 10
2018.19
 20
-2813.32
 30
0.000000
  70
    32
  0
VERTEX
  8
1DIM
  5
1D97F
 10
2018.19
 20
-2813.30
 30
0.000000
  70
    32
  0
VERTEX
  8
1DIM
  5
1D980
 10
2018.19
 20
-2813.27
 30
0.000000
  70
    32
  0
VERTEX
  8
1DIM
  5
1D981
 10
2018.19
 20
-2813.25
 30
0.000000
  70
    32
  0
VERTEX
  8
1DIM
  5
1D982
 10
2018.19
 20
-2813.23
 30
0.000000
  70
    32
  0
VERTEX
  8
1DIM
  5
1D983
 10
2018.19
 20
-2813.21
 30
0.000000
  70
    32
  0
VERTEX
  8
1DIM
  5
1D984
 10
2018.19
 20
-2813.18
 30
0.000000
  70
    32
  0
SEQEND
  8
1DIM
  5
1D985
  0
LINE
  5
1A4BE
  8
01
 10
2141.1889790166701
 20
-2815.827631589877
 30
0.0
 11
2020.188979016667
 21
-2815.827631589877
 31
0.0
  0
POLYLINE
  5
1A4CC
  8
01
 10
2020.188979016667
 20
-2815.8276315898775
 30
0.0
 66
     1
 70
     8
  0
VERTEX
  8
01
  5
1D986
 10
2020.19
 20
-2815.83
 30
0.000000
  70
    32
  0
VERTEX
  8
01
  5
1D987
 10
2020.16
 20
-2815.83
 30
0.000000
  70
    32
  0
VERTEX
  8
01
  5
1D988
 10
2020.14
 20
-2815.83
 30
0.000000
  70
    32
  0
VERTEX
  8
01
  5
1D989
 10
2020.12
 20
-2815.83
 30
0.000000
  70
    32
  0
VERTEX
  8
01
  5
1D98A
 10
2020.09
 20
-2815.83
 30
0.000000
  70
    32
  0
VERTEX
  8
01
  5
1D98B
 10
2020.07
 20
-2815.82
 30
0.000000
  70
    32
  0
VERTEX
  8
01
  5
1D98C
 10
2020.04
 20
-2815.82
 30
0.000000
  70
    32
  0
VERTEX
  8
01
  5
1D98D
 10
2020.02
 20
-2815.82
 30
0.000000
  70
    32
  0
VERTEX
  8
01
  5
1D98E
 10
2019.99
 20
-2815.82
 30
0.000000
  70
    32
  0
VERTEX
  8
01
  5
1D98F
 10
2019.97
 20
-2815.82
 30
0.000000
  70
    32
  0
VERTEX
  8
01
  5
1D990
 10
2019.94
 20
-2815.81
 30
0.000000
  70
    32
  0
VERTEX
  8
01
  5
1D991
 10
2019.92
 20
-2815.81
 30
0.000000
  70
    32
  0
VERTEX
  8
01
  5
1D992
 10
2019.90
 20
-2815.81
 30
0.000000
  70
    32
  0
VERTEX
  8
01
  5
1D993
 10
2019.87
 20
-2815.80
 30
0.000000
  70
    32
  0
VERTEX
  8
01
  5
1D994
 10
2019.85
 20
-2815.80
 30
0.000000
  70
    32
  0
VERTEX
  8
01
  5
1D995
 10
2019.82
 20
-2815.80
 30
0.000000
  70
    32
  0
VERTEX
  8
01
  5
1D996
 10
2019.80
 20
-2815.79
 30
0.000000
  70
    32
  0
VERTEX
  8
01
  5
1D997
 10
2019.77
 20
-2815.79
 30
0.000000
  70
    32
  0
VERTEX
  8
01
  5
1D998
 10
2019.75
 20
-2815.78
 30
0.000000
  70
    32
  0
VERTEX
  8
01
  5
1D999
 10
2019.73
 20
-2815.78
 30
0.000000
  70
    32
  0
VERTEX
  8
01
  5
1D99A
 10
2019.70
 20
-2815.77
 30
0.000000
  70
    32
  0
VERTEX
  8
01
  5
1D99B
 10
2019.68
 20
-2815.77
 30
0.000000
  70
    32
  0
VERTEX
  8
01
  5
1D99C
 10
2019.66
 20
-2815.76
 30
0.000000
  70
    32
  0
VERTEX
  8
01
  5
1D99D
 10
2019.63
 20
-2815.76
 30
0.000000
  70
    32
  0
VERTEX
  8
01
  5
1D99E
 10
2019.61
 20
-2815.75
 30
0.000000
  70
    32
  0
VERTEX
  8
01
  5
1D99F
 10
2019.58
 20
-2815.74
 30
0.000000
  70
    32
  0
VERTEX
  8
01
  5
1D9A0
 10
2019.56
 20
-2815.74
 30
0.000000
  70
    32
  0
VERTEX
  8
01
  5
1D9A1
 10
2019.54
 20
-2815.73
 30
0.000000
  70
    32
  0
VERTEX
  8
01
  5
1D9A2
 10
2019.52
 20
-2815.72
 30
0.000000
  70
    32
  0
VERTEX
  8
01
  5
1D9A3
 10
2019.49
 20
-2815.71
 30
0.000000
  70
    32
  0
VERTEX
  8
01
  5
1D9A4
 10
2019.47
 20
-2815.71
 30
0.000000
  70
    32
  0
VERTEX
  8
01
  5
1D9A5
 10
2019.45
 20
-2815.70
 30
0.000000
  70
    32
  0
VERTEX
  8
01
  5
1D9A6
 10
2019.42
 20
-2815.69
 30
0.000000
  70
    32
  0
VERTEX
  8
01
  5
1D9A7
 10
2019.40
 20
-2815.68
 30
0.000000
  70
    32
  0
VERTEX
  8
01
  5
1D9A8
 10
2019.38
 20
-2815.67
 30
0.000000
  70
    32
  0
VERTEX
  8
01
  5
1D9A9
 10
2019.36
 20
-2815.66
 30
0.000000
  70
    32
  0
VERTEX
  8
01
  5
1D9AA
 10
2019.33
 20
-2815.65
 30
0.000000
  70
    32
  0
VERTEX
  8
01
  5
1D9AB
 10
2019.31
 20
-2815.64
 30
0.000000
  70
    32
  0
VERTEX
  8
01
  5
1D9AC
 10
2019.29
 20
-2815.63
 30
0.000000
  70
    32
  0
VERTEX
  8
01
  5
1D9AD
 10
2019.27
 20
-2815.62
 30
0.000000
  70
    32
  0
VERTEX
  8
01
  5
1D9AE
 10
2019.25
 20
-2815.61
 30
0.000000
  70
    32
  0
VERTEX
  8
01
  5
1D9AF
 10
2019.22
 20
-2815.60
 30
0.000000
  70
    32
  0
VERTEX
  8
01
  5
1D9B0
 10
2019.20
 20
-2815.59
 30
0.000000
  70
    32
  0
VERTEX
  8
01
  5
1D9B1
 10
2019.18
 20
-2815.58
 30
0.000000
  70
    32
  0
VERTEX
  8
01
  5
1D9B2
 10
2019.16
 20
-2815.57
 30
0.000000
  70
    32
  0
VERTEX
  8
01
  5
1D9B3
 10
2019.14
 20
-2815.56
 30
0.000000
  70
    32
  0
VERTEX
  8
01
  5
1D9B4
 10
2019.12
 20
-2815.54
 30
0.000000
  70
    32
  0
VERTEX
  8
01
  5
1D9B5
 10
2019.10
 20
-2815.53
 30
0.000000
  70
    32
  0
VERTEX
  8
01
  5
1D9B6
 10
2019.08
 20
-2815.52
 30
0.000000
  70
    32
  0
VERTEX
  8
01
  5
1D9B7
 10
2019.06
 20
-2815.51
 30
0.000000
  70
    32
  0
VERTEX
  8
01
  5
1D9B8
 10
2019.04
 20
-2815.49
 30
0.000000
  70
    32
  0
VERTEX
  8
01
  5
1D9B9
 10
2019.02
 20
-2815.48
 30
0.000000
  70
    32
  0
VERTEX
  8
01
  5
1D9BA
 10
2019.00
 20
-2815.47
 30
0.000000
  70
    32
  0
VERTEX
  8
01
  5
1D9BB
 10
2018.98
 20
-2815.46
 30
0.000000
  70
    32
  0
VERTEX
  8
01
  5
1D9BC
 10
2018.96
 20
-2815.44
 30
0.000000
  70
    32
  0
VERTEX
  8
01
  5
1D9BD
 10
2018.94
 20
-2815.43
 30
0.000000
  70
    32
  0
VERTEX
  8
01
  5
1D9BE
 10
2018.92
 20
-2815.41
 30
0.000000
  70
    32
  0
VERTEX
  8
01
  5
1D9BF
 10
2018.90
 20
-2815.40
 30
0.000000
  70
    32
  0
VERTEX
  8
01
  5
1D9C0
 10
2018.88
 20
-2815.38
 30
0.000000
  70
    32
  0
VERTEX
  8
01
  5
1D9C1
 10
2018.86
 20
-2815.37
 30
0.000000
  70
    32
  0
VERTEX
  8
01
  5
1D9C2
 10
2018.85
 20
-2815.36
 30
0.000000
  70
    32
  0
VERTEX
  8
01
  5
1D9C3
 10
2018.83
 20
-2815.34
 30
0.000000
  70
    32
  0
VERTEX
  8
01
  5
1D9C4
 10
2018.81
 20
-2815.32
 30
0.000000
  70
    32
  0
VERTEX
  8
01
  5
1D9C5
 10
2018.79
 20
-2815.31
 30
0.000000
  70
    32
  0
VERTEX
  8
01
  5
1D9C6
 10
2018.77
 20
-2815.29
 30
0.000000
  70
    32
  0
VERTEX
  8
01
  5
1D9C7
 10
2018.76
 20
-2815.28
 30
0.000000
  70
    32
  0
VERTEX
  8
01
  5
1D9C8
 10
2018.74
 20
-2815.26
 30
0.000000
  70
    32
  0
VERTEX
  8
01
  5
1D9C9
 10
2018.72
 20
-2815.24
 30
0.000000
  70
    32
  0
VERTEX
  8
01
  5
1D9CA
 10
2018.71
 20
-2815.23
 30
0.000000
  70
    32
  0
VERTEX
  8
01
  5
1D9CB
 10
2018.69
 20
-2815.21
 30
0.000000
  70
    32
  0
VERTEX
  8
01
  5
1D9CC
 10
2018.67
 20
-2815.19
 30
0.000000
  70
    32
  0
VERTEX
  8
01
  5
1D9CD
 10
2018.66
 20
-2815.18
 30
0.000000
  70
    32
  0
VERTEX
  8
01
  5
1D9CE
 10
2018.64
 20
-2815.16
 30
0.000000
  70
    32
  0
VERTEX
  8
01
  5
1D9CF
 10
2018.63
 20
-2815.14
 30
0.000000
  70
    32
  0
VERTEX
  8
01
  5
1D9D0
 10
2018.61
 20
-2815.13
 30
0.000000
  70
    32
  0
VERTEX
  8
01
  5
1D9D1
 10
2018.60
 20
-2815.11
 30
0.000000
  70
    32
  0
VERTEX
  8
01
  5
1D9D2
 10
2018.58
 20
-2815.09
 30
0.000000
  70
    32
  0
VERTEX
  8
01
  5
1D9D3
 10
2018.57
 20
-2815.07
 30
0.000000
  70
    32
  0
VERTEX
  8
01
  5
1D9D4
 10
2018.55
 20
-2815.05
 30
0.000000
  70
    32
  0
VERTEX
  8
01
  5
1D9D5
 10
2018.54
 20
-2815.04
 30
0.000000
  70
    32
  0
VERTEX
  8
01
  5
1D9D6
 10
2018.53
 20
-2815.02
 30
0.000000
  70
    32
  0
VERTEX
  8
01
  5
1D9D7
 10
2018.51
 20
-2815.00
 30
0.000000
  70
    32
  0
VERTEX
  8
01
  5
1D9D8
 10
2018.50
 20
-2814.98
 30
0.000000
  70
    32
  0
VERTEX
  8
01
  5
1D9D9
 10
2018.49
 20
-2814.96
 30
0.000000
  70
    32
  0
VERTEX
  8
01
  5
1D9DA
 10
2018.47
 20
-2814.94
 30
0.000000
  70
    32
  0
VERTEX
  8
01
  5
1D9DB
 10
2018.46
 20
-2814.92
 30
0.000000
  70
    32
  0
VERTEX
  8
01
  5
1D9DC
 10
2018.45
 20
-2814.90
 30
0.000000
  70
    32
  0
VERTEX
  8
01
  5
1D9DD
 10
2018.44
 20
-2814.88
 30
0.000000
  70
    32
  0
VERTEX
  8
01
  5
1D9DE
 10
2018.43
 20
-2814.86
 30
0.000000
  70
    32
  0
VERTEX
  8
01
  5
1D9DF
 10
2018.41
 20
-2814.84
 30
0.000000
  70
    32
  0
VERTEX
  8
01
  5
1D9E0
 10
2018.40
 20
-2814.82
 30
0.000000
  70
    32
  0
VERTEX
  8
01
  5
1D9E1
 10
2018.39
 20
-2814.80
 30
0.000000
  70
    32
  0
VERTEX
  8
01
  5
1D9E2
 10
2018.38
 20
-2814.78
 30
0.000000
  70
    32
  0
VERTEX
  8
01
  5
1D9E3
 10
2018.37
 20
-2814.76
 30
0.000000
  70
    32
  0
VERTEX
  8
01
  5
1D9E4
 10
2018.36
 20
-2814.74
 30
0.000000
  70
    32
  0
VERTEX
  8
01
  5
1D9E5
 10
2018.35
 20
-2814.72
 30
0.000000
  70
    32
  0
VERTEX
  8
01
  5
1D9E6
 10
2018.34
 20
-2814.70
 30
0.000000
  70
    32
  0
VERTEX
  8
01
  5
1D9E7
 10
2018.33
 20
-2814.68
 30
0.000000
  70
    32
  0
VERTEX
  8
01
  5
1D9E8
 10
2018.32
 20
-2814.66
 30
0.000000
  70
    32
  0
VERTEX
  8
01
  5
1D9E9
 10
2018.31
 20
-2814.64
 30
0.000000
  70
    32
  0
VERTEX
  8
01
  5
1D9EA
 10
2018.31
 20
-2814.62
 30
0.000000
  70
    32
  0
VERTEX
  8
01
  5
1D9EB
 10
2018.30
 20
-2814.60
 30
0.000000
  70
    32
  0
VERTEX
  8
01
  5
1D9EC
 10
2018.29
 20
-2814.58
 30
0.000000
  70
    32
  0
VERTEX
  8
01
  5
1D9ED
 10
2018.28
 20
-2814.55
 30
0.000000
  70
    32
  0
VERTEX
  8
01
  5
1D9EE
 10
2018.28
 20
-2814.53
 30
0.000000
  70
    32
  0
VERTEX
  8
01
  5
1D9EF
 10
2018.27
 20
-2814.51
 30
0.000000
  70
    32
  0
VERTEX
  8
01
  5
1D9F0
 10
2018.26
 20
-2814.49
 30
0.000000
  70
    32
  0
VERTEX
  8
01
  5
1D9F1
 10
2018.26
 20
-2814.47
 30
0.000000
  70
    32
  0
VERTEX
  8
01
  5
1D9F2
 10
2018.25
 20
-2814.45
 30
0.000000
  70
    32
  0
VERTEX
  8
01
  5
1D9F3
 10
2018.24
 20
-2814.42
 30
0.000000
  70
    32
  0
VERTEX
  8
01
  5
1D9F4
 10
2018.24
 20
-2814.40
 30
0.000000
  70
    32
  0
VERTEX
  8
01
  5
1D9F5
 10
2018.23
 20
-2814.38
 30
0.000000
  70
    32
  0
VERTEX
  8
01
  5
1D9F6
 10
2018.23
 20
-2814.36
 30
0.000000
  70
    32
  0
VERTEX
  8
01
  5
1D9F7
 10
2018.22
 20
-2814.34
 30
0.000000
  70
    32
  0
VERTEX
  8
01
  5
1D9F8
 10
2018.22
 20
-2814.32
 30
0.000000
  70
    32
  0
VERTEX
  8
01
  5
1D9F9
 10
2018.21
 20
-2814.29
 30
0.000000
  70
    32
  0
VERTEX
  8
01
  5
1D9FA
 10
2018.21
 20
-2814.27
 30
0.000000
  70
    32
  0
VERTEX
  8
01
  5
1D9FB
 10
2018.21
 20
-2814.25
 30
0.000000
  70
    32
  0
VERTEX
  8
01
  5
1D9FC
 10
2018.20
 20
-2814.23
 30
0.000000
  70
    32
  0
VERTEX
  8
01
  5
1D9FD
 10
2018.20
 20
-2814.20
 30
0.000000
  70
    32
  0
VERTEX
  8
01
  5
1D9FE
 10
2018.20
 20
-2814.18
 30
0.000000
  70
    32
  0
VERTEX
  8
01
  5
1D9FF
 10
2018.20
 20
-2814.16
 30
0.000000
  70
    32
  0
VERTEX
  8
01
  5
1DA00
 10
2018.19
 20
-2814.14
 30
0.000000
  70
    32
  0
VERTEX
  8
01
  5
1DA01
 10
2018.19
 20
-2814.12
 30
0.000000
  70
    32
  0
VERTEX
  8
01
  5
1DA02
 10
2018.19
 20
-2814.09
 30
0.000000
  70
    32
  0
VERTEX
  8
01
  5
1DA03
 10
2018.19
 20
-2814.07
 30
0.000000
  70
    32
  0
VERTEX
  8
01
  5
1DA04
 10
2018.19
 20
-2814.05
 30
0.000000
  70
    32
  0
VERTEX
  8
01
  5
1DA05
 10
2018.19
 20
-2814.03
 30
0.000000
  70
    32
  0
VERTEX
  8
01
  5
1DA06
 10
2018.19
 20
-2814.00
 30
0.000000
  70
    32
  0
SEQEND
  8
01
  5
1DA07
  0
LINE
  5
1A572
  8
01
 10
2206.747465042095
 20
-2823.4759482988379
 30
0.0
 11
2300.5722794595931
 21
-2823.4759482988379
 31
0.0
  0
ARC
  5
1A574
  8
01
 10
2300.5722794595931
 20
-2822.975948298837
 30
0.0
 40
0.5
 50
270.0
 51
0.0
  0
LINE
  5
1A577
  8
01
 10
2204.978579836104
 20
-2827.413144402497
 30
0.0
 11
2206.747465042095
 21
-2823.4759482988379
 31
0.0
  0
ARC
  5
1A578
  8
01
 10
2204.7961460968809
 20
-2827.3311814182089
 30
0.0
 40
0.2
 50
245.80679101274211
 51
335.80679101271289
  0
LINE
  5
1A579
  8
01
 10
2203.5283638076512
 20
-2826.9808557595602
 30
0.0
 11
2204.7141831125932
 21
-2827.513615157432
 31
0.0
  0
ARC
  5
1A57A
  8
01
 10
2203.733271268371
 20
-2826.5247714115039
 30
0.0
 40
0.5
 50
155.80679101271289
 51
245.80679101274211
  0
LINE
  5
1A57C
  8
1DIM
 10
2141.1889790166701
 20
-2815.0080017469891
 30
0.0
 11
2020.188979016667
 21
-2815.0080017469941
 31
0.0
  0
LINE
  5
1A57F
  8
01
 10
2209.0138402651
 20
-2813.5511839252931
 30
0.0
 11
2203.2771869203152
 21
-2826.3198639507841
 31
0.0
  0
LINE
  5
1A580
  8
01
 10
2301.072279459594
 20
-2812.969780541694
 30
0.0
 11
2301.0722794595931
 21
-2822.975948298837
 31
0.0
  0
ARC
  5
1A581
  8
01
 10
2269.094430876105
 20
-5368.8329483703747
 30
0.0
 40
2556.5570000715379
 50
89.294384490442482
 51
91.326679001451723
  0
ARC
  5
1A582
  8
01
 10
2209.9260089612112
 20
-2813.9609988467332
 30
0.0
 40
1.0
 50
91.326679001529854
 51
155.80679101271289
  0
ARC
  5
1A583
  8
01
 10
2300.572279459594
 20
-2812.969780541694
 30
0.0
 40
0.5
 50
0.0
 51
89.294384490442482
  0
LINE
  5
1A5FD
  8
01
 10
2111.6889790166688
 20
-2815.827631589877
 30
0.0
 11
2111.6889790166688
 21
-2847.3080017469961
 31
0.0
  0
LINE
  5
1A6C4
  8
1PHANTOM
 10
2137.6889790166701
 20
-2812.588223036737
 30
0.0
 11
2137.6889790166701
 21
-2918.354823922567
 31
0.0
  0
LINE
  5
1A6C5
  8
1PHANTOM
 10
2137.6889790166701
 20
-2812.588223036737
 30
0.0
 11
2023.688979016669
 21
-2812.588223036737
 31
0.0
  0
LINE
  5
1A6C7
  8
1PHANTOM
 10
2023.688979016669
 20
-2812.588223036737
 30
0.0
 11
2023.688979016669
 21
-2918.354823922567
 31
0.0
  0
LINE
  5
1A6C9
  8
1PHANTOM
 10
2137.6889790166701
 20
-2918.354823922567
 30
0.0
 11
2023.688979016669
 21
-2918.354823922567
 31
0.0
  0
LINE
  5
1B900
  8
1PHANTOM
 10
2062.6889745057319
 20
-2691.4588848194908
 30
0.0
 11
2098.6889745057351
 21
-2691.458884819489
 31
0.0
  0
LINE
  5
1B909
  8
1PHANTOM
 10
2061.6889745057329
 20
-2683.4588848194899
 30
0.0
 11
2061.6889745057329
 21
-2690.4588848194908
 31
0.0
  0
ARC
  5
1B90B
  8
1PHANTOM
 10
2062.6889745057319
 20
-2690.4588848194908
 30
0.0
 40
1.0
 50
180.0
 51
270.00000000001302
  0
LINE
  5
1B90D
  8
1PHANTOM
 10
2099.6889745057351
 20
-2683.458884819488
 30
0.0
 11
2099.6889745057351
 21
-2690.458884819489
 31
0.0
  0
ARC
  5
1B90F
  8
1PHANTOM
 10
2098.6889745057351
 20
-2690.458884819489
 30
0.0
 40
1.0
 50
270.0
 51
0.0
  0
LINE
  5
1C317
  8
1DIM
 10
2142.188979016667
 20
-2780.4607981918739
 30
0.0
 11
2019.188979016667
 21
-2780.4607981918739
 31
0.0
  0
LINE
  5
1C318
  8
01
 10
2142.188979016667
 20
-2780.508001746995
 30
0.0
 11
2019.188979016667
 21
-2780.508001746995
 31
0.0
  0
ARC
  5
1C319
  8
1DIM
 10
2142.188979016667
 20
-2779.4607981918739
 30
0.0
 40
1.0
 50
269.99999999997391
 51
0.0
  0
ARC
  5
1C31A
  8
01
 10
2142.188979016667
 20
-2779.508001746995
 30
0.0
 40
1.0
 50
269.99999999997391
 51
0.0
  0
ARC
  5
1C31B
  8
1DIM
 10
2019.188979016667
 20
-2779.4607981918748
 30
0.0
 40
1.0
 50
179.99999999997391
 51
270.00000000002598
  0
ARC
  5
1C31C
  8
01
 10
2019.188979016667
 20
-2779.508001746995
 30
0.0
 40
1.0
 50
180.00000000002601
 51
269.99999999998698
  0
CIRCLE
  5
1C31D
  8
1PHANTOM
 10
2222.0722794595849
 20
-2877.2394700314999
 30
0.0
 40
52.883300442915093
  0
LINE
  5
1C31E
  8
01
 10
2310.0722794595881
 20
-2859.5759482988428
 30
0.0
 11
2286.5723023245059
 21
-2859.5759482988428
 31
0.0
  0
LINE
  5
1C31F
  8
1PHANTOM
 10
2310.0722794595881
 20
-2878.7759482988431
 30
0.0
 11
2302.5722794595872
 21
-2878.7759482988431
 31
0.0
  0
ARC
  5
1C320
  8
1PHANTOM
 10
2302.5722794595872
 20
-2878.2759482988431
 30
0.0
 40
0.5
 50
180.0
 51
270.0
  0
LINE
  5
1C326
  8
1PHANTOM
 10
2302.0722794595872
 20
-2878.2759482988431
 30
0.0
 11
2302.0722794595872
 21
-2859.5759482988428
 31
0.0
  0
LINE
  5
1C32D
  8
1CENTER
 10
2341.9486492309761
 20
-2869.575948298841
 30
0.0
 11
2302.187626298271
 21
-2869.5759482988428
 31
0.0
  0
LINE
  5
1C37D
  8
1CENTER
 10
2341.9486492309761
 20
-2841.575948298831
 30
0.0
 11
2302.187626298271
 21
-2841.5759482988342
 31
0.0
  0
LINE
  5
1C37E
  8
1PHANTOM
 10
2306.0722887668649
 20
-2845.3759459720391
 30
0.0
 11
2306.07230645052
 21
-2837.7759459720551
 31
0.0
  0
LINE
  5
1C37F
  8
1PHANTOM
 10
2306.0722958785168
 20
-2842.0759006110661
 30
0.0
 11
2307.0722982053098
 21
-2841.0759032378692
 31
0.0
  0
LINE
  5
1C380
  8
1PHANTOM
 10
2306.0722887668649
 20
-2845.3759459720391
 30
0.0
 11
2307.0722887668649
 21
-2845.3759482988339
 31
0.0
  0
LINE
  5
1C381
  8
1PHANTOM
 10
2306.07230645052
 20
-2837.7759459720551
 30
0.0
 11
2307.0722887668649
 21
-2837.7759482988072
 31
0.0
  0
LINE
  5
1C382
  8
1PHANTOM
 10
2333.9722995879602
 20
-2840.481624484838
 30
0.0
 11
2334.77229502201
 21
-2842.443959573714
 31
0.0
  0
LINE
  5
1C383
  8
1PHANTOM
 10
2334.77229502201
 20
-2842.443959573714
 30
0.0
 11
2335.0840648782628
 21
-2841.855682998671
 31
0.0
  0
LINE
  5
1C38D
  8
1PHANTOM
 10
2333.1722939684059
 20
-2842.8967736781201
 30
0.0
 11
2333.355058111033
 21
-2842.3450242143172
 31
0.0
  0
LINE
  5
1C38E
  8
1PHANTOM
 10
2329.9722923879958
 20
-2843.5759948347318
 30
0.0
 11
2330.0722935513932
 21
-2843.0759948347318
 31
0.0
  0
LINE
  5
1C390
  8
1PHANTOM
 10
2331.5722929147992
 20
-2843.3495877825262
 30
0.0
 11
2331.7015636124279
 21
-2842.8129940472559
 31
0.0
  0
LINE
  5
1C391
  8
1PHANTOM
 10
2332.259531129213
 20
-2840.496909431939
 30
0.0
 11
2332.372300641563
 21
-2840.0288109767889
 31
0.0
  0
LINE
  5
1C392
  8
1PHANTOM
 10
2329.0723005317768
 20
-2840.0759948347318
 30
0.0
 11
2329.1723016951742
 21
-2839.5759948347318
 31
0.0
  0
LINE
  5
1C393
  8
1PHANTOM
 10
2330.6723005317758
 20
-2840.0759948347318
 30
0.0
 11
2330.772301695175
 21
-2839.5759948347318
 31
0.0
  0
LINE
  5
1C394
  8
1PHANTOM
 10
2333.8208637915191
 20
-2840.938796325469
 30
0.0
 11
2333.9722995879602
 21
-2840.481624484838
 31
0.0
  0
LINE
  5
1C395
  8
1PHANTOM
 10
2332.372300641563
 20
-2840.0288109767889
 30
0.0
 11
2333.1722939684059
 21
-2842.8967736781201
 31
0.0
  0
LINE
  5
1C396
  8
1PHANTOM
 10
2329.1723016951742
 20
-2839.5759948347318
 30
0.0
 11
2329.9722923879958
 21
-2843.5759948347318
 31
0.0
  0
LINE
  5
1C397
  8
1PHANTOM
 10
2330.772301695175
 20
-2839.5759948347318
 30
0.0
 11
2331.5722929147992
 21
-2843.3495877825262
 31
0.0
  0
LINE
  5
1C3A9
  8
1PHANTOM
 10
2336.0722970416368
 20
-2841.5759948347318
 30
0.0
 11
2330.7723005317721
 21
-2840.0759948347331
 31
0.0
  0
LINE
  5
1C3AA
  8
1PHANTOM
 10
2330.7723005317721
 20
-2840.0759948347331
 30
0.0
 11
2307.0722887668649
 21
-2840.0759948347359
 31
0.0
  0
LINE
  5
1C3AB
  8
1PHANTOM
 10
2336.0722970416368
 20
-2841.5759948347318
 30
0.0
 11
2330.7722935513898
 21
-2843.075994834729
 31
0.0
  0
LINE
  5
1C3AC
  8
1PHANTOM
 10
2330.7722935513898
 20
-2843.075994834729
 30
0.0
 11
2307.0722887668649
 21
-2843.0759948347359
 31
0.0
  0
LINE
  5
1C3AD
  8
1PHANTOM
 10
2306.0723051855821
 20
-2838.0759482988328
 30
0.0
 11
2304.9723016953858
 21
-2838.0759482988328
 31
0.0
  0
ARC
  5
1C3AE
  8
1PHANTOM
 10
2304.9723016953858
 20
-2839.575948298831
 30
0.0
 40
1.5
 50
90.0
 51
179.99986668447491
  0
LINE
  5
1C3AF
  8
1PHANTOM
 10
2306.0722888980181
 20
-2845.0759482988328
 30
0.0
 11
2304.9722923882068
 21
-2845.0759482988328
 31
0.0
  0
LINE
  5
1C3B0
  8
1PHANTOM
 10
2303.4723016953899
 20
-2839.5759448086419
 30
0.0
 11
2303.47229238821
 21
-2843.575944808641
 31
0.0
  0
ARC
  5
1C3B1
  8
1PHANTOM
 10
2304.9722923882068
 20
-2843.575948298831
 30
0.0
 40
1.5
 50
179.99986668447491
 51
270.0
  0
LINE
  5
1C3B2
  8
1PHANTOM
 10
2307.0722887668649
 20
-2845.3759482988339
 30
0.0
 11
2307.0722887668649
 21
-2837.7759482988072
 31
0.0
  0
LINE
  5
1C3CC
  8
01
 10
2271.5723023245109
 20
-2823.475948298837
 30
0.0
 11
2271.5723023245041
 21
-2835.7759482988399
 31
0.0
  0
LINE
  5
1C6DD
  8
1CENTER
 10
2294.0722794595872
 20
-2852.3806505619759
 30
0.0
 11
2294.0722794595872
 21
-2876.3435276749569
 31
0.0
  0
LINE
  5
1C6DE
  8
1PHANTOM
 10
2297.7722794595952
 20
-2872.075956907986
 30
0.0
 11
2290.372279459601
 21
-2872.075939689706
 31
0.0
  0
LINE
  5
1C6DF
  8
1PHANTOM
 10
2290.372279459601
 20
-2873.075948298851
 30
0.0
 11
2297.7722794595952
 21
-2873.0759482988369
 31
0.0
  0
LINE
  5
1C6E0
  8
1PHANTOM
 10
2290.372279459601
 20
-2872.075939689706
 30
0.0
 11
2290.372279459601
 21
-2873.075948298851
 31
0.0
  0
LINE
  5
1C6E1
  8
1PHANTOM
 10
2297.7722794595952
 20
-2872.075956907986
 30
0.0
 11
2297.7722794595952
 21
-2873.0759482988369
 31
0.0
  0
LINE
  5
1C6E2
  8
1PHANTOM
 10
2296.0722794595881
 20
-2853.4259482988432
 30
0.0
 11
2296.0722794595881
 21
-2872.0759529524339
 31
0.0
  0
LINE
  5
1C6E3
  8
1PHANTOM
 10
2296.0722794595881
 20
-2853.4259482988432
 30
0.0
 11
2295.7222794595882
 21
-2853.0759482988419
 31
0.0
  0
LINE
  5
1C6E4
  8
1PHANTOM
 10
2295.7222794595882
 20
-2853.0759482988419
 30
0.0
 11
2292.422279459588
 21
-2853.0759482988419
 31
0.0
  0
LINE
  5
1C6E5
  8
1PHANTOM
 10
2297.5722794595881
 20
-2873.0759482988428
 30
0.0
 11
2297.5722794595881
 21
-2873.6759482988432
 31
0.0
  0
LINE
  5
1C6E6
  8
1PHANTOM
 10
2292.422279459588
 20
-2853.0759482988419
 30
0.0
 11
2292.0722794595881
 21
-2853.4259482988432
 31
0.0
  0
ARC
  5
1C6E7
  8
1PHANTOM
 10
2295.5722794595881
 20
-2873.6759482988409
 30
0.0
 40
2.0
 50
270.0
 51
0.0
  0
LINE
  5
1C6E8
  8
1PHANTOM
 10
2292.0722794595881
 20
-2853.4259482988432
 30
0.0
 11
2292.0722794595881
 21
-2872.0759436452572
 31
0.0
  0
LINE
  5
1C6E9
  8
1PHANTOM
 10
2295.5722794595881
 20
-2875.6759482988432
 30
0.0
 11
2292.5722794595881
 21
-2875.6759482988432
 31
0.0
  0
ARC
  5
1C6EA
  8
1PHANTOM
 10
2292.5722794595881
 20
-2873.6759482988409
 30
0.0
 40
2.0
 50
180.0
 51
270.0
  0
LINE
  5
1C6EB
  8
1PHANTOM
 10
2290.5722794595881
 20
-2873.0759482988428
 30
0.0
 11
2290.5722794595881
 21
-2873.6759482988432
 31
0.0
  0
LINE
  5
1C6EC
  8
1PHANTOM
 10
2295.7222794595882
 20
-2853.0759482988419
 30
0.0
 11
2295.7222794595882
 21
-2872.075952138056
 31
0.0
  0
LINE
  5
1C6ED
  8
1PHANTOM
 10
2292.4222794595871
 20
-2853.0759482988419
 30
0.0
 11
2292.422279459588
 21
-2872.0759444596351
 31
0.0
  0
LINE
  5
1C6EE
  8
1PHANTOM
 10
2296.0722794595881
 20
-2853.4259482988432
 30
0.0
 11
2292.0722794595881
 21
-2853.4259482988432
 31
0.0
  0
CIRCLE
  5
1C6F1
  8
1PHANTOM
 10
2068.1889790166688
 20
-2857.8080017469961
 30
0.0
 40
2.24108843693466
  0
LINE
  5
1C6F2
  8
1CENTER
 10
2068.1889790166688
 20
-2860.8080017469961
 30
0.0
 11
2068.1889790166688
 21
-2854.8080017469961
 31
0.0
  0
LINE
  5
1C6F3
  8
1CENTER
 10
2065.1889790166688
 20
-2857.8080017469961
 30
0.0
 11
2071.1889790166688
 21
-2857.8080017469961
 31
0.0
  0
CIRCLE
  5
1C6F4
  8
1PHANTOM
 10
2093.188979016667
 20
-2857.8080017469961
 30
0.0
 40
2.24108843693466
  0
LINE
  5
1C6F5
  8
1CENTER
 10
2093.188979016667
 20
-2860.8080017469961
 30
0.0
 11
2093.188979016667
 21
-2854.8080017469961
 31
0.0
  0
LINE
  5
1C6F6
  8
1CENTER
 10
2090.188979016667
 20
-2857.8080017469961
 30
0.0
 11
2096.188979016667
 21
-2857.8080017469961
 31
0.0
  0
LINE
  5
1C6F7
  8
01
 10
2078.6889790166661
 20
-2827.5580017469802
 30
0.0
 11
2082.688979016667
 21
-2827.5580017469802
 31
0.0
  0
LINE
  5
1C6F8
  8
01
 10
2078.688979016667
 20
-2832.0580017469961
 30
0.0
 11
2082.688979016667
 21
-2832.0580017469961
 31
0.0
  0
LINE
  5
1C6F9
  8
1CENTER
 10
2080.688979016667
 20
-2832.8080017469852
 30
0.0
 11
2080.688979016667
 21
-2826.8080017469852
 31
0.0
  0
LINE
  5
1C6FA
  8
1CENTER
 10
2077.688979016667
 20
-2829.8080017469861
 30
0.0
 11
2083.688979016667
 21
-2829.8080017469861
 31
0.0
  0
POLYLINE
  5
1C6FB
  8
1DIM
 10
2141.1889790166701
 20
-2815.0080017469945
 30
0.0
 66
     1
 70
     8
  0
VERTEX
  8
1DIM
  5
1DA08
 10
2141.19
 20
-2815.01
 30
0.000000
  70
    32
  0
VERTEX
  8
1DIM
  5
1DA09
 10
2141.21
 20
-2815.01
 30
0.000000
  70
    32
  0
VERTEX
  8
1DIM
  5
1DA0A
 10
2141.24
 20
-2815.01
 30
0.000000
  70
    32
  0
VERTEX
  8
1DIM
  5
1DA0B
 10
2141.26
 20
-2815.01
 30
0.000000
  70
    32
  0
VERTEX
  8
1DIM
  5
1DA0C
 10
2141.29
 20
-2815.01
 30
0.000000
  70
    32
  0
VERTEX
  8
1DIM
  5
1DA0D
 10
2141.31
 20
-2815.00
 30
0.000000
  70
    32
  0
VERTEX
  8
1DIM
  5
1DA0E
 10
2141.34
 20
-2815.00
 30
0.000000
  70
    32
  0
VERTEX
  8
1DIM
  5
1DA0F
 10
2141.36
 20
-2815.00
 30
0.000000
  70
    32
  0
VERTEX
  8
1DIM
  5
1DA10
 10
2141.39
 20
-2815.00
 30
0.000000
  70
    32
  0
VERTEX
  8
1DIM
  5
1DA11
 10
2141.41
 20
-2815.00
 30
0.000000
  70
    32
  0
VERTEX
  8
1DIM
  5
1DA12
 10
2141.43
 20
-2814.99
 30
0.000000
  70
    32
  0
VERTEX
  8
1DIM
  5
1DA13
 10
2141.46
 20
-2814.99
 30
0.000000
  70
    32
  0
VERTEX
  8
1DIM
  5
1DA14
 10
2141.48
 20
-2814.99
 30
0.000000
  70
    32
  0
VERTEX
  8
1DIM
  5
1DA15
 10
2141.51
 20
-2814.98
 30
0.000000
  70
    32
  0
VERTEX
  8
1DIM
  5
1DA16
 10
2141.53
 20
-2814.98
 30
0.000000
  70
    32
  0
VERTEX
  8
1DIM
  5
1DA17
 10
2141.56
 20
-2814.98
 30
0.000000
  70
    32
  0
VERTEX
  8
1DIM
  5
1DA18
 10
2141.58
 20
-2814.97
 30
0.000000
  70
    32
  0
VERTEX
  8
1DIM
  5
1DA19
 10
2141.60
 20
-2814.97
 30
0.000000
  70
    32
  0
VERTEX
  8
1DIM
  5
1DA1A
 10
2141.63
 20
-2814.96
 30
0.000000
  70
    32
  0
VERTEX
  8
1DIM
  5
1DA1B
 10
2141.65
 20
-2814.96
 30
0.000000
  70
    32
  0
VERTEX
  8
1DIM
  5
1DA1C
 10
2141.67
 20
-2814.95
 30
0.000000
  70
    32
  0
VERTEX
  8
1DIM
  5
1DA1D
 10
2141.70
 20
-2814.95
 30
0.000000
  70
    32
  0
VERTEX
  8
1DIM
  5
1DA1E
 10
2141.72
 20
-2814.94
 30
0.000000
  70
    32
  0
VERTEX
  8
1DIM
  5
1DA1F
 10
2141.75
 20
-2814.94
 30
0.000000
  70
    32
  0
VERTEX
  8
1DIM
  5
1DA20
 10
2141.77
 20
-2814.93
 30
0.000000
  70
    32
  0
VERTEX
  8
1DIM
  5
1DA21
 10
2141.79
 20
-2814.92
 30
0.000000
  70
    32
  0
VERTEX
  8
1DIM
  5
1DA22
 10
2141.82
 20
-2814.92
 30
0.000000
  70
    32
  0
VERTEX
  8
1DIM
  5
1DA23
 10
2141.84
 20
-2814.91
 30
0.000000
  70
    32
  0
VERTEX
  8
1DIM
  5
1DA24
 10
2141.86
 20
-2814.90
 30
0.000000
  70
    32
  0
VERTEX
  8
1DIM
  5
1DA25
 10
2141.89
 20
-2814.89
 30
0.000000
  70
    32
  0
VERTEX
  8
1DIM
  5
1DA26
 10
2141.91
 20
-2814.89
 30
0.000000
  70
    32
  0
VERTEX
  8
1DIM
  5
1DA27
 10
2141.93
 20
-2814.88
 30
0.000000
  70
    32
  0
VERTEX
  8
1DIM
  5
1DA28
 10
2141.95
 20
-2814.87
 30
0.000000
  70
    32
  0
VERTEX
  8
1DIM
  5
1DA29
 10
2141.98
 20
-2814.86
 30
0.000000
  70
    32
  0
VERTEX
  8
1DIM
  5
1DA2A
 10
2142.00
 20
-2814.85
 30
0.000000
  70
    32
  0
VERTEX
  8
1DIM
  5
1DA2B
 10
2142.02
 20
-2814.84
 30
0.000000
  70
    32
  0
VERTEX
  8
1DIM
  5
1DA2C
 10
2142.04
 20
-2814.83
 30
0.000000
  70
    32
  0
VERTEX
  8
1DIM
  5
1DA2D
 10
2142.07
 20
-2814.82
 30
0.000000
  70
    32
  0
VERTEX
  8
1DIM
  5
1DA2E
 10
2142.09
 20
-2814.81
 30
0.000000
  70
    32
  0
VERTEX
  8
1DIM
  5
1DA2F
 10
2142.11
 20
-2814.80
 30
0.000000
  70
    32
  0
VERTEX
  8
1DIM
  5
1DA30
 10
2142.13
 20
-2814.79
 30
0.000000
  70
    32
  0
VERTEX
  8
1DIM
  5
1DA31
 10
2142.15
 20
-2814.78
 30
0.000000
  70
    32
  0
VERTEX
  8
1DIM
  5
1DA32
 10
2142.17
 20
-2814.77
 30
0.000000
  70
    32
  0
VERTEX
  8
1DIM
  5
1DA33
 10
2142.20
 20
-2814.76
 30
0.000000
  70
    32
  0
VERTEX
  8
1DIM
  5
1DA34
 10
2142.22
 20
-2814.75
 30
0.000000
  70
    32
  0
VERTEX
  8
1DIM
  5
1DA35
 10
2142.24
 20
-2814.74
 30
0.000000
  70
    32
  0
VERTEX
  8
1DIM
  5
1DA36
 10
2142.26
 20
-2814.72
 30
0.000000
  70
    32
  0
VERTEX
  8
1DIM
  5
1DA37
 10
2142.28
 20
-2814.71
 30
0.000000
  70
    32
  0
VERTEX
  8
1DIM
  5
1DA38
 10
2142.30
 20
-2814.70
 30
0.000000
  70
    32
  0
VERTEX
  8
1DIM
  5
1DA39
 10
2142.32
 20
-2814.69
 30
0.000000
  70
    32
  0
VERTEX
  8
1DIM
  5
1DA3A
 10
2142.34
 20
-2814.68
 30
0.000000
  70
    32
  0
VERTEX
  8
1DIM
  5
1DA3B
 10
2142.36
 20
-2814.66
 30
0.000000
  70
    32
  0
VERTEX
  8
1DIM
  5
1DA3C
 10
2142.38
 20
-2814.65
 30
0.000000
  70
    32
  0
VERTEX
  8
1DIM
  5
1DA3D
 10
2142.40
 20
-2814.64
 30
0.000000
  70
    32
  0
VERTEX
  8
1DIM
  5
1DA3E
 10
2142.42
 20
-2814.62
 30
0.000000
  70
    32
  0
VERTEX
  8
1DIM
  5
1DA3F
 10
2142.44
 20
-2814.61
 30
0.000000
  70
    32
  0
VERTEX
  8
1DIM
  5
1DA40
 10
2142.46
 20
-2814.59
 30
0.000000
  70
    32
  0
VERTEX
  8
1DIM
  5
1DA41
 10
2142.48
 20
-2814.58
 30
0.000000
  70
    32
  0
VERTEX
  8
1DIM
  5
1DA42
 10
2142.50
 20
-2814.57
 30
0.000000
  70
    32
  0
VERTEX
  8
1DIM
  5
1DA43
 10
2142.51
 20
-2814.55
 30
0.000000
  70
    32
  0
VERTEX
  8
1DIM
  5
1DA44
 10
2142.53
 20
-2814.54
 30
0.000000
  70
    32
  0
VERTEX
  8
1DIM
  5
1DA45
 10
2142.55
 20
-2814.52
 30
0.000000
  70
    32
  0
VERTEX
  8
1DIM
  5
1DA46
 10
2142.57
 20
-2814.50
 30
0.000000
  70
    32
  0
VERTEX
  8
1DIM
  5
1DA47
 10
2142.59
 20
-2814.49
 30
0.000000
  70
    32
  0
VERTEX
  8
1DIM
  5
1DA48
 10
2142.60
 20
-2814.47
 30
0.000000
  70
    32
  0
VERTEX
  8
1DIM
  5
1DA49
 10
2142.62
 20
-2814.46
 30
0.000000
  70
    32
  0
VERTEX
  8
1DIM
  5
1DA4A
 10
2142.64
 20
-2814.44
 30
0.000000
  70
    32
  0
VERTEX
  8
1DIM
  5
1DA4B
 10
2142.65
 20
-2814.43
 30
0.000000
  70
    32
  0
VERTEX
  8
1DIM
  5
1DA4C
 10
2142.67
 20
-2814.41
 30
0.000000
  70
    32
  0
VERTEX
  8
1DIM
  5
1DA4D
 10
2142.69
 20
-2814.39
 30
0.000000
  70
    32
  0
VERTEX
  8
1DIM
  5
1DA4E
 10
2142.70
 20
-2814.38
 30
0.000000
  70
    32
  0
VERTEX
  8
1DIM
  5
1DA4F
 10
2142.72
 20
-2814.36
 30
0.000000
  70
    32
  0
VERTEX
  8
1DIM
  5
1DA50
 10
2142.73
 20
-2814.34
 30
0.000000
  70
    32
  0
VERTEX
  8
1DIM
  5
1DA51
 10
2142.75
 20
-2814.32
 30
0.000000
  70
    32
  0
VERTEX
  8
1DIM
  5
1DA52
 10
2142.77
 20
-2814.31
 30
0.000000
  70
    32
  0
VERTEX
  8
1DIM
  5
1DA53
 10
2142.78
 20
-2814.29
 30
0.000000
  70
    32
  0
VERTEX
  8
1DIM
  5
1DA54
 10
2142.80
 20
-2814.27
 30
0.000000
  70
    32
  0
VERTEX
  8
1DIM
  5
1DA55
 10
2142.81
 20
-2814.25
 30
0.000000
  70
    32
  0
VERTEX
  8
1DIM
  5
1DA56
 10
2142.82
 20
-2814.23
 30
0.000000
  70
    32
  0
VERTEX
  8
1DIM
  5
1DA57
 10
2142.84
 20
-2814.22
 30
0.000000
  70
    32
  0
VERTEX
  8
1DIM
  5
1DA58
 10
2142.85
 20
-2814.20
 30
0.000000
  70
    32
  0
VERTEX
  8
1DIM
  5
1DA59
 10
2142.87
 20
-2814.18
 30
0.000000
  70
    32
  0
VERTEX
  8
1DIM
  5
1DA5A
 10
2142.88
 20
-2814.16
 30
0.000000
  70
    32
  0
VERTEX
  8
1DIM
  5
1DA5B
 10
2142.89
 20
-2814.14
 30
0.000000
  70
    32
  0
VERTEX
  8
1DIM
  5
1DA5C
 10
2142.90
 20
-2814.12
 30
0.000000
  70
    32
  0
VERTEX
  8
1DIM
  5
1DA5D
 10
2142.92
 20
-2814.10
 30
0.000000
  70
    32
  0
VERTEX
  8
1DIM
  5
1DA5E
 10
2142.93
 20
-2814.08
 30
0.000000
  70
    32
  0
VERTEX
  8
1DIM
  5
1DA5F
 10
2142.94
 20
-2814.06
 30
0.000000
  70
    32
  0
VERTEX
  8
1DIM
  5
1DA60
 10
2142.95
 20
-2814.04
 30
0.000000
  70
    32
  0
VERTEX
  8
1DIM
  5
1DA61
 10
2142.96
 20
-2814.02
 30
0.000000
  70
    32
  0
VERTEX
  8
1DIM
  5
1DA62
 10
2142.98
 20
-2814.00
 30
0.000000
  70
    32
  0
VERTEX
  8
1DIM
  5
1DA63
 10
2142.99
 20
-2813.98
 30
0.000000
  70
    32
  0
VERTEX
  8
1DIM
  5
1DA64
 10
2143.00
 20
-2813.96
 30
0.000000
  70
    32
  0
VERTEX
  8
1DIM
  5
1DA65
 10
2143.01
 20
-2813.94
 30
0.000000
  70
    32
  0
VERTEX
  8
1DIM
  5
1DA66
 10
2143.02
 20
-2813.92
 30
0.000000
  70
    32
  0
VERTEX
  8
1DIM
  5
1DA67
 10
2143.03
 20
-2813.90
 30
0.000000
  70
    32
  0
VERTEX
  8
1DIM
  5
1DA68
 10
2143.04
 20
-2813.88
 30
0.000000
  70
    32
  0
VERTEX
  8
1DIM
  5
1DA69
 10
2143.05
 20
-2813.86
 30
0.000000
  70
    32
  0
VERTEX
  8
1DIM
  5
1DA6A
 10
2143.05
 20
-2813.84
 30
0.000000
  70
    32
  0
VERTEX
  8
1DIM
  5
1DA6B
 10
2143.06
 20
-2813.82
 30
0.000000
  70
    32
  0
VERTEX
  8
1DIM
  5
1DA6C
 10
2143.07
 20
-2813.80
 30
0.000000
  70
    32
  0
VERTEX
  8
1DIM
  5
1DA6D
 10
2143.08
 20
-2813.78
 30
0.000000
  70
    32
  0
VERTEX
  8
1DIM
  5
1DA6E
 10
2143.09
 20
-2813.76
 30
0.000000
  70
    32
  0
VERTEX
  8
1DIM
  5
1DA6F
 10
2143.10
 20
-2813.73
 30
0.000000
  70
    32
  0
VERTEX
  8
1DIM
  5
1DA70
 10
2143.10
 20
-2813.71
 30
0.000000
  70
    32
  0
VERTEX
  8
1DIM
  5
1DA71
 10
2143.11
 20
-2813.69
 30
0.000000
  70
    32
  0
VERTEX
  8
1DIM
  5
1DA72
 10
2143.12
 20
-2813.67
 30
0.000000
  70
    32
  0
VERTEX
  8
1DIM
  5
1DA73
 10
2143.12
 20
-2813.65
 30
0.000000
  70
    32
  0
VERTEX
  8
1DIM
  5
1DA74
 10
2143.13
 20
-2813.63
 30
0.000000
  70
    32
  0
VERTEX
  8
1DIM
  5
1DA75
 10
2143.13
 20
-2813.61
 30
0.000000
  70
    32
  0
VERTEX
  8
1DIM
  5
1DA76
 10
2143.14
 20
-2813.58
 30
0.000000
  70
    32
  0
VERTEX
  8
1DIM
  5
1DA77
 10
2143.15
 20
-2813.56
 30
0.000000
  70
    32
  0
VERTEX
  8
1DIM
  5
1DA78
 10
2143.15
 20
-2813.54
 30
0.000000
  70
    32
  0
VERTEX
  8
1DIM
  5
1DA79
 10
2143.16
 20
-2813.52
 30
0.000000
  70
    32
  0
VERTEX
  8
1DIM
  5
1DA7A
 10
2143.16
 20
-2813.50
 30
0.000000
  70
    32
  0
VERTEX
  8
1DIM
  5
1DA7B
 10
2143.16
 20
-2813.47
 30
0.000000
  70
    32
  0
VERTEX
  8
1DIM
  5
1DA7C
 10
2143.17
 20
-2813.45
 30
0.000000
  70
    32
  0
VERTEX
  8
1DIM
  5
1DA7D
 10
2143.17
 20
-2813.43
 30
0.000000
  70
    32
  0
VERTEX
  8
1DIM
  5
1DA7E
 10
2143.17
 20
-2813.41
 30
0.000000
  70
    32
  0
VERTEX
  8
1DIM
  5
1DA7F
 10
2143.18
 20
-2813.38
 30
0.000000
  70
    32
  0
VERTEX
  8
1DIM
  5
1DA80
 10
2143.18
 20
-2813.36
 30
0.000000
  70
    32
  0
VERTEX
  8
1DIM
  5
1DA81
 10
2143.18
 20
-2813.34
 30
0.000000
  70
    32
  0
VERTEX
  8
1DIM
  5
1DA82
 10
2143.18
 20
-2813.32
 30
0.000000
  70
    32
  0
VERTEX
  8
1DIM
  5
1DA83
 10
2143.19
 20
-2813.30
 30
0.000000
  70
    32
  0
VERTEX
  8
1DIM
  5
1DA84
 10
2143.19
 20
-2813.27
 30
0.000000
  70
    32
  0
VERTEX
  8
1DIM
  5
1DA85
 10
2143.19
 20
-2813.25
 30
0.000000
  70
    32
  0
VERTEX
  8
1DIM
  5
1DA86
 10
2143.19
 20
-2813.23
 30
0.000000
  70
    32
  0
VERTEX
  8
1DIM
  5
1DA87
 10
2143.19
 20
-2813.21
 30
0.000000
  70
    32
  0
VERTEX
  8
1DIM
  5
1DA88
 10
2143.19
 20
-2813.18
 30
0.000000
  70
    32
  0
SEQEND
  8
1DIM
  5
1DA89
  0
POLYLINE
  5
1C6FD
  8
01
 10
2141.1889790166701
 20
-2815.8276315898775
 30
0.0
 66
     1
 70
     8
  0
VERTEX
  8
01
  5
1DA8A
 10
2141.19
 20
-2815.83
 30
0.000000
  70
    32
  0
VERTEX
  8
01
  5
1DA8B
 10
2141.21
 20
-2815.83
 30
0.000000
  70
    32
  0
VERTEX
  8
01
  5
1DA8C
 10
2141.24
 20
-2815.83
 30
0.000000
  70
    32
  0
VERTEX
  8
01
  5
1DA8D
 10
2141.26
 20
-2815.83
 30
0.000000
  70
    32
  0
VERTEX
  8
01
  5
1DA8E
 10
2141.29
 20
-2815.83
 30
0.000000
  70
    32
  0
VERTEX
  8
01
  5
1DA8F
 10
2141.31
 20
-2815.82
 30
0.000000
  70
    32
  0
VERTEX
  8
01
  5
1DA90
 10
2141.34
 20
-2815.82
 30
0.000000
  70
    32
  0
VERTEX
  8
01
  5
1DA91
 10
2141.36
 20
-2815.82
 30
0.000000
  70
    32
  0
VERTEX
  8
01
  5
1DA92
 10
2141.39
 20
-2815.82
 30
0.000000
  70
    32
  0
VERTEX
  8
01
  5
1DA93
 10
2141.41
 20
-2815.82
 30
0.000000
  70
    32
  0
VERTEX
  8
01
  5
1DA94
 10
2141.43
 20
-2815.81
 30
0.000000
  70
    32
  0
VERTEX
  8
01
  5
1DA95
 10
2141.46
 20
-2815.81
 30
0.000000
  70
    32
  0
VERTEX
  8
01
  5
1DA96
 10
2141.48
 20
-2815.81
 30
0.000000
  70
    32
  0
VERTEX
  8
01
  5
1DA97
 10
2141.51
 20
-2815.80
 30
0.000000
  70
    32
  0
VERTEX
  8
01
  5
1DA98
 10
2141.53
 20
-2815.80
 30
0.000000
  70
    32
  0
VERTEX
  8
01
  5
1DA99
 10
2141.56
 20
-2815.80
 30
0.000000
  70
    32
  0
VERTEX
  8
01
  5
1DA9A
 10
2141.58
 20
-2815.79
 30
0.000000
  70
    32
  0
VERTEX
  8
01
  5
1DA9B
 10
2141.60
 20
-2815.79
 30
0.000000
  70
    32
  0
VERTEX
  8
01
  5
1DA9C
 10
2141.63
 20
-2815.78
 30
0.000000
  70
    32
  0
VERTEX
  8
01
  5
1DA9D
 10
2141.65
 20
-2815.78
 30
0.000000
  70
    32
  0
VERTEX
  8
01
  5
1DA9E
 10
2141.67
 20
-2815.77
 30
0.000000
  70
    32
  0
VERTEX
  8
01
  5
1DA9F
 10
2141.70
 20
-2815.77
 30
0.000000
  70
    32
  0
VERTEX
  8
01
  5
1DAA0
 10
2141.72
 20
-2815.76
 30
0.000000
  70
    32
  0
VERTEX
  8
01
  5
1DAA1
 10
2141.75
 20
-2815.76
 30
0.000000
  70
    32
  0
VERTEX
  8
01
  5
1DAA2
 10
2141.77
 20
-2815.75
 30
0.000000
  70
    32
  0
VERTEX
  8
01
  5
1DAA3
 10
2141.79
 20
-2815.74
 30
0.000000
  70
    32
  0
VERTEX
  8
01
  5
1DAA4
 10
2141.82
 20
-2815.74
 30
0.000000
  70
    32
  0
VERTEX
  8
01
  5
1DAA5
 10
2141.84
 20
-2815.73
 30
0.000000
  70
    32
  0
VERTEX
  8
01
  5
1DAA6
 10
2141.86
 20
-2815.72
 30
0.000000
  70
    32
  0
VERTEX
  8
01
  5
1DAA7
 10
2141.89
 20
-2815.71
 30
0.000000
  70
    32
  0
VERTEX
  8
01
  5
1DAA8
 10
2141.91
 20
-2815.71
 30
0.000000
  70
    32
  0
VERTEX
  8
01
  5
1DAA9
 10
2141.93
 20
-2815.70
 30
0.000000
  70
    32
  0
VERTEX
  8
01
  5
1DAAA
 10
2141.95
 20
-2815.69
 30
0.000000
  70
    32
  0
VERTEX
  8
01
  5
1DAAB
 10
2141.98
 20
-2815.68
 30
0.000000
  70
    32
  0
VERTEX
  8
01
  5
1DAAC
 10
2142.00
 20
-2815.67
 30
0.000000
  70
    32
  0
VERTEX
  8
01
  5
1DAAD
 10
2142.02
 20
-2815.66
 30
0.000000
  70
    32
  0
VERTEX
  8
01
  5
1DAAE
 10
2142.04
 20
-2815.65
 30
0.000000
  70
    32
  0
VERTEX
  8
01
  5
1DAAF
 10
2142.07
 20
-2815.64
 30
0.000000
  70
    32
  0
VERTEX
  8
01
  5
1DAB0
 10
2142.09
 20
-2815.63
 30
0.000000
  70
    32
  0
VERTEX
  8
01
  5
1DAB1
 10
2142.11
 20
-2815.62
 30
0.000000
  70
    32
  0
VERTEX
  8
01
  5
1DAB2
 10
2142.13
 20
-2815.61
 30
0.000000
  70
    32
  0
VERTEX
  8
01
  5
1DAB3
 10
2142.15
 20
-2815.60
 30
0.000000
  70
    32
  0
VERTEX
  8
01
  5
1DAB4
 10
2142.17
 20
-2815.59
 30
0.000000
  70
    32
  0
VERTEX
  8
01
  5
1DAB5
 10
2142.20
 20
-2815.58
 30
0.000000
  70
    32
  0
VERTEX
  8
01
  5
1DAB6
 10
2142.22
 20
-2815.57
 30
0.000000
  70
    32
  0
VERTEX
  8
01
  5
1DAB7
 10
2142.24
 20
-2815.56
 30
0.000000
  70
    32
  0
VERTEX
  8
01
  5
1DAB8
 10
2142.26
 20
-2815.54
 30
0.000000
  70
    32
  0
VERTEX
  8
01
  5
1DAB9
 10
2142.28
 20
-2815.53
 30
0.000000
  70
    32
  0
VERTEX
  8
01
  5
1DABA
 10
2142.30
 20
-2815.52
 30
0.000000
  70
    32
  0
VERTEX
  8
01
  5
1DABB
 10
2142.32
 20
-2815.51
 30
0.000000
  70
    32
  0
VERTEX
  8
01
  5
1DABC
 10
2142.34
 20
-2815.49
 30
0.000000
  70
    32
  0
VERTEX
  8
01
  5
1DABD
 10
2142.36
 20
-2815.48
 30
0.000000
  70
    32
  0
VERTEX
  8
01
  5
1DABE
 10
2142.38
 20
-2815.47
 30
0.000000
  70
    32
  0
VERTEX
  8
01
  5
1DABF
 10
2142.40
 20
-2815.46
 30
0.000000
  70
    32
  0
VERTEX
  8
01
  5
1DAC0
 10
2142.42
 20
-2815.44
 30
0.000000
  70
    32
  0
VERTEX
  8
01
  5
1DAC1
 10
2142.44
 20
-2815.43
 30
0.000000
  70
    32
  0
VERTEX
  8
01
  5
1DAC2
 10
2142.46
 20
-2815.41
 30
0.000000
  70
    32
  0
VERTEX
  8
01
  5
1DAC3
 10
2142.48
 20
-2815.40
 30
0.000000
  70
    32
  0
VERTEX
  8
01
  5
1DAC4
 10
2142.50
 20
-2815.38
 30
0.000000
  70
    32
  0
VERTEX
  8
01
  5
1DAC5
 10
2142.51
 20
-2815.37
 30
0.000000
  70
    32
  0
VERTEX
  8
01
  5
1DAC6
 10
2142.53
 20
-2815.36
 30
0.000000
  70
    32
  0
VERTEX
  8
01
  5
1DAC7
 10
2142.55
 20
-2815.34
 30
0.000000
  70
    32
  0
VERTEX
  8
01
  5
1DAC8
 10
2142.57
 20
-2815.32
 30
0.000000
  70
    32
  0
VERTEX
  8
01
  5
1DAC9
 10
2142.59
 20
-2815.31
 30
0.000000
  70
    32
  0
VERTEX
  8
01
  5
1DACA
 10
2142.60
 20
-2815.29
 30
0.000000
  70
    32
  0
VERTEX
  8
01
  5
1DACB
 10
2142.62
 20
-2815.28
 30
0.000000
  70
    32
  0
VERTEX
  8
01
  5
1DACC
 10
2142.64
 20
-2815.26
 30
0.000000
  70
    32
  0
VERTEX
  8
01
  5
1DACD
 10
2142.65
 20
-2815.24
 30
0.000000
  70
    32
  0
VERTEX
  8
01
  5
1DACE
 10
2142.67
 20
-2815.23
 30
0.000000
  70
    32
  0
VERTEX
  8
01
  5
1DACF
 10
2142.69
 20
-2815.21
 30
0.000000
  70
    32
  0
VERTEX
  8
01
  5
1DAD0
 10
2142.70
 20
-2815.19
 30
0.000000
  70
    32
  0
VERTEX
  8
01
  5
1DAD1
 10
2142.72
 20
-2815.18
 30
0.000000
  70
    32
  0
VERTEX
  8
01
  5
1DAD2
 10
2142.73
 20
-2815.16
 30
0.000000
  70
    32
  0
VERTEX
  8
01
  5
1DAD3
 10
2142.75
 20
-2815.14
 30
0.000000
  70
    32
  0
VERTEX
  8
01
  5
1DAD4
 10
2142.77
 20
-2815.13
 30
0.000000
  70
    32
  0
VERTEX
  8
01
  5
1DAD5
 10
2142.78
 20
-2815.11
 30
0.000000
  70
    32
  0
VERTEX
  8
01
  5
1DAD6
 10
2142.80
 20
-2815.09
 30
0.000000
  70
    32
  0
VERTEX
  8
01
  5
1DAD7
 10
2142.81
 20
-2815.07
 30
0.000000
  70
    32
  0
VERTEX
  8
01
  5
1DAD8
 10
2142.82
 20
-2815.05
 30
0.000000
  70
    32
  0
VERTEX
  8
01
  5
1DAD9
 10
2142.84
 20
-2815.04
 30
0.000000
  70
    32
  0
VERTEX
  8
01
  5
1DADA
 10
2142.85
 20
-2815.02
 30
0.000000
  70
    32
  0
VERTEX
  8
01
  5
1DADB
 10
2142.87
 20
-2815.00
 30
0.000000
  70
    32
  0
VERTEX
  8
01
  5
1DADC
 10
2142.88
 20
-2814.98
 30
0.000000
  70
    32
  0
VERTEX
  8
01
  5
1DADD
 10
2142.89
 20
-2814.96
 30
0.000000
  70
    32
  0
VERTEX
  8
01
  5
1DADE
 10
2142.90
 20
-2814.94
 30
0.000000
  70
    32
  0
VERTEX
  8
01
  5
1DADF
 10
2142.92
 20
-2814.92
 30
0.000000
  70
    32
  0
VERTEX
  8
01
  5
1DAE0
 10
2142.93
 20
-2814.90
 30
0.000000
  70
    32
  0
VERTEX
  8
01
  5
1DAE1
 10
2142.94
 20
-2814.88
 30
0.000000
  70
    32
  0
VERTEX
  8
01
  5
1DAE2
 10
2142.95
 20
-2814.86
 30
0.000000
  70
    32
  0
VERTEX
  8
01
  5
1DAE3
 10
2142.96
 20
-2814.84
 30
0.000000
  70
    32
  0
VERTEX
  8
01
  5
1DAE4
 10
2142.98
 20
-2814.82
 30
0.000000
  70
    32
  0
VERTEX
  8
01
  5
1DAE5
 10
2142.99
 20
-2814.80
 30
0.000000
  70
    32
  0
VERTEX
  8
01
  5
1DAE6
 10
2143.00
 20
-2814.78
 30
0.000000
  70
    32
  0
VERTEX
  8
01
  5
1DAE7
 10
2143.01
 20
-2814.76
 30
0.000000
  70
    32
  0
VERTEX
  8
01
  5
1DAE8
 10
2143.02
 20
-2814.74
 30
0.000000
  70
    32
  0
VERTEX
  8
01
  5
1DAE9
 10
2143.03
 20
-2814.72
 30
0.000000
  70
    32
  0
VERTEX
  8
01
  5
1DAEA
 10
2143.04
 20
-2814.70
 30
0.000000
  70
    32
  0
VERTEX
  8
01
  5
1DAEB
 10
2143.05
 20
-2814.68
 30
0.000000
  70
    32
  0
VERTEX
  8
01
  5
1DAEC
 10
2143.05
 20
-2814.66
 30
0.000000
  70
    32
  0
VERTEX
  8
01
  5
1DAED
 10
2143.06
 20
-2814.64
 30
0.000000
  70
    32
  0
VERTEX
  8
01
  5
1DAEE
 10
2143.07
 20
-2814.62
 30
0.000000
  70
    32
  0
VERTEX
  8
01
  5
1DAEF
 10
2143.08
 20
-2814.60
 30
0.000000
  70
    32
  0
VERTEX
  8
01
  5
1DAF0
 10
2143.09
 20
-2814.58
 30
0.000000
  70
    32
  0
VERTEX
  8
01
  5
1DAF1
 10
2143.10
 20
-2814.55
 30
0.000000
  70
    32
  0
VERTEX
  8
01
  5
1DAF2
 10
2143.10
 20
-2814.53
 30
0.000000
  70
    32
  0
VERTEX
  8
01
  5
1DAF3
 10
2143.11
 20
-2814.51
 30
0.000000
  70
    32
  0
VERTEX
  8
01
  5
1DAF4
 10
2143.12
 20
-2814.49
 30
0.000000
  70
    32
  0
VERTEX
  8
01
  5
1DAF5
 10
2143.12
 20
-2814.47
 30
0.000000
  70
    32
  0
VERTEX
  8
01
  5
1DAF6
 10
2143.13
 20
-2814.45
 30
0.000000
  70
    32
  0
VERTEX
  8
01
  5
1DAF7
 10
2143.13
 20
-2814.42
 30
0.000000
  70
    32
  0
VERTEX
  8
01
  5
1DAF8
 10
2143.14
 20
-2814.40
 30
0.000000
  70
    32
  0
VERTEX
  8
01
  5
1DAF9
 10
2143.15
 20
-2814.38
 30
0.000000
  70
    32
  0
VERTEX
  8
01
  5
1DAFA
 10
2143.15
 20
-2814.36
 30
0.000000
  70
    32
  0
VERTEX
  8
01
  5
1DAFB
 10
2143.16
 20
-2814.34
 30
0.000000
  70
    32
  0
VERTEX
  8
01
  5
1DAFC
 10
2143.16
 20
-2814.32
 30
0.000000
  70
    32
  0
VERTEX
  8
01
  5
1DAFD
 10
2143.16
 20
-2814.29
 30
0.000000
  70
    32
  0
VERTEX
  8
01
  5
1DAFE
 10
2143.17
 20
-2814.27
 30
0.000000
  70
    32
  0
VERTEX
  8
01
  5
1DAFF
 10
2143.17
 20
-2814.25
 30
0.000000
  70
    32
  0
VERTEX
  8
01
  5
1DB00
 10
2143.17
 20
-2814.23
 30
0.000000
  70
    32
  0
VERTEX
  8
01
  5
1DB01
 10
2143.18
 20
-2814.20
 30
0.000000
  70
    32
  0
VERTEX
  8
01
  5
1DB02
 10
2143.18
 20
-2814.18
 30
0.000000
  70
    32
  0
VERTEX
  8
01
  5
1DB03
 10
2143.18
 20
-2814.16
 30
0.000000
  70
    32
  0
VERTEX
  8
01
  5
1DB04
 10
2143.18
 20
-2814.14
 30
0.000000
  70
    32
  0
VERTEX
  8
01
  5
1DB05
 10
2143.19
 20
-2814.12
 30
0.000000
  70
    32
  0
VERTEX
  8
01
  5
1DB06
 10
2143.19
 20
-2814.09
 30
0.000000
  70
    32
  0
VERTEX
  8
01
  5
1DB07
 10
2143.19
 20
-2814.07
 30
0.000000
  70
    32
  0
VERTEX
  8
01
  5
1DB08
 10
2143.19
 20
-2814.05
 30
0.000000
  70
    32
  0
VERTEX
  8
01
  5
1DB09
 10
2143.19
 20
-2814.03
 30
0.000000
  70
    32
  0
VERTEX
  8
01
  5
1DB0A
 10
2143.19
 20
-2814.00
 30
0.000000
  70
    32
  0
SEQEND
  8
01
  5
1DB0B
  0
LINE
  5
1C702
  8
1CENTER
 10
2093.1889330302042
 20
-2655.875633289128
 30
0.0
 11
2093.1889868778462
 21
-2691.6869431175151
 31
0.0
  0
LINE
  5
1C755
  8
1CENTER
 10
2080.6889375411652
 20
-2655.8756520847351
 30
0.0
 11
2080.688991388779
 21
-2691.6869431175151
 31
0.0
  0
LINE
  5
1C756
  8
1PHANTOM
 10
2084.4889870454999
 20
-2686.4588843540441
 30
0.0
 11
2076.8889870455168
 21
-2686.4588666703989
 31
0.0
  0
LINE
  5
1C757
  8
1PHANTOM
 10
2084.4889847187069
 20
-2687.4588843540441
 30
0.0
 11
2076.8889847187238
 21
-2687.4588666703899
 31
0.0
  0
LINE
  5
1C758
  8
1PHANTOM
 10
2081.1889393577349
 20
-2687.4588772423922
 30
0.0
 11
2080.188941984537
 21
-2686.4588749155992
 31
0.0
  0
LINE
  5
1C759
  8
1PHANTOM
 10
2084.4889847187069
 20
-2687.4588843540441
 30
0.0
 11
2084.4889870454999
 21
-2686.4588843540441
 31
0.0
  0
LINE
  5
1C75A
  8
1PHANTOM
 10
2082.1889870455011
 20
-2687.4588795693039
 30
0.0
 11
2079.1889870455011
 21
-2687.4588725889189
 31
0.0
  0
LINE
  5
1C75B
  8
1PHANTOM
 10
2076.8889847187238
 20
-2687.4588666703899
 30
0.0
 11
2076.8889870455168
 21
-2686.4588666703989
 31
0.0
  0
LINE
  5
1C75C
  8
1PHANTOM
 10
2079.5946632315058
 20
-2659.5588735329511
 30
0.0
 11
2081.5569983203818
 21
-2658.758878098899
 31
0.0
  0
LINE
  5
1C75D
  8
1PHANTOM
 10
2081.5569983203818
 20
-2658.758878098899
 30
0.0
 11
2080.9687217453388
 21
-2658.447108242648
 31
0.0
  0
LINE
  5
1C764
  8
1PHANTOM
 10
2082.6890335813978
 20
-2663.558861733145
 30
0.0
 11
2082.1890335813978
 21
-2663.458860569749
 31
0.0
  0
LINE
  5
1C766
  8
1PHANTOM
 10
2079.1890335813978
 20
-2664.4588535893658
 30
0.0
 11
2078.6890335813978
 21
-2664.358852425969
 31
0.0
  0
LINE
  5
1C767
  8
1PHANTOM
 10
2078.6890335813978
 20
-2664.358852425969
 30
0.0
 11
2082.6890335813978
 21
-2663.558861733145
 31
0.0
  0
LINE
  5
1C768
  8
1PHANTOM
 10
2082.0098124247879
 20
-2660.3588791525058
 30
0.0
 11
2081.4580629609841
 21
-2660.1761150098769
 31
0.0
  0
LINE
  5
1C76B
  8
1PHANTOM
 10
2082.4626265291949
 20
-2661.9588802061098
 30
0.0
 11
2081.9260327939219
 21
-2661.8296095084811
 31
0.0
  0
LINE
  5
1C76C
  8
1PHANTOM
 10
2079.6099481786068
 20
-2661.271641991696
 30
0.0
 11
2079.1418497234572
 21
-2661.158872479346
 31
0.0
  0
LINE
  5
1C76E
  8
1PHANTOM
 10
2079.1890335813978
 20
-2662.8588725891332
 30
0.0
 11
2078.6890335813978
 21
-2662.7588714257372
 31
0.0
  0
LINE
  5
1C76F
  8
1PHANTOM
 10
2080.051835072135
 20
-2659.7103093293899
 30
0.0
 11
2079.5946632315058
 21
-2659.5588735329511
 31
0.0
  0
LINE
  5
1C770
  8
1PHANTOM
 10
2079.1418497234572
 20
-2661.158872479346
 30
0.0
 11
2082.0098124247879
 21
-2660.3588791525058
 31
0.0
  0
LINE
  5
1C772
  8
1PHANTOM
 10
2078.6890335813978
 20
-2662.7588714257372
 30
0.0
 11
2082.4626265291949
 21
-2661.9588802061098
 31
0.0
  0
LINE
  5
1C788
  8
1PHANTOM
 10
2082.1890335813978
 20
-2687.4588795694108
 30
0.0
 11
2079.1890335813978
 21
-2687.4588725890262
 31
0.0
  0
LINE
  5
1C790
  8
1PHANTOM
 10
2080.6890335813978
 20
-2657.4588760792722
 30
0.0
 11
2079.1890335813991
 21
-2662.7588725891369
 31
0.0
  0
LINE
  5
1C791
  8
1PHANTOM
 10
2079.1890335813991
 20
-2662.7588725891369
 30
0.0
 11
2079.1890335813978
 21
-2686.4588720221359
 31
0.0
  0
LINE
  5
1C792
  8
1PHANTOM
 10
2080.6890335813978
 20
-2657.4588760792722
 30
0.0
 11
2082.1890335813978
 21
-2662.7588795695142
 31
0.0
  0
LINE
  5
1C793
  8
1PHANTOM
 10
2077.1889870455011
 20
-2687.4588679353269
 30
0.0
 11
2079.1890335813978
 21
-2687.4588725890262
 31
0.0
  0
LINE
  5
1C794
  8
1PHANTOM
 10
2082.1890335813978
 20
-2662.7588795695142
 30
0.0
 11
2082.1890335813978
 21
-2686.4588790025232
 31
0.0
  0
LINE
  5
1C795
  8
1PHANTOM
 10
2077.1889870455011
 20
-2687.4588679353269
 30
0.0
 11
2077.1889870455011
 21
-2688.5588714255232
 31
0.0
  0
LINE
  5
1C796
  8
1PHANTOM
 10
2082.1890335813978
 20
-2687.4588795694108
 30
0.0
 11
2084.1889870455011
 21
-2687.4588842228918
 31
0.0
  0
ARC
  5
1C797
  8
1PHANTOM
 10
2078.6889870454988
 20
-2688.5588714255232
 30
0.0
 40
1.5
 50
180.0
 51
269.99986668447491
  0
LINE
  5
1C798
  8
1PHANTOM
 10
2084.1889870455011
 20
-2687.4588842228918
 30
0.0
 11
2084.1889870455011
 21
-2688.5588807327022
 31
0.0
  0
LINE
  5
1C799
  8
1PHANTOM
 10
2078.6889835553079
 20
-2690.0588714255191
 30
0.0
 11
2082.6889835553079
 21
-2690.058880732699
 31
0.0
  0
ARC
  5
1C79A
  8
1PHANTOM
 10
2082.6889870455002
 20
-2688.5588807327022
 30
0.0
 40
1.5
 50
269.99986668447491
 51
0.0
  0
LINE
  5
1C7A7
  8
1CENTER
 10
2068.1889375411938
 20
-2655.8756708803471
 30
0.0
 11
2068.1889913887799
 21
-2691.686943117516
 31
0.0
  0
LINE
  5
1CAA9
  8
01
 10
2319.0722794595881
 20
-2790.9735005731909
 30
0.0
 11
2319.0722794595881
 21
-2899.5759482988419
 31
0.0
  0
LINE
  5
1CAAA
  8
01
 10
2331.0722794595881
 20
-2790.9735005731909
 30
0.0
 11
2331.0722794595881
 21
-2899.5759482988419
 31
0.0
  0
LINE
  5
1CAAB
  8
01
 10
2310.0722794595881
 20
-2790.9735005731909
 30
0.0
 11
2310.0722794595881
 21
-2899.5759482988419
 31
0.0
  0
TEXT
  5
1CAAF
  8
1TEXT
 10
2248.072279459549
 20
-2678.458884819489
 30
0.0
 40
8.0
  1
SC293--
  0
LINE
  5
1CBCA
  8
1DIM
 10
2248.072279459549
 20
-2690.458884819489
 30
0.0
 11
2353.072279459549
 21
-2690.458884819489
 31
0.0
  0
TEXT
  5
1CBCB
  8
1TEXT
 10
2249.2056127928831
 20
-2688.958884819489
 30
0.0
 40
4.0
  1
表面処理：本体
 72
     1
 11
2265.4722794595491
 21
-2688.958884819489
 31
0.0
  0
LINE
  5
1CBCC
  8
1DIM
 10
2248.072279459549
 20
-2683.458884819489
 30
0.0
 11
2353.072279459549
 21
-2683.458884819489
 31
0.0
  0
TEXT
  5
1CBCD
  8
1TEXT
 10
2328.6722794595489
 20
-2688.958884819489
 30
0.0
 40
4.0
  1
コード
 72
     1
 11
2335.4722794595491
 21
-2688.958884819489
 31
0.0
  0
TEXT
  5
1CBCE
  8
1TEXT
 10
2285.7522794595488
 20
-2688.958884819489
 30
0.0
 40
4.0
  1
表面処理：カバー
 41
0.8
 72
     1
 11
2300.4722794595491
 21
-2688.958884819489
 31
0.0
  0
LINE
  5
1CBCF
  8
1DIM
 10
2283.0722794595481
 20
-2697.458884819489
 30
0.0
 11
2318.072279459549
 21
-2697.4588848194899
 31
0.0
  0
LINE
  5
1CBD0
  8
1DIM
 10
2318.072279459549
 20
-2697.458884819489
 30
0.0
 11
2353.072279459549
 21
-2697.458884819488
 31
0.0
  0
LINE
  5
1CBD1
  8
1DIM
 10
2248.072279459549
 20
-2704.458884819488
 30
0.0
 11
2353.072279459549
 21
-2704.458884819489
 31
0.0
  0
TEXT
  5
1CBD2
  8
1TEXT
 10
2287.9389461262158
 20
-2703.1732418031388
 30
0.0
 40
4.0
  1
黒【艶消し】
 72
     1
 11
2300.4722794595491
 21
-2703.1732418031388
 31
0.0
  0
TEXT
  5
1CBD3
  8
1TEXT
 10
2287.6722794595489
 20
-2696.1732418031388
 30
0.0
 40
4.0
  1
白【艶消し】
 72
     1
 11
2300.4722794595491
 21
-2696.1732418031388
 31
0.0
  0
TEXT
  5
1CBD4
  8
1TEXT
 10
2256.1389461262161
 20
-2699.4367798394728
 30
0.0
 40
4.0
  1
クローム
 72
     1
 11
2265.47227945955
 21
-2699.4367798394728
 31
0.0
  0
LINE
  5
1CBD5
  8
1DIM
 10
2283.072279459549
 20
-2683.458884819489
 30
0.0
 11
2283.072279459549
 21
-2704.458884819488
 31
0.0
  0
LINE
  5
1CBD6
  8
1DIM
 10
2318.072279459549
 20
-2683.458884819489
 30
0.0
 11
2318.072279459549
 21
-2704.458884819489
 31
0.0
  0
LINE
  5
1CBD7
  8
1DIM
 10
2353.072279459549
 20
-2683.458884819489
 30
0.0
 11
2353.072279459549
 21
-2704.458884819489
 31
0.0
  0
LINE
  5
1CBD8
  8
1DIM
 10
2248.072279459549
 20
-2683.458884819489
 30
0.0
 11
2248.072279459549
 21
-2704.458884819488
 31
0.0
  0
TEXT
  5
1CBD9
  8
1TEXT
 10
2322.138946126217
 20
-2703.1732418031379
 30
0.0
 40
4.0
  1
SC293KC
 72
     1
 11
2335.47227945955
 21
-2703.1732418031379
 31
0.0
  0
TEXT
  5
1CBDA
  8
1TEXT
 10
2322.138946126217
 20
-2696.1732418031379
 30
0.0
 40
4.0
  1
SC293SC
 72
     1
 11
2335.47227945955
 21
-2696.1732418031379
 31
0.0
  0
LINE
  5
1D116
  8
1CENTER
 10
2287.5722794595949
 20
-2823.2759482988399
 30
0.0
 11
2287.5722794595949
 21
-2817.2759482988399
 31
0.0
  0
LINE
  5
1D117
  8
1CENTER
 10
2284.5722794595949
 20
-2820.275948298839
 30
0.0
 11
2290.5722794595949
 21
-2820.275948298839
 31
0.0
  0
LINE
  5
1D55B
  8
1PHANTOM
 10
2082.6890335813978
 20
-2665.1588617331458
 30
0.0
 11
2082.1890335813978
 21
-2665.058860569749
 31
0.0
  0
LINE
  5
1D55C
  8
1PHANTOM
 10
2079.1890335813978
 20
-2666.0588535893662
 30
0.0
 11
2078.6890335813978
 21
-2665.9588524259698
 31
0.0
  0
LINE
  5
1D55D
  8
1PHANTOM
 10
2078.6890335813978
 20
-2665.9588524259698
 30
0.0
 11
2082.6890335813978
 21
-2665.1588617331458
 31
0.0
  0
LINE
  5
1D55E
  8
1PHANTOM
 10
2082.6890335813978
 20
-2666.7588617331498
 30
0.0
 11
2082.1890335813978
 21
-2666.658860569753
 31
0.0
  0
LINE
  5
1D55F
  8
1PHANTOM
 10
2079.1890335813978
 20
-2667.6588535893711
 30
0.0
 11
2078.6890335813978
 21
-2667.5588524259729
 31
0.0
  0
LINE
  5
1D560
  8
1PHANTOM
 10
2078.6890335813978
 20
-2667.5588524259729
 30
0.0
 11
2082.6890335813978
 21
-2666.7588617331498
 31
0.0
  0
LINE
  5
1D561
  8
1PHANTOM
 10
2082.6890335813978
 20
-2668.3588617331502
 30
0.0
 11
2082.1890335813978
 21
-2668.2588605697529
 31
0.0
  0
LINE
  5
1D562
  8
1PHANTOM
 10
2079.1890335813978
 20
-2669.258853589371
 30
0.0
 11
2078.6890335813978
 21
-2669.1588524259741
 31
0.0
  0
LINE
  5
1D563
  8
1PHANTOM
 10
2078.6890335813978
 20
-2669.1588524259741
 30
0.0
 11
2082.6890335813978
 21
-2668.3588617331502
 31
0.0
  0
LINE
  5
1D564
  8
1PHANTOM
 10
2082.6890335813978
 20
-2669.958861733151
 30
0.0
 11
2082.1890335813978
 21
-2669.8588605697541
 31
0.0
  0
LINE
  5
1D565
  8
1PHANTOM
 10
2079.1890335813978
 20
-2670.8588535893709
 30
0.0
 11
2078.6890335813978
 21
-2670.7588524259741
 31
0.0
  0
LINE
  5
1D566
  8
1PHANTOM
 10
2078.6890335813978
 20
-2670.7588524259741
 30
0.0
 11
2082.6890335813978
 21
-2669.958861733151
 31
0.0
  0
LINE
  5
1D567
  8
1PHANTOM
 10
2082.6890335813978
 20
-2671.558861733155
 30
0.0
 11
2082.1890335813978
 21
-2671.4588605697581
 31
0.0
  0
LINE
  5
1D568
  8
1PHANTOM
 10
2079.1890335813978
 20
-2672.4588535893749
 30
0.0
 11
2078.6890335813978
 21
-2672.3588524259781
 31
0.0
  0
LINE
  5
1D569
  8
1PHANTOM
 10
2078.6890335813978
 20
-2672.3588524259781
 30
0.0
 11
2082.6890335813978
 21
-2671.558861733155
 31
0.0
  0
LINE
  5
1D56A
  8
1PHANTOM
 10
2082.6890335813978
 20
-2673.1588617331549
 30
0.0
 11
2082.1890335813978
 21
-2673.0588605697581
 31
0.0
  0
LINE
  5
1D56B
  8
1PHANTOM
 10
2079.1890335813978
 20
-2674.0588535893762
 30
0.0
 11
2078.6890335813978
 21
-2673.958852425978
 31
0.0
  0
LINE
  5
1D56C
  8
1PHANTOM
 10
2078.6890335813978
 20
-2673.958852425978
 30
0.0
 11
2082.6890335813978
 21
-2673.1588617331549
 31
0.0
  0
LINE
  5
1D56D
  8
1PHANTOM
 10
2082.6890335813978
 20
-2674.7588617331562
 30
0.0
 11
2082.1890335813978
 21
-2674.658860569758
 31
0.0
  0
LINE
  5
1D56E
  8
1PHANTOM
 10
2079.1890335813978
 20
-2675.6588535893761
 30
0.0
 11
2078.6890335813978
 21
-2675.5588524259788
 31
0.0
  0
LINE
  5
1D56F
  8
1PHANTOM
 10
2078.6890335813978
 20
-2675.5588524259788
 30
0.0
 11
2082.6890335813978
 21
-2674.7588617331562
 31
0.0
  0
LINE
  5
1D570
  8
1PHANTOM
 10
2082.6890335813978
 20
-2676.3588617331588
 30
0.0
 11
2082.1890335813978
 21
-2676.2588605697629
 31
0.0
  0
LINE
  5
1D571
  8
1PHANTOM
 10
2079.1890335813978
 20
-2677.2588535893801
 30
0.0
 11
2078.6890335813978
 21
-2677.1588524259828
 31
0.0
  0
LINE
  5
1D572
  8
1PHANTOM
 10
2078.6890335813978
 20
-2677.1588524259828
 30
0.0
 11
2082.6890335813978
 21
-2676.3588617331588
 31
0.0
  0
LINE
  5
1D573
  8
1PHANTOM
 10
2082.6890335813978
 20
-2677.9588617331601
 30
0.0
 11
2082.1890335813978
 21
-2677.8588605697628
 31
0.0
  0
LINE
  5
1D574
  8
1PHANTOM
 10
2079.1890335813978
 20
-2678.85885358938
 30
0.0
 11
2078.6890335813978
 21
-2678.7588524259832
 31
0.0
  0
LINE
  5
1D575
  8
1PHANTOM
 10
2078.6890335813978
 20
-2678.7588524259832
 30
0.0
 11
2082.6890335813978
 21
-2677.9588617331601
 31
0.0
  0
LINE
  5
1D576
  8
1PHANTOM
 10
2082.6890335813978
 20
-2679.55886173316
 30
0.0
 11
2082.1890335813978
 21
-2679.4588605697631
 31
0.0
  0
LINE
  5
1D577
  8
1PHANTOM
 10
2079.1890335813978
 20
-2680.4588535893799
 30
0.0
 11
2078.6890335813978
 21
-2680.358852425984
 31
0.0
  0
LINE
  5
1D578
  8
1PHANTOM
 10
2078.6890335813978
 20
-2680.358852425984
 30
0.0
 11
2082.6890335813978
 21
-2679.55886173316
 31
0.0
  0
LINE
  5
1D579
  8
1PHANTOM
 10
2082.6890335813978
 20
-2681.1588617331608
 30
0.0
 11
2082.1890335813978
 21
-2681.058860569764
 31
0.0
  0
LINE
  5
1D57A
  8
1PHANTOM
 10
2079.1890335813978
 20
-2682.0588535893812
 30
0.0
 11
2078.6890335813978
 21
-2681.9588524259839
 31
0.0
  0
LINE
  5
1D57B
  8
1PHANTOM
 10
2078.6890335813978
 20
-2681.9588524259839
 30
0.0
 11
2082.6890335813978
 21
-2681.1588617331608
 31
0.0
  0
LINE
  5
1D57C
  8
1PHANTOM
 10
2082.6890335813978
 20
-2682.7588617331648
 30
0.0
 11
2082.1890335813978
 21
-2682.658860569768
 31
0.0
  0
LINE
  5
1D57D
  8
1PHANTOM
 10
2079.1890335813978
 20
-2683.6588535893852
 30
0.0
 11
2078.6890335813978
 21
-2683.5588524259879
 31
0.0
  0
LINE
  5
1D57E
  8
1PHANTOM
 10
2078.6890335813978
 20
-2683.5588524259879
 30
0.0
 11
2082.6890335813978
 21
-2682.7588617331648
 31
0.0
  0
LINE
  5
1D57F
  8
1PHANTOM
 10
2082.6890335813978
 20
-2684.3588617331652
 30
0.0
 11
2082.1890335813978
 21
-2684.2588605697679
 31
0.0
  0
LINE
  5
1D580
  8
1PHANTOM
 10
2079.1890335813978
 20
-2685.2588535893851
 30
0.0
 11
2078.6890335813978
 21
-2685.1588524259878
 31
0.0
  0
LINE
  5
1D581
  8
1PHANTOM
 10
2078.6890335813978
 20
-2685.1588524259878
 30
0.0
 11
2082.6890335813978
 21
-2684.3588617331652
 31
0.0
  0
LINE
  5
1D582
  8
1PHANTOM
 10
2082.6890335813978
 20
-2685.9588617331692
 30
0.0
 11
2082.1890335813978
 21
-2685.8588605697719
 31
0.0
  0
LINE
  5
1D584
  8
1PHANTOM
 10
2080.188941417659
 20
-2686.458874348717
 30
0.0
 11
2082.6890335813978
 21
-2685.9588617331692
 31
0.0
  0
LINE
  5
1D62D
  8
1PHANTOM
 10
2328.3722923879959
 20
-2843.5759948347318
 30
0.0
 11
2328.4722935513919
 21
-2843.0759948347318
 31
0.0
  0
LINE
  5
1D62E
  8
1PHANTOM
 10
2327.4723005317769
 20
-2840.0759948347318
 30
0.0
 11
2327.5723016951738
 21
-2839.5759948347318
 31
0.0
  0
LINE
  5
1D62F
  8
1PHANTOM
 10
2327.5723016951738
 20
-2839.5759948347318
 30
0.0
 11
2328.3722923879959
 21
-2843.5759948347318
 31
0.0
  0
LINE
  5
1D630
  8
1PHANTOM
 10
2326.7722923879951
 20
-2843.5759948347318
 30
0.0
 11
2326.872293551392
 21
-2843.0759948347318
 31
0.0
  0
LINE
  5
1D631
  8
1PHANTOM
 10
2325.872300531777
 20
-2840.0759948347318
 30
0.0
 11
2325.972301695173
 21
-2839.5759948347318
 31
0.0
  0
LINE
  5
1D632
  8
1PHANTOM
 10
2325.972301695173
 20
-2839.5759948347318
 30
0.0
 11
2326.7722923879951
 21
-2843.5759948347318
 31
0.0
  0
LINE
  5
1D633
  8
1PHANTOM
 10
2325.1722923879952
 20
-2843.5759948347318
 30
0.0
 11
2325.2722935513921
 21
-2843.0759948347318
 31
0.0
  0
LINE
  5
1D634
  8
1PHANTOM
 10
2324.2723005317762
 20
-2840.0759948347318
 30
0.0
 11
2324.3723016951731
 21
-2839.5759948347318
 31
0.0
  0
LINE
  5
1D635
  8
1PHANTOM
 10
2324.3723016951731
 20
-2839.5759948347318
 30
0.0
 11
2325.1722923879952
 21
-2843.5759948347318
 31
0.0
  0
LINE
  5
1D636
  8
1PHANTOM
 10
2323.5722923879948
 20
-2843.5759948347318
 30
0.0
 11
2323.6722935513908
 21
-2843.0759948347318
 31
0.0
  0
LINE
  5
1D637
  8
1PHANTOM
 10
2322.6723005317758
 20
-2840.0759948347318
 30
0.0
 11
2322.7723016951732
 21
-2839.5759948347318
 31
0.0
  0
LINE
  5
1D638
  8
1PHANTOM
 10
2322.7723016951732
 20
-2839.5759948347318
 30
0.0
 11
2323.5722923879948
 21
-2843.5759948347318
 31
0.0
  0
LINE
  5
1D639
  8
1PHANTOM
 10
2321.9722923879899
 20
-2843.5759948347318
 30
0.0
 11
2322.0722935513882
 21
-2843.0759948347318
 31
0.0
  0
LINE
  5
1D63A
  8
1PHANTOM
 10
2321.0723005317718
 20
-2840.0759948347318
 30
0.0
 11
2321.1723016951692
 21
-2839.5759948347318
 31
0.0
  0
LINE
  5
1D63B
  8
1PHANTOM
 10
2321.1723016951692
 20
-2839.5759948347318
 30
0.0
 11
2321.9722923879899
 21
-2843.5759948347318
 31
0.0
  0
LINE
  5
1D63C
  8
1PHANTOM
 10
2320.37229238799
 20
-2843.5759948347318
 30
0.0
 11
2320.4722935513869
 21
-2843.0759948347318
 31
0.0
  0
LINE
  5
1D63D
  8
1PHANTOM
 10
2319.4723005317719
 20
-2840.0759948347318
 30
0.0
 11
2319.5723016951688
 21
-2839.5759948347318
 31
0.0
  0
LINE
  5
1D63E
  8
1PHANTOM
 10
2319.5723016951688
 20
-2839.5759948347318
 30
0.0
 11
2320.37229238799
 21
-2843.5759948347318
 31
0.0
  0
LINE
  5
1D63F
  8
1PHANTOM
 10
2318.7722923879919
 20
-2843.5759948347318
 30
0.0
 11
2318.8722935513879
 21
-2843.0759948347318
 31
0.0
  0
LINE
  5
1D640
  8
1PHANTOM
 10
2317.8723005317729
 20
-2840.0759948347318
 30
0.0
 11
2317.9723016951698
 21
-2839.5759948347318
 31
0.0
  0
LINE
  5
1D641
  8
1PHANTOM
 10
2317.9723016951698
 20
-2839.5759948347318
 30
0.0
 11
2318.7722923879919
 21
-2843.5759948347318
 31
0.0
  0
LINE
  5
1D642
  8
1PHANTOM
 10
2317.1722923879911
 20
-2843.5759948347318
 30
0.0
 11
2317.272293551388
 21
-2843.0759948347318
 31
0.0
  0
LINE
  5
1D643
  8
1PHANTOM
 10
2316.272300531773
 20
-2840.0759948347318
 30
0.0
 11
2316.3723016951699
 21
-2839.5759948347318
 31
0.0
  0
LINE
  5
1D644
  8
1PHANTOM
 10
2316.3723016951699
 20
-2839.5759948347318
 30
0.0
 11
2317.1722923879911
 21
-2843.5759948347318
 31
0.0
  0
LINE
  5
1D645
  8
1PHANTOM
 10
2315.5722923879912
 20
-2843.5759948347318
 30
0.0
 11
2315.6722935513881
 21
-2843.0759948347318
 31
0.0
  0
LINE
  5
1D646
  8
1PHANTOM
 10
2314.6723005317722
 20
-2840.0759948347318
 30
0.0
 11
2314.7723016951691
 21
-2839.5759948347318
 31
0.0
  0
LINE
  5
1D647
  8
1PHANTOM
 10
2314.7723016951691
 20
-2839.5759948347318
 30
0.0
 11
2315.5722923879912
 21
-2843.5759948347318
 31
0.0
  0
LINE
  5
1D648
  8
1PHANTOM
 10
2313.9722923879899
 20
-2843.5759948347318
 30
0.0
 11
2314.0722935513868
 21
-2843.0759948347318
 31
0.0
  0
LINE
  5
1D649
  8
1PHANTOM
 10
2313.0723005317718
 20
-2840.0759948347318
 30
0.0
 11
2313.1723016951692
 21
-2839.5759948347318
 31
0.0
  0
LINE
  5
1D64A
  8
1PHANTOM
 10
2313.1723016951692
 20
-2839.5759948347318
 30
0.0
 11
2313.9722923879899
 21
-2843.5759948347318
 31
0.0
  0
LINE
  5
1D64B
  8
1PHANTOM
 10
2312.37229238799
 20
-2843.5759948347318
 30
0.0
 11
2312.4722935513869
 21
-2843.0759948347318
 31
0.0
  0
LINE
  5
1D64C
  8
1PHANTOM
 10
2311.4723005317719
 20
-2840.0759948347318
 30
0.0
 11
2311.5723016951679
 21
-2839.5759948347318
 31
0.0
  0
LINE
  5
1D64D
  8
1PHANTOM
 10
2311.5723016951679
 20
-2839.5759948347318
 30
0.0
 11
2312.37229238799
 21
-2843.5759948347318
 31
0.0
  0
LINE
  5
1D64E
  8
1PHANTOM
 10
2310.772292387986
 20
-2843.5759948347318
 30
0.0
 11
2310.8722935513829
 21
-2843.0759948347318
 31
0.0
  0
LINE
  5
1D64F
  8
1PHANTOM
 10
2309.8723005317679
 20
-2840.0759948347318
 30
0.0
 11
2309.9723016951639
 21
-2839.5759948347318
 31
0.0
  0
LINE
  5
1D650
  8
1PHANTOM
 10
2309.9723016951639
 20
-2839.5759948347318
 30
0.0
 11
2310.772292387986
 21
-2843.5759948347318
 31
0.0
  0
LINE
  5
1D651
  8
1PHANTOM
 10
2309.1722923879861
 20
-2843.5759948347318
 30
0.0
 11
2309.272293551383
 21
-2843.0759948347318
 31
0.0
  0
LINE
  5
1D652
  8
1PHANTOM
 10
2308.2723005317671
 20
-2840.0759948347318
 30
0.0
 11
2308.372301695164
 21
-2839.5759948347318
 31
0.0
  0
LINE
  5
1D653
  8
1PHANTOM
 10
2308.372301695164
 20
-2839.5759948347318
 30
0.0
 11
2309.1722923879861
 21
-2843.5759948347318
 31
0.0
  0
LINE
  5
1D654
  8
1PHANTOM
 10
2307.5722923879821
 20
-2843.5759948347318
 30
0.0
 11
2307.6722935513781
 21
-2843.0759948347318
 31
0.0
  0
LINE
  5
1D656
  8
1PHANTOM
 10
2307.072282939017
 20
-2841.075918504087
 30
0.0
 11
2307.5722923879821
 21
-2843.5759948347318
 31
0.0
  0
LINE
  5
1D665
  8
1PHANTOM
 10
2306.0722887668649
 20
-2873.3759459720391
 30
0.0
 11
2306.07230645052
 21
-2865.7759459720551
 31
0.0
  0
LINE
  5
1D666
  8
1PHANTOM
 10
2306.0722958785168
 20
-2870.0759006110661
 30
0.0
 11
2307.0722982053098
 21
-2869.0759032378692
 31
0.0
  0
LINE
  5
1D667
  8
1PHANTOM
 10
2306.0722887668649
 20
-2873.3759459720391
 30
0.0
 11
2307.0722887668649
 21
-2873.3759482988339
 31
0.0
  0
LINE
  5
1D668
  8
1PHANTOM
 10
2306.07230645052
 20
-2865.7759459720551
 30
0.0
 11
2307.0722887668649
 21
-2865.7759482988058
 31
0.0
  0
LINE
  5
1D669
  8
1PHANTOM
 10
2333.9722995879602
 20
-2868.481624484838
 30
0.0
 11
2334.77229502201
 21
-2870.443959573714
 31
0.0
  0
LINE
  5
1D66A
  8
1PHANTOM
 10
2334.77229502201
 20
-2870.443959573714
 30
0.0
 11
2335.0840648782628
 21
-2869.855682998671
 31
0.0
  0
LINE
  5
1D66B
  8
1PHANTOM
 10
2333.1722939684059
 20
-2870.8967736781201
 30
0.0
 11
2333.355058111033
 21
-2870.3450242143181
 31
0.0
  0
LINE
  5
1D66C
  8
1PHANTOM
 10
2329.9722923879958
 20
-2871.5759948347318
 30
0.0
 11
2330.0722935513932
 21
-2871.0759948347318
 31
0.0
  0
LINE
  5
1D66D
  8
1PHANTOM
 10
2331.5722929147992
 20
-2871.3495877825271
 30
0.0
 11
2331.7015636124279
 21
-2870.8129940472559
 31
0.0
  0
LINE
  5
1D66E
  8
1PHANTOM
 10
2332.259531129213
 20
-2868.496909431939
 30
0.0
 11
2332.372300641563
 21
-2868.028810976788
 31
0.0
  0
LINE
  5
1D66F
  8
1PHANTOM
 10
2329.0723005317768
 20
-2868.0759948347318
 30
0.0
 11
2329.1723016951742
 21
-2867.5759948347318
 31
0.0
  0
LINE
  5
1D670
  8
1PHANTOM
 10
2330.6723005317758
 20
-2868.0759948347318
 30
0.0
 11
2330.772301695175
 21
-2867.5759948347318
 31
0.0
  0
LINE
  5
1D671
  8
1PHANTOM
 10
2333.8208637915191
 20
-2868.938796325469
 30
0.0
 11
2333.9722995879602
 21
-2868.481624484838
 31
0.0
  0
LINE
  5
1D672
  8
1PHANTOM
 10
2332.372300641563
 20
-2868.028810976788
 30
0.0
 11
2333.1722939684059
 21
-2870.8967736781201
 31
0.0
  0
LINE
  5
1D673
  8
1PHANTOM
 10
2329.1723016951742
 20
-2867.5759948347318
 30
0.0
 11
2329.9722923879958
 21
-2871.5759948347318
 31
0.0
  0
LINE
  5
1D674
  8
1PHANTOM
 10
2330.772301695175
 20
-2867.5759948347318
 30
0.0
 11
2331.5722929147992
 21
-2871.3495877825271
 31
0.0
  0
LINE
  5
1D675
  8
1PHANTOM
 10
2336.0722970416368
 20
-2869.5759948347318
 30
0.0
 11
2330.7723005317721
 21
-2868.0759948347331
 31
0.0
  0
LINE
  5
1D676
  8
1PHANTOM
 10
2330.7723005317721
 20
-2868.0759948347331
 30
0.0
 11
2307.0722887668649
 21
-2868.0759948347359
 31
0.0
  0
LINE
  5
1D677
  8
1PHANTOM
 10
2336.0722970416368
 20
-2869.5759948347318
 30
0.0
 11
2330.7722935513898
 21
-2871.075994834729
 31
0.0
  0
LINE
  5
1D678
  8
1PHANTOM
 10
2330.7722935513898
 20
-2871.075994834729
 30
0.0
 11
2307.0722887668649
 21
-2871.0759948347359
 31
0.0
  0
LINE
  5
1D679
  8
1PHANTOM
 10
2306.0723051855821
 20
-2866.0759482988328
 30
0.0
 11
2304.9723016953858
 21
-2866.0759482988328
 31
0.0
  0
ARC
  5
1D67A
  8
1PHANTOM
 10
2304.9723016953858
 20
-2867.575948298831
 30
0.0
 40
1.5
 50
90.0
 51
179.99986668447491
  0
LINE
  5
1D67B
  8
1PHANTOM
 10
2306.0722888980181
 20
-2873.0759482988328
 30
0.0
 11
2304.9722923882068
 21
-2873.0759482988328
 31
0.0
  0
LINE
  5
1D67C
  8
1PHANTOM
 10
2303.4723016953899
 20
-2867.5759448086419
 30
0.0
 11
2303.47229238821
 21
-2871.5759448086419
 31
0.0
  0
ARC
  5
1D67D
  8
1PHANTOM
 10
2304.9722923882068
 20
-2871.575948298831
 30
0.0
 40
1.5
 50
179.99986668447491
 51
270.0
  0
LINE
  5
1D67E
  8
1PHANTOM
 10
2307.0722887668649
 20
-2873.3759482988339
 30
0.0
 11
2307.0722887668649
 21
-2865.7759482988058
 31
0.0
  0
LINE
  5
1D67F
  8
1PHANTOM
 10
2328.3722923879959
 20
-2871.5759948347318
 30
0.0
 11
2328.4722935513919
 21
-2871.0759948347318
 31
0.0
  0
LINE
  5
1D680
  8
1PHANTOM
 10
2327.4723005317769
 20
-2868.0759948347318
 30
0.0
 11
2327.5723016951738
 21
-2867.5759948347318
 31
0.0
  0
LINE
  5
1D681
  8
1PHANTOM
 10
2327.5723016951738
 20
-2867.5759948347318
 30
0.0
 11
2328.3722923879959
 21
-2871.5759948347318
 31
0.0
  0
LINE
  5
1D682
  8
1PHANTOM
 10
2326.7722923879951
 20
-2871.5759948347318
 30
0.0
 11
2326.872293551392
 21
-2871.0759948347318
 31
0.0
  0
LINE
  5
1D683
  8
1PHANTOM
 10
2325.872300531777
 20
-2868.0759948347318
 30
0.0
 11
2325.972301695173
 21
-2867.5759948347318
 31
0.0
  0
LINE
  5
1D684
  8
1PHANTOM
 10
2325.972301695173
 20
-2867.5759948347318
 30
0.0
 11
2326.7722923879951
 21
-2871.5759948347318
 31
0.0
  0
LINE
  5
1D685
  8
1PHANTOM
 10
2325.1722923879952
 20
-2871.5759948347318
 30
0.0
 11
2325.2722935513921
 21
-2871.0759948347318
 31
0.0
  0
LINE
  5
1D686
  8
1PHANTOM
 10
2324.2723005317762
 20
-2868.0759948347318
 30
0.0
 11
2324.3723016951731
 21
-2867.5759948347318
 31
0.0
  0
LINE
  5
1D687
  8
1PHANTOM
 10
2324.3723016951731
 20
-2867.5759948347318
 30
0.0
 11
2325.1722923879952
 21
-2871.5759948347318
 31
0.0
  0
LINE
  5
1D688
  8
1PHANTOM
 10
2323.5722923879948
 20
-2871.5759948347318
 30
0.0
 11
2323.6722935513908
 21
-2871.0759948347318
 31
0.0
  0
LINE
  5
1D689
  8
1PHANTOM
 10
2322.6723005317758
 20
-2868.0759948347318
 30
0.0
 11
2322.7723016951732
 21
-2867.5759948347318
 31
0.0
  0
LINE
  5
1D68A
  8
1PHANTOM
 10
2322.7723016951732
 20
-2867.5759948347318
 30
0.0
 11
2323.5722923879948
 21
-2871.5759948347318
 31
0.0
  0
LINE
  5
1D68B
  8
1PHANTOM
 10
2321.9722923879899
 20
-2871.5759948347318
 30
0.0
 11
2322.0722935513882
 21
-2871.0759948347318
 31
0.0
  0
LINE
  5
1D68C
  8
1PHANTOM
 10
2321.0723005317718
 20
-2868.0759948347318
 30
0.0
 11
2321.1723016951692
 21
-2867.5759948347318
 31
0.0
  0
LINE
  5
1D68D
  8
1PHANTOM
 10
2321.1723016951692
 20
-2867.5759948347318
 30
0.0
 11
2321.9722923879899
 21
-2871.5759948347318
 31
0.0
  0
LINE
  5
1D68E
  8
1PHANTOM
 10
2320.37229238799
 20
-2871.5759948347318
 30
0.0
 11
2320.4722935513869
 21
-2871.0759948347318
 31
0.0
  0
LINE
  5
1D68F
  8
1PHANTOM
 10
2319.4723005317719
 20
-2868.0759948347318
 30
0.0
 11
2319.5723016951688
 21
-2867.5759948347318
 31
0.0
  0
LINE
  5
1D690
  8
1PHANTOM
 10
2319.5723016951688
 20
-2867.5759948347318
 30
0.0
 11
2320.37229238799
 21
-2871.5759948347318
 31
0.0
  0
LINE
  5
1D691
  8
1PHANTOM
 10
2318.7722923879919
 20
-2871.5759948347318
 30
0.0
 11
2318.8722935513879
 21
-2871.0759948347318
 31
0.0
  0
LINE
  5
1D692
  8
1PHANTOM
 10
2317.8723005317729
 20
-2868.0759948347318
 30
0.0
 11
2317.9723016951698
 21
-2867.5759948347318
 31
0.0
  0
LINE
  5
1D693
  8
1PHANTOM
 10
2317.9723016951698
 20
-2867.5759948347318
 30
0.0
 11
2318.7722923879919
 21
-2871.5759948347318
 31
0.0
  0
LINE
  5
1D694
  8
1PHANTOM
 10
2317.1722923879911
 20
-2871.5759948347318
 30
0.0
 11
2317.272293551388
 21
-2871.0759948347318
 31
0.0
  0
LINE
  5
1D695
  8
1PHANTOM
 10
2316.272300531773
 20
-2868.0759948347318
 30
0.0
 11
2316.3723016951699
 21
-2867.5759948347318
 31
0.0
  0
LINE
  5
1D696
  8
1PHANTOM
 10
2316.3723016951699
 20
-2867.5759948347318
 30
0.0
 11
2317.1722923879911
 21
-2871.5759948347318
 31
0.0
  0
LINE
  5
1D697
  8
1PHANTOM
 10
2315.5722923879912
 20
-2871.5759948347318
 30
0.0
 11
2315.6722935513881
 21
-2871.0759948347318
 31
0.0
  0
LINE
  5
1D698
  8
1PHANTOM
 10
2314.6723005317722
 20
-2868.0759948347318
 30
0.0
 11
2314.7723016951691
 21
-2867.5759948347318
 31
0.0
  0
LINE
  5
1D699
  8
1PHANTOM
 10
2314.7723016951691
 20
-2867.5759948347318
 30
0.0
 11
2315.5722923879912
 21
-2871.5759948347318
 31
0.0
  0
LINE
  5
1D69A
  8
1PHANTOM
 10
2313.9722923879899
 20
-2871.5759948347318
 30
0.0
 11
2314.0722935513868
 21
-2871.0759948347318
 31
0.0
  0
LINE
  5
1D69B
  8
1PHANTOM
 10
2313.0723005317718
 20
-2868.0759948347318
 30
0.0
 11
2313.1723016951692
 21
-2867.5759948347318
 31
0.0
  0
LINE
  5
1D69C
  8
1PHANTOM
 10
2313.1723016951692
 20
-2867.5759948347318
 30
0.0
 11
2313.9722923879899
 21
-2871.5759948347318
 31
0.0
  0
LINE
  5
1D69D
  8
1PHANTOM
 10
2312.37229238799
 20
-2871.5759948347318
 30
0.0
 11
2312.4722935513869
 21
-2871.0759948347318
 31
0.0
  0
LINE
  5
1D69E
  8
1PHANTOM
 10
2311.4723005317719
 20
-2868.0759948347318
 30
0.0
 11
2311.5723016951679
 21
-2867.5759948347318
 31
0.0
  0
LINE
  5
1D69F
  8
1PHANTOM
 10
2311.5723016951679
 20
-2867.5759948347318
 30
0.0
 11
2312.37229238799
 21
-2871.5759948347318
 31
0.0
  0
LINE
  5
1D6A0
  8
1PHANTOM
 10
2310.772292387986
 20
-2871.5759948347318
 30
0.0
 11
2310.8722935513829
 21
-2871.0759948347318
 31
0.0
  0
LINE
  5
1D6A1
  8
1PHANTOM
 10
2309.8723005317679
 20
-2868.0759948347318
 30
0.0
 11
2309.9723016951639
 21
-2867.5759948347318
 31
0.0
  0
LINE
  5
1D6A2
  8
1PHANTOM
 10
2309.9723016951639
 20
-2867.5759948347318
 30
0.0
 11
2310.772292387986
 21
-2871.5759948347318
 31
0.0
  0
LINE
  5
1D6A3
  8
1PHANTOM
 10
2309.1722923879861
 20
-2871.5759948347318
 30
0.0
 11
2309.272293551383
 21
-2871.0759948347318
 31
0.0
  0
LINE
  5
1D6A4
  8
1PHANTOM
 10
2308.2723005317671
 20
-2868.0759948347318
 30
0.0
 11
2308.372301695164
 21
-2867.5759948347318
 31
0.0
  0
LINE
  5
1D6A5
  8
1PHANTOM
 10
2308.372301695164
 20
-2867.5759948347318
 30
0.0
 11
2309.1722923879861
 21
-2871.5759948347318
 31
0.0
  0
LINE
  5
1D6A6
  8
1PHANTOM
 10
2307.5722923879821
 20
-2871.5759948347318
 30
0.0
 11
2307.6722935513781
 21
-2871.0759948347318
 31
0.0
  0
LINE
  5
1D6A7
  8
1PHANTOM
 10
2307.072282939017
 20
-2869.075918504087
 30
0.0
 11
2307.5722923879821
 21
-2871.5759948347318
 31
0.0
  0
LINE
  5
1D6A8
  8
1PHANTOM
 10
2096.9889870454999
 20
-2686.4588843540441
 30
0.0
 11
2089.3889870455159
 21
-2686.4588666703989
 31
0.0
  0
LINE
  5
1D6A9
  8
1PHANTOM
 10
2096.9889847187069
 20
-2687.4588843540441
 30
0.0
 11
2089.3889847187229
 21
-2687.4588666703899
 31
0.0
  0
LINE
  5
1D6AA
  8
1PHANTOM
 10
2093.6889393577339
 20
-2687.4588772423922
 30
0.0
 11
2092.688941984537
 21
-2686.4588749155992
 31
0.0
  0
LINE
  5
1D6AB
  8
1PHANTOM
 10
2096.9889847187069
 20
-2687.4588843540441
 30
0.0
 11
2096.9889870454999
 21
-2686.4588843540441
 31
0.0
  0
LINE
  5
1D6AC
  8
1PHANTOM
 10
2094.6889870455011
 20
-2687.4588795693039
 30
0.0
 11
2091.6889870455011
 21
-2687.4588725889189
 31
0.0
  0
LINE
  5
1D6AD
  8
1PHANTOM
 10
2089.3889847187229
 20
-2687.4588666703899
 30
0.0
 11
2089.3889870455159
 21
-2686.4588666703989
 31
0.0
  0
LINE
  5
1D6AE
  8
1PHANTOM
 10
2092.0946632315058
 20
-2659.5588735329511
 30
0.0
 11
2094.0569983203818
 21
-2658.758878098899
 31
0.0
  0
LINE
  5
1D6AF
  8
1PHANTOM
 10
2094.0569983203818
 20
-2658.758878098899
 30
0.0
 11
2093.4687217453388
 21
-2658.447108242648
 31
0.0
  0
LINE
  5
1D6B0
  8
1PHANTOM
 10
2095.1890335813978
 20
-2663.558861733145
 30
0.0
 11
2094.6890335813978
 21
-2663.458860569749
 31
0.0
  0
LINE
  5
1D6B1
  8
1PHANTOM
 10
2091.6890335813978
 20
-2664.4588535893658
 30
0.0
 11
2091.1890335813978
 21
-2664.358852425969
 31
0.0
  0
LINE
  5
1D6B2
  8
1PHANTOM
 10
2091.1890335813978
 20
-2664.358852425969
 30
0.0
 11
2095.1890335813978
 21
-2663.558861733145
 31
0.0
  0
LINE
  5
1D6B3
  8
1PHANTOM
 10
2094.5098124247888
 20
-2660.3588791525058
 30
0.0
 11
2093.9580629609841
 21
-2660.1761150098769
 31
0.0
  0
LINE
  5
1D6B4
  8
1PHANTOM
 10
2094.9626265291949
 20
-2661.9588802061098
 30
0.0
 11
2094.4260327939219
 21
-2661.8296095084811
 31
0.0
  0
LINE
  5
1D6B5
  8
1PHANTOM
 10
2092.1099481786068
 20
-2661.271641991696
 30
0.0
 11
2091.6418497234572
 21
-2661.158872479346
 31
0.0
  0
LINE
  5
1D6B6
  8
1PHANTOM
 10
2091.6890335813978
 20
-2662.8588725891332
 30
0.0
 11
2091.1890335813978
 21
-2662.7588714257372
 31
0.0
  0
LINE
  5
1D6B7
  8
1PHANTOM
 10
2092.5518350721359
 20
-2659.7103093293899
 30
0.0
 11
2092.0946632315058
 21
-2659.5588735329511
 31
0.0
  0
LINE
  5
1D6B8
  8
1PHANTOM
 10
2091.6418497234572
 20
-2661.158872479346
 30
0.0
 11
2094.5098124247888
 21
-2660.3588791525058
 31
0.0
  0
LINE
  5
1D6B9
  8
1PHANTOM
 10
2091.1890335813978
 20
-2662.7588714257372
 30
0.0
 11
2094.9626265291949
 21
-2661.9588802061098
 31
0.0
  0
LINE
  5
1D6BA
  8
1PHANTOM
 10
2094.6890335813978
 20
-2687.4588795694108
 30
0.0
 11
2091.6890335813978
 21
-2687.4588725890262
 31
0.0
  0
LINE
  5
1D6BB
  8
1PHANTOM
 10
2093.1890335813978
 20
-2657.4588760792722
 30
0.0
 11
2091.6890335813991
 21
-2662.7588725891369
 31
0.0
  0
LINE
  5
1D6BC
  8
1PHANTOM
 10
2091.6890335813991
 20
-2662.7588725891369
 30
0.0
 11
2091.6890335813978
 21
-2686.4588720221359
 31
0.0
  0
LINE
  5
1D6BD
  8
1PHANTOM
 10
2093.1890335813978
 20
-2657.4588760792722
 30
0.0
 11
2094.6890335813978
 21
-2662.7588795695142
 31
0.0
  0
LINE
  5
1D6BE
  8
1PHANTOM
 10
2089.6889870455011
 20
-2687.4588679353269
 30
0.0
 11
2091.6890335813978
 21
-2687.4588725890262
 31
0.0
  0
LINE
  5
1D6BF
  8
1PHANTOM
 10
2094.6890335813978
 20
-2662.7588795695142
 30
0.0
 11
2094.6890335813978
 21
-2686.4588790025232
 31
0.0
  0
LINE
  5
1D6C0
  8
1PHANTOM
 10
2089.6889870455011
 20
-2687.4588679353269
 30
0.0
 11
2089.6889870455011
 21
-2688.5588714255232
 31
0.0
  0
LINE
  5
1D6C1
  8
1PHANTOM
 10
2094.6890335813978
 20
-2687.4588795694108
 30
0.0
 11
2096.6889870455011
 21
-2687.4588842228918
 31
0.0
  0
ARC
  5
1D6C2
  8
1PHANTOM
 10
2091.1889870454988
 20
-2688.5588714255232
 30
0.0
 40
1.5
 50
180.0
 51
269.99986668447491
  0
LINE
  5
1D6C3
  8
1PHANTOM
 10
2096.6889870455011
 20
-2687.4588842228918
 30
0.0
 11
2096.6889870455011
 21
-2688.5588807327022
 31
0.0
  0
LINE
  5
1D6C4
  8
1PHANTOM
 10
2091.1889835553079
 20
-2690.0588714255191
 30
0.0
 11
2095.1889835553079
 21
-2690.058880732699
 31
0.0
  0
ARC
  5
1D6C5
  8
1PHANTOM
 10
2095.1889870454988
 20
-2688.5588807327022
 30
0.0
 40
1.5
 50
269.99986668447491
 51
0.0
  0
LINE
  5
1D6C6
  8
1PHANTOM
 10
2095.1890335813978
 20
-2665.1588617331458
 30
0.0
 11
2094.6890335813978
 21
-2665.058860569749
 31
0.0
  0
LINE
  5
1D6C7
  8
1PHANTOM
 10
2091.6890335813978
 20
-2666.0588535893662
 30
0.0
 11
2091.1890335813978
 21
-2665.9588524259698
 31
0.0
  0
LINE
  5
1D6C8
  8
1PHANTOM
 10
2091.1890335813978
 20
-2665.9588524259698
 30
0.0
 11
2095.1890335813978
 21
-2665.1588617331458
 31
0.0
  0
LINE
  5
1D6C9
  8
1PHANTOM
 10
2095.1890335813978
 20
-2666.7588617331498
 30
0.0
 11
2094.6890335813978
 21
-2666.658860569753
 31
0.0
  0
LINE
  5
1D6CA
  8
1PHANTOM
 10
2091.6890335813978
 20
-2667.6588535893711
 30
0.0
 11
2091.1890335813978
 21
-2667.5588524259729
 31
0.0
  0
LINE
  5
1D6CB
  8
1PHANTOM
 10
2091.1890335813978
 20
-2667.5588524259729
 30
0.0
 11
2095.1890335813978
 21
-2666.7588617331498
 31
0.0
  0
LINE
  5
1D6CC
  8
1PHANTOM
 10
2095.1890335813978
 20
-2668.3588617331502
 30
0.0
 11
2094.6890335813978
 21
-2668.2588605697529
 31
0.0
  0
LINE
  5
1D6CD
  8
1PHANTOM
 10
2091.6890335813978
 20
-2669.258853589371
 30
0.0
 11
2091.1890335813978
 21
-2669.1588524259741
 31
0.0
  0
LINE
  5
1D6CE
  8
1PHANTOM
 10
2091.1890335813978
 20
-2669.1588524259741
 30
0.0
 11
2095.1890335813978
 21
-2668.3588617331502
 31
0.0
  0
LINE
  5
1D6CF
  8
1PHANTOM
 10
2095.1890335813978
 20
-2669.958861733151
 30
0.0
 11
2094.6890335813978
 21
-2669.8588605697541
 31
0.0
  0
LINE
  5
1D6D0
  8
1PHANTOM
 10
2091.6890335813978
 20
-2670.8588535893709
 30
0.0
 11
2091.1890335813978
 21
-2670.7588524259741
 31
0.0
  0
LINE
  5
1D6D1
  8
1PHANTOM
 10
2091.1890335813978
 20
-2670.7588524259741
 30
0.0
 11
2095.1890335813978
 21
-2669.958861733151
 31
0.0
  0
LINE
  5
1D6D2
  8
1PHANTOM
 10
2095.1890335813978
 20
-2671.558861733155
 30
0.0
 11
2094.6890335813978
 21
-2671.4588605697581
 31
0.0
  0
LINE
  5
1D6D3
  8
1PHANTOM
 10
2091.6890335813978
 20
-2672.4588535893749
 30
0.0
 11
2091.1890335813978
 21
-2672.3588524259781
 31
0.0
  0
LINE
  5
1D6D4
  8
1PHANTOM
 10
2091.1890335813978
 20
-2672.3588524259781
 30
0.0
 11
2095.1890335813978
 21
-2671.558861733155
 31
0.0
  0
LINE
  5
1D6D5
  8
1PHANTOM
 10
2095.1890335813978
 20
-2673.1588617331549
 30
0.0
 11
2094.6890335813978
 21
-2673.0588605697581
 31
0.0
  0
LINE
  5
1D6D6
  8
1PHANTOM
 10
2091.6890335813978
 20
-2674.0588535893762
 30
0.0
 11
2091.1890335813978
 21
-2673.958852425978
 31
0.0
  0
LINE
  5
1D6D7
  8
1PHANTOM
 10
2091.1890335813978
 20
-2673.958852425978
 30
0.0
 11
2095.1890335813978
 21
-2673.1588617331549
 31
0.0
  0
LINE
  5
1D6D8
  8
1PHANTOM
 10
2095.1890335813978
 20
-2674.7588617331562
 30
0.0
 11
2094.6890335813978
 21
-2674.658860569758
 31
0.0
  0
LINE
  5
1D6D9
  8
1PHANTOM
 10
2091.6890335813978
 20
-2675.6588535893761
 30
0.0
 11
2091.1890335813978
 21
-2675.5588524259788
 31
0.0
  0
LINE
  5
1D6DA
  8
1PHANTOM
 10
2091.1890335813978
 20
-2675.5588524259788
 30
0.0
 11
2095.1890335813978
 21
-2674.7588617331562
 31
0.0
  0
LINE
  5
1D6DB
  8
1PHANTOM
 10
2095.1890335813978
 20
-2676.3588617331588
 30
0.0
 11
2094.6890335813978
 21
-2676.2588605697629
 31
0.0
  0
LINE
  5
1D6DC
  8
1PHANTOM
 10
2091.6890335813978
 20
-2677.2588535893801
 30
0.0
 11
2091.1890335813978
 21
-2677.1588524259828
 31
0.0
  0
LINE
  5
1D6DD
  8
1PHANTOM
 10
2091.1890335813978
 20
-2677.1588524259828
 30
0.0
 11
2095.1890335813978
 21
-2676.3588617331588
 31
0.0
  0
LINE
  5
1D6DE
  8
1PHANTOM
 10
2095.1890335813978
 20
-2677.9588617331601
 30
0.0
 11
2094.6890335813978
 21
-2677.8588605697628
 31
0.0
  0
LINE
  5
1D6DF
  8
1PHANTOM
 10
2091.6890335813978
 20
-2678.85885358938
 30
0.0
 11
2091.1890335813978
 21
-2678.7588524259832
 31
0.0
  0
LINE
  5
1D6E0
  8
1PHANTOM
 10
2091.1890335813978
 20
-2678.7588524259832
 30
0.0
 11
2095.1890335813978
 21
-2677.9588617331601
 31
0.0
  0
LINE
  5
1D6E1
  8
1PHANTOM
 10
2095.1890335813978
 20
-2679.55886173316
 30
0.0
 11
2094.6890335813978
 21
-2679.4588605697631
 31
0.0
  0
LINE
  5
1D6E2
  8
1PHANTOM
 10
2091.6890335813978
 20
-2680.4588535893799
 30
0.0
 11
2091.1890335813978
 21
-2680.358852425984
 31
0.0
  0
LINE
  5
1D6E3
  8
1PHANTOM
 10
2091.1890335813978
 20
-2680.358852425984
 30
0.0
 11
2095.1890335813978
 21
-2679.55886173316
 31
0.0
  0
LINE
  5
1D6E4
  8
1PHANTOM
 10
2095.1890335813978
 20
-2681.1588617331608
 30
0.0
 11
2094.6890335813978
 21
-2681.058860569764
 31
0.0
  0
LINE
  5
1D6E5
  8
1PHANTOM
 10
2091.6890335813978
 20
-2682.0588535893812
 30
0.0
 11
2091.1890335813978
 21
-2681.9588524259839
 31
0.0
  0
LINE
  5
1D6E6
  8
1PHANTOM
 10
2091.1890335813978
 20
-2681.9588524259839
 30
0.0
 11
2095.1890335813978
 21
-2681.1588617331608
 31
0.0
  0
LINE
  5
1D6E7
  8
1PHANTOM
 10
2095.1890335813978
 20
-2682.7588617331648
 30
0.0
 11
2094.6890335813978
 21
-2682.658860569768
 31
0.0
  0
LINE
  5
1D6E8
  8
1PHANTOM
 10
2091.6890335813978
 20
-2683.6588535893852
 30
0.0
 11
2091.1890335813978
 21
-2683.5588524259879
 31
0.0
  0
LINE
  5
1D6E9
  8
1PHANTOM
 10
2091.1890335813978
 20
-2683.5588524259879
 30
0.0
 11
2095.1890335813978
 21
-2682.7588617331648
 31
0.0
  0
LINE
  5
1D6EA
  8
1PHANTOM
 10
2095.1890335813978
 20
-2684.3588617331652
 30
0.0
 11
2094.6890335813978
 21
-2684.2588605697679
 31
0.0
  0
LINE
  5
1D6EB
  8
1PHANTOM
 10
2091.6890335813978
 20
-2685.2588535893851
 30
0.0
 11
2091.1890335813978
 21
-2685.1588524259878
 31
0.0
  0
LINE
  5
1D6EC
  8
1PHANTOM
 10
2091.1890335813978
 20
-2685.1588524259878
 30
0.0
 11
2095.1890335813978
 21
-2684.3588617331652
 31
0.0
  0
LINE
  5
1D6ED
  8
1PHANTOM
 10
2095.1890335813978
 20
-2685.9588617331692
 30
0.0
 11
2094.6890335813978
 21
-2685.8588605697719
 31
0.0
  0
LINE
  5
1D6EE
  8
1PHANTOM
 10
2092.688941417659
 20
-2686.458874348717
 30
0.0
 11
2095.1890335813978
 21
-2685.9588617331692
 31
0.0
  0
LINE
  5
1D6EF
  8
1PHANTOM
 10
2071.9889870454999
 20
-2686.4588843540441
 30
0.0
 11
2064.3889870455159
 21
-2686.4588666703989
 31
0.0
  0
LINE
  5
1D6F0
  8
1PHANTOM
 10
2071.9889847187069
 20
-2687.4588843540441
 30
0.0
 11
2064.3889847187238
 21
-2687.4588666703899
 31
0.0
  0
LINE
  5
1D6F1
  8
1PHANTOM
 10
2068.6889393577349
 20
-2687.4588772423922
 30
0.0
 11
2067.688941984537
 21
-2686.4588749155992
 31
0.0
  0
LINE
  5
1D6F2
  8
1PHANTOM
 10
2071.9889847187069
 20
-2687.4588843540441
 30
0.0
 11
2071.9889870454999
 21
-2686.4588843540441
 31
0.0
  0
LINE
  5
1D6F3
  8
1PHANTOM
 10
2069.6889870455011
 20
-2687.4588795693039
 30
0.0
 11
2066.6889870455011
 21
-2687.4588725889189
 31
0.0
  0
LINE
  5
1D6F4
  8
1PHANTOM
 10
2064.3889847187238
 20
-2687.4588666703899
 30
0.0
 11
2064.3889870455159
 21
-2686.4588666703989
 31
0.0
  0
LINE
  5
1D6F5
  8
1PHANTOM
 10
2067.0946632315058
 20
-2659.5588735329511
 30
0.0
 11
2069.0569983203818
 21
-2658.758878098899
 31
0.0
  0
LINE
  5
1D6F6
  8
1PHANTOM
 10
2069.0569983203818
 20
-2658.758878098899
 30
0.0
 11
2068.4687217453388
 21
-2658.447108242648
 31
0.0
  0
LINE
  5
1D6F7
  8
1PHANTOM
 10
2070.1890335813978
 20
-2663.558861733145
 30
0.0
 11
2069.6890335813978
 21
-2663.458860569749
 31
0.0
  0
LINE
  5
1D6F8
  8
1PHANTOM
 10
2066.6890335813978
 20
-2664.4588535893658
 30
0.0
 11
2066.1890335813978
 21
-2664.358852425969
 31
0.0
  0
LINE
  5
1D6F9
  8
1PHANTOM
 10
2066.1890335813978
 20
-2664.358852425969
 30
0.0
 11
2070.1890335813978
 21
-2663.558861733145
 31
0.0
  0
LINE
  5
1D6FA
  8
1PHANTOM
 10
2069.5098124247879
 20
-2660.3588791525058
 30
0.0
 11
2068.9580629609841
 21
-2660.1761150098769
 31
0.0
  0
LINE
  5
1D6FB
  8
1PHANTOM
 10
2069.9626265291949
 20
-2661.9588802061098
 30
0.0
 11
2069.4260327939219
 21
-2661.8296095084811
 31
0.0
  0
LINE
  5
1D6FC
  8
1PHANTOM
 10
2067.1099481786068
 20
-2661.271641991696
 30
0.0
 11
2066.6418497234572
 21
-2661.158872479346
 31
0.0
  0
LINE
  5
1D6FD
  8
1PHANTOM
 10
2066.6890335813978
 20
-2662.8588725891332
 30
0.0
 11
2066.1890335813978
 21
-2662.7588714257372
 31
0.0
  0
LINE
  5
1D6FE
  8
1PHANTOM
 10
2067.551835072135
 20
-2659.7103093293899
 30
0.0
 11
2067.0946632315058
 21
-2659.5588735329511
 31
0.0
  0
LINE
  5
1D6FF
  8
1PHANTOM
 10
2066.6418497234572
 20
-2661.158872479346
 30
0.0
 11
2069.5098124247879
 21
-2660.3588791525058
 31
0.0
  0
LINE
  5
1D700
  8
1PHANTOM
 10
2066.1890335813978
 20
-2662.7588714257372
 30
0.0
 11
2069.9626265291949
 21
-2661.9588802061098
 31
0.0
  0
LINE
  5
1D701
  8
1PHANTOM
 10
2069.6890335813978
 20
-2687.4588795694108
 30
0.0
 11
2066.6890335813978
 21
-2687.4588725890262
 31
0.0
  0
LINE
  5
1D702
  8
1PHANTOM
 10
2068.1890335813978
 20
-2657.4588760792722
 30
0.0
 11
2066.6890335813991
 21
-2662.7588725891369
 31
0.0
  0
LINE
  5
1D703
  8
1PHANTOM
 10
2066.6890335813991
 20
-2662.7588725891369
 30
0.0
 11
2066.6890335813978
 21
-2686.4588720221359
 31
0.0
  0
LINE
  5
1D704
  8
1PHANTOM
 10
2068.1890335813978
 20
-2657.4588760792722
 30
0.0
 11
2069.6890335813978
 21
-2662.7588795695142
 31
0.0
  0
LINE
  5
1D705
  8
1PHANTOM
 10
2064.6889870455011
 20
-2687.4588679353269
 30
0.0
 11
2066.6890335813978
 21
-2687.4588725890262
 31
0.0
  0
LINE
  5
1D706
  8
1PHANTOM
 10
2069.6890335813978
 20
-2662.7588795695142
 30
0.0
 11
2069.6890335813978
 21
-2686.4588790025232
 31
0.0
  0
LINE
  5
1D707
  8
1PHANTOM
 10
2064.6889870455011
 20
-2687.4588679353269
 30
0.0
 11
2064.6889870455011
 21
-2688.5588714255232
 31
0.0
  0
LINE
  5
1D708
  8
1PHANTOM
 10
2069.6890335813978
 20
-2687.4588795694108
 30
0.0
 11
2071.6889870455011
 21
-2687.4588842228918
 31
0.0
  0
ARC
  5
1D709
  8
1PHANTOM
 10
2066.1889870454988
 20
-2688.5588714255232
 30
0.0
 40
1.5
 50
180.0
 51
269.99986668447491
  0
LINE
  5
1D70A
  8
1PHANTOM
 10
2071.6889870455011
 20
-2687.4588842228918
 30
0.0
 11
2071.6889870455011
 21
-2688.5588807327022
 31
0.0
  0
LINE
  5
1D70B
  8
1PHANTOM
 10
2066.1889835553079
 20
-2690.0588714255191
 30
0.0
 11
2070.1889835553079
 21
-2690.058880732699
 31
0.0
  0
ARC
  5
1D70C
  8
1PHANTOM
 10
2070.1889870454988
 20
-2688.5588807327022
 30
0.0
 40
1.5
 50
269.99986668447491
 51
0.0
  0
LINE
  5
1D70D
  8
1PHANTOM
 10
2070.1890335813978
 20
-2665.1588617331458
 30
0.0
 11
2069.6890335813978
 21
-2665.058860569749
 31
0.0
  0
LINE
  5
1D70E
  8
1PHANTOM
 10
2066.6890335813978
 20
-2666.0588535893662
 30
0.0
 11
2066.1890335813978
 21
-2665.9588524259698
 31
0.0
  0
LINE
  5
1D70F
  8
1PHANTOM
 10
2066.1890335813978
 20
-2665.9588524259698
 30
0.0
 11
2070.1890335813978
 21
-2665.1588617331458
 31
0.0
  0
LINE
  5
1D710
  8
1PHANTOM
 10
2070.1890335813978
 20
-2666.7588617331498
 30
0.0
 11
2069.6890335813978
 21
-2666.658860569753
 31
0.0
  0
LINE
  5
1D711
  8
1PHANTOM
 10
2066.6890335813978
 20
-2667.6588535893711
 30
0.0
 11
2066.1890335813978
 21
-2667.5588524259729
 31
0.0
  0
LINE
  5
1D712
  8
1PHANTOM
 10
2066.1890335813978
 20
-2667.5588524259729
 30
0.0
 11
2070.1890335813978
 21
-2666.7588617331498
 31
0.0
  0
LINE
  5
1D713
  8
1PHANTOM
 10
2070.1890335813978
 20
-2668.3588617331502
 30
0.0
 11
2069.6890335813978
 21
-2668.2588605697529
 31
0.0
  0
LINE
  5
1D714
  8
1PHANTOM
 10
2066.6890335813978
 20
-2669.258853589371
 30
0.0
 11
2066.1890335813978
 21
-2669.1588524259741
 31
0.0
  0
LINE
  5
1D715
  8
1PHANTOM
 10
2066.1890335813978
 20
-2669.1588524259741
 30
0.0
 11
2070.1890335813978
 21
-2668.3588617331502
 31
0.0
  0
LINE
  5
1D716
  8
1PHANTOM
 10
2070.1890335813978
 20
-2669.958861733151
 30
0.0
 11
2069.6890335813978
 21
-2669.8588605697541
 31
0.0
  0
LINE
  5
1D717
  8
1PHANTOM
 10
2066.6890335813978
 20
-2670.8588535893709
 30
0.0
 11
2066.1890335813978
 21
-2670.7588524259741
 31
0.0
  0
LINE
  5
1D718
  8
1PHANTOM
 10
2066.1890335813978
 20
-2670.7588524259741
 30
0.0
 11
2070.1890335813978
 21
-2669.958861733151
 31
0.0
  0
LINE
  5
1D719
  8
1PHANTOM
 10
2070.1890335813978
 20
-2671.558861733155
 30
0.0
 11
2069.6890335813978
 21
-2671.4588605697581
 31
0.0
  0
LINE
  5
1D71A
  8
1PHANTOM
 10
2066.6890335813978
 20
-2672.4588535893749
 30
0.0
 11
2066.1890335813978
 21
-2672.3588524259781
 31
0.0
  0
LINE
  5
1D71B
  8
1PHANTOM
 10
2066.1890335813978
 20
-2672.3588524259781
 30
0.0
 11
2070.1890335813978
 21
-2671.558861733155
 31
0.0
  0
LINE
  5
1D71C
  8
1PHANTOM
 10
2070.1890335813978
 20
-2673.1588617331549
 30
0.0
 11
2069.6890335813978
 21
-2673.0588605697581
 31
0.0
  0
LINE
  5
1D71D
  8
1PHANTOM
 10
2066.6890335813978
 20
-2674.0588535893762
 30
0.0
 11
2066.1890335813978
 21
-2673.958852425978
 31
0.0
  0
LINE
  5
1D71E
  8
1PHANTOM
 10
2066.1890335813978
 20
-2673.958852425978
 30
0.0
 11
2070.1890335813978
 21
-2673.1588617331549
 31
0.0
  0
LINE
  5
1D71F
  8
1PHANTOM
 10
2070.1890335813978
 20
-2674.7588617331562
 30
0.0
 11
2069.6890335813978
 21
-2674.658860569758
 31
0.0
  0
LINE
  5
1D720
  8
1PHANTOM
 10
2066.6890335813978
 20
-2675.6588535893761
 30
0.0
 11
2066.1890335813978
 21
-2675.5588524259788
 31
0.0
  0
LINE
  5
1D721
  8
1PHANTOM
 10
2066.1890335813978
 20
-2675.5588524259788
 30
0.0
 11
2070.1890335813978
 21
-2674.7588617331562
 31
0.0
  0
LINE
  5
1D722
  8
1PHANTOM
 10
2070.1890335813978
 20
-2676.3588617331588
 30
0.0
 11
2069.6890335813978
 21
-2676.2588605697629
 31
0.0
  0
LINE
  5
1D723
  8
1PHANTOM
 10
2066.6890335813978
 20
-2677.2588535893801
 30
0.0
 11
2066.1890335813978
 21
-2677.1588524259828
 31
0.0
  0
LINE
  5
1D724
  8
1PHANTOM
 10
2066.1890335813978
 20
-2677.1588524259828
 30
0.0
 11
2070.1890335813978
 21
-2676.3588617331588
 31
0.0
  0
LINE
  5
1D725
  8
1PHANTOM
 10
2070.1890335813978
 20
-2677.9588617331601
 30
0.0
 11
2069.6890335813978
 21
-2677.8588605697628
 31
0.0
  0
LINE
  5
1D726
  8
1PHANTOM
 10
2066.6890335813978
 20
-2678.85885358938
 30
0.0
 11
2066.1890335813978
 21
-2678.7588524259832
 31
0.0
  0
LINE
  5
1D727
  8
1PHANTOM
 10
2066.1890335813978
 20
-2678.7588524259832
 30
0.0
 11
2070.1890335813978
 21
-2677.9588617331601
 31
0.0
  0
LINE
  5
1D728
  8
1PHANTOM
 10
2070.1890335813978
 20
-2679.55886173316
 30
0.0
 11
2069.6890335813978
 21
-2679.4588605697631
 31
0.0
  0
LINE
  5
1D729
  8
1PHANTOM
 10
2066.6890335813978
 20
-2680.4588535893799
 30
0.0
 11
2066.1890335813978
 21
-2680.358852425984
 31
0.0
  0
LINE
  5
1D72A
  8
1PHANTOM
 10
2066.1890335813978
 20
-2680.358852425984
 30
0.0
 11
2070.1890335813978
 21
-2679.55886173316
 31
0.0
  0
LINE
  5
1D72B
  8
1PHANTOM
 10
2070.1890335813978
 20
-2681.1588617331608
 30
0.0
 11
2069.6890335813978
 21
-2681.058860569764
 31
0.0
  0
LINE
  5
1D72C
  8
1PHANTOM
 10
2066.6890335813978
 20
-2682.0588535893812
 30
0.0
 11
2066.1890335813978
 21
-2681.9588524259839
 31
0.0
  0
LINE
  5
1D72D
  8
1PHANTOM
 10
2066.1890335813978
 20
-2681.9588524259839
 30
0.0
 11
2070.1890335813978
 21
-2681.1588617331608
 31
0.0
  0
LINE
  5
1D72E
  8
1PHANTOM
 10
2070.1890335813978
 20
-2682.7588617331648
 30
0.0
 11
2069.6890335813978
 21
-2682.658860569768
 31
0.0
  0
LINE
  5
1D72F
  8
1PHANTOM
 10
2066.6890335813978
 20
-2683.6588535893852
 30
0.0
 11
2066.1890335813978
 21
-2683.5588524259879
 31
0.0
  0
LINE
  5
1D730
  8
1PHANTOM
 10
2066.1890335813978
 20
-2683.5588524259879
 30
0.0
 11
2070.1890335813978
 21
-2682.7588617331648
 31
0.0
  0
LINE
  5
1D731
  8
1PHANTOM
 10
2070.1890335813978
 20
-2684.3588617331652
 30
0.0
 11
2069.6890335813978
 21
-2684.2588605697679
 31
0.0
  0
LINE
  5
1D732
  8
1PHANTOM
 10
2066.6890335813978
 20
-2685.2588535893851
 30
0.0
 11
2066.1890335813978
 21
-2685.1588524259878
 31
0.0
  0
LINE
  5
1D733
  8
1PHANTOM
 10
2066.1890335813978
 20
-2685.1588524259878
 30
0.0
 11
2070.1890335813978
 21
-2684.3588617331652
 31
0.0
  0
LINE
  5
1D734
  8
1PHANTOM
 10
2070.1890335813978
 20
-2685.9588617331692
 30
0.0
 11
2069.6890335813978
 21
-2685.8588605697719
 31
0.0
  0
LINE
  5
1D735
  8
1PHANTOM
 10
2067.688941417658
 20
-2686.458874348717
 30
0.0
 11
2070.1890335813978
 21
-2685.9588617331692
 31
0.0
  0
LINE
  5
1D7E5
  8
1DIM
 10
1997.188979016667
 20
-2683.458884819489
 30
0.0
 11
1997.188979016667
 21
-2672.458884819489
 31
0.0
  0
LINE
  5
1D7E6
  8
1DIM
 10
2080.688963980177
 20
-2673.458884819489
 30
0.0
 11
2080.688963980177
 21
-2672.458884819489
 31
0.0
  0
LINE
  5
1D7E7
  8
1DIM
 10
1999.188979016667
 20
-2673.458884819489
 30
0.0
 11
2078.688963980177
 21
-2673.458884819489
 31
0.0
  0
TEXT
  5
1D7EB
  8
1DIM
 10
2286.1263030347632
 20
-2908.197818341388
 30
0.0
 40
3.5
  1
材質：亜鉛ダイキャスト
  0
TEXT
  5
1D7EC
  8
1DIM
 10
2286.1263030347632
 20
-2914.031151674722
 30
0.0
 40
3.5
  1
仕上げ：クローム
  0
SOLID
  5
1D7ED
  8
1DIM
 10
2251.6092575437101
 20
-2874.8336338875042
 30
0.0
 11
2250.6344853338701
 21
-2873.0557333700299
 31
0.0
 12
2252.1331835380352
 22
-2874.4213888185041
 32
0.0
 13
2252.1331835380352
 23
-2874.4213888185041
 33
0.0
  0
TEXT
  5
1D7EF
  8
1DIM
 10
2137.8907995606578
 20
-2666.6212731158812
 30
0.0
 40
3.5
  1
材質：亜鉛ダイキャスト
  0
TEXT
  5
1D7F0
  8
1DIM
 10
2137.8907995606578
 20
-2672.4546064492142
 30
0.0
 40
3.5
  1
仕上げ：クローム
  0
SOLID
  5
1D7F1
  8
1DIM
 10
2114.3291581003541
 20
-2700.0326615379909
 30
0.0
 11
2112.8261424440179
 21
-2701.3935638298249
 31
0.0
 12
2113.8065402945522
 22
-2699.6187592868459
 32
0.0
 13
2113.8065402945522
 23
-2699.6187592868459
 33
0.0
  0
TEXT
  5
1D7F3
  8
1DIM
 10
2275.7807128040599
 20
-2923.6889666525608
 30
0.0
 40
3.5
  1
材質：ABS樹脂
  0
TEXT
  5
1D7F4
  8
1DIM
 10
2275.7807128040599
 20
-2929.5222999858952
 30
0.0
 40
3.5
  1
仕上げ：表参照
  0
SOLID
  5
1D7F5
  8
1DIM
 10
2228.467290954929
 20
-2872.8188805034479
 30
0.0
 11
2227.5113677144191
 21
-2871.030774838403
 31
0.0
 12
2228.9955455900508
 22
-2872.4121969840912
 32
0.0
 13
2228.9955455900508
 23
-2872.4121969840912
 33
0.0
  0
TEXT
  5
1D7F7
  8
1DIM
 10
2207.909247046648
 20
-2800.5638395505121
 30
0.0
 40
3.5
  1
材質：亜鉛ダイキャスト
  0
TEXT
  5
1D7F8
  8
1DIM
 10
2220.0425803799808
 20
-2806.397172883846
 30
0.0
 40
3.5
  1
仕上げ：クローム
  0
SOLID
  5
1D7F9
  8
1DIM
 10
2280.1415209743018
 20
-2838.1147240930309
 30
0.0
 11
2281.1210504411001
 21
-2839.890008051947
 31
0.0
 12
2279.6187007425879
 22
-2838.5283706205828
 32
0.0
 13
2279.6187007425879
 23
-2838.5283706205828
 33
0.0
  0
LINE
  5
1D7FB
  8
1DIM
 10
2018.1889790166649
 20
-2814.4260902653832
 30
0.0
 11
2018.1889790166649
 21
-2898.3080017469961
 31
0.0
  0
LINE
  5
1D7FC
  8
1DIM
 10
2143.1889790166701
 20
-2814.003294197656
 30
0.0
 11
2143.1889790166701
 21
-2898.3080017469961
 31
0.0
  0
LINE
  5
1D7FD
  8
1DIM
 10
2020.1889790166661
 20
-2897.3080017469961
 30
0.0
 11
2141.1889790166701
 21
-2897.3080017469961
 31
0.0
  0
LINE
  5
1D801
  8
1DIM
 10
1997.188979016667
 20
-2683.458884819489
 30
0.0
 11
1997.188979016667
 21
-2662.458884819489
 31
0.0
  0
LINE
  5
1D802
  8
1DIM
 10
2111.6889790166688
 20
-2683.458884819489
 30
0.0
 11
2111.6889790166688
 21
-2662.458884819489
 31
0.0
  0
LINE
  5
1D803
  8
1DIM
 10
1999.188979016667
 20
-2663.458884819489
 30
0.0
 11
2109.6889790166679
 21
-2663.458884819489
 31
0.0
  0
LINE
  5
1D807
  8
1DIM
 10
2068.1889790166688
 20
-2860.8080017469961
 30
0.0
 11
2068.1889790166688
 21
-2888.3080017469961
 31
0.0
  0
LINE
  5
1D808
  8
1DIM
 10
2093.188979016667
 20
-2860.8080017469961
 30
0.0
 11
2093.188979016667
 21
-2888.3080017469961
 31
0.0
  0
LINE
  5
1D809
  8
1DIM
 10
2070.1889790166688
 20
-2887.3080017469961
 30
0.0
 11
2091.188979016667
 21
-2887.3080017469961
 31
0.0
  0
LINE
  5
1D80D
  8
1DIM
 10
2148.6889790168502
 20
-2847.808015518317
 30
0.0
 11
2160.188979016667
 21
-2847.808015518317
 31
0.0
  0
LINE
  5
1D80E
  8
1DIM
 10
2148.6889790166661
 20
-2867.3080017469961
 30
0.0
 11
2160.188979016667
 21
-2867.3080017469961
 31
0.0
  0
LINE
  5
1D80F
  8
1DIM
 10
2159.1889790166679
 20
-2849.808015518317
 30
0.0
 11
2159.1889790166679
 21
-2865.3080017469961
 31
0.0
  0
LINE
  5
1D813
  8
1DIM
 10
2111.6889790166688
 20
-2683.4588848194871
 30
0.0
 11
2160.1889790166701
 21
-2683.4588848194871
 31
0.0
  0
LINE
  5
1D814
  8
1DIM
 10
2142.188979016667
 20
-2780.508001746995
 30
0.0
 11
2160.1889790166701
 21
-2780.508001746995
 31
0.0
  0
LINE
  5
1D815
  8
1DIM
 10
2159.1889790166701
 20
-2685.458884819488
 30
0.0
 11
2159.1889790166701
 21
-2778.508001746995
 31
0.0
  0
LINE
  5
1D819
  8
1DIM
 10
1997.188979016669
 20
-2848.3780812105401
 30
0.0
 11
1997.188979016669
 21
-2789.508001746995
 31
0.0
  0
LINE
  5
1D81A
  8
1DIM
 10
2149.1889790166651
 20
-2848.344863052524
 30
0.0
 11
2149.1889790166651
 21
-2789.508001746995
 31
0.0
  0
LINE
  5
1D81B
  8
1DIM
 10
1999.1889790166699
 20
-2790.508001746995
 30
0.0
 11
2147.1889790166638
 21
-2790.508001746995
 31
0.0
  0
LINE
  5
1D81F
  8
1DIM
 10
2300.57843696092
 20
-2812.4698184579538
 30
0.0
 11
2364.072279459549
 21
-2812.4698184579538
 31
0.0
  0
LINE
  5
1D820
  8
1DIM
 10
2310.0722794595858
 20
-2879.0759482988419
 30
0.0
 11
2364.072279459549
 21
-2879.0759482988419
 31
0.0
  0
LINE
  5
1D821
  8
1DIM
 10
2363.0722794595499
 20
-2814.4698184579538
 30
0.0
 11
2363.0722794595499
 21
-2877.0759482988428
 31
0.0
  0
LINE
  5
1D825
  8
1DIM
 10
2300.57843696092
 20
-2812.4698184579538
 30
0.0
 11
2354.0722794595499
 21
-2812.4698184579538
 31
0.0
  0
LINE
  5
1D826
  8
1DIM
 10
2341.9486492309761
 20
-2841.575948298831
 30
0.0
 11
2354.0722794595499
 21
-2841.575948298831
 31
0.0
  0
LINE
  5
1D827
  8
1DIM
 10
2353.072279459549
 20
-2814.4698184579538
 30
0.0
 11
2353.072279459549
 21
-2839.575948298831
 31
0.0
  0
LINE
  5
1D82B
  8
1DIM
 10
2341.9486492309761
 20
-2841.575948298831
 30
0.0
 11
2354.0722794595499
 21
-2841.575948298831
 31
0.0
  0
LINE
  5
1D82C
  8
1DIM
 10
2341.9486492309761
 20
-2869.575948298841
 30
0.0
 11
2354.0722794595499
 21
-2869.575948298841
 31
0.0
  0
LINE
  5
1D82D
  8
1DIM
 10
2353.072279459549
 20
-2843.575948298831
 30
0.0
 11
2353.072279459549
 21
-2867.575948298841
 31
0.0
  0
LINE
  5
1D831
  8
1DIM
 10
2310.0722794595881
 20
-2899.5759482988419
 30
0.0
 11
2310.0722794595881
 21
-2898.0759482988419
 31
0.0
  0
LINE
  5
1D832
  8
1DIM
 10
2294.0722794595872
 20
-2876.3435276749569
 30
0.0
 11
2294.0722794595872
 21
-2900.0759482988428
 31
0.0
  0
LINE
  5
1D833
  8
1DIM
 10
2308.0722794595881
 20
-2899.0759482988419
 30
0.0
 11
2296.0722794595872
 21
-2899.0759482988419
 31
0.0
  0
LINE
  5
1D837
  8
1DIM
 10
2203.233271268371
 20
-2826.5247714115039
 30
0.0
 11
2203.233271268371
 21
-2781.4698184579538
 31
0.0
  0
LINE
  5
1D838
  8
1DIM
 10
2310.0722794595881
 20
-2793.4698184579538
 30
0.0
 11
2310.0722794595881
 21
-2781.4698184579538
 31
0.0
  0
LINE
  5
1D839
  8
1DIM
 10
2205.233271268371
 20
-2782.4698184579538
 30
0.0
 11
2308.0722794595881
 21
-2782.4698184579538
 31
0.0
  0
LINE
  5
1D83D
  8
1DIM
 10
2271.5723023245109
 20
-2823.475948298837
 30
0.0
 11
2271.5723023245109
 21
-2791.4698184579538
 31
0.0
  0
LINE
  5
1D83E
  8
1DIM
 10
2310.0722794595881
 20
-2790.9735005731909
 30
0.0
 11
2310.0722794595881
 21
-2793.4698184579538
 31
0.0
  0
LINE
  5
1D83F
  8
1DIM
 10
2273.57230232451
 20
-2792.4698184579538
 30
0.0
 11
2308.0722794595881
 21
-2792.4698184579538
 31
0.0
  0
LINE
  5
1D843
  8
1DIM
 10
2287.5722794595949
 20
-2817.2759482988399
 30
0.0
 11
2287.5722794595949
 21
-2801.4698184579538
 31
0.0
  0
LINE
  5
1D844
  8
1DIM
 10
2310.0722794595881
 20
-2790.9735005731909
 30
0.0
 11
2310.0722794595881
 21
-2803.4698184579538
 31
0.0
  0
LINE
  5
1D845
  8
1DIM
 10
2289.5722794595949
 20
-2802.4698184579538
 30
0.0
 11
2308.0722794595881
 21
-2802.4698184579538
 31
0.0
  0
TEXT
  5
1D849
  8
1TEXT
 10
2321.380329373711
 20
-2775.334699069308
 30
0.0
 40
3.5
  1
合板12mm以上
  0
SOLID
  5
1D84A
  8
1DIM
 10
2324.26870504717
 20
-2788.4674634617941
 30
0.0
 11
2324.736520066097
 21
-2790.440344659225
 31
0.0
 12
2323.6541389841618
 22
-2788.7258294786038
 32
0.0
 13
2323.6541389841618
 23
-2788.7258294786038
 33
0.0
  0
TEXT
  5
1D84C
  8
1HATCH
 10
2313.7273807019792
 20
-2769.2841054921778
 30
0.0
 40
3.5
  1
PB
  0
SOLID
  5
1D84D
  8
1HATCH
 10
2314.6319108136222
 20
-2788.4368664958679
 30
0.0
 11
2314.6522480816661
 21
-2790.4643520091681
 31
0.0
 12
2313.9754472562299
 22
-2788.5530561781152
 32
0.0
 13
2313.9754472562299
 23
-2788.5530561781152
 33
0.0
  0
LINE
  5
1D84F
  8
1HATCH
 10
2314.3036790349261
 20
-2788.4949613369909
 30
0.0
 11
2311.0273807019789
 21
-2769.9841054921781
 31
0.0
  0
LINE
  5
1D850
  8
1HATCH
 10
2311.0273807019789
 20
-2769.9841054921781
 30
0.0
 11
2319.5607140353131
 21
-2769.9841054921781
 31
0.0
  0
LINE
  5
1D851
  8
1DIM
 10
2323.9614220156659
 20
-2788.5966464701992
 30
0.0
 11
2318.6803293737112
 21
-2776.0346990693079
 31
0.0
  0
LINE
  5
1D852
  8
1DIM
 10
2318.6803293737112
 20
-2776.0346990693079
 30
0.0
 11
2353.9136627070452
 21
-2776.0346990693079
 31
0.0
  0
TEXT
  5
1D853
  8
1DIM
 10
2293.5722794595922
 20
-2801.769818457954
 30
0.0
 40
3.5
  1
22.5 
  0
LINE
  5
1D854
  8
0
  6
BYBLOCK
 10
2308.0722794595881
 20
-2801.9339200779541
 30
0.0
 11
2310.0722794595881
 21
-2802.4698184579538
 31
0.0
  0
LINE
  5
1D855
  8
0
  6
BYBLOCK
 10
2310.0722794595881
 20
-2802.4698184579538
 30
0.0
 11
2308.0722794595881
 21
-2803.005716837954
 31
0.0
  0
LINE
  5
1D856
  8
0
  6
BYBLOCK
 10
2310.0722794595881
 20
-2802.4698184579538
 30
0.0
 11
2308.0722794595881
 21
-2802.4698184579538
 31
0.0
  0
LINE
  5
1D857
  8
0
  6
BYBLOCK
 10
2289.5722794595949
 20
-2803.005716837954
 30
0.0
 11
2287.5722794595949
 21
-2802.4698184579538
 31
0.0
  0
LINE
  5
1D858
  8
0
  6
BYBLOCK
 10
2287.5722794595949
 20
-2802.4698184579538
 30
0.0
 11
2289.5722794595949
 21
-2801.9339200779541
 31
0.0
  0
LINE
  5
1D859
  8
0
  6
BYBLOCK
 10
2287.5722794595949
 20
-2802.4698184579538
 30
0.0
 11
2289.5722794595949
 21
-2802.4698184579538
 31
0.0
  0
TEXT
  5
1D85A
  8
1DIM
 10
2285.5722908920502
 20
-2791.769818457954
 30
0.0
 40
3.5
  1
38.5 
  0
LINE
  5
1D85B
  8
0
  6
BYBLOCK
 10
2308.0722794595881
 20
-2791.9339200779541
 30
0.0
 11
2310.0722794595881
 21
-2792.4698184579538
 31
0.0
  0
LINE
  5
1D85C
  8
0
  6
BYBLOCK
 10
2310.0722794595881
 20
-2792.4698184579538
 30
0.0
 11
2308.0722794595881
 21
-2793.005716837954
 31
0.0
  0
LINE
  5
1D85D
  8
0
  6
BYBLOCK
 10
2310.0722794595881
 20
-2792.4698184579538
 30
0.0
 11
2308.0722794595881
 21
-2792.4698184579538
 31
0.0
  0
LINE
  5
1D85E
  8
0
  6
BYBLOCK
 10
2273.57230232451
 20
-2793.005716837954
 30
0.0
 11
2271.5723023245109
 21
-2792.4698184579538
 31
0.0
  0
LINE
  5
1D85F
  8
0
  6
BYBLOCK
 10
2271.5723023245109
 20
-2792.4698184579538
 30
0.0
 11
2273.57230232451
 21
-2791.9339200779541
 31
0.0
  0
LINE
  5
1D860
  8
0
  6
BYBLOCK
 10
2271.5723023245109
 20
-2792.4698184579538
 30
0.0
 11
2273.57230232451
 21
-2792.4698184579538
 31
0.0
  0
TEXT
  5
1D861
  8
1DIM
 10
2229.6444420306461
 20
-2781.769818457954
 30
0.0
 40
3.5
  1
107 （ペーパー付き最大値）
  0
LINE
  5
1D862
  8
0
  6
BYBLOCK
 10
2308.0722794595881
 20
-2781.9339200779541
 30
0.0
 11
2310.0722794595881
 21
-2782.4698184579538
 31
0.0
  0
LINE
  5
1D863
  8
0
  6
BYBLOCK
 10
2310.0722794595881
 20
-2782.4698184579538
 30
0.0
 11
2308.0722794595881
 21
-2783.005716837954
 31
0.0
  0
LINE
  5
1D864
  8
0
  6
BYBLOCK
 10
2310.0722794595881
 20
-2782.4698184579538
 30
0.0
 11
2308.0722794595881
 21
-2782.4698184579538
 31
0.0
  0
LINE
  5
1D865
  8
0
  6
BYBLOCK
 10
2205.233271268371
 20
-2783.005716837954
 30
0.0
 11
2203.233271268371
 21
-2782.4698184579538
 31
0.0
  0
LINE
  5
1D866
  8
0
  6
BYBLOCK
 10
2203.233271268371
 20
-2782.4698184579538
 30
0.0
 11
2205.233271268371
 21
-2781.9339200779541
 31
0.0
  0
LINE
  5
1D867
  8
0
  6
BYBLOCK
 10
2203.233271268371
 20
-2782.4698184579538
 30
0.0
 11
2205.233271268371
 21
-2782.4698184579538
 31
0.0
  0
TEXT
  5
1D868
  8
1DIM
 10
2299.7389461262542
 20
-2898.375948298843
 30
0.0
 40
3.5
  1
16 
  0
LINE
  5
1D869
  8
0
  6
BYBLOCK
 10
2296.0722794595872
 20
-2899.611846678843
 30
0.0
 11
2294.0722794595872
 21
-2899.0759482988419
 31
0.0
  0
LINE
  5
1D86A
  8
0
  6
BYBLOCK
 10
2294.0722794595872
 20
-2899.0759482988419
 30
0.0
 11
2296.0722794595872
 21
-2898.5400499188422
 31
0.0
  0
LINE
  5
1D86B
  8
0
  6
BYBLOCK
 10
2294.0722794595872
 20
-2899.0759482988419
 30
0.0
 11
2296.0722794595872
 21
-2899.0759482988419
 31
0.0
  0
LINE
  5
1D86C
  8
0
  6
BYBLOCK
 10
2308.0722794595881
 20
-2898.5400499188422
 30
0.0
 11
2310.0722794595881
 21
-2899.0759482988419
 31
0.0
  0
LINE
  5
1D86D
  8
0
  6
BYBLOCK
 10
2310.0722794595881
 20
-2899.0759482988419
 30
0.0
 11
2308.0722794595881
 21
-2899.611846678843
 31
0.0
  0
LINE
  5
1D86E
  8
0
  6
BYBLOCK
 10
2310.0722794595881
 20
-2899.0759482988419
 30
0.0
 11
2308.0722794595881
 21
-2899.0759482988419
 31
0.0
  0
TEXT
  5
1D86F
  8
1DIM
 10
2352.3722794595501
 20
-2858.4926149655021
 30
0.0
 40
3.5
  1
28 
 50
90.0
  0
LINE
  5
1D870
  8
0
  6
BYBLOCK
 10
2353.6081778395501
 20
-2867.575948298841
 30
0.0
 11
2353.072279459549
 21
-2869.575948298841
 31
0.0
  0
LINE
  5
1D871
  8
0
  6
BYBLOCK
 10
2353.072279459549
 20
-2869.575948298841
 30
0.0
 11
2352.5363810795488
 21
-2867.575948298841
 31
0.0
  0
LINE
  5
1D872
  8
0
  6
BYBLOCK
 10
2353.072279459549
 20
-2869.575948298841
 30
0.0
 11
2353.072279459549
 21
-2867.575948298841
 31
0.0
  0
LINE
  5
1D873
  8
0
  6
BYBLOCK
 10
2352.5363810795488
 20
-2843.575948298831
 30
0.0
 11
2353.072279459549
 21
-2841.575948298831
 31
0.0
  0
LINE
  5
1D874
  8
0
  6
BYBLOCK
 10
2353.072279459549
 20
-2841.575948298831
 30
0.0
 11
2353.6081778395501
 21
-2843.575948298831
 31
0.0
  0
LINE
  5
1D875
  8
0
  6
BYBLOCK
 10
2353.072279459549
 20
-2841.575948298831
 30
0.0
 11
2353.072279459549
 21
-2843.575948298831
 31
0.0
  0
TEXT
  5
1D876
  8
1DIM
 10
2352.3722794595501
 20
-2832.2728833783922
 30
0.0
 40
3.5
  1
32.5
 50
90.0
  0
LINE
  5
1D877
  8
0
  6
BYBLOCK
 10
2353.6081778395501
 20
-2839.575948298831
 30
0.0
 11
2353.072279459549
 21
-2841.575948298831
 31
0.0
  0
LINE
  5
1D878
  8
0
  6
BYBLOCK
 10
2353.072279459549
 20
-2841.575948298831
 30
0.0
 11
2352.5363810795488
 21
-2839.575948298831
 31
0.0
  0
LINE
  5
1D879
  8
0
  6
BYBLOCK
 10
2353.072279459549
 20
-2841.575948298831
 30
0.0
 11
2353.072279459549
 21
-2839.575948298831
 31
0.0
  0
LINE
  5
1D87A
  8
0
  6
BYBLOCK
 10
2352.5363810795488
 20
-2814.4698184579538
 30
0.0
 11
2353.072279459549
 21
-2812.4698184579538
 31
0.0
  0
LINE
  5
1D87B
  8
0
  6
BYBLOCK
 10
2353.072279459549
 20
-2812.4698184579538
 30
0.0
 11
2353.6081778395501
 21
-2814.4698184579538
 31
0.0
  0
LINE
  5
1D87C
  8
0
  6
BYBLOCK
 10
2353.072279459549
 20
-2812.4698184579538
 30
0.0
 11
2353.072279459549
 21
-2814.4698184579538
 31
0.0
  0
TEXT
  5
1D87D
  8
1DIM
 10
2362.3722794595501
 20
-2848.6895500450642
 30
0.0
 40
3.5
  1
67 
 50
90.0
  0
LINE
  5
1D87E
  8
0
  6
BYBLOCK
 10
2363.6081778395501
 20
-2877.0759482988428
 30
0.0
 11
2363.0722794595499
 21
-2879.0759482988419
 31
0.0
  0
LINE
  5
1D87F
  8
0
  6
BYBLOCK
 10
2363.0722794595499
 20
-2879.0759482988419
 30
0.0
 11
2362.5363810795502
 21
-2877.0759482988428
 31
0.0
  0
LINE
  5
1D880
  8
0
  6
BYBLOCK
 10
2363.0722794595499
 20
-2879.0759482988419
 30
0.0
 11
2363.0722794595499
 21
-2877.0759482988428
 31
0.0
  0
LINE
  5
1D881
  8
0
  6
BYBLOCK
 10
2362.5363810795502
 20
-2814.4698184579538
 30
0.0
 11
2363.0722794595499
 21
-2812.4698184579538
 31
0.0
  0
LINE
  5
1D882
  8
0
  6
BYBLOCK
 10
2363.0722794595499
 20
-2812.4698184579538
 30
0.0
 11
2363.6081778395501
 21
-2814.4698184579538
 31
0.0
  0
LINE
  5
1D883
  8
0
  6
BYBLOCK
 10
2363.0722794595499
 20
-2812.4698184579538
 30
0.0
 11
2363.0722794595499
 21
-2814.4698184579538
 31
0.0
  0
TEXT
  5
1D884
  8
1DIM
 10
2069.105645683333
 20
-2789.8080017469952
 30
0.0
 40
3.5
  1
152 
  0
LINE
  5
1D885
  8
0
  6
BYBLOCK
 10
2147.1889790166638
 20
-2789.9721033669948
 30
0.0
 11
2149.1889790166651
 21
-2790.508001746995
 31
0.0
  0
LINE
  5
1D886
  8
0
  6
BYBLOCK
 10
2149.1889790166651
 20
-2790.508001746995
 30
0.0
 11
2147.1889790166638
 21
-2791.0439001269951
 31
0.0
  0
LINE
  5
1D887
  8
0
  6
BYBLOCK
 10
2149.1889790166651
 20
-2790.508001746995
 30
0.0
 11
2147.1889790166638
 21
-2790.508001746995
 31
0.0
  0
LINE
  5
1D888
  8
0
  6
BYBLOCK
 10
1999.1889790166699
 20
-2791.0439001269951
 30
0.0
 11
1997.188979016669
 21
-2790.508001746995
 31
0.0
  0
LINE
  5
1D889
  8
0
  6
BYBLOCK
 10
1997.188979016669
 20
-2790.508001746995
 30
0.0
 11
1999.1889790166699
 21
-2789.9721033669948
 31
0.0
  0
LINE
  5
1D88A
  8
0
  6
BYBLOCK
 10
1997.188979016669
 20
-2790.508001746995
 30
0.0
 11
1999.1889790166699
 21
-2790.508001746995
 31
0.0
  0
TEXT
  5
1D88B
  8
1DIM
 10
2158.4889790166708
 20
-2758.116776616574
 30
0.0
 40
3.5
  1
97 （ペーパー無し最小値）
 50
90.0
  0
LINE
  5
1D88C
  8
0
  6
BYBLOCK
 10
2159.7248773966712
 20
-2778.508001746995
 30
0.0
 11
2159.1889790166701
 21
-2780.508001746995
 31
0.0
  0
LINE
  5
1D88D
  8
0
  6
BYBLOCK
 10
2159.1889790166701
 20
-2780.508001746995
 30
0.0
 11
2158.65308063667
 21
-2778.508001746995
 31
0.0
  0
LINE
  5
1D88E
  8
0
  6
BYBLOCK
 10
2159.1889790166701
 20
-2780.508001746995
 30
0.0
 11
2159.1889790166701
 21
-2778.508001746995
 31
0.0
  0
LINE
  5
1D88F
  8
0
  6
BYBLOCK
 10
2158.65308063667
 20
-2685.458884819488
 30
0.0
 11
2159.1889790166701
 21
-2683.4588848194871
 31
0.0
  0
LINE
  5
1D890
  8
0
  6
BYBLOCK
 10
2159.1889790166701
 20
-2683.4588848194871
 30
0.0
 11
2159.7248773966712
 21
-2685.458884819488
 31
0.0
  0
LINE
  5
1D891
  8
0
  6
BYBLOCK
 10
2159.1889790166701
 20
-2683.4588848194871
 30
0.0
 11
2159.1889790166701
 21
-2685.458884819488
 31
0.0
  0
TEXT
  5
1D892
  8
1DIM
 10
2158.4889790166681
 20
-2862.2246752993228
 30
0.0
 40
3.5
  1
19.5
 50
90.0
  0
LINE
  5
1D893
  8
0
  6
BYBLOCK
 10
2159.7248773966671
 20
-2865.3080017469961
 30
0.0
 11
2159.1889790166679
 21
-2867.3080017469961
 31
0.0
  0
LINE
  5
1D894
  8
0
  6
BYBLOCK
 10
2159.1889790166679
 20
-2867.3080017469961
 30
0.0
 11
2158.6530806366682
 21
-2865.3080017469961
 31
0.0
  0
LINE
  5
1D895
  8
0
  6
BYBLOCK
 10
2159.1889790166679
 20
-2867.3080017469961
 30
0.0
 11
2159.1889790166679
 21
-2865.3080017469961
 31
0.0
  0
LINE
  5
1D896
  8
0
  6
BYBLOCK
 10
2158.6530806366682
 20
-2849.808015518317
 30
0.0
 11
2159.1889790166679
 21
-2847.808015518317
 31
0.0
  0
LINE
  5
1D897
  8
0
  6
BYBLOCK
 10
2159.1889790166679
 20
-2847.808015518317
 30
0.0
 11
2159.7248773966671
 21
-2849.808015518317
 31
0.0
  0
LINE
  5
1D898
  8
0
  6
BYBLOCK
 10
2159.1889790166679
 20
-2847.808015518317
 30
0.0
 11
2159.1889790166679
 21
-2849.808015518317
 31
0.0
  0
TEXT
  5
1D899
  8
1DIM
 10
2077.7723123500009
 20
-2886.6080017469958
 30
0.0
 40
3.5
  1
25 
  0
LINE
  5
1D89A
  8
0
  6
BYBLOCK
 10
2091.188979016667
 20
-2886.7721033669959
 30
0.0
 11
2093.188979016667
 21
-2887.3080017469961
 31
0.0
  0
LINE
  5
1D89B
  8
0
  6
BYBLOCK
 10
2093.188979016667
 20
-2887.3080017469961
 30
0.0
 11
2091.188979016667
 21
-2887.8439001269971
 31
0.0
  0
LINE
  5
1D89C
  8
0
  6
BYBLOCK
 10
2093.188979016667
 20
-2887.3080017469961
 30
0.0
 11
2091.188979016667
 21
-2887.3080017469961
 31
0.0
  0
LINE
  5
1D89D
  8
0
  6
BYBLOCK
 10
2070.1889790166688
 20
-2887.8439001269971
 30
0.0
 11
2068.1889790166688
 21
-2887.3080017469961
 31
0.0
  0
LINE
  5
1D89E
  8
0
  6
BYBLOCK
 10
2068.1889790166688
 20
-2887.3080017469961
 30
0.0
 11
2070.1889790166688
 21
-2886.7721033669959
 31
0.0
  0
LINE
  5
1D89F
  8
0
  6
BYBLOCK
 10
2068.1889790166688
 20
-2887.3080017469961
 30
0.0
 11
2070.1889790166688
 21
-2887.3080017469961
 31
0.0
  0
TEXT
  5
1D8A0
  8
1DIM
 10
2048.6056456833348
 20
-2662.7588848194891
 30
0.0
 40
3.5
  1
114.5 
  0
LINE
  5
1D8A1
  8
0
  6
BYBLOCK
 10
2109.6889790166679
 20
-2662.9229864394879
 30
0.0
 11
2111.6889790166688
 21
-2663.458884819489
 31
0.0
  0
LINE
  5
1D8A2
  8
0
  6
BYBLOCK
 10
2111.6889790166688
 20
-2663.458884819489
 30
0.0
 11
2109.6889790166679
 21
-2663.9947831994891
 31
0.0
  0
LINE
  5
1D8A3
  8
0
  6
BYBLOCK
 10
2111.6889790166688
 20
-2663.458884819489
 30
0.0
 11
2109.6889790166679
 21
-2663.458884819489
 31
0.0
  0
LINE
  5
1D8A4
  8
0
  6
BYBLOCK
 10
1999.188979016667
 20
-2663.9947831994891
 30
0.0
 11
1997.188979016667
 21
-2663.458884819489
 31
0.0
  0
LINE
  5
1D8A5
  8
0
  6
BYBLOCK
 10
1997.188979016667
 20
-2663.458884819489
 30
0.0
 11
1999.188979016667
 21
-2662.9229864394879
 31
0.0
  0
LINE
  5
1D8A6
  8
0
  6
BYBLOCK
 10
1997.188979016667
 20
-2663.458884819489
 30
0.0
 11
1999.188979016667
 21
-2663.458884819489
 31
0.0
  0
TEXT
  5
1D8A7
  8
1DIM
 10
2076.6056456833339
 20
-2896.6080017469958
 30
0.0
 40
3.5
  1
125 
  0
LINE
  5
1D8A8
  8
0
  6
BYBLOCK
 10
2141.1889790166701
 20
-2896.7721033669959
 30
0.0
 11
2143.1889790166701
 21
-2897.3080017469961
 31
0.0
  0
LINE
  5
1D8A9
  8
0
  6
BYBLOCK
 10
2143.1889790166701
 20
-2897.3080017469961
 30
0.0
 11
2141.1889790166701
 21
-2897.8439001269958
 31
0.0
  0
LINE
  5
1D8AA
  8
0
  6
BYBLOCK
 10
2143.1889790166701
 20
-2897.3080017469961
 30
0.0
 11
2141.1889790166701
 21
-2897.3080017469961
 31
0.0
  0
LINE
  5
1D8AB
  8
0
  6
BYBLOCK
 10
2020.1889790166661
 20
-2897.8439001269958
 30
0.0
 11
2018.1889790166649
 21
-2897.3080017469961
 31
0.0
  0
LINE
  5
1D8AC
  8
0
  6
BYBLOCK
 10
2018.1889790166649
 20
-2897.3080017469961
 30
0.0
 11
2020.1889790166661
 21
-2896.7721033669959
 31
0.0
  0
LINE
  5
1D8AD
  8
0
  6
BYBLOCK
 10
2018.1889790166649
 20
-2897.3080017469961
 30
0.0
 11
2020.1889790166661
 21
-2897.3080017469961
 31
0.0
  0
LINE
  5
1D8AE
  8
1DIM
 10
2279.8801108584448
 20
-2838.3215473568071
 30
0.0
 11
2255.1759137133149
 21
-2807.0971728838449
 31
0.0
  0
LINE
  5
1D8AF
  8
1DIM
 10
2255.1759137133149
 20
-2807.0971728838449
 30
0.0
 11
2207.2092470466482
 21
-2807.0971728838449
 31
0.0
  0
LINE
  5
1D8B0
  8
1DIM
 10
2228.7314182724899
 20
-2872.6155387437689
 30
0.0
 11
2273.0807128040592
 21
-2930.2222999858941
 31
0.0
  0
LINE
  5
1D8B1
  8
1DIM
 10
2273.0807128040592
 20
-2930.2222999858941
 30
0.0
 11
2305.6807128040591
 21
-2930.2222999858941
 31
0.0
  0
LINE
  5
1D8B2
  8
1DIM
 10
2114.0678491974541
 20
-2699.8257104124182
 30
0.0
 11
2135.190799560658
 21
-2673.154606449214
 31
0.0
  0
LINE
  5
1D8B3
  8
1DIM
 10
2135.190799560658
 20
-2673.154606449214
 30
0.0
 11
2183.1574662273251
 21
-2673.154606449214
 31
0.0
  0
LINE
  5
1D8B4
  8
1DIM
 10
2251.8712205408729
 20
-2874.6275113530041
 30
0.0
 11
2283.4263030347629
 21
-2914.7311516747209
 31
0.0
  0
LINE
  5
1D8B5
  8
1DIM
 10
2283.4263030347629
 20
-2914.7311516747209
 30
0.0
 11
2331.39296970143
 21
-2914.7311516747209
 31
0.0
  0
TEXT
  5
1D8B6
  8
1DIM
 10
2033.688971498422
 20
-2672.7588848194891
 30
0.0
 40
3.5
  1
83.5 
  0
LINE
  5
1D8B7
  8
0
  6
BYBLOCK
 10
2078.688963980177
 20
-2672.9229864394888
 30
0.0
 11
2080.688963980177
 21
-2673.458884819489
 31
0.0
  0
LINE
  5
1D8B8
  8
0
  6
BYBLOCK
 10
2080.688963980177
 20
-2673.458884819489
 30
0.0
 11
2078.688963980177
 21
-2673.9947831994891
 31
0.0
  0
LINE
  5
1D8B9
  8
0
  6
BYBLOCK
 10
2080.688963980177
 20
-2673.458884819489
 30
0.0
 11
2078.688963980177
 21
-2673.458884819489
 31
0.0
  0
LINE
  5
1D8BA
  8
0
  6
BYBLOCK
 10
1999.188979016667
 20
-2673.9947831994891
 30
0.0
 11
1997.188979016667
 21
-2673.458884819489
 31
0.0
  0
LINE
  5
1D8BB
  8
0
  6
BYBLOCK
 10
1997.188979016667
 20
-2673.458884819489
 30
0.0
 11
1999.188979016667
 21
-2672.9229864394888
 31
0.0
  0
LINE
  5
1D8BC
  8
0
  6
BYBLOCK
 10
1997.188979016667
 20
-2673.458884819489
 30
0.0
 11
1999.188979016667
 21
-2673.458884819489
 31
0.0
  0
VIEWPORT
  5
57
 67
     1
  8
0
 10
-12.724804992755139
 20
96.44818981523791
 30
0.0
 40
745.11942047452612
 41
494.08276138704048
 68
     1
 69
     1
1001
ACAD
1000
MVIEW
1002
{
1070
    16
1010
0.0
1020
0.0
1030
0.0
1010
0.0
1020
0.0
1030
1.0
1040
0.0
1040
494.08276138704048
1040
-12.724804992755139
1040
96.44818981523791
1040
50.0
1040
0.0
1040
0.0
1070
     0
1070
   100
1070
     1
1070
     1
1070
     0
1070
     0
1070
     0
1070
     0
1040
0.0
1040
0.0
1040
0.0
1040
10.0
1040
10.0
1040
10.0
1040
10.0
1070
     0
1002
{
1002
}
1002
}
  0
ENDSEC
  0
EOF
