  0
SECTION
  2
HEADER
  9
$ACADVER
  1
AC1009
  9
$INSBASE
 10
0.0
 20
0.0
 30
0.0
  9
$EXTMIN
 10
-57.386401127251069
 20
-960.85678013732195
 30
0.0
  9
$EXTMAX
 10
442.78008307986488
 20
-720.02613599794847
 30
0.0
  9
$LIMMIN
 10
0.0
 20
0.0
  9
$LIMMAX
 10
420.0
 20
297.0
  9
$ORTHOMODE
 70
     0
  9
$REGENMODE
 70
     1
  9
$FILLMODE
 70
     1
  9
$QTEXTMODE
 70
     0
  9
$MIRRTEXT
 70
     0
  9
$DRAGMODE
 70
     2
  9
$LTSCALE
 40
0.5
  9
$OSMODE
 70
    63
  9
$ATTMODE
 70
     1
  9
$TEXTSIZE
 40
4.0
  9
$TRACEWID
 40
1.0
  9
$TEXTSTYLE
  7
STANDARD
  9
$CLAYER
  8
1TEXT
  9
$CELTYPE
  6
BYLAYER
  9
$CECOLOR
 62
   256
  9
$DIMSCALE
 40
1.0
  9
$DIMASZ
 40
2.0
  9
$DIMEXO
 40
0.0
  9
$DIMDLI
 40
7.0
  9
$DIMRND
 40
0.0
  9
$DIMDLE
 40
0.0
  9
$DIMEXE
 40
1.0
  9
$DIMTP
 40
0.0
  9
$DIMTM
 40
0.0
  9
$DIMTXT
 40
3.5
  9
$DIMCEN
 40
0.0
  9
$DIMTSZ
 40
0.0
  9
$DIMTOL
 70
     0
  9
$DIMLIM
 70
     0
  9
$DIMTIH
 70
     0
  9
$DIMTOH
 70
     0
  9
$DIMSE1
 70
     0
  9
$DIMSE2
 70
     0
  9
$DIMTAD
 70
     1
  9
$DIMZIN
 70
     8
  9
$DIMBLK
  1

  9
$DIMASO
 70
     1
  9
$DIMSHO
 70
     1
  9
$DIMPOST
  1
 
  9
$DIMAPOST
  1

  9
$DIMALT
 70
     0
  9
$DIMALTD
 70
     2
  9
$DIMALTF
 40
25.399999999999999
  9
$DIMLFAC
 40
1.0
  9
$DIMTOFL
 70
     1
  9
$DIMTVP
 40
0.0
  9
$DIMTIX
 70
     0
  9
$DIMSOXD
 70
     0
  9
$DIMSAH
 70
     1
  9
$DIMBLK1
  1
OPEN30
  9
$DIMBLK2
  1
OPEN30
  9
$DIMSTYLE
  2
NEWX10
  9
$DIMCLRD
 70
   256
  9
$DIMCLRE
 70
   256
  9
$DIMCLRT
 70
   201
  9
$DIMTFAC
 40
0.7
  9
$DIMGAP
 40
0.7
  9
$LUNITS
 70
     2
  9
$LUPREC
 70
     4
  9
$SKETCHINC
 40
1.0
  9
$FILLETRAD
 40
1.0
  9
$AUNITS
 70
     0
  9
$AUPREC
 70
     2
  9
$MENU
  1
acad
  9
$ELEVATION
 40
0.0
  9
$PELEVATION
 40
0.0
  9
$THICKNESS
 40
0.0
  9
$LIMCHECK
 70
     0
  9
$BLIPMODE
 70
     0
  9
$CHAMFERA
 40
10.0
  9
$CHAMFERB
 40
10.0
  9
$SKPOLY
 70
     0
  9
$TDCREATE
 40
2453033.7326634838
  9
$TDUPDATE
 40
2453798.4294997798
  9
$TDINDWG
 40
1.7157873843
  9
$TDUSRTIMER
 40
1.7157873843
  9
$USRTIMER
 70
     1
  9
$ANGBASE
 50
0.0
  9
$ANGDIR
 70
     0
  9
$PDMODE
 70
     0
  9
$PDSIZE
 40
0.0
  9
$PLINEWID
 40
0.0
  9
$COORDS
 70
     2
  9
$SPLFRAME
 70
     0
  9
$SPLINETYPE
 70
     6
  9
$SPLINESEGS
 70
     8
  9
$ATTDIA
 70
     0
  9
$ATTREQ
 70
     1
  9
$HANDLING
 70
     1
  9
$HANDSEED
  5
19E79
  9
$SURFTAB1
 70
     6
  9
$SURFTAB2
 70
     6
  9
$SURFTYPE
 70
     6
  9
$SURFU
 70
     6
  9
$SURFV
 70
     6
  9
$UCSNAME
  2

  9
$UCSORG
 10
0.0
 20
0.0
 30
0.0
  9
$UCSXDIR
 10
1.0
 20
0.0
 30
0.0
  9
$UCSYDIR
 10
0.0
 20
1.0
 30
0.0
  9
$PUCSNAME
  2

  9
$PUCSORG
 10
0.0
 20
0.0
 30
0.0
  9
$PUCSXDIR
 10
1.0
 20
0.0
 30
0.0
  9
$PUCSYDIR
 10
0.0
 20
1.0
 30
0.0
  9
$USERI1
 70
     0
  9
$USERI2
 70
     0
  9
$USERI3
 70
     0
  9
$USERI4
 70
     0
  9
$USERI5
 70
     0
  9
$USERR1
 40
0.0
  9
$USERR2
 40
0.0
  9
$USERR3
 40
0.0
  9
$USERR4
 40
0.0
  9
$USERR5
 40
0.0
  9
$WORLDVIEW
 70
     1
  9
$SHADEDGE
 70
     3
  9
$SHADEDIF
 70
    70
  9
$TILEMODE
 70
     1
  9
$MAXACTVP
 70
    48
  9
$PLIMCHECK
 70
     0
  9
$PEXTMIN
 10
1.0000000000000000E+020
 20
1.0000000000000000E+020
 30
1.0000000000000000E+020
  9
$PEXTMAX
 10
-1.0000000000000000E+020
 20
-1.0000000000000000E+020
 30
-1.0000000000000000E+020
  9
$PLIMMIN
 10
0.0
 20
0.0
  9
$PLIMMAX
 10
420.0
 20
297.0
  9
$UNITMODE
 70
     0
  9
$VISRETAIN
 70
     1
  9
$PLINEGEN
 70
     0
  9
$PSLTSCALE
 70
     1
  0
ENDSEC
  0
SECTION
  2
TABLES
  0
TABLE
  2
VPORT
 70
     4
  0
VPORT
  2
*ACTIVE
 70
     0
 10
0.0
 20
0.0
 11
1.0
 21
1.0
 12
192.69684214084771
 22
-840.45675976779205
 13
0.0
 23
0.0
 14
10.0
 24
10.0
 15
10.0
 25
10.0
 16
0.0
 26
0.0
 36
1.0
 17
0.0
 27
0.0
 37
0.0
 40
351.00283562802639
 41
1.508086253369272
 42
50.0
 43
0.0
 44
0.0
 50
0.0
 51
0.0
 71
     0
 72
   100
 73
     1
 74
     1
 75
     0
 76
     0
 77
     0
 78
     0
  0
ENDTAB
  0
TABLE
  2
LTYPE
 70
    15
  0
LTYPE
  2
CONTINUOUS
 70
     0
  3
Solid line
 72
    65
 73
     0
 40
0.0
  0
LTYPE
  2
CENTER2
 70
     0
  3
Center (.5x) ___ _ ___ _ ___ _ ___ _ ___ _ ___
 72
    65
 73
     4
 40
28.574999999999999
 49
19.050000000000001
 49
-3.1749999999999989
 49
3.1749999999999989
 49
-3.1749999999999989
  0
LTYPE
  2
XREF1|CENTER2
 70
    48
  3
Center (.5x) ___ _ ___ _ ___ _ ___ _ ___ _ ___
 72
    65
 73
     4
 40
28.574999999999999
 49
19.050000000000001
 49
-3.1749999999999989
 49
3.1749999999999989
 49
-3.1749999999999989
  0
LTYPE
  2
PHANTOM2
 70
     0
  3
Phantom (.5x) ___ _ _ ___ _ _ ___ _ _ ___ _ _
 72
    65
 73
     6
 40
31.75
 49
15.875
 49
-3.1749999999999989
 49
3.1749999999999989
 49
-3.1749999999999989
 49
3.1749999999999989
 49
-3.1749999999999989
  0
LTYPE
  2
A3WAKUDAKE|CENTER2
 70
    48
  3
Center (.5x) ___ _ ___ _ ___ _ ___ _ ___ _ ___
 72
    65
 73
     4
 40
28.574999999999999
 49
19.050000000000001
 49
-3.1749999999999989
 49
3.1749999999999989
 49
-3.1749999999999989
  0
ENDTAB
  0
TABLE
  2
LAYER
 70
    44
  0
LAYER
  2
0
 70
     0
 62
     7
  6
CONTINUOUS
  0
LAYER
  2
1CENTER
 70
     0
 62
     7
  6
CENTER2
  0
LAYER
  2
1TEXT
 70
     0
 62
     7
  6
CONTINUOUS
  0
LAYER
  2
1DIM
 70
     0
 62
     7
  6
CONTINUOUS
  0
LAYER
  2
1PHANTOM
 70
     0
 62
     7
  6
PHANTOM2
  0
LAYER
  2
01
 70
     0
 62
     1
  6
CONTINUOUS
  0
LAYER
  2
1DIM1
 70
     0
 62
     7
  6
CONTINUOUS
  0
LAYER
  2
XREF1|1CENTER
 70
    48
 62
     7
  6
XREF1|CENTER2
  0
LAYER
  2
A3WAKUDAKE|THICK
 70
    48
 62
     7
  6
CONTINUOUS
  0
LAYER
  2
A3WAKUDAKE|POINT
 70
    48
 62
     7
  6
CONTINUOUS
  0
LAYER
  2
A3WAKUDAKE|1CENTER
 70
    48
 62
     7
  6
A3WAKUDAKE|CENTER2
  0
LAYER
  2
A3WAKUDAKE|0-6
 70
    48
 62
     7
  6
CONTINUOUS
  0
LAYER
  2
A3WAKUDAKE|1DIM
 70
    48
 62
     7
  6
CONTINUOUS
  0
ENDTAB
  0
TABLE
  2
STYLE
 70
    22
  0
STYLE
  2
STANDARD
 70
     0
 40
0.0
 41
1.0
 50
0.0
 71
     0
 42
4.0
  3
txt.shx
  4
extfont.shx
  0
ENDTAB
  0
TABLE
  2
VIEW
 70
     0
  0
ENDTAB
  0
TABLE
  2
UCS
 70
     0
  0
ENDTAB
  0
TABLE
  2
APPID
 70
     9
  0
APPID
  2
ACAD
 70
     0
  0
APPID
  2
DRAWINGVARIABLESXDATA
 70
     0
  0
APPID
  2
CONTENTTABDATA
 70
     0
  0
APPID
  2
CONTENTCURRENTTAB
 70
     0
  0
APPID
  2
CONTENTBLOCKDESCRIPTION
 70
     0
  0
APPID
  2
CONTENTBLOCKICON
 70
     0
  0
APPID
  2
CONTENTLONGBLOCKNAME
 70
     0
  0
APPID
  2
ACAD_PSEXT
 70
     0
  0
APPID
  2
ACAD_DSTYLE_DIMTEXT_FILL
 70
     0
  0
ENDTAB
  0
TABLE
  2
DIMSTYLE
 70
     9
  0
DIMSTYLE
  2
NEWX10
 70
     0
  3
 
  4

  5

  6
OPEN30
  7
OPEN30
 40
1.0
 41
2.0
 42
0.0
 43
7.0
 44
1.0
 45
0.0
 46
0.0
 47
0.0
 48
0.0
140
3.5
141
0.0
142
0.0
143
25.399999999999999
144
1.0
145
0.0
146
0.7
147
0.7
 71
     0
 72
     0
 73
     0
 74
     0
 75
     0
 76
     0
 77
     1
 78
     8
170
     0
171
     2
172
     1
173
     1
174
     0
175
     0
176
   256
177
   256
178
   201
  0
ENDTAB
  0
ENDSEC
  0
SECTION
  2
BLOCKS
  0
BLOCK
  8
0
  2
$MODEL_SPACE
 70
     0
 10
0.0
 20
0.0
 30
0.0
  3
$MODEL_SPACE
  1

  0
ENDBLK
  5
1A
  8
0
  0
BLOCK
 67
     1
  8
0
  2
$PAPER_SPACE
 70
     0
 10
0.0
 20
0.0
 30
0.0
  3
$PAPER_SPACE
  1

  0
ENDBLK
  5
17
 67
     1
  8
0
  0
BLOCK
  8
0
  2
_OPEN30
 70
     0
 10
0.0
 20
0.0
 30
0.0
  3
_OPEN30
  1

  0
LINE
  5
44
  8
0
  6
BYBLOCK
 62
     0
 10
-1.0
 20
0.26794919
 30
0.0
 11
0.0
 21
0.0
 31
0.0
  0
LINE
  5
45
  8
0
  6
BYBLOCK
 62
     0
 10
0.0
 20
0.0
 30
0.0
 11
-1.0
 21
-0.26794919
 31
0.0
  0
LINE
  5
46
  8
0
  6
BYBLOCK
 62
     0
 10
0.0
 20
0.0
 30
0.0
 11
-1.0
 21
0.0
 31
0.0
  0
ENDBLK
  5
47
  8
0
  0
BLOCK
  8
0
  2
XREF1
 70
    36
 10
0.0
 20
0.0
 30
0.0
  3
XREF1
  1
D:\ACLT\FORMAT\KAWAJUN(9)図面用.dwg
  0
ENDBLK
  5
5D
  8
0
  0
BLOCK
  8
0
  2
A3WAKUDAKE
 70
    36
 10
0.0
 20
0.0
 30
0.0
  3
A3WAKUDAKE
  1
D:\ACLT\FORMAT\A3WAKUdake.dwg
  0
ENDBLK
  5
6DC
  8
0
  0
BLOCK
  8
0
  2
*U18
 70
     1
 10
0.0
 20
0.0
 30
0.0
  3
*U18
  1

  0
TEXT
  5
19E4E
  8
1DIM
 62
   201
 10
274.10759237786328
 20
-731.17131530701295
 30
0.0
 40
3.5
  1
25 
  0
ENDBLK
  5
19E50
  8
0
  0
BLOCK
  8
0
  2
*U19
 70
     1
 10
0.0
 20
0.0
 30
0.0
  3
*U19
  1

  0
TEXT
  5
19E52
  8
1DIM
 62
   201
 10
288.22425904452922
 20
-745.12964864034802
 30
0.0
 40
3.5
  1
0.5 
 50
90.0
  0
ENDBLK
  5
19E54
  8
0
  0
BLOCK
  8
0
  2
*U20
 70
     1
 10
0.0
 20
0.0
 30
0.0
  3
*U20
  1

  0
TEXT
  5
19E56
  8
1DIM
 62
   201
 10
288.22425904452928
 20
-794.67125200021292
 30
0.0
 40
3.5
  1
79 
 50
90.0
  0
ENDBLK
  5
19E58
  8
0
  0
BLOCK
  8
0
  2
*U21
 70
     1
 10
0.0
 20
0.0
 30
0.0
  3
*U21
  1

  0
TEXT
  5
19E5A
  8
1DIM
 62
   201
 10
356.29925904452892
 20
-917.17131530714767
 30
0.0
 40
3.5
  1
80 
  0
ENDBLK
  5
19E5C
  8
0
  0
BLOCK
  8
0
  2
*U22
 70
     1
 10
0.0
 20
0.0
 30
0.0
  3
*U22
  1

  0
TEXT
  5
19E5E
  8
1DIM
 62
   201
 10
298.22425904452888
 20
-882.78798197374817
 30
0.0
 40
3.5
  1
36 
 50
90.0
  0
ENDBLK
  5
19E60
  8
0
  0
BLOCK
  8
0
  2
*U23
 70
     1
 10
0.0
 20
0.0
 30
0.0
  3
*U23
  1

  0
TEXT
  5
19E62
  8
1DIM
 62
   201
 10
308.22425904452888
 20
-890.49631530708268
 30
0.0
 40
3.5
  1
20 
 50
90.0
  0
ENDBLK
  5
19E64
  8
0
  0
BLOCK
  8
0
  2
*U24
 70
     1
 10
0.0
 20
0.0
 30
0.0
  3
*U24
  1

  0
TEXT
  5
19E66
  8
1DIM1
 62
   201
 10
88.424259044528284
 20
-925.75678013732204
 30
0.0
 40
10.5
  1
P300 
  0
ENDBLK
  5
19E68
  8
0
  0
BLOCK
  8
0
  2
*U25
 70
     1
 10
0.0
 20
0.0
 30
0.0
  3
*U25
  1

  0
TEXT
  5
19E6A
  8
1DIM1
 62
   201
 10
91.924259044528526
 20
-955.75678013732193
 30
0.0
 40
10.5
  1
326 
  0
ENDBLK
  5
19E6C
  8
0
  0
BLOCK
  8
0
  2
*U26
 70
     1
 10
0.0
 20
0.0
 30
0.0
  3
*U26
  1

  0
TEXT
  5
19E6E
  8
1DIM
 62
   201
 10
264.91260709617092
 20
-741.17131530701465
 30
0.0
 40
3.5
  1
6 
  0
ENDBLK
  5
19E70
  8
0
  0
BLOCK
  8
0
  2
*U27
 70
     1
 10
0.0
 20
0.0
 30
0.0
  3
*U27
  1

  0
TEXT
  5
19E72
  8
1DIM1
 62
   201
 10
93.673809531892402
 20
-809.77131530701467
 30
0.0
 40
10.5
  1
314
  0
ENDBLK
  5
19E74
  8
0
  0
BLOCK
  8
0
  2
*U28
 70
     1
 10
0.0
 20
0.0
 30
0.0
  3
*U28
  1

  0
TEXT
  5
19E76
  8
1DIM1
 62
   201
 10
216.8242590445289
 20
-800.50155976927476
 30
0.0
 40
10.5
  1
68
 50
90.0
  0
ENDBLK
  5
19E78
  8
0
  0
ENDSEC
  0
SECTION
  2
ENTITIES
  0
LINE
  5
192F2
  8
01
 10
319.22425904452888
 20
-892.62131530714578
 30
0.0
 11
398.92425904452858
 21
-892.62131530714646
 31
0.0
  0
LINE
  5
192F3
  8
01
 10
319.22425904452803
 20
-883.12131530714566
 30
0.0
 11
398.92425904452739
 21
-883.12131530714635
 31
0.0
  0
LINE
  5
192F5
  8
01
 10
398.92425904452898
 20
-897.87131530714782
 30
0.0
 11
398.92425904452699
 21
-877.8713153070164
 31
0.0
  0
LINE
  5
192F6
  8
01
 10
318.9242590445287
 20
-897.37131530714748
 30
0.0
 11
318.9242590445287
 21
-892.92131530714539
 31
0.0
  0
ARC
  5
192F7
  8
01
 10
319.22425904452888
 20
-892.92131530714562
 30
0.0
 40
0.3
 50
89.999999999999986
 51
180.0
  0
LINE
  5
192F8
  8
01
 10
318.9242590445279
 20
-882.82131530714548
 30
0.0
 11
318.92425904453057
 21
-878.37131530701606
 31
0.0
  0
ARC
  5
192F9
  8
01
 10
319.22425904452803
 20
-882.82131530714571
 30
0.0
 40
0.3
 50
179.99999999998039
 51
270.0
  0
LINE
  5
192FA
  8
1CENTER
 10
390.76910697399779
 20
-887.87131530714635
 30
0.0
 11
430.76943835359128
 21
-887.87131530714669
 31
0.0
  0
LINE
  5
192FB
  8
1PHANTOM
 10
395.92425020270679
 20
-891.67131491625958
 30
0.0
 11
395.9242590445287
 21
-892.12131530714873
 31
0.0
  0
LINE
  5
192FC
  8
1PHANTOM
 10
395.9242590445287
 20
-885.62131530714885
 30
0.0
 11
398.6242590445222
 21
-885.62131530714817
 31
0.0
  0
LINE
  5
192FD
  8
1PHANTOM
 10
395.9242590445287
 20
-890.12131530714885
 30
0.0
 11
398.6242590445222
 21
-890.12131530714817
 31
0.0
  0
LINE
  5
192FE
  8
1PHANTOM
 10
393.9242590445287
 20
-883.62131530714862
 30
0.0
 11
395.9242590445287
 21
-883.62131530714862
 31
0.0
  0
LINE
  5
192FF
  8
1PHANTOM
 10
393.9242590445287
 20
-892.12131530714873
 30
0.0
 11
395.9242590445287
 21
-892.12131530714873
 31
0.0
  0
LINE
  5
19300
  8
1PHANTOM
 10
393.9242653747911
 20
-883.12131530714635
 30
0.0
 11
393.92426519895048
 21
-883.37131530715646
 31
0.0
  0
LINE
  5
19301
  8
1PHANTOM
 10
393.92425957205018
 20
-891.3713149162603
 30
0.0
 11
393.92425886868779
 21
-892.37131530713589
 31
0.0
  0
LINE
  5
19304
  8
1PHANTOM
 10
398.62425904452311
 20
-896.37131530714817
 30
0.0
 11
398.62425904452311
 21
-889.37136145215845
 31
0.0
  0
LINE
  5
19305
  8
1PHANTOM
 10
398.62425904452311
 20
-886.37136145215641
 30
0.0
 11
398.62425904452311
 21
-879.37131530714476
 31
0.0
  0
LINE
  5
19306
  8
1PHANTOM
 10
398.92425904452779
 20
-879.37131530714476
 30
0.0
 11
398.62425904452311
 21
-879.37131530714476
 31
0.0
  0
LINE
  5
19307
  8
1PHANTOM
 10
398.92425904452881
 20
-896.37131530714817
 30
0.0
 11
398.62425904452311
 21
-896.37131530714817
 31
0.0
  0
LINE
  5
1930B
  8
01
 10
320.82425904452202
 20
-892.37131530714578
 30
0.0
 11
398.92425904452858
 21
-892.37131530713543
 31
0.0
  0
ARC
  5
19313
  8
01
 10
371.34925904457441
 20
-887.87131530714635
 30
0.0
 40
50.725000000044972
 50
174.91039124037781
 51
185.08960875962211
  0
LINE
  5
1931C
  8
01
 10
319.42425904453148
 20
-877.87131530701663
 30
0.0
 11
398.92425904452779
 21
-877.87131530701686
 31
0.0
  0
ARC
  5
1931D
  8
01
 10
319.42425904453057
 20
-878.37131530701629
 30
0.0
 40
0.5
 50
89.999999999895763
 51
180.0
  0
LINE
  5
1931E
  8
01
 10
398.92425904452898
 20
-897.87131530714782
 30
0.0
 11
319.42425904452881
 21
-897.8713153071476
 31
0.0
  0
ARC
  5
1931F
  8
01
 10
319.42425904452881
 20
-897.37131530714953
 30
0.0
 40
0.5
 50
179.9999999997915
 51
270.0
  0
LINE
  5
19322
  8
01
 10
-56.775740955470148
 20
-892.60678013732024
 30
0.0
 11
268.62425904452772
 21
-892.60678013732274
 31
0.0
  0
ARC
  5
19323
  8
01
 10
112.9242590445306
 20
-891.60678013732195
 30
0.0
 40
1.0
 50
228.59037789049501
 51
270.0
  0
ARC
  5
19324
  8
1DIM
 10
113.08140250724
 20
-891.60678013732195
 30
0.0
 40
1.0
 50
228.59037789049501
 51
270.0
  0
LINE
  5
19325
  8
01
 10
-56.775740955471072
 20
-883.10678013732274
 30
0.0
 11
268.62425904452863
 21
-883.10678013732195
 31
0.0
  0
ARC
  5
19326
  8
01
 10
268.62425904452863
 20
-882.80678013732165
 30
0.0
 40
0.3
 50
270.0
 51
0.0
  0
LINE
  5
19327
  8
01
 10
-55.57574095547124
 20
-831.8713153070147
 30
0.0
 11
267.42425904452881
 21
-831.8713153070147
 31
0.0
  0
ARC
  5
19328
  8
01
 10
-55.57574095547124
 20
-830.3713153070139
 30
0.0
 40
1.5
 50
180.0
 51
270.0
  0
LINE
  5
19329
  8
01
 10
243.9242590445306
 20
-751.87131530701481
 30
0.0
 11
268.92425904453057
 21
-751.87131530701481
 31
0.0
  0
LINE
  5
1932A
  8
01
 10
268.9242590445287
 20
-830.3713153070139
 30
0.0
 11
268.9242590445287
 21
-751.87131530701481
 31
0.0
  0
ARC
  5
1932B
  8
01
 10
267.42425904452881
 20
-830.3713153070139
 30
0.0
 40
1.5
 50
270.0
 51
0.0
  0
LINE
  5
1932C
  8
01
 10
243.9242590445306
 20
-751.87131530701481
 30
0.0
 11
243.9242590445306
 21
-752.3659094620125
 31
0.0
  0
LINE
  5
1932D
  8
01
 10
-56.575740955471247
 20
-877.85678013732104
 30
0.0
 11
268.42425904452881
 21
-877.85678013729466
 31
0.0
  0
LINE
  5
1932E
  8
01
 10
-56.575740955473073
 20
-897.85678013732195
 30
0.0
 11
268.42425904453057
 21
-897.85678013732195
 31
0.0
  0
LINE
  5
1932F
  8
01
 10
-57.075740955471247
 20
-830.3713153070139
 30
0.0
 11
-57.075740955471247
 21
-751.87131530701481
 31
0.0
  0
LINE
  5
19330
  8
01
 10
-32.075740955473073
 20
-751.87131530701481
 30
0.0
 11
-32.075740955473073
 21
-752.36590946201432
 31
0.0
  0
ARC
  5
19331
  8
01
 10
112.9242590445306
 20
-884.10678013732274
 30
0.0
 40
1.0
 50
90.0
 51
131.40962210908529
  0
ARC
  5
19332
  8
1DIM
 10
113.08140250724
 20
-884.10678013732274
 30
0.0
 40
1.0
 50
90.0
 51
131.40962210908529
  0
LINE
  5
19333
  8
01
 10
268.9242590445287
 20
-878.35678013732195
 30
0.0
 11
268.9242590445287
 21
-882.80678013732165
 31
0.0
  0
ARC
  5
19334
  8
01
 10
268.42425904452881
 20
-878.35678013732195
 30
0.0
 40
0.5
 50
0.0
 51
89.999999999993491
  0
LINE
  5
19335
  8
01
 10
268.92425904452688
 20
-892.90678013732304
 30
0.0
 11
268.92425904453057
 21
-897.35678013732195
 31
0.0
  0
ARC
  5
19336
  8
01
 10
268.62425904452772
 20
-892.90678013732304
 30
0.0
 40
0.3
 50
0.0000000000521102
 51
90.0
  0
ARC
  5
19337
  8
01
 10
268.42425904453057
 20
-897.35678013732195
 30
0.0
 40
0.5
 50
270.0
 51
0.0000000000521102
  0
LINE
  5
19338
  8
01
 10
263.92425904454149
 20
-883.10678013732195
 30
0.0
 11
263.92425904454149
 21
-883.35678013732183
 31
0.0
  0
LINE
  5
19339
  8
01
 10
263.92425904454058
 20
-892.3567801373174
 30
0.0
 11
263.92425904453972
 21
-892.60678013732195
 31
0.0
  0
LINE
  5
1933A
  8
01
 10
248.9242590445306
 20
-892.60678013732195
 30
0.0
 11
248.9242590445306
 21
-892.3567801373174
 31
0.0
  0
LINE
  5
1933B
  8
01
 10
248.9242590445306
 20
-883.35678013732092
 30
0.0
 11
248.9242590445306
 21
-883.10678013732195
 31
0.0
  0
LINE
  5
1933C
  8
01
 10
264.02425904454373
 20
-883.10678013732195
 30
0.0
 11
264.02425904454373
 21
-883.35678013732183
 31
0.0
  0
LINE
  5
1933D
  8
01
 10
264.02425904454549
 20
-892.35678013731649
 30
0.0
 11
264.02425904454373
 21
-892.60678013732024
 31
0.0
  0
LINE
  5
1933E
  8
01
 10
248.72416392420249
 20
-892.60678013732195
 30
0.0
 11
248.72416392420249
 21
-892.3567801373174
 31
0.0
  0
LINE
  5
1933F
  8
01
 10
248.72416392420149
 20
-883.35678013732092
 30
0.0
 11
248.72416392420249
 21
-883.10678013732195
 31
0.0
  0
LINE
  5
19340
  8
01
 10
249.42425904453239
 20
-883.10678013732195
 30
0.0
 11
249.4242590445333
 21
-883.35678013732092
 31
0.0
  0
LINE
  5
19341
  8
01
 10
249.42425904453239
 20
-892.35678013731649
 30
0.0
 11
249.42425904453239
 21
-892.60678013732024
 31
0.0
  0
LINE
  5
19342
  8
01
 10
251.2242590445307
 20
-883.10678013732195
 30
0.0
 11
251.2242590445307
 21
-883.35678013732092
 31
0.0
  0
LINE
  5
19343
  8
01
 10
251.2242590445307
 20
-892.35678013731649
 30
0.0
 11
251.2242590445307
 21
-892.60678013732024
 31
0.0
  0
LINE
  5
19344
  8
01
 10
251.4242590445306
 20
-883.10678013732195
 30
0.0
 11
251.42425904452961
 21
-883.35678013732092
 31
0.0
  0
LINE
  5
19345
  8
01
 10
251.42425904453151
 20
-892.35678013731649
 30
0.0
 11
251.4242590445306
 21
-892.60678013732024
 31
0.0
  0
LINE
  5
19346
  8
01
 10
267.22425908639752
 20
-883.35678013732092
 30
0.0
 11
-55.375740913601021
 21
-883.35678013732092
 31
0.0
  0
LINE
  5
19347
  8
01
 10
267.22425908640213
 20
-892.3567801373174
 30
0.0
 11
-55.37574091360375
 21
-892.35678013732092
 31
0.0
  0
ARC
  5
19348
  8
01
 10
216.69925908634789
 20
-887.85678013733195
 30
0.0
 40
50.725000000050748
 50
354.91039124039082
 51
5.089608759635154
  0
ARC
  5
19349
  8
1DIM
 10
239.85441750554719
 20
-891.60678013732002
 30
0.0
 40
1.0
 50
270.0
 51
311.40962210950499
  0
ARC
  5
1934A
  8
01
 10
239.92425904452969
 20
-891.60678013731911
 30
0.0
 40
1.0
 50
270.0
 51
311.40962210935311
  0
ARC
  5
1934B
  8
1DIM
 10
239.85441750554719
 20
-884.10678013732195
 30
0.0
 40
1.0
 50
48.590377890799502
 51
90.0
  0
ARC
  5
1934C
  8
01
 10
239.92425904452969
 20
-884.10678013732104
 30
0.0
 40
1.0
 50
48.590377890646941
 51
90.0
  0
ARC
  5
1934D
  8
01
 10
243.92425904452969
 20
-891.6067801373182
 30
0.0
 40
1.0
 50
228.59037789064689
 51
270.0
  0
ARC
  5
1934E
  8
1DIM
 10
243.99410058351401
 20
-891.60678013731911
 30
0.0
 40
1.0
 50
228.59037789064689
 51
270.0
  0
ARC
  5
1934F
  8
1DIM
 10
243.99410058351401
 20
-884.10678013732274
 30
0.0
 40
1.0
 50
90.0
 51
131.40962210908529
  0
ARC
  5
19350
  8
01
 10
243.92425904452969
 20
-884.10678013732104
 30
0.0
 40
1.0
 50
90.0
 51
131.40962210935299
  0
LINE
  5
19352
  8
01
 10
-32.075740955473073
 20
-751.87131530701481
 30
0.0
 11
-57.075740955473073
 21
-751.87131530701481
 31
0.0
  0
ARC
  5
19353
  8
1DIM
 10
216.99410058351211
 20
-891.60678013732115
 30
0.0
 40
1.0
 50
228.5903778904208
 51
270.0
  0
ARC
  5
19354
  8
01
 10
216.9242590445287
 20
-891.60678013732002
 30
0.0
 40
1.0
 50
228.59037789049501
 51
270.0
  0
ARC
  5
19355
  8
1DIM
 10
216.99410058351211
 20
-884.10678013732274
 30
0.0
 40
1.0
 50
90.0
 51
131.40962210908529
  0
ARC
  5
19356
  8
01
 10
216.9242590445287
 20
-884.10678013732195
 30
0.0
 40
1.0
 50
90.0
 51
131.40962210920051
  0
ARC
  5
19357
  8
01
 10
212.9242590445287
 20
-891.60678013731911
 30
0.0
 40
1.0
 50
270.0
 51
311.40962210935311
  0
ARC
  5
19358
  8
1DIM
 10
212.8544175055454
 20
-891.60678013732002
 30
0.0
 40
1.0
 50
270.0
 51
311.40962210950499
  0
ARC
  5
19359
  8
1DIM
 10
212.8544175055454
 20
-884.10678013732377
 30
0.0
 40
1.0
 50
48.590377890914709
 51
90.0
  0
ARC
  5
1935A
  8
01
 10
212.9242590445287
 20
-884.10678013732195
 30
0.0
 40
1.0
 50
48.590377890799502
 51
90.0
  0
ARC
  5
1935B
  8
1DIM
 10
189.99410058351211
 20
-891.60678013732115
 30
0.0
 40
1.0
 50
228.5903778904208
 51
270.0
  0
ARC
  5
1935C
  8
01
 10
189.9242590445287
 20
-891.60678013732002
 30
0.0
 40
1.0
 50
228.59037789049501
 51
270.0
  0
ARC
  5
1935D
  8
1DIM
 10
189.99410058351211
 20
-884.10678013732274
 30
0.0
 40
1.0
 50
90.0
 51
131.40962210908529
  0
ARC
  5
1935E
  8
01
 10
189.9242590445287
 20
-884.10678013732195
 30
0.0
 40
1.0
 50
90.0
 51
131.40962210920051
  0
ARC
  5
1935F
  8
01
 10
185.9242590445287
 20
-891.60678013731911
 30
0.0
 40
1.0
 50
270.0
 51
311.40962210935311
  0
ARC
  5
19360
  8
1DIM
 10
185.85441750554531
 20
-891.60678013732002
 30
0.0
 40
1.0
 50
270.0
 51
311.40962210950499
  0
ARC
  5
19361
  8
1DIM
 10
185.85441750554531
 20
-884.10678013732377
 30
0.0
 40
1.0
 50
48.590377890914709
 51
90.0
  0
ARC
  5
19362
  8
01
 10
185.9242590445287
 20
-884.10678013732195
 30
0.0
 40
1.0
 50
48.590377890799502
 51
90.0
  0
ARC
  5
19363
  8
1DIM
 10
162.99410058351211
 20
-891.60678013732115
 30
0.0
 40
1.0
 50
228.5903778904208
 51
270.0
  0
ARC
  5
19364
  8
01
 10
162.9242590445287
 20
-891.60678013732002
 30
0.0
 40
1.0
 50
228.59037789049501
 51
270.0
  0
ARC
  5
19365
  8
1DIM
 10
162.99410058351211
 20
-884.10678013732274
 30
0.0
 40
1.0
 50
90.0
 51
131.40962210908529
  0
ARC
  5
19366
  8
01
 10
162.9242590445287
 20
-884.10678013732195
 30
0.0
 40
1.0
 50
90.0
 51
131.40962210920051
  0
ARC
  5
19367
  8
01
 10
158.9242590445287
 20
-891.60678013731911
 30
0.0
 40
1.0
 50
270.0
 51
311.40962210935311
  0
ARC
  5
19368
  8
1DIM
 10
158.85441750554531
 20
-891.60678013732002
 30
0.0
 40
1.0
 50
270.0
 51
311.40962210950499
  0
ARC
  5
19369
  8
1DIM
 10
158.85441750554531
 20
-884.10678013732377
 30
0.0
 40
1.0
 50
48.590377890914709
 51
90.0
  0
ARC
  5
1936A
  8
01
 10
158.9242590445287
 20
-884.10678013732195
 30
0.0
 40
1.0
 50
48.590377890799502
 51
90.0
  0
ARC
  5
1936B
  8
1DIM
 10
135.99410058351211
 20
-891.60678013732115
 30
0.0
 40
1.0
 50
228.59037789049501
 51
270.0
  0
ARC
  5
1936C
  8
01
 10
135.9242590445287
 20
-891.60678013732002
 30
0.0
 40
1.0
 50
228.59037789064689
 51
270.0
  0
ARC
  5
1936D
  8
1DIM
 10
135.99410058351211
 20
-884.10678013732274
 30
0.0
 40
1.0
 50
90.0
 51
131.40962210908529
  0
ARC
  5
1936E
  8
01
 10
135.9242590445287
 20
-884.10678013732195
 30
0.0
 40
1.0
 50
90.0
 51
131.40962210920051
  0
ARC
  5
1936F
  8
01
 10
131.9242590445287
 20
-891.60678013731911
 30
0.0
 40
1.0
 50
270.0
 51
311.40962210920048
  0
ARC
  5
19370
  8
1DIM
 10
131.85441750554531
 20
-891.60678013732002
 30
0.0
 40
1.0
 50
270.0
 51
311.40962210935311
  0
ARC
  5
19371
  8
1DIM
 10
131.85441750554531
 20
-884.10678013732377
 30
0.0
 40
1.0
 50
48.590377890914709
 51
90.0
  0
ARC
  5
19372
  8
01
 10
131.9242590445287
 20
-884.10678013732195
 30
0.0
 40
1.0
 50
48.590377890799502
 51
90.0
  0
LINE
  5
19373
  8
1CENTER
 10
-44.075740955471247
 20
-720.02613599794847
 30
0.0
 11
-44.075740955471247
 21
-759.30291580588971
 31
0.0
  0
ARC
  5
1937A
  8
01
 10
98.924259044526934
 20
-891.60678013732195
 30
0.0
 40
1.0
 50
270.0
 51
311.40962210950499
  0
ARC
  5
1937B
  8
1DIM
 10
98.767115581817507
 20
-891.60678013732195
 30
0.0
 40
1.0
 50
270.0
 51
311.40962210950499
  0
ARC
  5
1937C
  8
01
 10
-56.775740955471967
 20
-882.80678013732165
 30
0.0
 40
0.3
 50
180.0
 51
270.0
  0
ARC
  5
1937D
  8
01
 10
98.924259044526934
 20
-884.10678013732274
 30
0.0
 40
1.0
 50
48.590377890914709
 51
90.0
  0
ARC
  5
1937E
  8
1DIM
 10
98.767115581817507
 20
-884.10678013732274
 30
0.0
 40
1.0
 50
48.590377890914709
 51
90.0
  0
LINE
  5
1937F
  8
01
 10
-57.075740955472149
 20
-878.35678013732195
 30
0.0
 11
-57.075740955472149
 21
-882.80678013732165
 31
0.0
  0
ARC
  5
19380
  8
01
 10
-56.575740955472149
 20
-878.35678013732195
 30
0.0
 40
0.5
 50
90.000000000006509
 51
180.0
  0
LINE
  5
19381
  8
01
 10
-57.075740955470337
 20
-892.90678013732304
 30
0.0
 11
-57.075740955473968
 21
-897.35678013732195
 31
0.0
  0
ARC
  5
19382
  8
01
 10
-56.775740955471072
 20
-892.90678013732304
 30
0.0
 40
0.3
 50
90.0
 51
179.9999999999479
  0
ARC
  5
19383
  8
01
 10
-56.575740955473968
 20
-897.35678013732195
 30
0.0
 40
0.5
 50
179.9999999999479
 51
270.0
  0
LINE
  5
19384
  8
01
 10
-52.075740955484889
 20
-883.10678013732195
 30
0.0
 11
-52.075740955484889
 21
-883.35678013732183
 31
0.0
  0
LINE
  5
19385
  8
01
 10
-52.07574095548398
 20
-892.3567801373174
 30
0.0
 11
-52.07574095548307
 21
-892.60678013732195
 31
0.0
  0
LINE
  5
19386
  8
01
 10
-37.075740955473982
 20
-892.60678013732195
 30
0.0
 11
-37.075740955473982
 21
-892.3567801373174
 31
0.0
  0
LINE
  5
19387
  8
01
 10
-37.075740955473982
 20
-883.35678013732092
 30
0.0
 11
-37.075740955473982
 21
-883.10678013732195
 31
0.0
  0
LINE
  5
19388
  8
01
 10
-52.175740955487072
 20
-883.10678013732195
 30
0.0
 11
-52.175740955487072
 21
-883.35678013732183
 31
0.0
  0
LINE
  5
19389
  8
01
 10
-52.175740955488891
 20
-892.35678013731649
 30
0.0
 11
-52.175740955487072
 21
-892.60678013732024
 31
0.0
  0
LINE
  5
1938A
  8
01
 10
-36.87564583514586
 20
-892.60678013732195
 30
0.0
 11
-36.87564583514586
 21
-892.3567801373174
 31
0.0
  0
LINE
  5
1938B
  8
01
 10
-36.875645835144951
 20
-883.35678013732092
 30
0.0
 11
-36.87564583514586
 21
-883.10678013732195
 31
0.0
  0
LINE
  5
1938C
  8
01
 10
-37.575740955475801
 20
-883.10678013732195
 30
0.0
 11
-37.575740955476711
 21
-883.35678013732092
 31
0.0
  0
LINE
  5
1938D
  8
01
 10
-37.575740955475801
 20
-892.35678013731649
 30
0.0
 11
-37.575740955475801
 21
-892.60678013732024
 31
0.0
  0
LINE
  5
1938E
  8
01
 10
-39.375740955474157
 20
-883.10678013732195
 30
0.0
 11
-39.375740955474157
 21
-883.35678013732092
 31
0.0
  0
LINE
  5
1938F
  8
01
 10
-39.375740955474157
 20
-892.35678013731649
 30
0.0
 11
-39.375740955474157
 21
-892.60678013732024
 31
0.0
  0
LINE
  5
19390
  8
01
 10
-39.575740955473982
 20
-883.10678013732195
 30
0.0
 11
-39.575740955473073
 21
-883.35678013732092
 31
0.0
  0
LINE
  5
19391
  8
01
 10
-39.575740955474892
 20
-892.35678013731649
 30
0.0
 11
-39.575740955473982
 21
-892.60678013732024
 31
0.0
  0
ARC
  5
19392
  8
01
 10
-4.8507409972912683
 20
-887.85678013733195
 30
0.0
 40
50.725000000050748
 50
174.91039124036479
 51
185.08960875960921
  0
ARC
  5
19393
  8
1DIM
 10
-28.005899416490589
 20
-891.60678013732002
 30
0.0
 40
1.0
 50
228.59037789049501
 51
270.0
  0
ARC
  5
19394
  8
01
 10
-28.075740955473069
 20
-891.60678013731911
 30
0.0
 40
1.0
 50
228.59037789064689
 51
270.0
  0
ARC
  5
19395
  8
1DIM
 10
-28.005899416490589
 20
-884.10678013732195
 30
0.0
 40
1.0
 50
90.0
 51
131.40962210920051
  0
ARC
  5
19396
  8
01
 10
-28.075740955473069
 20
-884.10678013732104
 30
0.0
 40
1.0
 50
90.0
 51
131.40962210935299
  0
ARC
  5
19397
  8
01
 10
-32.075740955473073
 20
-891.6067801373182
 30
0.0
 40
1.0
 50
270.0
 51
311.40962210935311
  0
ARC
  5
19398
  8
1DIM
 10
-32.145582494457358
 20
-891.60678013731911
 30
0.0
 40
1.0
 50
270.0
 51
311.40962210935311
  0
ARC
  5
19399
  8
1DIM
 10
-32.145582494457358
 20
-884.10678013732274
 30
0.0
 40
1.0
 50
48.590377890914709
 51
90.0
  0
ARC
  5
1939A
  8
01
 10
-32.075740955473073
 20
-884.10678013732104
 30
0.0
 40
1.0
 50
48.590377890646941
 51
90.0
  0
ARC
  5
1939C
  8
1DIM
 10
-5.1455824944555379
 20
-891.60678013732115
 30
0.0
 40
1.0
 50
270.0
 51
311.40962210957917
  0
ARC
  5
1939D
  8
01
 10
-5.0757409554721562
 20
-891.60678013732002
 30
0.0
 40
1.0
 50
270.0
 51
311.40962210950499
  0
ARC
  5
1939E
  8
1DIM
 10
-5.1455824944555379
 20
-884.10678013732274
 30
0.0
 40
1.0
 50
48.590377890914709
 51
90.0
  0
ARC
  5
1939F
  8
01
 10
-5.0757409554721562
 20
-884.10678013732195
 30
0.0
 40
1.0
 50
48.590377890799502
 51
90.0
  0
ARC
  5
193A0
  8
01
 10
-1.075740955472156
 20
-891.60678013731911
 30
0.0
 40
1.0
 50
228.59037789064689
 51
270.0
  0
ARC
  5
193A1
  8
1DIM
 10
-1.0058994164887729
 20
-891.60678013732002
 30
0.0
 40
1.0
 50
228.59037789049501
 51
270.0
  0
ARC
  5
193A2
  8
1DIM
 10
-1.0058994164887729
 20
-884.10678013732377
 30
0.0
 40
1.0
 50
90.0
 51
131.40962210908529
  0
ARC
  5
193A3
  8
01
 10
-1.075740955472156
 20
-884.10678013732195
 30
0.0
 40
1.0
 50
90.0
 51
131.40962210920051
  0
ARC
  5
193A4
  8
1DIM
 10
21.854417505545371
 20
-891.60678013732115
 30
0.0
 40
1.0
 50
270.0
 51
311.40962210957917
  0
ARC
  5
193A5
  8
01
 10
21.92425904452875
 20
-891.60678013732002
 30
0.0
 40
1.0
 50
270.0
 51
311.40962210950499
  0
ARC
  5
193A6
  8
1DIM
 10
21.854417505545371
 20
-884.10678013732274
 30
0.0
 40
1.0
 50
48.590377890914709
 51
90.0
  0
ARC
  5
193A7
  8
01
 10
21.92425904452875
 20
-884.10678013732195
 30
0.0
 40
1.0
 50
48.590377890799502
 51
90.0
  0
ARC
  5
193A8
  8
01
 10
25.92425904452876
 20
-891.60678013731911
 30
0.0
 40
1.0
 50
228.59037789064689
 51
270.0
  0
ARC
  5
193A9
  8
1DIM
 10
25.994100583512139
 20
-891.60678013732002
 30
0.0
 40
1.0
 50
228.59037789049501
 51
270.0
  0
ARC
  5
193AA
  8
1DIM
 10
25.994100583512139
 20
-884.10678013732377
 30
0.0
 40
1.0
 50
90.0
 51
131.40962210908529
  0
ARC
  5
193AB
  8
01
 10
25.92425904452876
 20
-884.10678013732195
 30
0.0
 40
1.0
 50
90.0
 51
131.40962210920051
  0
ARC
  5
193AC
  8
1DIM
 10
48.854417505545371
 20
-891.60678013732115
 30
0.0
 40
1.0
 50
270.0
 51
311.40962210957917
  0
ARC
  5
193AD
  8
01
 10
48.924259044528753
 20
-891.60678013732002
 30
0.0
 40
1.0
 50
270.0
 51
311.40962210950499
  0
ARC
  5
193AE
  8
1DIM
 10
48.854417505545371
 20
-884.10678013732274
 30
0.0
 40
1.0
 50
48.590377890914709
 51
90.0
  0
ARC
  5
193AF
  8
01
 10
48.924259044528753
 20
-884.10678013732195
 30
0.0
 40
1.0
 50
48.590377890799502
 51
90.0
  0
ARC
  5
193B0
  8
01
 10
52.924259044528753
 20
-891.60678013731911
 30
0.0
 40
1.0
 50
228.59037789064689
 51
270.0
  0
ARC
  5
193B1
  8
1DIM
 10
52.994100583512129
 20
-891.60678013732002
 30
0.0
 40
1.0
 50
228.59037789049501
 51
270.0
  0
ARC
  5
193B2
  8
1DIM
 10
52.994100583512129
 20
-884.10678013732377
 30
0.0
 40
1.0
 50
90.0
 51
131.40962210908529
  0
ARC
  5
193B3
  8
01
 10
52.924259044528753
 20
-884.10678013732195
 30
0.0
 40
1.0
 50
90.0
 51
131.40962210920051
  0
ARC
  5
193B4
  8
1DIM
 10
75.854417505545371
 20
-891.60678013732115
 30
0.0
 40
1.0
 50
270.0
 51
311.40962210950499
  0
ARC
  5
193B5
  8
01
 10
75.924259044528753
 20
-891.60678013732002
 30
0.0
 40
1.0
 50
270.0
 51
311.40962210935311
  0
ARC
  5
193B6
  8
1DIM
 10
75.854417505545371
 20
-884.10678013732274
 30
0.0
 40
1.0
 50
48.590377890914709
 51
90.0
  0
ARC
  5
193B7
  8
01
 10
75.924259044528753
 20
-884.10678013732195
 30
0.0
 40
1.0
 50
48.590377890799502
 51
90.0
  0
ARC
  5
193B8
  8
01
 10
79.924259044528753
 20
-891.60678013731911
 30
0.0
 40
1.0
 50
228.59037789079949
 51
270.0
  0
ARC
  5
193B9
  8
1DIM
 10
79.994100583512136
 20
-891.60678013732002
 30
0.0
 40
1.0
 50
228.59037789064689
 51
270.0
  0
ARC
  5
193BA
  8
1DIM
 10
79.994100583512136
 20
-884.10678013732377
 30
0.0
 40
1.0
 50
90.0
 51
131.40962210908529
  0
ARC
  5
193BB
  8
01
 10
79.924259044528753
 20
-884.10678013732195
 30
0.0
 40
1.0
 50
90.0
 51
131.40962210920051
  0
LINE
  5
193BC
  8
1CENTER
 10
255.92425904452881
 20
-720.02613599794847
 30
0.0
 11
255.92425904452881
 21
-759.30291580588971
 31
0.0
  0
LINE
  5
193BD
  8
1PHANTOM
 10
395.92425020270679
 20
-891.67131491625958
 30
0.0
 11
395.92426788635248
 21
-884.0713149162757
 31
0.0
  0
LINE
  5
193BE
  8
1PHANTOM
 10
394.9242502027069
 20
-891.67131258946665
 30
0.0
 11
394.92426788636158
 21
-884.07131258948255
 31
0.0
  0
LINE
  5
193BF
  8
1PHANTOM
 10
394.92425731435878
 20
-888.37126722849371
 30
0.0
 11
395.92425964115182
 21
-887.37126985529619
 31
0.0
  0
LINE
  5
193C0
  8
1PHANTOM
 10
394.9242502027069
 20
-891.67131258946665
 30
0.0
 11
395.92425020270679
 21
-891.67131491625958
 31
0.0
  0
LINE
  5
193C1
  8
1PHANTOM
 10
394.92425498744751
 20
-889.37131491626042
 30
0.0
 11
394.92426196783208
 21
-886.37131491626042
 31
0.0
  0
LINE
  5
193C2
  8
1PHANTOM
 10
394.92426788636158
 20
-884.07131258948255
 30
0.0
 11
395.92426788635248
 21
-884.0713149162757
 31
0.0
  0
LINE
  5
193C3
  8
1PHANTOM
 10
427.82426102379981
 20
-886.77699110226513
 30
0.0
 11
428.62425645785191
 21
-888.73932619114112
 31
0.0
  0
LINE
  5
193C4
  8
1PHANTOM
 10
428.62425645785191
 20
-888.73932619114112
 30
0.0
 11
428.93602631410289
 21
-888.15104961609813
 31
0.0
  0
LINE
  5
193C5
  8
1PHANTOM
 10
405.42426313101032
 20
-885.87136145215743
 30
0.0
 11
406.22425382382829
 21
-889.87136145215754
 31
0.0
  0
LINE
  5
193C6
  8
1PHANTOM
 10
416.62426313101457
 20
-885.87136145215743
 30
0.0
 11
417.42425382383811
 21
-889.87136145215754
 31
0.0
  0
LINE
  5
193C7
  8
1PHANTOM
 10
419.8242631310153
 20
-885.87136145215743
 30
0.0
 11
420.62425382383702
 21
-889.87136145215754
 31
0.0
  0
LINE
  5
193C8
  8
1PHANTOM
 10
420.62425382383702
 20
-889.87136145215754
 30
0.0
 11
420.72425498723578
 21
-889.37136145215743
 31
0.0
  0
LINE
  5
193C9
  8
1PHANTOM
 10
421.32426196761702
 20
-886.37136145215754
 30
0.0
 11
421.42426313101572
 21
-885.87136145215743
 31
0.0
  0
LINE
  5
193CA
  8
1PHANTOM
 10
417.42425382383811
 20
-889.87136145215754
 30
0.0
 11
417.524254987235
 21
-889.37136145215743
 31
0.0
  0
LINE
  5
193CB
  8
1PHANTOM
 10
419.02425382383842
 20
-889.87136145215754
 30
0.0
 11
419.12425498723542
 21
-889.37136145215743
 31
0.0
  0
LINE
  5
193CC
  8
1PHANTOM
 10
419.72426196761847
 20
-886.37136145215754
 30
0.0
 11
419.8242631310153
 21
-885.87136145215743
 31
0.0
  0
LINE
  5
193CD
  8
1PHANTOM
 10
418.12426196761811
 20
-886.37136145215754
 30
0.0
 11
418.22426313101499
 21
-885.87136145215743
 31
0.0
  0
LINE
  5
193CE
  8
1PHANTOM
 10
418.22426313101499
 20
-885.87136145215743
 30
0.0
 11
419.02425382383842
 21
-889.87136145215754
 31
0.0
  0
LINE
  5
193CF
  8
1PHANTOM
 10
427.02425540424559
 20
-889.19214029554757
 30
0.0
 11
427.2070195468736
 21
-888.64039083174328
 31
0.0
  0
LINE
  5
193D0
  8
1PHANTOM
 10
423.82425382383769
 20
-889.87136145215754
 30
0.0
 11
423.92425498723458
 21
-889.37136145215743
 31
0.0
  0
LINE
  5
193D1
  8
1PHANTOM
 10
422.22425382383739
 20
-889.87136145215754
 30
0.0
 11
422.32425498723433
 21
-889.37136145215743
 31
0.0
  0
LINE
  5
193D2
  8
1PHANTOM
 10
425.42425435064109
 20
-889.64495439995414
 30
0.0
 11
425.55352504827027
 21
-889.10836066468164
 31
0.0
  0
LINE
  5
193D3
  8
1PHANTOM
 10
426.11149256505502
 20
-886.79227604936659
 30
0.0
 11
426.2242620774054
 21
-886.32417759421605
 31
0.0
  0
LINE
  5
193D4
  8
1PHANTOM
 10
422.92426196761738
 20
-886.37136145215754
 30
0.0
 11
423.02426313101432
 21
-885.87136145215743
 31
0.0
  0
LINE
  5
193D5
  8
1PHANTOM
 10
424.5242619676178
 20
-886.37136145215754
 30
0.0
 11
424.62426313101457
 21
-885.87136145215743
 31
0.0
  0
LINE
  5
193D6
  8
1PHANTOM
 10
427.67282522736099
 20
-887.23416294289461
 30
0.0
 11
427.82426102379981
 21
-886.77699110226513
 31
0.0
  0
LINE
  5
193D7
  8
1PHANTOM
 10
426.2242620774054
 20
-886.32417759421605
 30
0.0
 11
427.02425540424559
 21
-889.19214029554757
 31
0.0
  0
LINE
  5
193D8
  8
1PHANTOM
 10
423.02426313101432
 20
-885.87136145215743
 30
0.0
 11
423.82425382383769
 21
-889.87136145215754
 31
0.0
  0
LINE
  5
193D9
  8
1PHANTOM
 10
424.62426313101457
 20
-885.87136145215743
 30
0.0
 11
425.42425435064109
 21
-889.64495439995414
 31
0.0
  0
LINE
  5
193DA
  8
1PHANTOM
 10
421.42426313101572
 20
-885.87136145215743
 30
0.0
 11
422.22425382383739
 21
-889.87136145215754
 31
0.0
  0
LINE
  5
193DB
  8
1PHANTOM
 10
408.62426313101099
 20
-885.87136145215743
 30
0.0
 11
409.42425382382902
 21
-889.87136145215754
 31
0.0
  0
LINE
  5
193DC
  8
1PHANTOM
 10
409.42425382382902
 20
-889.87136145215754
 30
0.0
 11
409.5242549872259
 21
-889.37136145215743
 31
0.0
  0
LINE
  5
193DD
  8
1PHANTOM
 10
410.12426196761811
 20
-886.37136145215754
 30
0.0
 11
410.22426313101499
 21
-885.87136145215743
 31
0.0
  0
LINE
  5
193DE
  8
1PHANTOM
 10
407.82425382382871
 20
-889.87136145215754
 30
0.0
 11
407.92425498722741
 21
-889.37136145215743
 31
0.0
  0
LINE
  5
193DF
  8
1PHANTOM
 10
406.22425382382829
 20
-889.87136145215754
 30
0.0
 11
406.32425498722699
 21
-889.37136145215743
 31
0.0
  0
LINE
  5
193E0
  8
1PHANTOM
 10
408.52426196761229
 20
-886.37136145215754
 30
0.0
 11
408.62426313101099
 21
-885.87136145215743
 31
0.0
  0
LINE
  5
193E1
  8
1PHANTOM
 10
406.92426196761369
 20
-886.37136145215754
 30
0.0
 11
407.02426313101063
 21
-885.87136145215743
 31
0.0
  0
LINE
  5
193E2
  8
1PHANTOM
 10
407.02426313101063
 20
-885.87136145215743
 30
0.0
 11
407.82425382382871
 21
-889.87136145215754
 31
0.0
  0
LINE
  5
193E3
  8
1PHANTOM
 10
414.22425382383369
 20
-889.87136145215754
 30
0.0
 11
414.32425498723057
 21
-889.37136145215743
 31
0.0
  0
LINE
  5
193E4
  8
1PHANTOM
 10
415.82425382383769
 20
-889.87136145215754
 30
0.0
 11
415.92425498723458
 21
-889.37136145215743
 31
0.0
  0
LINE
  5
193E5
  8
1PHANTOM
 10
411.02425382383302
 20
-889.87136145215754
 30
0.0
 11
411.12425498723178
 21
-889.37136145215743
 31
0.0
  0
LINE
  5
193E6
  8
1PHANTOM
 10
412.62425382383339
 20
-889.87136145215754
 30
0.0
 11
412.72425498723032
 21
-889.37136145215743
 31
0.0
  0
LINE
  5
193E7
  8
1PHANTOM
 10
416.5242619676178
 20
-886.37136145215754
 30
0.0
 11
416.62426313101457
 21
-885.87136145215743
 31
0.0
  0
LINE
  5
193E8
  8
1PHANTOM
 10
414.92426196761738
 20
-886.37136145215754
 30
0.0
 11
415.02426313101432
 21
-885.87136145215743
 31
0.0
  0
LINE
  5
193E9
  8
1PHANTOM
 10
411.72426196761671
 20
-886.37136145215754
 30
0.0
 11
411.8242631310153
 21
-885.87136145215743
 31
0.0
  0
LINE
  5
193EA
  8
1PHANTOM
 10
413.32426196761702
 20
-886.37136145215754
 30
0.0
 11
413.42426313101572
 21
-885.87136145215743
 31
0.0
  0
LINE
  5
193EB
  8
1PHANTOM
 10
413.42426313101572
 20
-885.87136145215743
 30
0.0
 11
414.22425382383369
 21
-889.87136145215754
 31
0.0
  0
LINE
  5
193EC
  8
1PHANTOM
 10
415.02426313101432
 20
-885.87136145215743
 30
0.0
 11
415.82425382383769
 21
-889.87136145215754
 31
0.0
  0
LINE
  5
193ED
  8
1PHANTOM
 10
411.8242631310153
 20
-885.87136145215743
 30
0.0
 11
412.62425382383339
 21
-889.87136145215754
 31
0.0
  0
LINE
  5
193EE
  8
1PHANTOM
 10
410.22426313101499
 20
-885.87136145215743
 30
0.0
 11
411.02425382383302
 21
-889.87136145215754
 31
0.0
  0
LINE
  5
193EF
  8
1PHANTOM
 10
394.92425498734019
 20
-889.37136145215743
 30
0.0
 11
394.92426196772482
 21
-886.37136145215754
 31
0.0
  0
LINE
  5
193F0
  8
1PHANTOM
 10
402.12426196760902
 20
-886.37136145215754
 30
0.0
 11
402.2242631310059
 21
-885.87136145215743
 31
0.0
  0
LINE
  5
193F1
  8
1PHANTOM
 10
403.72426196760938
 20
-886.37136145215754
 30
0.0
 11
403.82426313100632
 21
-885.87136145215743
 31
0.0
  0
LINE
  5
193F2
  8
1PHANTOM
 10
403.82426313100632
 20
-885.87136145215743
 30
0.0
 11
404.62425382382429
 21
-889.87136145215754
 31
0.0
  0
LINE
  5
193F3
  8
1PHANTOM
 10
403.02425382382398
 20
-889.87136145215754
 30
0.0
 11
403.12425498722263
 21
-889.37136145215743
 31
0.0
  0
LINE
  5
193F4
  8
1PHANTOM
 10
404.62425382382429
 20
-889.87136145215754
 30
0.0
 11
404.72425498722299
 21
-889.37136145215743
 31
0.0
  0
LINE
  5
193F5
  8
1PHANTOM
 10
402.2242631310059
 20
-885.87136145215743
 30
0.0
 11
403.02425382382398
 21
-889.87136145215754
 31
0.0
  0
LINE
  5
193F6
  8
1PHANTOM
 10
405.32426196761338
 20
-886.37136145215754
 30
0.0
 11
405.42426313101032
 21
-885.87136145215743
 31
0.0
  0
LINE
  5
193F7
  8
1PHANTOM
 10
429.92425847747882
 20
-887.87136145215754
 30
0.0
 11
424.62426196761447
 21
-886.37136145215754
 31
0.0
  0
LINE
  5
193F8
  8
1PHANTOM
 10
424.62426196761447
 20
-886.37136145215754
 30
0.0
 11
395.92426253461372
 21
-886.37136145215663
 31
0.0
  0
LINE
  5
193F9
  8
1PHANTOM
 10
429.92425847747882
 20
-887.87136145215754
 30
0.0
 11
424.62425498723633
 21
-889.37136145215743
 31
0.0
  0
LINE
  5
193FA
  8
1PHANTOM
 10
394.92426662142361
 20
-884.37131491626053
 30
0.0
 11
394.92426196772482
 21
-886.37136145215754
 31
0.0
  0
LINE
  5
193FB
  8
1PHANTOM
 10
424.62425498723633
 20
-889.37136145215743
 30
0.0
 11
395.92425555422818
 21
-889.37136145215845
 31
0.0
  0
LINE
  5
193FC
  8
1PHANTOM
 10
394.92426662142361
 20
-884.37131491626053
 30
0.0
 11
393.82426313122818
 21
-884.37131491626053
 31
0.0
  0
LINE
  5
193FD
  8
1PHANTOM
 10
394.92425498734019
 20
-889.37136145215743
 30
0.0
 11
394.92425033385962
 21
-891.3713149162603
 31
0.0
  0
ARC
  5
193FE
  8
1PHANTOM
 10
393.82426313122818
 20
-885.87131491625837
 30
0.0
 40
1.5
 50
89.999999999999986
 51
179.99986668447491
  0
LINE
  5
193FF
  8
1PHANTOM
 10
394.92425033385962
 20
-891.3713149162603
 30
0.0
 11
393.82425382404881
 21
-891.3713149162603
 31
0.0
  0
LINE
  5
19400
  8
1PHANTOM
 10
392.32426313123187
 20
-885.87131142606711
 30
0.0
 11
392.32425382405251
 21
-889.87131142606722
 31
0.0
  0
ARC
  5
19401
  8
1PHANTOM
 10
393.82425382404881
 20
-889.87131491625848
 30
0.0
 40
1.5
 50
179.99986668447491
 51
270.0
  0
LINE
  5
19402
  8
1PHANTOM
 10
399.02426313100528
 20
-885.87136145215743
 30
0.0
 11
399.8242538238232
 21
-889.87136145215754
 31
0.0
  0
LINE
  5
19403
  8
1PHANTOM
 10
401.42425382382362
 20
-889.87136145215754
 30
0.0
 11
401.52425498722232
 21
-889.37136145215743
 31
0.0
  0
LINE
  5
19404
  8
1PHANTOM
 10
399.8242538238232
 20
-889.87136145215754
 30
0.0
 11
399.9242549872219
 21
-889.37136145215743
 31
0.0
  0
LINE
  5
19405
  8
1PHANTOM
 10
400.52426196760871
 20
-886.37136145215754
 30
0.0
 11
400.62426313100559
 21
-885.87136145215743
 31
0.0
  0
LINE
  5
19406
  8
1PHANTOM
 10
400.62426313100559
 20
-885.87136145215743
 30
0.0
 11
401.42425382382362
 21
-889.87136145215754
 31
0.0
  0
LINE
  5
19407
  8
1PHANTOM
 10
397.32426196760429
 20
-886.37136145215754
 30
0.0
 11
397.42426313100123
 21
-885.87136145215743
 31
0.0
  0
LINE
  5
19408
  8
1PHANTOM
 10
397.42426313100123
 20
-885.87136145215743
 30
0.0
 11
398.2242538238192
 21
-889.87136145215754
 31
0.0
  0
LINE
  5
19409
  8
1PHANTOM
 10
396.62425382381889
 20
-889.87136145215754
 30
0.0
 11
396.72425498721759
 21
-889.37136145215743
 31
0.0
  0
LINE
  5
1940A
  8
1PHANTOM
 10
398.2242538238192
 20
-889.87136145215754
 30
0.0
 11
398.32425498721801
 21
-889.37136145215743
 31
0.0
  0
LINE
  5
1940B
  8
1PHANTOM
 10
395.92426253460741
 20
-886.37136428720896
 30
0.0
 11
396.62425382381889
 21
-889.87136145215754
 31
0.0
  0
LINE
  5
1940C
  8
1PHANTOM
 10
398.9242619676084
 20
-886.37136145215754
 30
0.0
 11
399.02426313100528
 21
-885.87136145215743
 31
0.0
  0
LINE
  5
1941C
  8
01
 10
329.92425904452512
 20
-883.12131530701731
 30
0.0
 11
329.92425904452512
 21
-883.37131530714726
 31
0.0
  0
LINE
  5
1941D
  8
01
 10
329.92425904452512
 20
-892.37131530714441
 30
0.0
 11
329.92425904452512
 21
-892.62131530701743
 31
0.0
  0
LINE
  5
19420
  8
01
 10
371.42425904452512
 20
-883.12131530701731
 30
0.0
 11
371.42425904452512
 21
-883.37131530715305
 31
0.0
  0
LINE
  5
19421
  8
01
 10
371.42425904452489
 20
-892.37131530713884
 30
0.0
 11
371.42425904452512
 21
-892.62131530701743
 31
0.0
  0
LINE
  5
19422
  8
01
 10
378.92425904452688
 20
-883.12131530701731
 30
0.0
 11
378.92425904452671
 21
-883.37131530715419
 31
0.0
  0
LINE
  5
19423
  8
01
 10
378.92425904452722
 20
-892.37131530713782
 30
0.0
 11
378.92425904452688
 21
-892.62131530701743
 31
0.0
  0
LINE
  5
19424
  8
01
 10
331.92425904452148
 20
-883.12131530701822
 30
0.0
 11
331.92425904452148
 21
-883.37131530714782
 31
0.0
  0
LINE
  5
19425
  8
01
 10
331.92425904452148
 20
-892.37131530714441
 30
0.0
 11
331.92425904452148
 21
-892.62131530701765
 31
0.0
  0
LINE
  5
19426
  8
01
 10
326.62425904452039
 20
-892.62131530701765
 30
0.0
 11
326.87425904439328
 21
-892.3713153071451
 31
0.0
  0
LINE
  5
19427
  8
01
 10
326.62425904452039
 20
-883.1213153070164
 30
0.0
 11
326.8742590446513
 21
-883.37131530714726
 31
0.0
  0
LINE
  5
1942A
  8
1PHANTOM
 10
395.9242590445287
 20
-883.62131530714862
 30
0.0
 11
395.9242590445287
 21
-884.07131491625512
 31
0.0
  0
LINE
  5
194BD
  8
01
 10
263.23428848114457
 20
-825.14326120508019
 30
0.0
 11
263.23428848114457
 21
-758.35985833347058
 31
0.0
  0
LINE
  5
194BE
  8
01
 10
-51.386669417360729
 20
-825.14326120508019
 30
0.0
 11
-51.386669417360729
 21
-758.35985833346967
 31
0.0
  0
LINE
  5
194BF
  8
01
 10
266.65640275060792
 20
-831.14326120508019
 30
0.0
 11
-54.808839310862602
 21
-831.14326120508019
 31
0.0
  0
LINE
  5
194C0
  8
01
 10
262.23428848114457
 20
-826.14326120508031
 30
0.0
 11
-50.386669417360743
 21
-826.14326120508031
 31
0.0
  0
LINE
  5
194C1
  8
01
 10
-54.808839310862602
 20
-752.36590946201341
 30
0.0
 11
266.65640275060792
 21
-752.36590946201341
 31
0.0
  0
LINE
  5
194C2
  8
01
 10
-50.386669417360743
 20
-757.35985833346956
 30
0.0
 11
262.23428848114457
 21
-757.35985833347058
 31
0.0
  0
ARC
  5
194C3
  8
01
 10
262.23428848114548
 20
-825.14326120508019
 30
0.0
 40
1.0
 50
269.99999999994787
 51
0.0
  0
ARC
  5
194C4
  8
01
 10
-50.386669417360743
 20
-825.14326120508019
 30
0.0
 40
1.0
 50
180.0
 51
270.0
  0
ARC
  5
194C5
  8
01
 10
-50.386669417361638
 20
-758.35985833347058
 30
0.0
 40
1.0
 50
89.999999999947889
 51
180.0
  0
ARC
  5
194C6
  8
01
 10
262.23428848114457
 20
-758.35985833347058
 30
0.0
 40
1.0
 50
0.0
 51
90.0
  0
LINE
  5
194C7
  8
1DIM
 10
-50.338505300579982
 20
-824.61918341225191
 30
0.0
 11
-50.338505300579982
 21
-758.88393612629534
 31
0.0
  0
LINE
  5
194C8
  8
1DIM
 10
262.18614140125243
 20
-824.61918341225191
 30
0.0
 11
262.18614140125243
 21
-758.88393612629534
 31
0.0
  0
LINE
  5
194C9
  8
1DIM
 10
261.18614140125243
 20
-825.61918341225191
 30
0.0
 11
-49.338505300579982
 21
-825.61918341225191
 31
0.0
  0
ARC
  5
194CA
  8
1DIM
 10
261.18614140125243
 20
-824.61918341225191
 30
0.0
 40
1.0
 50
270.0
 51
0.0
  0
ARC
  5
194CB
  8
1DIM
 10
-49.338505300579982
 20
-824.61918341225191
 30
0.0
 40
1.0
 50
180.00000000002601
 51
270.0
  0
LINE
  5
194CD
  8
01
 10
397.42045643490752
 20
-861.87131530701436
 30
0.0
 11
394.37547213016569
 21
-861.87131530701527
 31
0.0
  0
LINE
  5
194D4
  8
01
 10
397.30700715362627
 20
-876.87131530702436
 30
0.0
 11
321.37818594779941
 21
-876.87131530701504
 31
0.0
  0
LINE
  5
194D5
  8
01
 10
319.6982552823647
 20
-862.92365126325694
 30
0.0
 11
320.3795564130441
 21
-875.92365126325808
 31
0.0
  0
ARC
  5
194D6
  8
01
 10
320.6968848171191
 20
-862.87131530701402
 30
0.0
 40
1.0
 50
89.999999999999986
 51
182.99999999999889
  0
ARC
  5
194D7
  8
01
 10
321.37818594779941
 20
-875.87131530701515
 30
0.0
 40
1.0
 50
182.99999999999889
 51
270.0
  0
LINE
  5
194DB
  8
01
 10
398.42041835797141
 20
-862.88004184251315
 30
0.0
 11
398.2895914964306
 21
-877.87131530701686
 31
0.0
  0
ARC
  5
194DC
  8
01
 10
397.42045643490752
 20
-862.87131530701424
 30
0.0
 40
1.0
 50
359.50000000000188
 51
89.999999999999986
  0
LINE
  5
194DE
  8
01
 10
320.6968848171191
 20
-861.8713153070139
 30
0.0
 11
323.69414012512431
 21
-861.8713153070139
 31
0.0
  0
LINE
  5
194E0
  8
01
 10
323.69414012512431
 20
-861.87131530701413
 30
0.0
 11
394.37547213016569
 21
-861.87131530701527
 31
0.0
  0
LINE
  5
194E3
  8
01
 10
267.65503228536249
 20
-862.92365125123331
 30
0.0
 11
266.97392401256872
 21
-875.91997130357049
 31
0.0
  0
LINE
  5
194E4
  8
01
 10
265.9752944778142
 20
-876.86763534732745
 30
0.0
 11
-54.126776388754479
 21
-876.86763534736826
 31
0.0
  0
ARC
  5
194E5
  8
01
 10
265.9752944778142
 20
-875.86763534732745
 30
0.0
 40
1.0
 50
270.0
 51
356.9999999999942
  0
LINE
  5
194E7
  8
01
 10
-55.806514195676527
 20
-862.92365126325603
 30
0.0
 11
-55.12540592350922
 21
-875.91997130361142
 31
0.0
  0
ARC
  5
194E8
  8
01
 10
-54.126776388754593
 20
-875.86763534736826
 30
0.0
 40
1.0
 50
183.0000000000058
 51
270.00000000000648
  0
LINE
  5
194E9
  8
01
 10
258.9242590445287
 20
-876.86763534732825
 30
0.0
 11
258.9242590445287
 21
-877.85678013732104
 31
0.0
  0
LINE
  5
194EA
  8
01
 10
-47.075740955471133
 20
-876.85678013729512
 30
0.0
 11
-47.075740955471247
 21
-877.85678013732104
 31
0.0
  0
LINE
  5
194EB
  8
1DIM
 10
261.18614140125243
 20
-757.88393612629534
 30
0.0
 11
-49.338505300579982
 21
-757.88393612629534
 31
0.0
  0
ARC
  5
194EC
  8
1DIM
 10
261.1861414012526
 20
-758.88393612629443
 30
0.0
 40
1.0
 50
359.99999999994787
 51
90.000000000006509
  0
ARC
  5
194ED
  8
1DIM
 10
-49.338505300580437
 20
-758.88393612629534
 30
0.0
 40
1.0
 50
89.999999999973952
 51
180.0
  0
LINE
  5
194EE
  8
01
 10
-55.808839310862588
 20
-753.36590946201341
 30
0.0
 11
-55.808839310862588
 21
-830.14326120508031
 31
0.0
  0
LINE
  5
194EF
  8
01
 10
267.65640275060792
 20
-753.36590946201341
 30
0.0
 11
267.65640275060792
 21
-830.14326120508031
 31
0.0
  0
ARC
  5
194F0
  8
01
 10
266.65640275060792
 20
-753.3659094620125
 30
0.0
 40
1.0
 50
359.99999999994787
 51
90.000000000006509
  0
ARC
  5
194F1
  8
01
 10
266.65640275060861
 20
-830.14326120508031
 30
0.0
 40
1.0
 50
269.99999999996089
 51
0.0
  0
ARC
  5
194F2
  8
01
 10
-54.80883931086305
 20
-753.36590946201159
 30
0.0
 40
1.0
 50
89.999999999973952
 51
180.00000000010419
  0
ARC
  5
194F3
  8
01
 10
-54.80883931086305
 20
-830.14326120508031
 30
0.0
 40
1.0
 50
180.0
 51
270.00000000002598
  0
LINE
  5
194F4
  8
01
 10
266.65640274997759
 20
-861.8713153070139
 30
0.0
 11
263.6591474419738
 21
-861.8713153070139
 31
0.0
  0
ARC
  5
194F5
  8
01
 10
266.65640274997708
 20
-862.8713153070139
 30
0.0
 40
1.0
 50
356.9999999999942
 51
89.999999999967429
  0
LINE
  5
194F6
  8
01
 10
-51.810629352917431
 20
-861.87131530701299
 30
0.0
 11
-54.8078846609219
 21
-861.87131530701299
 31
0.0
  0
ARC
  5
194F7
  8
01
 10
-54.807884660922127
 20
-862.87131530701299
 30
0.0
 40
1.0
 50
89.999999999986969
 51
183.0000000000058
  0
LINE
  5
194F8
  8
01
 10
-51.810629352917431
 20
-861.87131530701299
 30
0.0
 11
263.6591474419738
 21
-861.87131530701299
 31
0.0
  0
LINE
  5
194F9
  8
01
 10
332.87442460925149
 20
-876.8713153070164
 30
0.0
 11
332.87442460925149
 21
-877.87131530701663
 31
0.0
  0
LINE
  5
194FB
  8
01
 10
398.2895914964306
 20
-877.87131530701686
 30
0.0
 11
332.87442460925149
 21
-877.87131530701663
 31
0.0
  0
LINE
  5
194FC
  8
01
 10
-47.075740955471247
 20
-877.85678013732104
 30
0.0
 11
258.9242590445287
 21
-877.85678013732104
 31
0.0
  0
LINE
  5
19665
  8
01
 10
320.82425904452202
 20
-883.37131530714635
 30
0.0
 11
398.92425904452858
 21
-883.37131530715737
 31
0.0
  0
LINE
  5
19666
  8
01
 10
398.92425904452858
 20
-883.37131530715737
 30
0.0
 11
398.92425904452858
 21
-892.37131530713543
 31
0.0
  0
LINE
  5
19667
  8
1PHANTOM
 10
393.92426519895048
 20
-883.37131530715646
 30
0.0
 11
393.92426449558889
 21
-884.37131491626064
 31
0.0
  0
LINE
  5
19668
  8
1PHANTOM
 10
393.92425886868779
 20
-892.37131530713623
 30
0.0
 11
393.92425869284722
 21
-892.62131530714646
 31
0.0
  0
LINE
  5
1966B
  8
1PHANTOM
 10
259.72425865364181
 20
-754.87132414883297
 30
0.0
 11
252.12425865365771
 21
-754.87130646518744
 31
0.0
  0
LINE
  5
1966C
  8
1PHANTOM
 10
259.72425632684872
 20
-755.87132414883297
 30
0.0
 11
252.1242563268647
 21
-755.87130646517835
 31
0.0
  0
LINE
  5
1966D
  8
1PHANTOM
 10
256.42421096587577
 20
-755.87131703718114
 30
0.0
 11
255.4242135926784
 21
-754.87131471038811
 31
0.0
  0
LINE
  5
1966E
  8
1PHANTOM
 10
259.72425632684872
 20
-755.87132414883297
 30
0.0
 11
259.72425865364181
 21
-754.87132414883297
 31
0.0
  0
LINE
  5
1966F
  8
1PHANTOM
 10
257.42425865364248
 20
-755.87131936409241
 30
0.0
 11
254.42425865364251
 21
-755.87131238370785
 31
0.0
  0
LINE
  5
19670
  8
1PHANTOM
 10
252.1242563268647
 20
-755.87130646517835
 30
0.0
 11
252.12425865365771
 21
-754.87130646518744
 31
0.0
  0
LINE
  5
19671
  8
1PHANTOM
 10
254.82993483964719
 20
-722.97131332773995
 30
0.0
 11
256.79226992852318
 21
-722.17131789368796
 31
0.0
  0
LINE
  5
19672
  8
1PHANTOM
 10
256.79226992852318
 20
-722.17131789368796
 30
0.0
 11
256.2039933534802
 21
-721.85954803743698
 31
0.0
  0
LINE
  5
19673
  8
1PHANTOM
 10
253.92430518953961
 20
-745.37131122052961
 30
0.0
 11
257.92430518953961
 21
-744.57132052771146
 31
0.0
  0
LINE
  5
19674
  8
1PHANTOM
 10
253.92430518953961
 20
-734.17131122052524
 30
0.0
 11
257.92430518953961
 21
-733.37132052770176
 31
0.0
  0
LINE
  5
19675
  8
1PHANTOM
 10
253.92430518953961
 20
-730.97131122052451
 30
0.0
 11
257.92430518953961
 21
-730.17132052770285
 31
0.0
  0
LINE
  5
19676
  8
1PHANTOM
 10
257.92430518953961
 20
-730.17132052770285
 30
0.0
 11
257.42430518953961
 21
-730.07131936430414
 31
0.0
  0
LINE
  5
19677
  8
1PHANTOM
 10
254.42430518953961
 20
-729.47131238392285
 30
0.0
 11
253.92430518953961
 21
-729.37131122052415
 31
0.0
  0
LINE
  5
19678
  8
1PHANTOM
 10
257.92430518953961
 20
-733.37132052770176
 30
0.0
 11
257.42430518953961
 21
-733.27131936430487
 31
0.0
  0
LINE
  5
19679
  8
1PHANTOM
 10
257.92430518953961
 20
-731.77132052770139
 30
0.0
 11
257.42430518953961
 21
-731.67131936430451
 31
0.0
  0
LINE
  5
1967A
  8
1PHANTOM
 10
254.42430518953961
 20
-731.07131238392139
 30
0.0
 11
253.92430518953961
 21
-730.97131122052451
 31
0.0
  0
LINE
  5
1967B
  8
1PHANTOM
 10
254.42430518953961
 20
-732.67131238392165
 30
0.0
 11
253.92430518953961
 21
-732.57131122052488
 31
0.0
  0
LINE
  5
1967C
  8
1PHANTOM
 10
253.92430518953961
 20
-732.57131122052488
 30
0.0
 11
257.92430518953961
 21
-731.77132052770139
 31
0.0
  0
LINE
  5
1967D
  8
1PHANTOM
 10
257.24508403292981
 20
-723.77131894729416
 30
0.0
 11
256.6933345691254
 21
-723.58855480466616
 31
0.0
  0
LINE
  5
1967E
  8
1PHANTOM
 10
257.92430518953961
 20
-726.97132052770212
 30
0.0
 11
257.42430518953961
 21
-726.87131936430524
 31
0.0
  0
LINE
  5
1967F
  8
1PHANTOM
 10
257.92430518953961
 20
-728.57132052770248
 30
0.0
 11
257.42430518953961
 21
-728.4713193643056
 31
0.0
  0
LINE
  5
19680
  8
1PHANTOM
 10
257.69789813733632
 20
-725.37132000089878
 30
0.0
 11
257.16130440206371
 21
-725.2420493032696
 31
0.0
  0
LINE
  5
19681
  8
1PHANTOM
 10
254.84521978674869
 20
-724.68408178648497
 30
0.0
 11
254.37712133159809
 21
-724.57131227413436
 31
0.0
  0
LINE
  5
19682
  8
1PHANTOM
 10
254.42430518953961
 20
-727.87131238392237
 30
0.0
 11
253.92430518953961
 21
-727.7713112205256
 31
0.0
  0
LINE
  5
19683
  8
1PHANTOM
 10
254.42430518953961
 20
-726.27131238392212
 30
0.0
 11
253.92430518953961
 21
-726.17131122052524
 31
0.0
  0
LINE
  5
19684
  8
1PHANTOM
 10
255.28710668027679
 20
-723.12274912417888
 30
0.0
 11
254.82993483964719
 21
-722.97131332773995
 31
0.0
  0
LINE
  5
19685
  8
1PHANTOM
 10
254.37712133159809
 20
-724.57131227413436
 30
0.0
 11
257.24508403292981
 21
-723.77131894729416
 31
0.0
  0
LINE
  5
19686
  8
1PHANTOM
 10
253.92430518953961
 20
-727.7713112205256
 30
0.0
 11
257.92430518953961
 21
-726.97132052770212
 31
0.0
  0
LINE
  5
19687
  8
1PHANTOM
 10
253.92430518953961
 20
-726.17131122052524
 30
0.0
 11
257.69789813733632
 21
-725.37132000089878
 31
0.0
  0
LINE
  5
19688
  8
1PHANTOM
 10
253.92430518953961
 20
-729.37131122052415
 30
0.0
 11
257.92430518953961
 21
-728.57132052770248
 31
0.0
  0
LINE
  5
19689
  8
1PHANTOM
 10
253.92430518953961
 20
-742.17131122052888
 30
0.0
 11
257.92430518953961
 21
-741.37132052771085
 31
0.0
  0
LINE
  5
1968A
  8
1PHANTOM
 10
257.92430518953961
 20
-741.37132052771085
 30
0.0
 11
257.42430518953961
 21
-741.27131936431385
 31
0.0
  0
LINE
  5
1968B
  8
1PHANTOM
 10
254.42430518953961
 20
-740.67131238392165
 30
0.0
 11
253.92430518953961
 21
-740.57131122052488
 31
0.0
  0
LINE
  5
1968C
  8
1PHANTOM
 10
257.92430518953961
 20
-742.97132052771121
 30
0.0
 11
257.42430518953961
 21
-742.87131936431251
 31
0.0
  0
LINE
  5
1968D
  8
1PHANTOM
 10
257.92430518953961
 20
-744.57132052771146
 30
0.0
 11
257.42430518953961
 21
-744.47131936431288
 31
0.0
  0
LINE
  5
1968E
  8
1PHANTOM
 10
254.42430518953961
 20
-742.27131238392747
 30
0.0
 11
253.92430518953961
 21
-742.17131122052888
 31
0.0
  0
LINE
  5
1968F
  8
1PHANTOM
 10
254.42430518953961
 20
-743.87131238392612
 30
0.0
 11
253.92430518953961
 21
-743.77131122052924
 31
0.0
  0
LINE
  5
19690
  8
1PHANTOM
 10
253.92430518953961
 20
-743.77131122052924
 30
0.0
 11
257.92430518953961
 21
-742.97132052771121
 31
0.0
  0
LINE
  5
19691
  8
1PHANTOM
 10
257.92430518953961
 20
-736.57132052770612
 30
0.0
 11
257.42430518953961
 21
-736.47131936430924
 31
0.0
  0
LINE
  5
19692
  8
1PHANTOM
 10
257.92430518953961
 20
-734.97132052770212
 30
0.0
 11
257.42430518953961
 21
-734.87131936430524
 31
0.0
  0
LINE
  5
19693
  8
1PHANTOM
 10
257.92430518953961
 20
-739.77132052770685
 30
0.0
 11
257.42430518953961
 21
-739.67131936430815
 31
0.0
  0
LINE
  5
19694
  8
1PHANTOM
 10
257.92430518953961
 20
-738.17132052770648
 30
0.0
 11
257.42430518953961
 21
-738.0713193643096
 31
0.0
  0
LINE
  5
19695
  8
1PHANTOM
 10
254.42430518953961
 20
-734.27131238392212
 30
0.0
 11
253.92430518953961
 21
-734.17131122052524
 31
0.0
  0
LINE
  5
19696
  8
1PHANTOM
 10
254.42430518953961
 20
-735.87131238392237
 30
0.0
 11
253.92430518953961
 21
-735.7713112205256
 31
0.0
  0
LINE
  5
19697
  8
1PHANTOM
 10
254.42430518953961
 20
-739.07131238392321
 30
0.0
 11
253.92430518953961
 21
-738.97131122052451
 31
0.0
  0
LINE
  5
19698
  8
1PHANTOM
 10
254.42430518953961
 20
-737.47131238392285
 30
0.0
 11
253.92430518953961
 21
-737.37131122052415
 31
0.0
  0
LINE
  5
19699
  8
1PHANTOM
 10
253.92430518953961
 20
-737.37131122052415
 30
0.0
 11
257.92430518953961
 21
-736.57132052770612
 31
0.0
  0
LINE
  5
1969A
  8
1PHANTOM
 10
253.92430518953961
 20
-735.7713112205256
 30
0.0
 11
257.92430518953961
 21
-734.97132052770212
 31
0.0
  0
LINE
  5
1969B
  8
1PHANTOM
 10
253.92430518953961
 20
-738.97131122052451
 30
0.0
 11
257.92430518953961
 21
-738.17132052770648
 31
0.0
  0
LINE
  5
1969C
  8
1PHANTOM
 10
253.92430518953961
 20
-740.57131122052488
 30
0.0
 11
257.92430518953961
 21
-739.77132052770685
 31
0.0
  0
LINE
  5
1969D
  8
1PHANTOM
 10
257.42430518953961
 20
-755.87131936419973
 30
0.0
 11
254.42430518953961
 21
-755.87131238381517
 31
0.0
  0
LINE
  5
1969E
  8
1PHANTOM
 10
254.42430518953961
 20
-748.67131238393085
 30
0.0
 11
253.92430518953961
 21
-748.57131122053386
 31
0.0
  0
LINE
  5
1969F
  8
1PHANTOM
 10
254.42430518953961
 20
-747.07131238393038
 30
0.0
 11
253.92430518953961
 21
-746.97131122053361
 31
0.0
  0
LINE
  5
196A0
  8
1PHANTOM
 10
253.92430518953961
 20
-746.97131122053361
 30
0.0
 11
257.92430518953961
 21
-746.17132052771547
 31
0.0
  0
LINE
  5
196A1
  8
1PHANTOM
 10
257.92430518953961
 20
-747.77132052771594
 30
0.0
 11
257.42430518953961
 21
-747.67131936431724
 31
0.0
  0
LINE
  5
196A2
  8
1PHANTOM
 10
257.92430518953961
 20
-746.17132052771547
 30
0.0
 11
257.42430518953961
 21
-746.07131936431688
 31
0.0
  0
LINE
  5
196A3
  8
1PHANTOM
 10
253.92430518953961
 20
-748.57131122053386
 30
0.0
 11
257.92430518953961
 21
-747.77132052771594
 31
0.0
  0
LINE
  5
196A4
  8
1PHANTOM
 10
254.42430518953961
 20
-745.47131238392637
 30
0.0
 11
253.92430518953961
 21
-745.37131122052961
 31
0.0
  0
LINE
  5
196A5
  8
1PHANTOM
 10
255.92430518953961
 20
-720.87131587406111
 30
0.0
 11
254.42430518953961
 21
-726.17131238392528
 31
0.0
  0
LINE
  5
196A6
  8
1PHANTOM
 10
254.42430518953961
 20
-726.17131238392528
 30
0.0
 11
254.4243051895387
 21
-754.87131181692621
 31
0.0
  0
LINE
  5
196A7
  8
1PHANTOM
 10
255.92430518953961
 20
-720.87131587406111
 30
0.0
 11
257.42430518953961
 21
-726.1713193643036
 31
0.0
  0
LINE
  5
196A8
  8
1PHANTOM
 10
252.42425865364251
 20
-755.87130773011631
 30
0.0
 11
254.42430518953961
 21
-755.87131238381517
 31
0.0
  0
LINE
  5
196A9
  8
1PHANTOM
 10
257.42430518953961
 20
-726.1713193643036
 30
0.0
 11
257.42430518954052
 21
-754.87131879731169
 31
0.0
  0
LINE
  5
196AA
  8
1PHANTOM
 10
252.42425865364251
 20
-755.87130773011631
 30
0.0
 11
252.42425865364251
 21
-756.97131122031169
 31
0.0
  0
LINE
  5
196AB
  8
1PHANTOM
 10
257.42430518953961
 20
-755.87131936419973
 30
0.0
 11
259.42425865364248
 21
-755.87132401768019
 31
0.0
  0
ARC
  5
196AC
  8
1PHANTOM
 10
253.92425865364069
 20
-756.97131122031169
 30
0.0
 40
1.5
 50
180.0
 51
269.99986668447491
  0
LINE
  5
196AD
  8
1PHANTOM
 10
259.42425865364248
 20
-755.87132401768019
 30
0.0
 11
259.42425865364248
 21
-756.971320527491
 31
0.0
  0
LINE
  5
196AE
  8
1PHANTOM
 10
253.92425516344929
 20
-758.47131122030805
 30
0.0
 11
257.92425516344929
 21
-758.47132052748748
 31
0.0
  0
ARC
  5
196AF
  8
1PHANTOM
 10
257.92425865364072
 20
-756.971320527491
 30
0.0
 40
1.5
 50
269.99986668447491
 51
0.0
  0
LINE
  5
196B0
  8
1PHANTOM
 10
253.92430518953961
 20
-751.77131122053459
 30
0.0
 11
257.92430518953961
 21
-750.97132052771656
 31
0.0
  0
LINE
  5
196B1
  8
1PHANTOM
 10
257.92430518953961
 20
-749.37132052771619
 30
0.0
 11
257.42430518953961
 21
-749.27131936431761
 31
0.0
  0
LINE
  5
196B2
  8
1PHANTOM
 10
257.92430518953961
 20
-750.97132052771656
 30
0.0
 11
257.42430518953961
 21
-750.87131936431786
 31
0.0
  0
LINE
  5
196B3
  8
1PHANTOM
 10
254.42430518953961
 20
-750.27131238393122
 30
0.0
 11
253.92430518953961
 21
-750.17131122053434
 31
0.0
  0
LINE
  5
196B4
  8
1PHANTOM
 10
253.92430518953961
 20
-750.17131122053434
 30
0.0
 11
257.92430518953961
 21
-749.37132052771619
 31
0.0
  0
LINE
  5
196B5
  8
1PHANTOM
 10
254.42430518953961
 20
-753.47131238393547
 30
0.0
 11
253.92430518953961
 21
-753.37131122053859
 31
0.0
  0
LINE
  5
196B6
  8
1PHANTOM
 10
253.92430518953961
 20
-753.37131122053859
 30
0.0
 11
257.92430518953961
 21
-752.57132052772056
 31
0.0
  0
LINE
  5
196B7
  8
1PHANTOM
 10
257.92430518953961
 20
-754.17132052772104
 30
0.0
 11
257.42430518953961
 21
-754.07131936432233
 31
0.0
  0
LINE
  5
196B8
  8
1PHANTOM
 10
257.92430518953961
 20
-752.57132052772056
 30
0.0
 11
257.42430518953961
 21
-752.47131936432186
 31
0.0
  0
LINE
  5
196B9
  8
1PHANTOM
 10
254.424308024591
 20
-754.87131181693258
 30
0.0
 11
257.92430518953961
 21
-754.17132052772104
 31
0.0
  0
LINE
  5
196BA
  8
1PHANTOM
 10
254.42430518953961
 20
-751.87131238393147
 30
0.0
 11
253.92430518953961
 21
-751.77131122053459
 31
0.0
  0
LINE
  5
196BC
  8
1PHANTOM
 10
-40.275741346358238
 20
-754.87132414883297
 30
0.0
 11
-47.875741346342231
 21
-754.87130646518744
 31
0.0
  0
LINE
  5
196BD
  8
1PHANTOM
 10
-40.275743673151283
 20
-755.87132414883297
 30
0.0
 11
-47.875743673135268
 21
-755.87130646517835
 31
0.0
  0
LINE
  5
196BE
  8
1PHANTOM
 10
-43.575789034124227
 20
-755.87131703718114
 30
0.0
 11
-44.57578640732163
 21
-754.87131471038811
 31
0.0
  0
LINE
  5
196BF
  8
1PHANTOM
 10
-40.275743673151283
 20
-755.87132414883297
 30
0.0
 11
-40.275741346358238
 21
-754.87132414883297
 31
0.0
  0
LINE
  5
196C0
  8
1PHANTOM
 10
-42.575741346357518
 20
-755.87131936409241
 30
0.0
 11
-45.575741346357518
 21
-755.87131238370785
 31
0.0
  0
LINE
  5
196C1
  8
1PHANTOM
 10
-47.875743673135268
 20
-755.87130646517835
 30
0.0
 11
-47.875741346342231
 21
-754.87130646518744
 31
0.0
  0
LINE
  5
196C2
  8
1PHANTOM
 10
-45.170065160352799
 20
-722.97131332773995
 30
0.0
 11
-43.20773007147681
 21
-722.17131789368796
 31
0.0
  0
LINE
  5
196C3
  8
1PHANTOM
 10
-43.20773007147681
 20
-722.17131789368796
 30
0.0
 11
-43.7960066465198
 21
-721.85954803743698
 31
0.0
  0
LINE
  5
196C4
  8
1PHANTOM
 10
-46.075694810460391
 20
-745.37131122052961
 30
0.0
 11
-42.075694810460377
 21
-744.57132052771146
 31
0.0
  0
LINE
  5
196C5
  8
1PHANTOM
 10
-46.075694810460391
 20
-734.17131122052524
 30
0.0
 11
-42.075694810460377
 21
-733.37132052770176
 31
0.0
  0
LINE
  5
196C6
  8
1PHANTOM
 10
-46.075694810460391
 20
-730.97131122052451
 30
0.0
 11
-42.075694810460377
 21
-730.17132052770285
 31
0.0
  0
LINE
  5
196C7
  8
1PHANTOM
 10
-42.075694810460377
 20
-730.17132052770285
 30
0.0
 11
-42.575694810460391
 21
-730.07131936430414
 31
0.0
  0
LINE
  5
196C8
  8
1PHANTOM
 10
-45.575694810460391
 20
-729.47131238392285
 30
0.0
 11
-46.075694810460391
 21
-729.37131122052415
 31
0.0
  0
LINE
  5
196C9
  8
1PHANTOM
 10
-42.075694810460377
 20
-733.37132052770176
 30
0.0
 11
-42.575694810460391
 21
-733.27131936430487
 31
0.0
  0
LINE
  5
196CA
  8
1PHANTOM
 10
-42.075694810460377
 20
-731.77132052770139
 30
0.0
 11
-42.575694810460391
 21
-731.67131936430451
 31
0.0
  0
LINE
  5
196CB
  8
1PHANTOM
 10
-45.575694810460391
 20
-731.07131238392139
 30
0.0
 11
-46.075694810460391
 21
-730.97131122052451
 31
0.0
  0
LINE
  5
196CC
  8
1PHANTOM
 10
-45.575694810460391
 20
-732.67131238392165
 30
0.0
 11
-46.075694810460391
 21
-732.57131122052488
 31
0.0
  0
LINE
  5
196CD
  8
1PHANTOM
 10
-46.075694810460391
 20
-732.57131122052488
 30
0.0
 11
-42.075694810460377
 21
-731.77132052770139
 31
0.0
  0
LINE
  5
196CE
  8
1PHANTOM
 10
-42.754915967070239
 20
-723.77131894729416
 30
0.0
 11
-43.306665430874538
 21
-723.58855480466616
 31
0.0
  0
LINE
  5
196CF
  8
1PHANTOM
 10
-42.075694810460377
 20
-726.97132052770212
 30
0.0
 11
-42.575694810460391
 21
-726.87131936430524
 31
0.0
  0
LINE
  5
196D0
  8
1PHANTOM
 10
-42.075694810460377
 20
-728.57132052770248
 30
0.0
 11
-42.575694810460391
 21
-728.4713193643056
 31
0.0
  0
LINE
  5
196D1
  8
1PHANTOM
 10
-42.302101862663683
 20
-725.37132000089878
 30
0.0
 11
-42.838695597936287
 21
-725.2420493032696
 31
0.0
  0
LINE
  5
196D2
  8
1PHANTOM
 10
-45.154780213251343
 20
-724.68408178648497
 30
0.0
 11
-45.622878668401881
 21
-724.57131227413436
 31
0.0
  0
LINE
  5
196D3
  8
1PHANTOM
 10
-45.575694810460391
 20
-727.87131238392237
 30
0.0
 11
-46.075694810460391
 21
-727.7713112205256
 31
0.0
  0
LINE
  5
196D4
  8
1PHANTOM
 10
-45.575694810460391
 20
-726.27131238392212
 30
0.0
 11
-46.075694810460391
 21
-726.17131122052524
 31
0.0
  0
LINE
  5
196D5
  8
1PHANTOM
 10
-44.712893319723207
 20
-723.12274912417888
 30
0.0
 11
-45.170065160352799
 21
-722.97131332773995
 31
0.0
  0
LINE
  5
196D6
  8
1PHANTOM
 10
-45.622878668401881
 20
-724.57131227413436
 30
0.0
 11
-42.754915967070239
 21
-723.77131894729416
 31
0.0
  0
LINE
  5
196D7
  8
1PHANTOM
 10
-46.075694810460391
 20
-727.7713112205256
 30
0.0
 11
-42.075694810460377
 21
-726.97132052770212
 31
0.0
  0
LINE
  5
196D8
  8
1PHANTOM
 10
-46.075694810460391
 20
-726.17131122052524
 30
0.0
 11
-42.302101862663683
 21
-725.37132000089878
 31
0.0
  0
LINE
  5
196D9
  8
1PHANTOM
 10
-46.075694810460391
 20
-729.37131122052415
 30
0.0
 11
-42.075694810460377
 21
-728.57132052770248
 31
0.0
  0
LINE
  5
196DA
  8
1PHANTOM
 10
-46.075694810460391
 20
-742.17131122052888
 30
0.0
 11
-42.075694810460377
 21
-741.37132052771085
 31
0.0
  0
LINE
  5
196DB
  8
1PHANTOM
 10
-42.075694810460377
 20
-741.37132052771085
 30
0.0
 11
-42.575694810460391
 21
-741.27131936431385
 31
0.0
  0
LINE
  5
196DC
  8
1PHANTOM
 10
-45.575694810460391
 20
-740.67131238392165
 30
0.0
 11
-46.075694810460391
 21
-740.57131122052488
 31
0.0
  0
LINE
  5
196DD
  8
1PHANTOM
 10
-42.075694810460377
 20
-742.97132052771121
 30
0.0
 11
-42.575694810460391
 21
-742.87131936431251
 31
0.0
  0
LINE
  5
196DE
  8
1PHANTOM
 10
-42.075694810460377
 20
-744.57132052771146
 30
0.0
 11
-42.575694810460391
 21
-744.47131936431288
 31
0.0
  0
LINE
  5
196DF
  8
1PHANTOM
 10
-45.575694810460391
 20
-742.27131238392747
 30
0.0
 11
-46.075694810460391
 21
-742.17131122052888
 31
0.0
  0
LINE
  5
196E0
  8
1PHANTOM
 10
-45.575694810460391
 20
-743.87131238392612
 30
0.0
 11
-46.075694810460391
 21
-743.77131122052924
 31
0.0
  0
LINE
  5
196E1
  8
1PHANTOM
 10
-46.075694810460391
 20
-743.77131122052924
 30
0.0
 11
-42.075694810460377
 21
-742.97132052771121
 31
0.0
  0
LINE
  5
196E2
  8
1PHANTOM
 10
-42.075694810460377
 20
-736.57132052770612
 30
0.0
 11
-42.575694810460391
 21
-736.47131936430924
 31
0.0
  0
LINE
  5
196E3
  8
1PHANTOM
 10
-42.075694810460377
 20
-734.97132052770212
 30
0.0
 11
-42.575694810460391
 21
-734.87131936430524
 31
0.0
  0
LINE
  5
196E4
  8
1PHANTOM
 10
-42.075694810460377
 20
-739.77132052770685
 30
0.0
 11
-42.575694810460391
 21
-739.67131936430815
 31
0.0
  0
LINE
  5
196E5
  8
1PHANTOM
 10
-42.075694810460377
 20
-738.17132052770648
 30
0.0
 11
-42.575694810460391
 21
-738.0713193643096
 31
0.0
  0
LINE
  5
196E6
  8
1PHANTOM
 10
-45.575694810460391
 20
-734.27131238392212
 30
0.0
 11
-46.075694810460391
 21
-734.17131122052524
 31
0.0
  0
LINE
  5
196E7
  8
1PHANTOM
 10
-45.575694810460391
 20
-735.87131238392237
 30
0.0
 11
-46.075694810460391
 21
-735.7713112205256
 31
0.0
  0
LINE
  5
196E8
  8
1PHANTOM
 10
-45.575694810460391
 20
-739.07131238392321
 30
0.0
 11
-46.075694810460391
 21
-738.97131122052451
 31
0.0
  0
LINE
  5
196E9
  8
1PHANTOM
 10
-45.575694810460391
 20
-737.47131238392285
 30
0.0
 11
-46.075694810460391
 21
-737.37131122052415
 31
0.0
  0
LINE
  5
196EA
  8
1PHANTOM
 10
-46.075694810460391
 20
-737.37131122052415
 30
0.0
 11
-42.075694810460377
 21
-736.57132052770612
 31
0.0
  0
LINE
  5
196EB
  8
1PHANTOM
 10
-46.075694810460391
 20
-735.7713112205256
 30
0.0
 11
-42.075694810460377
 21
-734.97132052770212
 31
0.0
  0
LINE
  5
196EC
  8
1PHANTOM
 10
-46.075694810460391
 20
-738.97131122052451
 30
0.0
 11
-42.075694810460377
 21
-738.17132052770648
 31
0.0
  0
LINE
  5
196ED
  8
1PHANTOM
 10
-46.075694810460391
 20
-740.57131122052488
 30
0.0
 11
-42.075694810460377
 21
-739.77132052770685
 31
0.0
  0
LINE
  5
196EE
  8
1PHANTOM
 10
-42.575694810460391
 20
-755.87131936419973
 30
0.0
 11
-45.575694810460391
 21
-755.87131238381517
 31
0.0
  0
LINE
  5
196EF
  8
1PHANTOM
 10
-45.575694810460391
 20
-748.67131238393085
 30
0.0
 11
-46.075694810460391
 21
-748.57131122053386
 31
0.0
  0
LINE
  5
196F0
  8
1PHANTOM
 10
-45.575694810460391
 20
-747.07131238393038
 30
0.0
 11
-46.075694810460391
 21
-746.97131122053361
 31
0.0
  0
LINE
  5
196F1
  8
1PHANTOM
 10
-46.075694810460391
 20
-746.97131122053361
 30
0.0
 11
-42.075694810460377
 21
-746.17132052771547
 31
0.0
  0
LINE
  5
196F2
  8
1PHANTOM
 10
-42.075694810460377
 20
-747.77132052771594
 30
0.0
 11
-42.575694810460391
 21
-747.67131936431724
 31
0.0
  0
LINE
  5
196F3
  8
1PHANTOM
 10
-42.075694810460377
 20
-746.17132052771547
 30
0.0
 11
-42.575694810460391
 21
-746.07131936431688
 31
0.0
  0
LINE
  5
196F4
  8
1PHANTOM
 10
-46.075694810460391
 20
-748.57131122053386
 30
0.0
 11
-42.075694810460377
 21
-747.77132052771594
 31
0.0
  0
LINE
  5
196F5
  8
1PHANTOM
 10
-45.575694810460391
 20
-745.47131238392637
 30
0.0
 11
-46.075694810460391
 21
-745.37131122052961
 31
0.0
  0
LINE
  5
196F6
  8
1PHANTOM
 10
-44.075694810460391
 20
-720.87131587406111
 30
0.0
 11
-45.575694810460391
 21
-726.17131238392528
 31
0.0
  0
LINE
  5
196F7
  8
1PHANTOM
 10
-45.575694810460391
 20
-726.17131238392528
 30
0.0
 11
-45.5756948104613
 21
-754.87131181692621
 31
0.0
  0
LINE
  5
196F8
  8
1PHANTOM
 10
-44.075694810460391
 20
-720.87131587406111
 30
0.0
 11
-42.575694810460391
 21
-726.1713193643036
 31
0.0
  0
LINE
  5
196F9
  8
1PHANTOM
 10
-47.575741346357518
 20
-755.87130773011631
 30
0.0
 11
-45.575694810460391
 21
-755.87131238381517
 31
0.0
  0
LINE
  5
196FA
  8
1PHANTOM
 10
-42.575694810460391
 20
-726.1713193643036
 30
0.0
 11
-42.575694810459481
 21
-754.87131879731169
 31
0.0
  0
LINE
  5
196FB
  8
1PHANTOM
 10
-47.575741346357518
 20
-755.87130773011631
 30
0.0
 11
-47.575741346357518
 21
-756.97131122031169
 31
0.0
  0
LINE
  5
196FC
  8
1PHANTOM
 10
-42.575694810460391
 20
-755.87131936419973
 30
0.0
 11
-40.575741346357518
 21
-755.87132401768019
 31
0.0
  0
ARC
  5
196FD
  8
1PHANTOM
 10
-46.075741346359337
 20
-756.97131122031169
 30
0.0
 40
1.5
 50
180.0
 51
269.99986668447491
  0
LINE
  5
196FE
  8
1PHANTOM
 10
-40.575741346357518
 20
-755.87132401768019
 30
0.0
 11
-40.575741346357518
 21
-756.971320527491
 31
0.0
  0
LINE
  5
196FF
  8
1PHANTOM
 10
-46.075744836550712
 20
-758.47131122030805
 30
0.0
 11
-42.075744836550712
 21
-758.47132052748748
 31
0.0
  0
ARC
  5
19700
  8
1PHANTOM
 10
-42.075741346359329
 20
-756.971320527491
 30
0.0
 40
1.5
 50
269.99986668447491
 51
0.0
  0
LINE
  5
19701
  8
1PHANTOM
 10
-46.075694810460391
 20
-751.77131122053459
 30
0.0
 11
-42.075694810460377
 21
-750.97132052771656
 31
0.0
  0
LINE
  5
19702
  8
1PHANTOM
 10
-42.075694810460377
 20
-749.37132052771619
 30
0.0
 11
-42.575694810460391
 21
-749.27131936431761
 31
0.0
  0
LINE
  5
19703
  8
1PHANTOM
 10
-42.075694810460377
 20
-750.97132052771656
 30
0.0
 11
-42.575694810460391
 21
-750.87131936431786
 31
0.0
  0
LINE
  5
19704
  8
1PHANTOM
 10
-45.575694810460391
 20
-750.27131238393122
 30
0.0
 11
-46.075694810460391
 21
-750.17131122053434
 31
0.0
  0
LINE
  5
19705
  8
1PHANTOM
 10
-46.075694810460391
 20
-750.17131122053434
 30
0.0
 11
-42.075694810460377
 21
-749.37132052771619
 31
0.0
  0
LINE
  5
19706
  8
1PHANTOM
 10
-45.575694810460391
 20
-753.47131238393547
 30
0.0
 11
-46.075694810460391
 21
-753.37131122053859
 31
0.0
  0
LINE
  5
19707
  8
1PHANTOM
 10
-46.075694810460391
 20
-753.37131122053859
 30
0.0
 11
-42.075694810460377
 21
-752.57132052772056
 31
0.0
  0
LINE
  5
19708
  8
1PHANTOM
 10
-42.075694810460377
 20
-754.17132052772104
 30
0.0
 11
-42.575694810460391
 21
-754.07131936432233
 31
0.0
  0
LINE
  5
19709
  8
1PHANTOM
 10
-42.075694810460377
 20
-752.57132052772056
 30
0.0
 11
-42.575694810460391
 21
-752.47131936432186
 31
0.0
  0
LINE
  5
1970A
  8
1PHANTOM
 10
-45.575691975408972
 20
-754.87131181693258
 30
0.0
 11
-42.075694810460377
 21
-754.17132052772104
 31
0.0
  0
LINE
  5
1970B
  8
1PHANTOM
 10
-45.575694810460391
 20
-751.87131238393147
 30
0.0
 11
-46.075694810460391
 21
-751.77131122053459
 31
0.0
  0
LINE
  5
1970E
  8
1CENTER
 10
255.92425904453151
 20
-890.85678013732274
 30
0.0
 11
255.92425904453151
 21
-884.85678013732274
 31
0.0
  0
LINE
  5
1970F
  8
1CENTER
 10
252.92425904453151
 20
-887.85678013732286
 30
0.0
 11
258.92425904453148
 21
-887.85678013732286
 31
0.0
  0
LINE
  5
19710
  8
1CENTER
 10
-44.075740955474878
 20
-890.85678013732195
 30
0.0
 11
-44.075740955474878
 21
-884.85678013732195
 31
0.0
  0
LINE
  5
19711
  8
1CENTER
 10
-47.075740955474878
 20
-887.85678013732195
 30
0.0
 11
-41.075740955474878
 21
-887.85678013732195
 31
0.0
  0
LINE
  5
19837
  8
01
 10
407.92430400960183
 20
-834.37131530714134
 30
0.0
 11
407.92430400960183
 21
-914.37131530714089
 31
0.0
  0
LINE
  5
19838
  8
01
 10
419.92430400960188
 20
-834.37131530714134
 30
0.0
 11
419.92430400960188
 21
-914.37131530714089
 31
0.0
  0
LINE
  5
19839
  8
01
 10
398.92430400960188
 20
-834.37131530714134
 30
0.0
 11
398.92430400960188
 21
-914.37131530714089
 31
0.0
  0
TEXT
  5
19983
  8
1TEXT
 10
318.9242590445287
 20
-775.87131530701458
 30
0.0
 40
8.0
  1
SC294--L
  0
LINE
  5
19984
  8
1DIM
 10
318.9242590445287
 20
-787.8713153070147
 30
0.0
 11
433.92425904452921
 21
-787.8713153070147
 31
0.0
  0
TEXT
  5
19985
  8
1TEXT
 10
320.05759237786219
 20
-786.3713153070147
 30
0.0
 40
4.0
  1
表面処理：本体
 72
     1
 11
336.3242590445289
 21
-786.3713153070147
 31
0.0
  0
LINE
  5
19986
  8
1DIM
 10
318.9242590445287
 20
-780.87131530701458
 30
0.0
 11
433.92425904452921
 21
-780.87131530701458
 31
0.0
  0
TEXT
  5
19987
  8
1TEXT
 10
409.52425904452878
 20
-786.3713153070147
 30
0.0
 40
4.0
  1
コード
 72
     1
 11
416.32425904452879
 21
-786.3713153070147
 31
0.0
  0
TEXT
  5
19988
  8
1TEXT
 10
355.23092571119548
 20
-786.3713153070147
 30
0.0
 40
4.0
  1
表面処理：カバー・シェルフ
 41
0.7
 72
     1
 11
376.3242590445289
 21
-786.3713153070147
 31
0.0
  0
LINE
  5
19989
  8
1DIM
 10
353.9242590445279
 20
-794.87131530701515
 30
0.0
 11
398.9242590445283
 21
-794.87131530701561
 31
0.0
  0
LINE
  5
1998A
  8
1DIM
 10
398.92425904452881
 20
-794.87131530701515
 30
0.0
 11
433.92425904452921
 21
-794.8713153070147
 31
0.0
  0
LINE
  5
1998B
  8
1DIM
 10
318.9242590445287
 20
-801.87131530701436
 30
0.0
 11
433.92425904452921
 21
-801.87131530701515
 31
0.0
  0
TEXT
  5
1998C
  8
1TEXT
 10
363.79092571119588
 20
-800.58567229066455
 30
0.0
 40
4.0
  1
黒【艶消し】
 72
     1
 11
376.3242590445293
 21
-800.58567229066455
 31
0.0
  0
TEXT
  5
1998D
  8
1TEXT
 10
363.52425904452929
 20
-793.58567229066455
 30
0.0
 40
4.0
  1
白【艶消し】
 72
     1
 11
376.3242590445293
 21
-793.58567229066455
 31
0.0
  0
TEXT
  5
1998E
  8
1TEXT
 10
326.99092571119598
 20
-796.84921032699935
 30
0.0
 40
4.0
  1
クローム
 72
     1
 11
336.3242590445293
 21
-796.84921032699935
 31
0.0
  0
LINE
  5
1998F
  8
1DIM
 10
353.9242590445287
 20
-780.87131530701458
 30
0.0
 11
353.9242590445283
 21
-801.87131530701367
 31
0.0
  0
LINE
  5
19990
  8
1DIM
 10
398.92425904452881
 20
-780.87131530701458
 30
0.0
 11
398.92425904452881
 21
-801.87131530701515
 31
0.0
  0
LINE
  5
19991
  8
1DIM
 10
433.92425904452921
 20
-780.87131530701458
 30
0.0
 11
433.92425904452921
 21
-801.87131530701515
 31
0.0
  0
LINE
  5
19992
  8
1DIM
 10
318.9242590445287
 20
-780.87131530701458
 30
0.0
 11
318.9242590445287
 21
-801.87131530701436
 31
0.0
  0
TEXT
  5
19993
  8
1TEXT
 10
400.99092571119638
 20
-800.58567229066398
 30
0.0
 40
4.0
  1
SC294KCL
 72
     1
 11
416.3242590445297
 21
-800.58567229066398
 31
0.0
  0
TEXT
  5
19994
  8
1TEXT
 10
400.99092571119638
 20
-793.58567229066409
 30
0.0
 40
4.0
  1
SC294SCL
 72
     1
 11
416.3242590445297
 21
-793.58567229066409
 31
0.0
  0
ARC
  5
19BD9
  8
01
 10
397.30700715362639
 20
-875.87131530702436
 30
0.0
 40
1.0
 50
269.99999999999312
 51
359.49999999999648
  0
LINE
  5
19D94
  8
1DIM1
 10
218.9242590445287
 20
-820.14326120508008
 30
0.0
 11
218.9242590445287
 21
-763.35985833346945
 31
0.0
  0
LINE
  5
19D98
  8
1DIM1
 10
-45.386669417360743
 20
-811.87131530701481
 30
0.0
 11
257.2342884811456
 21
-811.87131530701481
 31
0.0
  0
LINE
  5
19D9C
  8
1DIM
 10
263.23428848114457
 20
-758.35985833347058
 30
0.0
 11
263.23428848114457
 21
-740.87131530701481
 31
0.0
  0
LINE
  5
19D9D
  8
1DIM
 10
268.92425904453057
 20
-741.87131530701481
 30
0.0
 11
268.92425904453057
 21
-740.87131530701481
 31
0.0
  0
LINE
  5
19D9E
  8
1DIM
 10
265.23428848114457
 20
-741.87131530701481
 30
0.0
 11
266.92425904453057
 21
-741.87131530701481
 31
0.0
  0
TEXT
  5
19DA2
  8
1DIM
 10
351.43472013870411
 20
-828.74992593066077
 30
0.0
 40
3.5
  1
材質：亜鉛ダイキャスト
  0
TEXT
  5
19DA3
  8
1DIM
 10
351.43472013870411
 20
-834.58325926399425
 30
0.0
 40
3.5
  1
仕上げ：クローム
  0
SOLID
  5
19DA4
  8
1DIM
 10
323.57760167235722
 20
-879.76754376823271
 30
0.0
 11
322.29267049135768
 21
-881.33600255672752
 31
0.0
 12
322.99945659603458
 22
-879.43559088728671
 32
0.0
 13
322.99945659603458
 23
-879.43559088728671
 33
0.0
  0
TEXT
  5
19DA6
  8
1DIM
 10
364.93373560394821
 20
-842.76420080997184
 30
0.0
 40
3.5
  1
材質：ABS樹脂
  0
TEXT
  5
19DA7
  8
1DIM
 10
364.93373560394821
 20
-848.59753414330521
 30
0.0
 40
3.5
  1
仕上げ：表参照
  0
SOLID
  5
19DA8
  8
1DIM
 10
340.57060203926568
 20
-887.72861014757268
 30
0.0
 11
339.286238925997
 21
-889.29753414330526
 31
0.0
 12
339.99233679128389
 22
-887.39686665114664
 32
0.0
 13
339.99233679128389
 23
-887.39686665114664
 33
0.0
  0
TEXT
  5
19DAA
  8
1DIM
 10
402.57940525199302
 20
-814.07947250047744
 30
0.0
 40
3.5
  1
PB
  0
SOLID
  5
19DAB
  8
1DIM
 10
403.48393536363568
 20
-833.2322335041672
 30
0.0
 11
403.5042726316799
 21
-835.25971901746675
 31
0.0
 12
402.82747180624358
 22
-833.34842318641381
 32
0.0
 13
402.82747180624358
 23
-833.34842318641381
 33
0.0
  0
SOLID
  5
19DAD
  8
1DIM
 10
413.04745617616652
 20
-833.23662003426625
 30
0.0
 11
413.50225484562111
 21
-835.2125424217536
 31
0.0
 12
412.43120019478982
 22
-833.49092892098065
 32
0.0
 13
412.43120019478982
 23
-833.49092892098065
 33
0.0
  0
TEXT
  5
19DAF
  8
1DIM
 10
410.24674974653152
 20
-820.0808185176013
 30
0.0
 40
3.5
  1
合板12mm以上
  0
LINE
  5
19DB0
  8
1DIM1
 10
-57.075740955473968
 20
-897.35678013732195
 30
0.0
 11
-57.075740955473982
 21
-960.85678013732195
 31
0.0
  0
LINE
  5
19DB1
  8
1DIM1
 10
268.92425904453103
 20
-897.35678013732195
 30
0.0
 11
268.92425904453103
 21
-960.85678013732195
 31
0.0
  0
LINE
  5
19DB2
  8
1DIM1
 10
-51.075740955473982
 20
-957.85678013732195
 30
0.0
 11
262.92425904453103
 21
-957.85678013732195
 31
0.0
  0
LINE
  5
19DB6
  8
1DIM1
 10
-44.075740955474878
 20
-890.85678013732195
 30
0.0
 11
-44.075740955474878
 21
-930.85678013732195
 31
0.0
  0
LINE
  5
19DB7
  8
1DIM1
 10
255.92425904453151
 20
-890.85678013732274
 30
0.0
 11
255.92425904453151
 21
-930.85678013732195
 31
0.0
  0
LINE
  5
19DB8
  8
1DIM1
 10
-38.075740955474892
 20
-927.85678013732195
 30
0.0
 11
249.92425904453151
 21
-927.85678013732195
 31
0.0
  0
LINE
  5
19DBC
  8
1DIM
 10
319.42425904453148
 20
-877.87131530701618
 30
0.0
 11
307.92425904452881
 21
-877.87131530701618
 31
0.0
  0
LINE
  5
19DBD
  8
1DIM
 10
319.42425904452881
 20
-897.87131530714953
 30
0.0
 11
307.92425904452881
 21
-897.87131530714953
 31
0.0
  0
LINE
  5
19DBE
  8
1DIM
 10
308.92425904452881
 20
-879.87131530701629
 30
0.0
 11
308.92425904452881
 21
-895.87131530714964
 31
0.0
  0
LINE
  5
19DC2
  8
1DIM
 10
320.6968848171191
 20
-861.8713153070139
 30
0.0
 11
297.92425904452881
 21
-861.8713153070139
 31
0.0
  0
LINE
  5
19DC3
  8
1DIM
 10
319.42425904452881
 20
-897.87131530714953
 30
0.0
 11
297.92425904452881
 21
-897.87131530714953
 31
0.0
  0
LINE
  5
19DC4
  8
1DIM
 10
298.92425904452881
 20
-863.87131530701379
 30
0.0
 11
298.92425904452881
 21
-895.87131530714964
 31
0.0
  0
LINE
  5
19DC8
  8
1DIM
 10
398.92425904452898
 20
-897.87131530714782
 30
0.0
 11
398.92425904452898
 21
-918.87131530714782
 31
0.0
  0
LINE
  5
19DC9
  8
1DIM
 10
318.9242590445287
 20
-897.37131530714748
 30
0.0
 11
318.9242590445287
 21
-918.87131530714782
 31
0.0
  0
LINE
  5
19DCA
  8
1DIM
 10
396.92425904452898
 20
-917.87131530714794
 30
0.0
 11
320.9242590445287
 21
-917.87131530714794
 31
0.0
  0
LINE
  5
19DCE
  8
1DIM
 10
266.65640275060861
 20
-831.14326120508019
 30
0.0
 11
289.92425904452921
 21
-831.14326120508019
 31
0.0
  0
LINE
  5
19DCF
  8
1DIM
 10
266.65640275060792
 20
-752.3659094620125
 30
0.0
 11
289.92425904452921
 21
-752.3659094620125
 31
0.0
  0
LINE
  5
19DD0
  8
1DIM
 10
288.92425904452921
 20
-829.14326120508031
 30
0.0
 11
288.92425904452921
 21
-754.36590946201238
 31
0.0
  0
LINE
  5
19DD4
  8
1DIM
 10
268.92425904453057
 20
-751.87131530701481
 30
0.0
 11
289.92425904452909
 21
-751.87131530701481
 31
0.0
  0
LINE
  5
19DD5
  8
1DIM
 10
266.65640275060792
 20
-752.3659094620125
 30
0.0
 11
289.92425904452909
 21
-752.3659094620125
 31
0.0
  0
LINE
  5
19DD6
  8
1DIM
 10
288.92425904452909
 20
-754.36590946201238
 30
0.0
 11
288.92425904452909
 21
-756.3659094620125
 31
0.0
  0
LINE
  5
19DD7
  8
1DIM
 10
288.92425904452909
 20
-749.87131530701481
 30
0.0
 11
288.92425904452909
 21
-737.55464864034798
 31
0.0
  0
LINE
  5
19DD8
  8
1DIM
 10
288.92425904452909
 20
-752.3659094620125
 30
0.0
 11
288.92425904452909
 21
-751.87131530701481
 31
0.0
  0
LINE
  5
19DDC
  8
1DIM
 10
243.9242590445306
 20
-751.87131530701481
 30
0.0
 11
243.9242590445306
 21
-730.87131530701288
 31
0.0
  0
LINE
  5
19DDD
  8
1DIM
 10
268.9242590445287
 20
-751.87131530701481
 30
0.0
 11
268.9242590445287
 21
-730.87131530701288
 31
0.0
  0
LINE
  5
19DDE
  8
1DIM
 10
245.9242590445306
 20
-731.87131530701288
 30
0.0
 11
266.9242590445287
 21
-731.87131530701288
 31
0.0
  0
LINE
  5
19DDF
  8
1DIM
 10
268.9242590445287
 20
-731.87131530701288
 30
0.0
 11
280.55759237786327
 21
-731.87131530701288
 31
0.0
  0
TEXT
  5
19DE3
  8
1DIM
 10
187.58861468621069
 20
-843.88524061803776
 30
0.0
 40
3.5
  1
材質：アクリル合成樹脂
  0
TEXT
  5
19DE4
  8
1DIM
 10
204.3886146862107
 20
-849.71857395137101
 30
0.0
 40
3.5
  1
仕上げ：表参照
  0
SOLID
  5
19DE5
  8
1DIM
 10
244.64517438239591
 20
-860.15442532450754
 30
0.0
 11
245.723784552513
 21
-861.8713153070139
 31
0.0
 12
244.14664845131901
 22
-860.59704970305927
 32
0.0
 13
244.14664845131901
 23
-860.59704970305927
 33
0.0
  0
LINE
  5
19DE7
  8
1DIM
 10
244.39591141685739
 20
-860.37573751378329
 30
0.0
 11
235.5552813528773
 21
-850.41857395137117
 31
0.0
  0
LINE
  5
19DE8
  8
1DIM
 10
235.5552813528773
 20
-850.41857395137117
 30
0.0
 11
187.5886146862106
 21
-850.41857395137117
 31
0.0
  0
TEXT
  5
19DE9
  8
1DIM
 10
274.10759237786328
 20
-731.17131530701295
 30
0.0
 40
3.5
  1
25 
  0
LINE
  5
19DEA
  8
0
  6
BYBLOCK
 10
266.9242590445287
 20
-731.33541692701294
 30
0.0
 11
268.9242590445287
 21
-731.87131530701288
 31
0.0
  0
LINE
  5
19DEB
  8
0
  6
BYBLOCK
 10
268.9242590445287
 20
-731.87131530701288
 30
0.0
 11
266.9242590445287
 21
-732.40721368701304
 31
0.0
  0
LINE
  5
19DEC
  8
0
  6
BYBLOCK
 10
268.9242590445287
 20
-731.87131530701288
 30
0.0
 11
266.9242590445287
 21
-731.87131530701288
 31
0.0
  0
LINE
  5
19DED
  8
0
  6
BYBLOCK
 10
245.9242590445306
 20
-732.40721368701304
 30
0.0
 11
243.9242590445306
 21
-731.87131530701288
 31
0.0
  0
LINE
  5
19DEE
  8
0
  6
BYBLOCK
 10
243.9242590445306
 20
-731.87131530701288
 30
0.0
 11
245.9242590445306
 21
-731.33541692701294
 31
0.0
  0
LINE
  5
19DEF
  8
0
  6
BYBLOCK
 10
243.9242590445306
 20
-731.87131530701288
 30
0.0
 11
245.9242590445306
 21
-731.87131530701288
 31
0.0
  0
TEXT
  5
19DF0
  8
1DIM
 10
288.22425904452922
 20
-745.12964864034802
 30
0.0
 40
3.5
  1
0.5 
 50
90.0
  0
LINE
  5
19DF1
  8
0
  6
BYBLOCK
 10
289.46015742452909
 20
-749.87131530701481
 30
0.0
 11
288.92425904452909
 21
-751.87131530701481
 31
0.0
  0
LINE
  5
19DF2
  8
0
  6
BYBLOCK
 10
288.92425904452909
 20
-751.87131530701481
 30
0.0
 11
288.3883606645291
 21
-749.87131530701481
 31
0.0
  0
LINE
  5
19DF3
  8
0
  6
BYBLOCK
 10
288.92425904452909
 20
-751.87131530701481
 30
0.0
 11
288.92425904452909
 21
-749.87131530701481
 31
0.0
  0
LINE
  5
19DF4
  8
0
  6
BYBLOCK
 10
288.3883606645291
 20
-754.36590946201238
 30
0.0
 11
288.92425904452909
 21
-752.3659094620125
 31
0.0
  0
LINE
  5
19DF5
  8
0
  6
BYBLOCK
 10
288.92425904452909
 20
-752.3659094620125
 30
0.0
 11
289.46015742452909
 21
-754.36590946201238
 31
0.0
  0
LINE
  5
19DF6
  8
0
  6
BYBLOCK
 10
288.92425904452909
 20
-752.3659094620125
 30
0.0
 11
288.92425904452909
 21
-754.36590946201238
 31
0.0
  0
TEXT
  5
19DF7
  8
1DIM
 10
288.22425904452928
 20
-794.67125200021292
 30
0.0
 40
3.5
  1
79 
 50
90.0
  0
LINE
  5
19DF8
  8
0
  6
BYBLOCK
 10
288.38836066452922
 20
-754.36590946201238
 30
0.0
 11
288.92425904452921
 21
-752.3659094620125
 31
0.0
  0
LINE
  5
19DF9
  8
0
  6
BYBLOCK
 10
288.92425904452921
 20
-752.3659094620125
 30
0.0
 11
289.4601574245292
 21
-754.36590946201238
 31
0.0
  0
LINE
  5
19DFA
  8
0
  6
BYBLOCK
 10
288.92425904452921
 20
-752.3659094620125
 30
0.0
 11
288.92425904452921
 21
-754.36590946201238
 31
0.0
  0
LINE
  5
19DFB
  8
0
  6
BYBLOCK
 10
289.4601574245292
 20
-829.14326120508031
 30
0.0
 11
288.92425904452921
 21
-831.14326120508019
 31
0.0
  0
LINE
  5
19DFC
  8
0
  6
BYBLOCK
 10
288.92425904452921
 20
-831.14326120508019
 30
0.0
 11
288.38836066452922
 21
-829.14326120508031
 31
0.0
  0
LINE
  5
19DFD
  8
0
  6
BYBLOCK
 10
288.92425904452921
 20
-831.14326120508019
 30
0.0
 11
288.92425904452921
 21
-829.14326120508031
 31
0.0
  0
TEXT
  5
19DFE
  8
1DIM
 10
356.29925904452892
 20
-917.17131530714767
 30
0.0
 40
3.5
  1
80 
  0
LINE
  5
19DFF
  8
0
  6
BYBLOCK
 10
320.9242590445287
 20
-918.40721368714776
 30
0.0
 11
318.9242590445287
 21
-917.87131530714794
 31
0.0
  0
LINE
  5
19E00
  8
0
  6
BYBLOCK
 10
318.9242590445287
 20
-917.87131530714794
 30
0.0
 11
320.9242590445287
 21
-917.33541692714778
 31
0.0
  0
LINE
  5
19E01
  8
0
  6
BYBLOCK
 10
318.9242590445287
 20
-917.87131530714794
 30
0.0
 11
320.9242590445287
 21
-917.87131530714794
 31
0.0
  0
LINE
  5
19E02
  8
0
  6
BYBLOCK
 10
396.92425904452898
 20
-917.33541692714778
 30
0.0
 11
398.92425904452898
 21
-917.87131530714794
 31
0.0
  0
LINE
  5
19E03
  8
0
  6
BYBLOCK
 10
398.92425904452898
 20
-917.87131530714794
 30
0.0
 11
396.92425904452898
 21
-918.40721368714776
 31
0.0
  0
LINE
  5
19E04
  8
0
  6
BYBLOCK
 10
398.92425904452898
 20
-917.87131530714794
 30
0.0
 11
396.92425904452898
 21
-917.87131530714794
 31
0.0
  0
TEXT
  5
19E05
  8
1DIM
 10
298.22425904452888
 20
-882.78798197374817
 30
0.0
 40
3.5
  1
36 
 50
90.0
  0
LINE
  5
19E06
  8
0
  6
BYBLOCK
 10
299.4601574245288
 20
-895.87131530714964
 30
0.0
 11
298.92425904452881
 21
-897.87131530714953
 31
0.0
  0
LINE
  5
19E07
  8
0
  6
BYBLOCK
 10
298.92425904452881
 20
-897.87131530714953
 30
0.0
 11
298.38836066452882
 21
-895.87131530714964
 31
0.0
  0
LINE
  5
19E08
  8
0
  6
BYBLOCK
 10
298.92425904452881
 20
-897.87131530714953
 30
0.0
 11
298.92425904452881
 21
-895.87131530714964
 31
0.0
  0
LINE
  5
19E09
  8
0
  6
BYBLOCK
 10
298.38836066452882
 20
-863.87131530701379
 30
0.0
 11
298.92425904452881
 21
-861.8713153070139
 31
0.0
  0
LINE
  5
19E0A
  8
0
  6
BYBLOCK
 10
298.92425904452881
 20
-861.8713153070139
 30
0.0
 11
299.4601574245288
 21
-863.87131530701379
 31
0.0
  0
LINE
  5
19E0B
  8
0
  6
BYBLOCK
 10
298.92425904452881
 20
-861.8713153070139
 30
0.0
 11
298.92425904452881
 21
-863.87131530701379
 31
0.0
  0
TEXT
  5
19E0C
  8
1DIM
 10
308.22425904452888
 20
-890.49631530708268
 30
0.0
 40
3.5
  1
20 
 50
90.0
  0
LINE
  5
19E0D
  8
0
  6
BYBLOCK
 10
309.4601574245288
 20
-895.87131530714964
 30
0.0
 11
308.92425904452881
 21
-897.87131530714953
 31
0.0
  0
LINE
  5
19E0E
  8
0
  6
BYBLOCK
 10
308.92425904452881
 20
-897.87131530714953
 30
0.0
 11
308.3883606645287
 21
-895.87131530714964
 31
0.0
  0
LINE
  5
19E0F
  8
0
  6
BYBLOCK
 10
308.92425904452881
 20
-897.87131530714953
 30
0.0
 11
308.92425904452881
 21
-895.87131530714964
 31
0.0
  0
LINE
  5
19E10
  8
0
  6
BYBLOCK
 10
308.38836066452882
 20
-879.87131530701629
 30
0.0
 11
308.92425904452881
 21
-877.87131530701618
 31
0.0
  0
LINE
  5
19E11
  8
0
  6
BYBLOCK
 10
308.92425904452881
 20
-877.87131530701618
 30
0.0
 11
309.4601574245288
 21
-879.87131530701629
 31
0.0
  0
LINE
  5
19E12
  8
0
  6
BYBLOCK
 10
308.92425904452881
 20
-877.87131530701618
 30
0.0
 11
308.92425904452881
 21
-879.87131530701629
 31
0.0
  0
TEXT
  5
19E13
  8
1DIM1
 10
88.424259044528284
 20
-925.75678013732204
 30
0.0
 40
10.5
  1
P300 
  0
LINE
  5
19E14
  8
0
  6
BYBLOCK
 10
249.92425904453151
 20
-926.2490849973218
 30
0.0
 11
255.92425904453151
 21
-927.85678013732195
 31
0.0
  0
LINE
  5
19E15
  8
0
  6
BYBLOCK
 10
255.92425904453151
 20
-927.85678013732195
 30
0.0
 11
249.92425904453151
 21
-929.46447527732187
 31
0.0
  0
LINE
  5
19E16
  8
0
  6
BYBLOCK
 10
255.92425904453151
 20
-927.85678013732195
 30
0.0
 11
249.92425904453151
 21
-927.85678013732195
 31
0.0
  0
LINE
  5
19E17
  8
0
  6
BYBLOCK
 10
-38.075740955474892
 20
-929.46447527732187
 30
0.0
 11
-44.075740955474878
 21
-927.85678013732195
 31
0.0
  0
LINE
  5
19E18
  8
0
  6
BYBLOCK
 10
-44.075740955474878
 20
-927.85678013732195
 30
0.0
 11
-38.075740955474892
 21
-926.2490849973218
 31
0.0
  0
LINE
  5
19E19
  8
0
  6
BYBLOCK
 10
-44.075740955474878
 20
-927.85678013732195
 30
0.0
 11
-38.075740955474892
 21
-927.85678013732195
 31
0.0
  0
TEXT
  5
19E1A
  8
1DIM1
 10
91.924259044528526
 20
-955.75678013732193
 30
0.0
 40
10.5
  1
326 
  0
LINE
  5
19E1B
  8
0
  6
BYBLOCK
 10
262.92425904453103
 20
-956.24908499732192
 30
0.0
 11
268.92425904453103
 21
-957.85678013732195
 31
0.0
  0
LINE
  5
19E1C
  8
0
  6
BYBLOCK
 10
268.92425904453103
 20
-957.85678013732195
 30
0.0
 11
262.92425904453103
 21
-959.46447527732198
 31
0.0
  0
LINE
  5
19E1D
  8
0
  6
BYBLOCK
 10
268.92425904453103
 20
-957.85678013732195
 30
0.0
 11
262.92425904453103
 21
-957.85678013732195
 31
0.0
  0
LINE
  5
19E1E
  8
0
  6
BYBLOCK
 10
-51.075740955473982
 20
-959.46447527732198
 30
0.0
 11
-57.075740955473982
 21
-957.85678013732195
 31
0.0
  0
LINE
  5
19E1F
  8
0
  6
BYBLOCK
 10
-57.075740955473982
 20
-957.85678013732195
 30
0.0
 11
-51.075740955473982
 21
-956.24908499732192
 31
0.0
  0
LINE
  5
19E20
  8
0
  6
BYBLOCK
 10
-57.075740955473982
 20
-957.85678013732195
 30
0.0
 11
-51.075740955473982
 21
-957.85678013732195
 31
0.0
  0
LINE
  5
19E21
  8
1DIM
 10
412.73932818547809
 20
-833.36377447762345
 30
0.0
 11
407.54674974653148
 21
-820.78081851760135
 31
0.0
  0
LINE
  5
19E22
  8
1DIM
 10
407.54674974653148
 20
-820.78081851760135
 30
0.0
 11
442.78008307986488
 21
-820.78081851760135
 31
0.0
  0
LINE
  5
19E23
  8
1DIM
 10
403.15570358493972
 20
-833.2903283452905
 30
0.0
 11
399.87940525199298
 21
-814.77947250047725
 31
0.0
  0
LINE
  5
19E24
  8
1DIM
 10
399.87940525199298
 20
-814.77947250047725
 30
0.0
 11
408.41273858532628
 21
-814.77947250047725
 31
0.0
  0
LINE
  5
19E25
  8
1DIM
 10
340.28146941527478
 20
-887.56273839935966
 30
0.0
 11
362.23373560394822
 21
-849.29753414330514
 31
0.0
  0
LINE
  5
19E26
  8
1DIM
 10
362.23373560394822
 20
-849.29753414330514
 30
0.0
 11
394.83373560394818
 21
-849.29753414330514
 31
0.0
  0
LINE
  5
19E27
  8
1DIM
 10
323.28852913419593
 20
-879.60156732775965
 30
0.0
 11
348.73472013870412
 21
-835.2832592639943
 31
0.0
  0
LINE
  5
19E28
  8
1DIM
 10
348.73472013870412
 20
-835.2832592639943
 30
0.0
 11
396.70138680537082
 21
-835.2832592639943
 31
0.0
  0
TEXT
  5
19E29
  8
1DIM
 10
264.91260709617092
 20
-741.17131530701465
 30
0.0
 40
3.5
  1
6 
  0
LINE
  5
19E2A
  8
0
  6
BYBLOCK
 10
266.92425904453057
 20
-741.33541692701476
 30
0.0
 11
268.92425904453057
 21
-741.87131530701481
 31
0.0
  0
LINE
  5
19E2B
  8
0
  6
BYBLOCK
 10
268.92425904453057
 20
-741.87131530701481
 30
0.0
 11
266.92425904453057
 21
-742.40721368701475
 31
0.0
  0
LINE
  5
19E2C
  8
0
  6
BYBLOCK
 10
268.92425904453057
 20
-741.87131530701481
 30
0.0
 11
266.92425904453057
 21
-741.87131530701481
 31
0.0
  0
LINE
  5
19E2D
  8
0
  6
BYBLOCK
 10
265.23428848114457
 20
-742.40721368701475
 30
0.0
 11
263.23428848114457
 21
-741.87131530701481
 31
0.0
  0
LINE
  5
19E2E
  8
0
  6
BYBLOCK
 10
263.23428848114457
 20
-741.87131530701481
 30
0.0
 11
265.23428848114457
 21
-741.33541692701476
 31
0.0
  0
LINE
  5
19E2F
  8
0
  6
BYBLOCK
 10
263.23428848114457
 20
-741.87131530701481
 30
0.0
 11
265.23428848114457
 21
-741.87131530701481
 31
0.0
  0
TEXT
  5
19E30
  8
1DIM1
 10
93.673809531892402
 20
-809.77131530701467
 30
0.0
 40
10.5
  1
314
  0
LINE
  5
19E31
  8
0
  6
BYBLOCK
 10
257.2342884811456
 20
-810.26362016701466
 30
0.0
 11
263.2342884811456
 21
-811.87131530701481
 31
0.0
  0
LINE
  5
19E32
  8
0
  6
BYBLOCK
 10
263.2342884811456
 20
-811.87131530701481
 30
0.0
 11
257.2342884811456
 21
-813.47901044701484
 31
0.0
  0
LINE
  5
19E33
  8
0
  6
BYBLOCK
 10
263.2342884811456
 20
-811.87131530701481
 30
0.0
 11
257.2342884811456
 21
-811.87131530701481
 31
0.0
  0
LINE
  5
19E34
  8
0
  6
BYBLOCK
 10
-45.386669417360743
 20
-813.47901044701484
 30
0.0
 11
-51.386669417360729
 21
-811.87131530701481
 31
0.0
  0
LINE
  5
19E35
  8
0
  6
BYBLOCK
 10
-51.386669417360729
 20
-811.87131530701481
 30
0.0
 11
-45.386669417360743
 21
-810.26362016701466
 31
0.0
  0
LINE
  5
19E36
  8
0
  6
BYBLOCK
 10
-51.386669417360729
 20
-811.87131530701481
 30
0.0
 11
-45.386669417360743
 21
-811.87131530701481
 31
0.0
  0
TEXT
  5
19E37
  8
1DIM1
 10
216.8242590445289
 20
-800.50155976927476
 30
0.0
 40
10.5
  1
68
 50
90.0
  0
LINE
  5
19E38
  8
0
  6
BYBLOCK
 10
217.31656390452869
 20
-763.35985833346945
 30
0.0
 11
218.9242590445287
 21
-757.35985833346945
 31
0.0
  0
LINE
  5
19E39
  8
0
  6
BYBLOCK
 10
218.9242590445287
 20
-757.35985833346945
 30
0.0
 11
220.53195418452879
 21
-763.35985833346945
 31
0.0
  0
LINE
  5
19E3A
  8
0
  6
BYBLOCK
 10
218.9242590445287
 20
-757.35985833346945
 30
0.0
 11
218.9242590445287
 21
-763.35985833346945
 31
0.0
  0
LINE
  5
19E3B
  8
0
  6
BYBLOCK
 10
220.53195418452879
 20
-820.14326120508008
 30
0.0
 11
218.9242590445287
 21
-826.14326120508019
 31
0.0
  0
LINE
  5
19E3C
  8
0
  6
BYBLOCK
 10
218.9242590445287
 20
-826.14326120508019
 30
0.0
 11
217.31656390452869
 21
-820.14326120508008
 31
0.0
  0
LINE
  5
19E3D
  8
0
  6
BYBLOCK
 10
218.9242590445287
 20
-826.14326120508019
 30
0.0
 11
218.9242590445287
 21
-820.14326120508008
 31
0.0
  0
VIEWPORT
  5
57
 67
     1
  8
0
 10
-12.72041844153455
 20
96.517848402152836
 30
0.0
 40
745.69316663971415
 41
494.46320790586941
 68
     1
 69
     1
1001
ACAD
1000
MVIEW
1002
{
1070
    16
1010
0.0
1020
0.0
1030
0.0
1010
0.0
1020
0.0
1030
1.0
1040
0.0
1040
494.46320790586941
1040
-12.72041844153455
1040
96.517848402152836
1040
50.0
1040
0.0
1040
0.0
1070
     0
1070
   100
1070
     1
1070
     1
1070
     0
1070
     0
1070
     0
1070
     0
1040
0.0
1040
0.0
1040
0.0
1040
10.0
1040
10.0
1040
10.0
1040
10.0
1070
     0
1002
{
1002
}
1002
}
  0
ENDSEC
  0
EOF
