  0
SECTION
  2
HEADER
  9
$ACADVER
  1
AC1009
  9
$INSBASE
 10
0.0
 20
0.0
 30
0.0
  9
$EXTMIN
 10
-57.386401127251069
 20
-960.85678013732195
 30
0.0
  9
$EXTMAX
 10
442.78008307986488
 20
-710.02613599794847
 30
0.0
  9
$LIMMIN
 10
0.0
 20
0.0
  9
$LIMMAX
 10
420.0
 20
297.0
  9
$ORTHOMODE
 70
     0
  9
$REGENMODE
 70
     1
  9
$FILLMODE
 70
     1
  9
$QTEXTMODE
 70
     0
  9
$MIRRTEXT
 70
     0
  9
$DRAGMODE
 70
     2
  9
$LTSCALE
 40
0.5
  9
$OSMODE
 70
    63
  9
$ATTMODE
 70
     1
  9
$TEXTSIZE
 40
4.0
  9
$TRACEWID
 40
1.0
  9
$TEXTSTYLE
  7
STANDARD
  9
$CLAYER
  8
1TEXT
  9
$CELTYPE
  6
BYLAYER
  9
$CECOLOR
 62
   256
  9
$DIMSCALE
 40
1.0
  9
$DIMASZ
 40
2.0
  9
$DIMEXO
 40
0.0
  9
$DIMDLI
 40
7.0
  9
$DIMRND
 40
0.0
  9
$DIMDLE
 40
0.0
  9
$DIMEXE
 40
1.0
  9
$DIMTP
 40
0.0
  9
$DIMTM
 40
0.0
  9
$DIMTXT
 40
3.5
  9
$DIMCEN
 40
0.0
  9
$DIMTSZ
 40
0.0
  9
$DIMTOL
 70
     0
  9
$DIMLIM
 70
     0
  9
$DIMTIH
 70
     0
  9
$DIMTOH
 70
     0
  9
$DIMSE1
 70
     0
  9
$DIMSE2
 70
     0
  9
$DIMTAD
 70
     1
  9
$DIMZIN
 70
     8
  9
$DIMBLK
  1

  9
$DIMASO
 70
     1
  9
$DIMSHO
 70
     1
  9
$DIMPOST
  1
 
  9
$DIMAPOST
  1

  9
$DIMALT
 70
     0
  9
$DIMALTD
 70
     2
  9
$DIMALTF
 40
25.399999999999999
  9
$DIMLFAC
 40
1.0
  9
$DIMTOFL
 70
     1
  9
$DIMTVP
 40
0.0
  9
$DIMTIX
 70
     0
  9
$DIMSOXD
 70
     0
  9
$DIMSAH
 70
     1
  9
$DIMBLK1
  1
OPEN30
  9
$DIMBLK2
  1
OPEN30
  9
$DIMSTYLE
  2
NEWX10
  9
$DIMCLRD
 70
   256
  9
$DIMCLRE
 70
   256
  9
$DIMCLRT
 70
   201
  9
$DIMTFAC
 40
0.7
  9
$DIMGAP
 40
0.7
  9
$LUNITS
 70
     2
  9
$LUPREC
 70
     4
  9
$SKETCHINC
 40
1.0
  9
$FILLETRAD
 40
0.0
  9
$AUNITS
 70
     0
  9
$AUPREC
 70
     2
  9
$MENU
  1
acad
  9
$ELEVATION
 40
0.0
  9
$PELEVATION
 40
0.0
  9
$THICKNESS
 40
0.0
  9
$LIMCHECK
 70
     0
  9
$BLIPMODE
 70
     0
  9
$CHAMFERA
 40
10.0
  9
$CHAMFERB
 40
10.0
  9
$SKPOLY
 70
     0
  9
$TDCREATE
 40
2453033.7326634838
  9
$TDUPDATE
 40
2453798.4294151389
  9
$TDINDWG
 40
1.7205405556
  9
$TDUSRTIMER
 40
1.7205405556
  9
$USRTIMER
 70
     1
  9
$ANGBASE
 50
0.0
  9
$ANGDIR
 70
     0
  9
$PDMODE
 70
     0
  9
$PDSIZE
 40
0.0
  9
$PLINEWID
 40
0.0
  9
$COORDS
 70
     2
  9
$SPLFRAME
 70
     0
  9
$SPLINETYPE
 70
     6
  9
$SPLINESEGS
 70
     8
  9
$ATTDIA
 70
     0
  9
$ATTREQ
 70
     1
  9
$HANDLING
 70
     1
  9
$HANDSEED
  5
1A6B4
  9
$SURFTAB1
 70
     6
  9
$SURFTAB2
 70
     6
  9
$SURFTYPE
 70
     6
  9
$SURFU
 70
     6
  9
$SURFV
 70
     6
  9
$UCSNAME
  2

  9
$UCSORG
 10
0.0
 20
0.0
 30
0.0
  9
$UCSXDIR
 10
1.0
 20
0.0
 30
0.0
  9
$UCSYDIR
 10
0.0
 20
1.0
 30
0.0
  9
$PUCSNAME
  2

  9
$PUCSORG
 10
0.0
 20
0.0
 30
0.0
  9
$PUCSXDIR
 10
1.0
 20
0.0
 30
0.0
  9
$PUCSYDIR
 10
0.0
 20
1.0
 30
0.0
  9
$USERI1
 70
     0
  9
$USERI2
 70
     0
  9
$USERI3
 70
     0
  9
$USERI4
 70
     0
  9
$USERI5
 70
     0
  9
$USERR1
 40
0.0
  9
$USERR2
 40
0.0
  9
$USERR3
 40
0.0
  9
$USERR4
 40
0.0
  9
$USERR5
 40
0.0
  9
$WORLDVIEW
 70
     1
  9
$SHADEDGE
 70
     3
  9
$SHADEDIF
 70
    70
  9
$TILEMODE
 70
     1
  9
$MAXACTVP
 70
    48
  9
$PLIMCHECK
 70
     0
  9
$PEXTMIN
 10
1.0000000000000000E+020
 20
1.0000000000000000E+020
 30
1.0000000000000000E+020
  9
$PEXTMAX
 10
-1.0000000000000000E+020
 20
-1.0000000000000000E+020
 30
-1.0000000000000000E+020
  9
$PLIMMIN
 10
0.0
 20
0.0
  9
$PLIMMAX
 10
420.0
 20
297.0
  9
$UNITMODE
 70
     0
  9
$VISRETAIN
 70
     1
  9
$PLINEGEN
 70
     0
  9
$PSLTSCALE
 70
     1
  0
ENDSEC
  0
SECTION
  2
TABLES
  0
TABLE
  2
VPORT
 70
     4
  0
VPORT
  2
*ACTIVE
 70
     0
 10
0.0
 20
0.0
 11
1.0
 21
1.0
 12
192.69684214084771
 22
-835.41849980120207
 13
0.0
 23
0.0
 14
10.0
 24
10.0
 15
10.0
 25
10.0
 16
0.0
 26
0.0
 36
1.0
 17
0.0
 27
0.0
 37
0.0
 40
351.00283562802639
 41
1.508086253369272
 42
50.0
 43
0.0
 44
0.0
 50
0.0
 51
0.0
 71
     0
 72
   100
 73
     1
 74
     1
 75
     0
 76
     0
 77
     0
 78
     0
  0
ENDTAB
  0
TABLE
  2
LTYPE
 70
    15
  0
LTYPE
  2
CONTINUOUS
 70
     0
  3
Solid line
 72
    65
 73
     0
 40
0.0
  0
LTYPE
  2
CENTER2
 70
     0
  3
Center (.5x) ___ _ ___ _ ___ _ ___ _ ___ _ ___
 72
    65
 73
     4
 40
28.574999999999999
 49
19.050000000000001
 49
-3.1749999999999989
 49
3.1749999999999989
 49
-3.1749999999999989
  0
LTYPE
  2
XREF1|CENTER2
 70
    48
  3
Center (.5x) ___ _ ___ _ ___ _ ___ _ ___ _ ___
 72
    65
 73
     4
 40
28.574999999999999
 49
19.050000000000001
 49
-3.1749999999999989
 49
3.1749999999999989
 49
-3.1749999999999989
  0
LTYPE
  2
PHANTOM2
 70
     0
  3
Phantom (.5x) ___ _ _ ___ _ _ ___ _ _ ___ _ _
 72
    65
 73
     6
 40
31.75
 49
15.875
 49
-3.1749999999999989
 49
3.1749999999999989
 49
-3.1749999999999989
 49
3.1749999999999989
 49
-3.1749999999999989
  0
LTYPE
  2
A3WAKUDAKE|CENTER2
 70
    48
  3
Center (.5x) ___ _ ___ _ ___ _ ___ _ ___ _ ___
 72
    65
 73
     4
 40
28.574999999999999
 49
19.050000000000001
 49
-3.1749999999999989
 49
3.1749999999999989
 49
-3.1749999999999989
  0
ENDTAB
  0
TABLE
  2
LAYER
 70
    44
  0
LAYER
  2
0
 70
     0
 62
     7
  6
CONTINUOUS
  0
LAYER
  2
1CENTER
 70
     0
 62
     7
  6
CENTER2
  0
LAYER
  2
1TEXT
 70
     0
 62
     7
  6
CONTINUOUS
  0
LAYER
  2
1DIM
 70
     0
 62
     7
  6
CONTINUOUS
  0
LAYER
  2
1PHANTOM
 70
     0
 62
     7
  6
PHANTOM2
  0
LAYER
  2
01
 70
     0
 62
     1
  6
CONTINUOUS
  0
LAYER
  2
1DIM1
 70
     0
 62
     7
  6
CONTINUOUS
  0
LAYER
  2
XREF1|1CENTER
 70
    48
 62
     7
  6
XREF1|CENTER2
  0
LAYER
  2
A3WAKUDAKE|THICK
 70
    48
 62
     7
  6
CONTINUOUS
  0
LAYER
  2
A3WAKUDAKE|POINT
 70
    48
 62
     7
  6
CONTINUOUS
  0
LAYER
  2
A3WAKUDAKE|1CENTER
 70
    48
 62
     7
  6
A3WAKUDAKE|CENTER2
  0
LAYER
  2
A3WAKUDAKE|0-6
 70
    48
 62
     7
  6
CONTINUOUS
  0
LAYER
  2
A3WAKUDAKE|1DIM
 70
    48
 62
     7
  6
CONTINUOUS
  0
ENDTAB
  0
TABLE
  2
STYLE
 70
    22
  0
STYLE
  2
STANDARD
 70
     0
 40
0.0
 41
1.0
 50
0.0
 71
     0
 42
4.0
  3
txt.shx
  4
extfont.shx
  0
ENDTAB
  0
TABLE
  2
VIEW
 70
     0
  0
ENDTAB
  0
TABLE
  2
UCS
 70
     0
  0
ENDTAB
  0
TABLE
  2
APPID
 70
     9
  0
APPID
  2
ACAD
 70
     0
  0
APPID
  2
DRAWINGVARIABLESXDATA
 70
     0
  0
APPID
  2
CONTENTTABDATA
 70
     0
  0
APPID
  2
CONTENTCURRENTTAB
 70
     0
  0
APPID
  2
CONTENTBLOCKDESCRIPTION
 70
     0
  0
APPID
  2
CONTENTBLOCKICON
 70
     0
  0
APPID
  2
CONTENTLONGBLOCKNAME
 70
     0
  0
APPID
  2
ACAD_PSEXT
 70
     0
  0
APPID
  2
ACAD_DSTYLE_DIMTEXT_FILL
 70
     0
  0
ENDTAB
  0
TABLE
  2
DIMSTYLE
 70
     9
  0
DIMSTYLE
  2
NEWX10
 70
     0
  3
 
  4

  5

  6
OPEN30
  7
OPEN30
 40
1.0
 41
2.0
 42
0.0
 43
7.0
 44
1.0
 45
0.0
 46
0.0
 47
0.0
 48
0.0
140
3.5
141
0.0
142
0.0
143
25.399999999999999
144
1.0
145
0.0
146
0.7
147
0.7
 71
     0
 72
     0
 73
     0
 74
     0
 75
     0
 76
     0
 77
     1
 78
     8
170
     0
171
     2
172
     1
173
     1
174
     0
175
     0
176
   256
177
   256
178
   201
  0
ENDTAB
  0
ENDSEC
  0
SECTION
  2
BLOCKS
  0
BLOCK
  8
0
  2
$MODEL_SPACE
 70
     0
 10
0.0
 20
0.0
 30
0.0
  3
$MODEL_SPACE
  1

  0
ENDBLK
  5
1A
  8
0
  0
BLOCK
 67
     1
  8
0
  2
$PAPER_SPACE
 70
     0
 10
0.0
 20
0.0
 30
0.0
  3
$PAPER_SPACE
  1

  0
ENDBLK
  5
17
 67
     1
  8
0
  0
BLOCK
  8
0
  2
_OPEN30
 70
     0
 10
0.0
 20
0.0
 30
0.0
  3
_OPEN30
  1

  0
LINE
  5
44
  8
0
  6
BYBLOCK
 62
     0
 10
-1.0
 20
0.26794919
 30
0.0
 11
0.0
 21
0.0
 31
0.0
  0
LINE
  5
45
  8
0
  6
BYBLOCK
 62
     0
 10
0.0
 20
0.0
 30
0.0
 11
-1.0
 21
-0.26794919
 31
0.0
  0
LINE
  5
46
  8
0
  6
BYBLOCK
 62
     0
 10
0.0
 20
0.0
 30
0.0
 11
-1.0
 21
0.0
 31
0.0
  0
ENDBLK
  5
47
  8
0
  0
BLOCK
  8
0
  2
XREF1
 70
    36
 10
0.0
 20
0.0
 30
0.0
  3
XREF1
  1
D:\ACLT\FORMAT\KAWAJUN(9)図面用.dwg
  0
ENDBLK
  5
5D
  8
0
  0
BLOCK
  8
0
  2
A3WAKUDAKE
 70
    36
 10
0.0
 20
0.0
 30
0.0
  3
A3WAKUDAKE
  1
D:\ACLT\FORMAT\A3WAKUdake.dwg
  0
ENDBLK
  5
6DC
  8
0
  0
BLOCK
  8
0
  2
*U20
 70
     1
 10
0.0
 20
0.0
 30
0.0
  3
*U20
  1

  0
TEXT
  5
1A681
  8
1DIM
 62
   201
 10
356.29925904452892
 20
-917.17131530714767
 30
0.0
 40
3.5
  1
80 
  0
ENDBLK
  5
1A683
  8
0
  0
BLOCK
  8
0
  2
*U21
 70
     1
 10
0.0
 20
0.0
 30
0.0
  3
*U21
  1

  0
TEXT
  5
1A685
  8
1DIM
 62
   201
 10
308.22425904452888
 20
-890.49631530708268
 30
0.0
 40
3.5
  1
20 
 50
90.0
  0
ENDBLK
  5
1A687
  8
0
  0
BLOCK
  8
0
  2
*U22
 70
     1
 10
0.0
 20
0.0
 30
0.0
  3
*U22
  1

  0
TEXT
  5
1A689
  8
1DIM1
 62
   201
 10
88.424259044528284
 20
-925.75678013732204
 30
0.0
 40
10.5
  1
P300 
  0
ENDBLK
  5
1A68B
  8
0
  0
BLOCK
  8
0
  2
*U23
 70
     1
 10
0.0
 20
0.0
 30
0.0
  3
*U23
  1

  0
TEXT
  5
1A68D
  8
1DIM1
 62
   201
 10
91.924259044528526
 20
-955.75678013732193
 30
0.0
 40
10.5
  1
326 
  0
ENDBLK
  5
1A68F
  8
0
  0
BLOCK
  8
0
  2
*U24
 70
     1
 10
0.0
 20
0.0
 30
0.0
  3
*U24
  1

  0
TEXT
  5
1A691
  8
1DIM
 62
   201
 10
298.22425904452888
 20
-877.78798197374795
 30
0.0
 40
3.5
  1
46 
 50
90.0
  0
ENDBLK
  5
1A693
  8
0
  0
BLOCK
  8
0
  2
*U25
 70
     1
 10
0.0
 20
0.0
 30
0.0
  3
*U25
  1

  0
TEXT
  5
1A695
  8
1DIM
 62
   201
 10
274.10759237786328
 20
-721.17131530701295
 30
0.0
 40
3.5
  1
25 
  0
ENDBLK
  5
1A697
  8
0
  0
BLOCK
  8
0
  2
*U26
 70
     1
 10
0.0
 20
0.0
 30
0.0
  3
*U26
  1

  0
TEXT
  5
1A699
  8
1DIM
 62
   201
 10
288.22425904452922
 20
-735.12964864034802
 30
0.0
 40
3.5
  1
0.5 
 50
90.0
  0
ENDBLK
  5
1A69B
  8
0
  0
BLOCK
  8
0
  2
*U27
 70
     1
 10
0.0
 20
0.0
 30
0.0
  3
*U27
  1

  0
TEXT
  5
1A69D
  8
1DIM
 62
   201
 10
288.22425904452928
 20
-784.90640083398819
 30
0.0
 40
3.5
  1
79 
 50
90.0
  0
ENDBLK
  5
1A69F
  8
0
  0
BLOCK
  8
0
  2
*U28
 70
     1
 10
0.0
 20
0.0
 30
0.0
  3
*U28
  1

  0
TEXT
  5
1A6A1
  8
1DIM
 62
   201
 10
202.29877746065151
 20
-830.91355887263092
 30
0.0
 40
3.5
  1
120.5 
  0
ENDBLK
  5
1A6A3
  8
0
  0
BLOCK
  8
0
  2
*U29
 70
     1
 10
0.0
 20
0.0
 30
0.0
  3
*U29
  1

  0
TEXT
  5
1A6A5
  8
1DIM
 62
   201
 10
238.22425904452891
 20
-784.92586157078449
 30
0.0
 40
3.5
  1
69 
 50
90.0
  0
ENDBLK
  5
1A6A7
  8
0
  0
BLOCK
  8
0
  2
*U30
 70
     1
 10
0.0
 20
0.0
 30
0.0
  3
*U30
  1

  0
TEXT
  5
1A6A9
  8
1DIM
 62
   201
 10
202.8821428652268
 20
-800.91355887263103
 30
0.0
 40
3.5
  1
110.5
  0
ENDBLK
  5
1A6AB
  8
0
  0
BLOCK
  8
0
  2
*U31
 70
     1
 10
0.0
 20
0.0
 30
0.0
  3
*U31
  1

  0
TEXT
  5
1A6AD
  8
1DIM
 62
   201
 10
137.4670786370524
 20
-776.78798197368144
 30
0.0
 40
3.5
  1
64 
 50
90.0
  0
ENDBLK
  5
1A6AF
  8
0
  0
BLOCK
  8
0
  2
*U32
 70
     1
 10
0.0
 20
0.0
 30
0.0
  3
*U32
  1

  0
TEXT
  5
1A6B1
  8
1DIM
 62
   201
 10
137.46707863705231
 20
-829.48798197368126
 30
0.0
 40
3.5
  1
16 
 50
90.0
  0
ENDBLK
  5
1A6B3
  8
0
  0
ENDSEC
  0
SECTION
  2
ENTITIES
  0
LINE
  5
192F2
  8
01
 10
319.22425904452888
 20
-892.62131530714578
 30
0.0
 11
398.92425904452858
 21
-892.62131530714646
 31
0.0
  0
LINE
  5
192F3
  8
01
 10
319.22425904452803
 20
-883.12131530714566
 30
0.0
 11
398.92425904452739
 21
-883.12131530714635
 31
0.0
  0
LINE
  5
192F5
  8
01
 10
398.92425904452898
 20
-897.87131530714782
 30
0.0
 11
398.92425904452699
 21
-877.8713153070164
 31
0.0
  0
LINE
  5
192F6
  8
01
 10
318.9242590445287
 20
-897.37131530714748
 30
0.0
 11
318.9242590445287
 21
-892.92131530714539
 31
0.0
  0
ARC
  5
192F7
  8
01
 10
319.22425904452888
 20
-892.92131530714562
 30
0.0
 40
0.3
 50
89.999999999999986
 51
180.0
  0
LINE
  5
192F8
  8
01
 10
318.9242590445279
 20
-882.82131530714548
 30
0.0
 11
318.92425904453057
 21
-878.37131530701606
 31
0.0
  0
ARC
  5
192F9
  8
01
 10
319.22425904452803
 20
-882.82131530714571
 30
0.0
 40
0.3
 50
179.99999999998039
 51
270.0
  0
LINE
  5
192FA
  8
1CENTER
 10
390.76910697399779
 20
-887.87131530714635
 30
0.0
 11
430.76943835359128
 21
-887.87131530714669
 31
0.0
  0
LINE
  5
192FB
  8
1PHANTOM
 10
395.92425020270679
 20
-891.67131491625958
 30
0.0
 11
395.9242590445287
 21
-892.12131530714873
 31
0.0
  0
LINE
  5
192FC
  8
1PHANTOM
 10
395.9242590445287
 20
-885.62131530714885
 30
0.0
 11
398.6242590445222
 21
-885.62131530714817
 31
0.0
  0
LINE
  5
192FD
  8
1PHANTOM
 10
395.9242590445287
 20
-890.12131530714885
 30
0.0
 11
398.6242590445222
 21
-890.12131530714817
 31
0.0
  0
LINE
  5
192FE
  8
1PHANTOM
 10
393.9242590445287
 20
-883.62131530714862
 30
0.0
 11
395.9242590445287
 21
-883.62131530714862
 31
0.0
  0
LINE
  5
192FF
  8
1PHANTOM
 10
393.9242590445287
 20
-892.12131530714873
 30
0.0
 11
395.9242590445287
 21
-892.12131530714873
 31
0.0
  0
LINE
  5
19300
  8
1PHANTOM
 10
393.9242653747911
 20
-883.12131530714635
 30
0.0
 11
393.92426519895048
 21
-883.37131530715646
 31
0.0
  0
LINE
  5
19301
  8
1PHANTOM
 10
393.92425957205018
 20
-891.3713149162603
 30
0.0
 11
393.92425886868779
 21
-892.37131530713589
 31
0.0
  0
LINE
  5
19304
  8
1PHANTOM
 10
398.62425904452311
 20
-896.37131530714817
 30
0.0
 11
398.62425904452311
 21
-889.37136145215845
 31
0.0
  0
LINE
  5
19305
  8
1PHANTOM
 10
398.62425904452311
 20
-886.37136145215641
 30
0.0
 11
398.62425904452311
 21
-879.37131530714476
 31
0.0
  0
LINE
  5
19306
  8
1PHANTOM
 10
398.92425904452779
 20
-879.37131530714476
 30
0.0
 11
398.62425904452311
 21
-879.37131530714476
 31
0.0
  0
LINE
  5
19307
  8
1PHANTOM
 10
398.92425904452881
 20
-896.37131530714817
 30
0.0
 11
398.62425904452311
 21
-896.37131530714817
 31
0.0
  0
LINE
  5
1930B
  8
01
 10
320.82425904452202
 20
-892.37131530714578
 30
0.0
 11
398.92425904452858
 21
-892.37131530713543
 31
0.0
  0
ARC
  5
19313
  8
01
 10
371.34925904457441
 20
-887.87131530714635
 30
0.0
 40
50.725000000044972
 50
174.91039124037781
 51
185.08960875962211
  0
LINE
  5
1931C
  8
01
 10
319.42425904453148
 20
-877.87131530701663
 30
0.0
 11
398.92425904452779
 21
-877.87131530701686
 31
0.0
  0
ARC
  5
1931D
  8
01
 10
319.42425904453057
 20
-878.37131530701629
 30
0.0
 40
0.5
 50
89.999999999895763
 51
180.0
  0
LINE
  5
1931E
  8
01
 10
398.92425904452898
 20
-897.87131530714782
 30
0.0
 11
319.42425904452881
 21
-897.8713153071476
 31
0.0
  0
ARC
  5
1931F
  8
01
 10
319.42425904452881
 20
-897.37131530714953
 30
0.0
 40
0.5
 50
179.9999999997915
 51
270.0
  0
LINE
  5
19322
  8
01
 10
-56.775740955470148
 20
-892.60678013732024
 30
0.0
 11
268.62425904452772
 21
-892.60678013732274
 31
0.0
  0
ARC
  5
19323
  8
01
 10
112.9242590445306
 20
-891.60678013732195
 30
0.0
 40
1.0
 50
228.59037789049501
 51
270.0
  0
ARC
  5
19324
  8
1DIM
 10
113.08140250724
 20
-891.60678013732195
 30
0.0
 40
1.0
 50
228.59037789049501
 51
270.0
  0
LINE
  5
19325
  8
01
 10
-56.775740955471072
 20
-883.10678013732274
 30
0.0
 11
268.62425904452863
 21
-883.10678013732195
 31
0.0
  0
ARC
  5
19326
  8
01
 10
268.62425904452863
 20
-882.80678013732165
 30
0.0
 40
0.3
 50
270.0
 51
0.0
  0
LINE
  5
19327
  8
01
 10
-55.57574095547124
 20
-821.8713153070147
 30
0.0
 11
267.42425904452881
 21
-821.8713153070147
 31
0.0
  0
ARC
  5
19328
  8
01
 10
-55.57574095547124
 20
-820.37131530701379
 30
0.0
 40
1.5
 50
180.0
 51
270.0
  0
LINE
  5
19329
  8
01
 10
243.9242590445306
 20
-741.87131530701481
 30
0.0
 11
268.92425904453057
 21
-741.87131530701481
 31
0.0
  0
LINE
  5
1932A
  8
01
 10
268.9242590445287
 20
-820.37131530701379
 30
0.0
 11
268.9242590445287
 21
-741.87131530701481
 31
0.0
  0
ARC
  5
1932B
  8
01
 10
267.42425904452881
 20
-820.37131530701379
 30
0.0
 40
1.5
 50
270.0
 51
0.0
  0
LINE
  5
1932C
  8
01
 10
243.9242590445306
 20
-741.87131530701481
 30
0.0
 11
243.9242590445306
 21
-742.36590946201238
 31
0.0
  0
LINE
  5
1932D
  8
01
 10
-56.575740955471247
 20
-877.85678013732104
 30
0.0
 11
268.42425904452881
 21
-877.85678013729466
 31
0.0
  0
LINE
  5
1932E
  8
01
 10
-56.575740955473073
 20
-897.85678013732195
 30
0.0
 11
268.42425904453057
 21
-897.85678013732195
 31
0.0
  0
LINE
  5
1932F
  8
01
 10
-57.075740955471247
 20
-820.37131530701379
 30
0.0
 11
-57.075740955471247
 21
-741.87131530701481
 31
0.0
  0
ARC
  5
19331
  8
01
 10
112.9242590445306
 20
-884.10678013732274
 30
0.0
 40
1.0
 50
90.0
 51
131.40962210908529
  0
ARC
  5
19332
  8
1DIM
 10
113.08140250724
 20
-884.10678013732274
 30
0.0
 40
1.0
 50
90.0
 51
131.40962210908529
  0
LINE
  5
19333
  8
01
 10
268.9242590445287
 20
-878.35678013732195
 30
0.0
 11
268.9242590445287
 21
-882.80678013732165
 31
0.0
  0
ARC
  5
19334
  8
01
 10
268.42425904452881
 20
-878.35678013732195
 30
0.0
 40
0.5
 50
0.0
 51
89.999999999993491
  0
LINE
  5
19335
  8
01
 10
268.92425904452688
 20
-892.90678013732304
 30
0.0
 11
268.92425904453057
 21
-897.35678013732195
 31
0.0
  0
ARC
  5
19336
  8
01
 10
268.62425904452772
 20
-892.90678013732304
 30
0.0
 40
0.3
 50
0.0000000000521102
 51
90.0
  0
ARC
  5
19337
  8
01
 10
268.42425904453057
 20
-897.35678013732195
 30
0.0
 40
0.5
 50
270.0
 51
0.0000000000521102
  0
LINE
  5
19338
  8
01
 10
263.92425904454149
 20
-883.10678013732195
 30
0.0
 11
263.92425904454149
 21
-883.35678013732183
 31
0.0
  0
LINE
  5
19339
  8
01
 10
263.92425904454058
 20
-892.3567801373174
 30
0.0
 11
263.92425904453972
 21
-892.60678013732195
 31
0.0
  0
LINE
  5
1933A
  8
01
 10
248.9242590445306
 20
-892.60678013732195
 30
0.0
 11
248.9242590445306
 21
-892.3567801373174
 31
0.0
  0
LINE
  5
1933B
  8
01
 10
248.9242590445306
 20
-883.35678013732092
 30
0.0
 11
248.9242590445306
 21
-883.10678013732195
 31
0.0
  0
LINE
  5
1933C
  8
01
 10
264.02425904454373
 20
-883.10678013732195
 30
0.0
 11
264.02425904454373
 21
-883.35678013732183
 31
0.0
  0
LINE
  5
1933D
  8
01
 10
264.02425904454549
 20
-892.35678013731649
 30
0.0
 11
264.02425904454373
 21
-892.60678013732024
 31
0.0
  0
LINE
  5
1933E
  8
01
 10
248.72416392420249
 20
-892.60678013732195
 30
0.0
 11
248.72416392420249
 21
-892.3567801373174
 31
0.0
  0
LINE
  5
1933F
  8
01
 10
248.72416392420149
 20
-883.35678013732092
 30
0.0
 11
248.72416392420249
 21
-883.10678013732195
 31
0.0
  0
LINE
  5
19340
  8
01
 10
249.42425904453239
 20
-883.10678013732195
 30
0.0
 11
249.4242590445333
 21
-883.35678013732092
 31
0.0
  0
LINE
  5
19341
  8
01
 10
249.42425904453239
 20
-892.35678013731649
 30
0.0
 11
249.42425904453239
 21
-892.60678013732024
 31
0.0
  0
LINE
  5
19342
  8
01
 10
251.2242590445307
 20
-883.10678013732195
 30
0.0
 11
251.2242590445307
 21
-883.35678013732092
 31
0.0
  0
LINE
  5
19343
  8
01
 10
251.2242590445307
 20
-892.35678013731649
 30
0.0
 11
251.2242590445307
 21
-892.60678013732024
 31
0.0
  0
LINE
  5
19344
  8
01
 10
251.4242590445306
 20
-883.10678013732195
 30
0.0
 11
251.42425904452961
 21
-883.35678013732092
 31
0.0
  0
LINE
  5
19345
  8
01
 10
251.42425904453151
 20
-892.35678013731649
 30
0.0
 11
251.4242590445306
 21
-892.60678013732024
 31
0.0
  0
LINE
  5
19346
  8
01
 10
267.22425908639752
 20
-883.35678013732092
 30
0.0
 11
-55.375740913601021
 21
-883.35678013732092
 31
0.0
  0
LINE
  5
19347
  8
01
 10
267.22425908640213
 20
-892.3567801373174
 30
0.0
 11
-55.37574091360375
 21
-892.35678013732092
 31
0.0
  0
ARC
  5
19348
  8
01
 10
216.69925908634789
 20
-887.85678013733195
 30
0.0
 40
50.725000000050748
 50
354.91039124039082
 51
5.089608759635154
  0
ARC
  5
19349
  8
1DIM
 10
239.85441750554719
 20
-891.60678013732002
 30
0.0
 40
1.0
 50
270.0
 51
311.40962210950499
  0
ARC
  5
1934A
  8
01
 10
239.92425904452969
 20
-891.60678013731911
 30
0.0
 40
1.0
 50
270.0
 51
311.40962210935311
  0
ARC
  5
1934B
  8
1DIM
 10
239.85441750554719
 20
-884.10678013732195
 30
0.0
 40
1.0
 50
48.590377890799502
 51
90.0
  0
ARC
  5
1934C
  8
01
 10
239.92425904452969
 20
-884.10678013732104
 30
0.0
 40
1.0
 50
48.590377890646941
 51
90.0
  0
ARC
  5
1934D
  8
01
 10
243.92425904452969
 20
-891.6067801373182
 30
0.0
 40
1.0
 50
228.59037789064689
 51
270.0
  0
ARC
  5
1934E
  8
1DIM
 10
243.99410058351401
 20
-891.60678013731911
 30
0.0
 40
1.0
 50
228.59037789064689
 51
270.0
  0
ARC
  5
1934F
  8
1DIM
 10
243.99410058351401
 20
-884.10678013732274
 30
0.0
 40
1.0
 50
90.0
 51
131.40962210908529
  0
ARC
  5
19350
  8
01
 10
243.92425904452969
 20
-884.10678013732104
 30
0.0
 40
1.0
 50
90.0
 51
131.40962210935299
  0
LINE
  5
19352
  8
01
 10
-32.075740955473073
 20
-741.87131530701481
 30
0.0
 11
-57.075740955473073
 21
-741.87131530701481
 31
0.0
  0
ARC
  5
19353
  8
1DIM
 10
216.99410058351211
 20
-891.60678013732115
 30
0.0
 40
1.0
 50
228.5903778904208
 51
270.0
  0
ARC
  5
19354
  8
01
 10
216.9242590445287
 20
-891.60678013732002
 30
0.0
 40
1.0
 50
228.59037789049501
 51
270.0
  0
ARC
  5
19355
  8
1DIM
 10
216.99410058351211
 20
-884.10678013732274
 30
0.0
 40
1.0
 50
90.0
 51
131.40962210908529
  0
ARC
  5
19356
  8
01
 10
216.9242590445287
 20
-884.10678013732195
 30
0.0
 40
1.0
 50
90.0
 51
131.40962210920051
  0
ARC
  5
19357
  8
01
 10
212.9242590445287
 20
-891.60678013731911
 30
0.0
 40
1.0
 50
270.0
 51
311.40962210935311
  0
ARC
  5
19358
  8
1DIM
 10
212.8544175055454
 20
-891.60678013732002
 30
0.0
 40
1.0
 50
270.0
 51
311.40962210950499
  0
ARC
  5
19359
  8
1DIM
 10
212.8544175055454
 20
-884.10678013732377
 30
0.0
 40
1.0
 50
48.590377890914709
 51
90.0
  0
ARC
  5
1935A
  8
01
 10
212.9242590445287
 20
-884.10678013732195
 30
0.0
 40
1.0
 50
48.590377890799502
 51
90.0
  0
ARC
  5
1935B
  8
1DIM
 10
189.99410058351211
 20
-891.60678013732115
 30
0.0
 40
1.0
 50
228.5903778904208
 51
270.0
  0
ARC
  5
1935C
  8
01
 10
189.9242590445287
 20
-891.60678013732002
 30
0.0
 40
1.0
 50
228.59037789049501
 51
270.0
  0
ARC
  5
1935D
  8
1DIM
 10
189.99410058351211
 20
-884.10678013732274
 30
0.0
 40
1.0
 50
90.0
 51
131.40962210908529
  0
ARC
  5
1935E
  8
01
 10
189.9242590445287
 20
-884.10678013732195
 30
0.0
 40
1.0
 50
90.0
 51
131.40962210920051
  0
ARC
  5
1935F
  8
01
 10
185.9242590445287
 20
-891.60678013731911
 30
0.0
 40
1.0
 50
270.0
 51
311.40962210935311
  0
ARC
  5
19360
  8
1DIM
 10
185.85441750554531
 20
-891.60678013732002
 30
0.0
 40
1.0
 50
270.0
 51
311.40962210950499
  0
ARC
  5
19361
  8
1DIM
 10
185.85441750554531
 20
-884.10678013732377
 30
0.0
 40
1.0
 50
48.590377890914709
 51
90.0
  0
ARC
  5
19362
  8
01
 10
185.9242590445287
 20
-884.10678013732195
 30
0.0
 40
1.0
 50
48.590377890799502
 51
90.0
  0
ARC
  5
19363
  8
1DIM
 10
162.99410058351211
 20
-891.60678013732115
 30
0.0
 40
1.0
 50
228.5903778904208
 51
270.0
  0
ARC
  5
19364
  8
01
 10
162.9242590445287
 20
-891.60678013732002
 30
0.0
 40
1.0
 50
228.59037789049501
 51
270.0
  0
ARC
  5
19365
  8
1DIM
 10
162.99410058351211
 20
-884.10678013732274
 30
0.0
 40
1.0
 50
90.0
 51
131.40962210908529
  0
ARC
  5
19366
  8
01
 10
162.9242590445287
 20
-884.10678013732195
 30
0.0
 40
1.0
 50
90.0
 51
131.40962210920051
  0
ARC
  5
19367
  8
01
 10
158.9242590445287
 20
-891.60678013731911
 30
0.0
 40
1.0
 50
270.0
 51
311.40962210935311
  0
ARC
  5
19368
  8
1DIM
 10
158.85441750554531
 20
-891.60678013732002
 30
0.0
 40
1.0
 50
270.0
 51
311.40962210950499
  0
ARC
  5
19369
  8
1DIM
 10
158.85441750554531
 20
-884.10678013732377
 30
0.0
 40
1.0
 50
48.590377890914709
 51
90.0
  0
ARC
  5
1936A
  8
01
 10
158.9242590445287
 20
-884.10678013732195
 30
0.0
 40
1.0
 50
48.590377890799502
 51
90.0
  0
ARC
  5
1936B
  8
1DIM
 10
135.99410058351211
 20
-891.60678013732115
 30
0.0
 40
1.0
 50
228.59037789049501
 51
270.0
  0
ARC
  5
1936C
  8
01
 10
135.9242590445287
 20
-891.60678013732002
 30
0.0
 40
1.0
 50
228.59037789064689
 51
270.0
  0
ARC
  5
1936D
  8
1DIM
 10
135.99410058351211
 20
-884.10678013732274
 30
0.0
 40
1.0
 50
90.0
 51
131.40962210908529
  0
ARC
  5
1936E
  8
01
 10
135.9242590445287
 20
-884.10678013732195
 30
0.0
 40
1.0
 50
90.0
 51
131.40962210920051
  0
ARC
  5
1936F
  8
01
 10
131.9242590445287
 20
-891.60678013731911
 30
0.0
 40
1.0
 50
270.0
 51
311.40962210920048
  0
ARC
  5
19370
  8
1DIM
 10
131.85441750554531
 20
-891.60678013732002
 30
0.0
 40
1.0
 50
270.0
 51
311.40962210935311
  0
ARC
  5
19371
  8
1DIM
 10
131.85441750554531
 20
-884.10678013732377
 30
0.0
 40
1.0
 50
48.590377890914709
 51
90.0
  0
ARC
  5
19372
  8
01
 10
131.9242590445287
 20
-884.10678013732195
 30
0.0
 40
1.0
 50
48.590377890799502
 51
90.0
  0
LINE
  5
19373
  8
1CENTER
 10
-44.075740955471247
 20
-710.02613599794847
 30
0.0
 11
-44.075740955471247
 21
-749.30291580588982
 31
0.0
  0
ARC
  5
1937A
  8
01
 10
98.924259044526934
 20
-891.60678013732195
 30
0.0
 40
1.0
 50
270.0
 51
311.40962210950499
  0
ARC
  5
1937B
  8
1DIM
 10
98.767115581817507
 20
-891.60678013732195
 30
0.0
 40
1.0
 50
270.0
 51
311.40962210950499
  0
ARC
  5
1937C
  8
01
 10
-56.775740955471967
 20
-882.80678013732165
 30
0.0
 40
0.3
 50
180.0
 51
270.0
  0
ARC
  5
1937D
  8
01
 10
98.924259044526934
 20
-884.10678013732274
 30
0.0
 40
1.0
 50
48.590377890914709
 51
90.0
  0
ARC
  5
1937E
  8
1DIM
 10
98.767115581817507
 20
-884.10678013732274
 30
0.0
 40
1.0
 50
48.590377890914709
 51
90.0
  0
LINE
  5
1937F
  8
01
 10
-57.075740955472149
 20
-878.35678013732195
 30
0.0
 11
-57.075740955472149
 21
-882.80678013732165
 31
0.0
  0
ARC
  5
19380
  8
01
 10
-56.575740955472149
 20
-878.35678013732195
 30
0.0
 40
0.5
 50
90.000000000006509
 51
180.0
  0
LINE
  5
19381
  8
01
 10
-57.075740955470337
 20
-892.90678013732304
 30
0.0
 11
-57.075740955473968
 21
-897.35678013732195
 31
0.0
  0
ARC
  5
19382
  8
01
 10
-56.775740955471072
 20
-892.90678013732304
 30
0.0
 40
0.3
 50
90.0
 51
179.9999999999479
  0
ARC
  5
19383
  8
01
 10
-56.575740955473968
 20
-897.35678013732195
 30
0.0
 40
0.5
 50
179.9999999999479
 51
270.0
  0
LINE
  5
19384
  8
01
 10
-52.075740955484889
 20
-883.10678013732195
 30
0.0
 11
-52.075740955484889
 21
-883.35678013732183
 31
0.0
  0
LINE
  5
19385
  8
01
 10
-52.07574095548398
 20
-892.3567801373174
 30
0.0
 11
-52.07574095548307
 21
-892.60678013732195
 31
0.0
  0
LINE
  5
19386
  8
01
 10
-37.075740955473982
 20
-892.60678013732195
 30
0.0
 11
-37.075740955473982
 21
-892.3567801373174
 31
0.0
  0
LINE
  5
19387
  8
01
 10
-37.075740955473982
 20
-883.35678013732092
 30
0.0
 11
-37.075740955473982
 21
-883.10678013732195
 31
0.0
  0
LINE
  5
19388
  8
01
 10
-52.175740955487072
 20
-883.10678013732195
 30
0.0
 11
-52.175740955487072
 21
-883.35678013732183
 31
0.0
  0
LINE
  5
19389
  8
01
 10
-52.175740955488891
 20
-892.35678013731649
 30
0.0
 11
-52.175740955487072
 21
-892.60678013732024
 31
0.0
  0
LINE
  5
1938A
  8
01
 10
-36.87564583514586
 20
-892.60678013732195
 30
0.0
 11
-36.87564583514586
 21
-892.3567801373174
 31
0.0
  0
LINE
  5
1938B
  8
01
 10
-36.875645835144951
 20
-883.35678013732092
 30
0.0
 11
-36.87564583514586
 21
-883.10678013732195
 31
0.0
  0
LINE
  5
1938C
  8
01
 10
-37.575740955475801
 20
-883.10678013732195
 30
0.0
 11
-37.575740955476711
 21
-883.35678013732092
 31
0.0
  0
LINE
  5
1938D
  8
01
 10
-37.575740955475801
 20
-892.35678013731649
 30
0.0
 11
-37.575740955475801
 21
-892.60678013732024
 31
0.0
  0
LINE
  5
1938E
  8
01
 10
-39.375740955474157
 20
-883.10678013732195
 30
0.0
 11
-39.375740955474157
 21
-883.35678013732092
 31
0.0
  0
LINE
  5
1938F
  8
01
 10
-39.375740955474157
 20
-892.35678013731649
 30
0.0
 11
-39.375740955474157
 21
-892.60678013732024
 31
0.0
  0
LINE
  5
19390
  8
01
 10
-39.575740955473982
 20
-883.10678013732195
 30
0.0
 11
-39.575740955473073
 21
-883.35678013732092
 31
0.0
  0
LINE
  5
19391
  8
01
 10
-39.575740955474892
 20
-892.35678013731649
 30
0.0
 11
-39.575740955473982
 21
-892.60678013732024
 31
0.0
  0
ARC
  5
19392
  8
01
 10
-4.8507409972912683
 20
-887.85678013733195
 30
0.0
 40
50.725000000050748
 50
174.91039124036479
 51
185.08960875960921
  0
ARC
  5
19393
  8
1DIM
 10
-28.005899416490589
 20
-891.60678013732002
 30
0.0
 40
1.0
 50
228.59037789049501
 51
270.0
  0
ARC
  5
19394
  8
01
 10
-28.075740955473069
 20
-891.60678013731911
 30
0.0
 40
1.0
 50
228.59037789064689
 51
270.0
  0
ARC
  5
19395
  8
1DIM
 10
-28.005899416490589
 20
-884.10678013732195
 30
0.0
 40
1.0
 50
90.0
 51
131.40962210920051
  0
ARC
  5
19396
  8
01
 10
-28.075740955473069
 20
-884.10678013732104
 30
0.0
 40
1.0
 50
90.0
 51
131.40962210935299
  0
ARC
  5
19397
  8
01
 10
-32.075740955473073
 20
-891.6067801373182
 30
0.0
 40
1.0
 50
270.0
 51
311.40962210935311
  0
ARC
  5
19398
  8
1DIM
 10
-32.145582494457358
 20
-891.60678013731911
 30
0.0
 40
1.0
 50
270.0
 51
311.40962210935311
  0
ARC
  5
19399
  8
1DIM
 10
-32.145582494457358
 20
-884.10678013732274
 30
0.0
 40
1.0
 50
48.590377890914709
 51
90.0
  0
ARC
  5
1939A
  8
01
 10
-32.075740955473073
 20
-884.10678013732104
 30
0.0
 40
1.0
 50
48.590377890646941
 51
90.0
  0
ARC
  5
1939C
  8
1DIM
 10
-5.1455824944555379
 20
-891.60678013732115
 30
0.0
 40
1.0
 50
270.0
 51
311.40962210957917
  0
ARC
  5
1939D
  8
01
 10
-5.0757409554721562
 20
-891.60678013732002
 30
0.0
 40
1.0
 50
270.0
 51
311.40962210950499
  0
ARC
  5
1939E
  8
1DIM
 10
-5.1455824944555379
 20
-884.10678013732274
 30
0.0
 40
1.0
 50
48.590377890914709
 51
90.0
  0
ARC
  5
1939F
  8
01
 10
-5.0757409554721562
 20
-884.10678013732195
 30
0.0
 40
1.0
 50
48.590377890799502
 51
90.0
  0
ARC
  5
193A0
  8
01
 10
-1.075740955472156
 20
-891.60678013731911
 30
0.0
 40
1.0
 50
228.59037789064689
 51
270.0
  0
ARC
  5
193A1
  8
1DIM
 10
-1.0058994164887729
 20
-891.60678013732002
 30
0.0
 40
1.0
 50
228.59037789049501
 51
270.0
  0
ARC
  5
193A2
  8
1DIM
 10
-1.0058994164887729
 20
-884.10678013732377
 30
0.0
 40
1.0
 50
90.0
 51
131.40962210908529
  0
ARC
  5
193A3
  8
01
 10
-1.075740955472156
 20
-884.10678013732195
 30
0.0
 40
1.0
 50
90.0
 51
131.40962210920051
  0
ARC
  5
193A4
  8
1DIM
 10
21.854417505545371
 20
-891.60678013732115
 30
0.0
 40
1.0
 50
270.0
 51
311.40962210957917
  0
ARC
  5
193A5
  8
01
 10
21.92425904452875
 20
-891.60678013732002
 30
0.0
 40
1.0
 50
270.0
 51
311.40962210950499
  0
ARC
  5
193A6
  8
1DIM
 10
21.854417505545371
 20
-884.10678013732274
 30
0.0
 40
1.0
 50
48.590377890914709
 51
90.0
  0
ARC
  5
193A7
  8
01
 10
21.92425904452875
 20
-884.10678013732195
 30
0.0
 40
1.0
 50
48.590377890799502
 51
90.0
  0
ARC
  5
193A8
  8
01
 10
25.92425904452876
 20
-891.60678013731911
 30
0.0
 40
1.0
 50
228.59037789064689
 51
270.0
  0
ARC
  5
193A9
  8
1DIM
 10
25.994100583512139
 20
-891.60678013732002
 30
0.0
 40
1.0
 50
228.59037789049501
 51
270.0
  0
ARC
  5
193AA
  8
1DIM
 10
25.994100583512139
 20
-884.10678013732377
 30
0.0
 40
1.0
 50
90.0
 51
131.40962210908529
  0
ARC
  5
193AB
  8
01
 10
25.92425904452876
 20
-884.10678013732195
 30
0.0
 40
1.0
 50
90.0
 51
131.40962210920051
  0
ARC
  5
193AC
  8
1DIM
 10
48.854417505545371
 20
-891.60678013732115
 30
0.0
 40
1.0
 50
270.0
 51
311.40962210957917
  0
ARC
  5
193AD
  8
01
 10
48.924259044528753
 20
-891.60678013732002
 30
0.0
 40
1.0
 50
270.0
 51
311.40962210950499
  0
ARC
  5
193AE
  8
1DIM
 10
48.854417505545371
 20
-884.10678013732274
 30
0.0
 40
1.0
 50
48.590377890914709
 51
90.0
  0
ARC
  5
193AF
  8
01
 10
48.924259044528753
 20
-884.10678013732195
 30
0.0
 40
1.0
 50
48.590377890799502
 51
90.0
  0
ARC
  5
193B0
  8
01
 10
52.924259044528753
 20
-891.60678013731911
 30
0.0
 40
1.0
 50
228.59037789064689
 51
270.0
  0
ARC
  5
193B1
  8
1DIM
 10
52.994100583512129
 20
-891.60678013732002
 30
0.0
 40
1.0
 50
228.59037789049501
 51
270.0
  0
ARC
  5
193B2
  8
1DIM
 10
52.994100583512129
 20
-884.10678013732377
 30
0.0
 40
1.0
 50
90.0
 51
131.40962210908529
  0
ARC
  5
193B3
  8
01
 10
52.924259044528753
 20
-884.10678013732195
 30
0.0
 40
1.0
 50
90.0
 51
131.40962210920051
  0
ARC
  5
193B4
  8
1DIM
 10
75.854417505545371
 20
-891.60678013732115
 30
0.0
 40
1.0
 50
270.0
 51
311.40962210950499
  0
ARC
  5
193B5
  8
01
 10
75.924259044528753
 20
-891.60678013732002
 30
0.0
 40
1.0
 50
270.0
 51
311.40962210935311
  0
ARC
  5
193B6
  8
1DIM
 10
75.854417505545371
 20
-884.10678013732274
 30
0.0
 40
1.0
 50
48.590377890914709
 51
90.0
  0
ARC
  5
193B7
  8
01
 10
75.924259044528753
 20
-884.10678013732195
 30
0.0
 40
1.0
 50
48.590377890799502
 51
90.0
  0
ARC
  5
193B8
  8
01
 10
79.924259044528753
 20
-891.60678013731911
 30
0.0
 40
1.0
 50
228.59037789079949
 51
270.0
  0
ARC
  5
193B9
  8
1DIM
 10
79.994100583512136
 20
-891.60678013732002
 30
0.0
 40
1.0
 50
228.59037789064689
 51
270.0
  0
ARC
  5
193BA
  8
1DIM
 10
79.994100583512136
 20
-884.10678013732377
 30
0.0
 40
1.0
 50
90.0
 51
131.40962210908529
  0
ARC
  5
193BB
  8
01
 10
79.924259044528753
 20
-884.10678013732195
 30
0.0
 40
1.0
 50
90.0
 51
131.40962210920051
  0
LINE
  5
193BC
  8
1CENTER
 10
255.92425904452881
 20
-710.02613599794847
 30
0.0
 11
255.92425904452881
 21
-749.30291580588982
 31
0.0
  0
LINE
  5
193BD
  8
1PHANTOM
 10
395.92425020270679
 20
-891.67131491625958
 30
0.0
 11
395.92426788635248
 21
-884.0713149162757
 31
0.0
  0
LINE
  5
193BE
  8
1PHANTOM
 10
394.9242502027069
 20
-891.67131258946665
 30
0.0
 11
394.92426788636158
 21
-884.07131258948255
 31
0.0
  0
LINE
  5
193BF
  8
1PHANTOM
 10
394.92425731435878
 20
-888.37126722849371
 30
0.0
 11
395.92425964115182
 21
-887.37126985529619
 31
0.0
  0
LINE
  5
193C0
  8
1PHANTOM
 10
394.9242502027069
 20
-891.67131258946665
 30
0.0
 11
395.92425020270679
 21
-891.67131491625958
 31
0.0
  0
LINE
  5
193C1
  8
1PHANTOM
 10
394.92425498744751
 20
-889.37131491626042
 30
0.0
 11
394.92426196783208
 21
-886.37131491626042
 31
0.0
  0
LINE
  5
193C2
  8
1PHANTOM
 10
394.92426788636158
 20
-884.07131258948255
 30
0.0
 11
395.92426788635248
 21
-884.0713149162757
 31
0.0
  0
LINE
  5
193C3
  8
1PHANTOM
 10
427.82426102379981
 20
-886.77699110226513
 30
0.0
 11
428.62425645785191
 21
-888.73932619114112
 31
0.0
  0
LINE
  5
193C4
  8
1PHANTOM
 10
428.62425645785191
 20
-888.73932619114112
 30
0.0
 11
428.93602631410289
 21
-888.15104961609813
 31
0.0
  0
LINE
  5
193C5
  8
1PHANTOM
 10
405.42426313101032
 20
-885.87136145215743
 30
0.0
 11
406.22425382382829
 21
-889.87136145215754
 31
0.0
  0
LINE
  5
193C6
  8
1PHANTOM
 10
416.62426313101457
 20
-885.87136145215743
 30
0.0
 11
417.42425382383811
 21
-889.87136145215754
 31
0.0
  0
LINE
  5
193C7
  8
1PHANTOM
 10
419.8242631310153
 20
-885.87136145215743
 30
0.0
 11
420.62425382383702
 21
-889.87136145215754
 31
0.0
  0
LINE
  5
193C8
  8
1PHANTOM
 10
420.62425382383702
 20
-889.87136145215754
 30
0.0
 11
420.72425498723578
 21
-889.37136145215743
 31
0.0
  0
LINE
  5
193C9
  8
1PHANTOM
 10
421.32426196761702
 20
-886.37136145215754
 30
0.0
 11
421.42426313101572
 21
-885.87136145215743
 31
0.0
  0
LINE
  5
193CA
  8
1PHANTOM
 10
417.42425382383811
 20
-889.87136145215754
 30
0.0
 11
417.524254987235
 21
-889.37136145215743
 31
0.0
  0
LINE
  5
193CB
  8
1PHANTOM
 10
419.02425382383842
 20
-889.87136145215754
 30
0.0
 11
419.12425498723542
 21
-889.37136145215743
 31
0.0
  0
LINE
  5
193CC
  8
1PHANTOM
 10
419.72426196761847
 20
-886.37136145215754
 30
0.0
 11
419.8242631310153
 21
-885.87136145215743
 31
0.0
  0
LINE
  5
193CD
  8
1PHANTOM
 10
418.12426196761811
 20
-886.37136145215754
 30
0.0
 11
418.22426313101499
 21
-885.87136145215743
 31
0.0
  0
LINE
  5
193CE
  8
1PHANTOM
 10
418.22426313101499
 20
-885.87136145215743
 30
0.0
 11
419.02425382383842
 21
-889.87136145215754
 31
0.0
  0
LINE
  5
193CF
  8
1PHANTOM
 10
427.02425540424559
 20
-889.19214029554757
 30
0.0
 11
427.2070195468736
 21
-888.64039083174328
 31
0.0
  0
LINE
  5
193D0
  8
1PHANTOM
 10
423.82425382383769
 20
-889.87136145215754
 30
0.0
 11
423.92425498723458
 21
-889.37136145215743
 31
0.0
  0
LINE
  5
193D1
  8
1PHANTOM
 10
422.22425382383739
 20
-889.87136145215754
 30
0.0
 11
422.32425498723433
 21
-889.37136145215743
 31
0.0
  0
LINE
  5
193D2
  8
1PHANTOM
 10
425.42425435064109
 20
-889.64495439995414
 30
0.0
 11
425.55352504827027
 21
-889.10836066468164
 31
0.0
  0
LINE
  5
193D3
  8
1PHANTOM
 10
426.11149256505502
 20
-886.79227604936659
 30
0.0
 11
426.2242620774054
 21
-886.32417759421605
 31
0.0
  0
LINE
  5
193D4
  8
1PHANTOM
 10
422.92426196761738
 20
-886.37136145215754
 30
0.0
 11
423.02426313101432
 21
-885.87136145215743
 31
0.0
  0
LINE
  5
193D5
  8
1PHANTOM
 10
424.5242619676178
 20
-886.37136145215754
 30
0.0
 11
424.62426313101457
 21
-885.87136145215743
 31
0.0
  0
LINE
  5
193D6
  8
1PHANTOM
 10
427.67282522736099
 20
-887.23416294289461
 30
0.0
 11
427.82426102379981
 21
-886.77699110226513
 31
0.0
  0
LINE
  5
193D7
  8
1PHANTOM
 10
426.2242620774054
 20
-886.32417759421605
 30
0.0
 11
427.02425540424559
 21
-889.19214029554757
 31
0.0
  0
LINE
  5
193D8
  8
1PHANTOM
 10
423.02426313101432
 20
-885.87136145215743
 30
0.0
 11
423.82425382383769
 21
-889.87136145215754
 31
0.0
  0
LINE
  5
193D9
  8
1PHANTOM
 10
424.62426313101457
 20
-885.87136145215743
 30
0.0
 11
425.42425435064109
 21
-889.64495439995414
 31
0.0
  0
LINE
  5
193DA
  8
1PHANTOM
 10
421.42426313101572
 20
-885.87136145215743
 30
0.0
 11
422.22425382383739
 21
-889.87136145215754
 31
0.0
  0
LINE
  5
193DB
  8
1PHANTOM
 10
408.62426313101099
 20
-885.87136145215743
 30
0.0
 11
409.42425382382902
 21
-889.87136145215754
 31
0.0
  0
LINE
  5
193DC
  8
1PHANTOM
 10
409.42425382382902
 20
-889.87136145215754
 30
0.0
 11
409.5242549872259
 21
-889.37136145215743
 31
0.0
  0
LINE
  5
193DD
  8
1PHANTOM
 10
410.12426196761811
 20
-886.37136145215754
 30
0.0
 11
410.22426313101499
 21
-885.87136145215743
 31
0.0
  0
LINE
  5
193DE
  8
1PHANTOM
 10
407.82425382382871
 20
-889.87136145215754
 30
0.0
 11
407.92425498722741
 21
-889.37136145215743
 31
0.0
  0
LINE
  5
193DF
  8
1PHANTOM
 10
406.22425382382829
 20
-889.87136145215754
 30
0.0
 11
406.32425498722699
 21
-889.37136145215743
 31
0.0
  0
LINE
  5
193E0
  8
1PHANTOM
 10
408.52426196761229
 20
-886.37136145215754
 30
0.0
 11
408.62426313101099
 21
-885.87136145215743
 31
0.0
  0
LINE
  5
193E1
  8
1PHANTOM
 10
406.92426196761369
 20
-886.37136145215754
 30
0.0
 11
407.02426313101063
 21
-885.87136145215743
 31
0.0
  0
LINE
  5
193E2
  8
1PHANTOM
 10
407.02426313101063
 20
-885.87136145215743
 30
0.0
 11
407.82425382382871
 21
-889.87136145215754
 31
0.0
  0
LINE
  5
193E3
  8
1PHANTOM
 10
414.22425382383369
 20
-889.87136145215754
 30
0.0
 11
414.32425498723057
 21
-889.37136145215743
 31
0.0
  0
LINE
  5
193E4
  8
1PHANTOM
 10
415.82425382383769
 20
-889.87136145215754
 30
0.0
 11
415.92425498723458
 21
-889.37136145215743
 31
0.0
  0
LINE
  5
193E5
  8
1PHANTOM
 10
411.02425382383302
 20
-889.87136145215754
 30
0.0
 11
411.12425498723178
 21
-889.37136145215743
 31
0.0
  0
LINE
  5
193E6
  8
1PHANTOM
 10
412.62425382383339
 20
-889.87136145215754
 30
0.0
 11
412.72425498723032
 21
-889.37136145215743
 31
0.0
  0
LINE
  5
193E7
  8
1PHANTOM
 10
416.5242619676178
 20
-886.37136145215754
 30
0.0
 11
416.62426313101457
 21
-885.87136145215743
 31
0.0
  0
LINE
  5
193E8
  8
1PHANTOM
 10
414.92426196761738
 20
-886.37136145215754
 30
0.0
 11
415.02426313101432
 21
-885.87136145215743
 31
0.0
  0
LINE
  5
193E9
  8
1PHANTOM
 10
411.72426196761671
 20
-886.37136145215754
 30
0.0
 11
411.8242631310153
 21
-885.87136145215743
 31
0.0
  0
LINE
  5
193EA
  8
1PHANTOM
 10
413.32426196761702
 20
-886.37136145215754
 30
0.0
 11
413.42426313101572
 21
-885.87136145215743
 31
0.0
  0
LINE
  5
193EB
  8
1PHANTOM
 10
413.42426313101572
 20
-885.87136145215743
 30
0.0
 11
414.22425382383369
 21
-889.87136145215754
 31
0.0
  0
LINE
  5
193EC
  8
1PHANTOM
 10
415.02426313101432
 20
-885.87136145215743
 30
0.0
 11
415.82425382383769
 21
-889.87136145215754
 31
0.0
  0
LINE
  5
193ED
  8
1PHANTOM
 10
411.8242631310153
 20
-885.87136145215743
 30
0.0
 11
412.62425382383339
 21
-889.87136145215754
 31
0.0
  0
LINE
  5
193EE
  8
1PHANTOM
 10
410.22426313101499
 20
-885.87136145215743
 30
0.0
 11
411.02425382383302
 21
-889.87136145215754
 31
0.0
  0
LINE
  5
193EF
  8
1PHANTOM
 10
394.92425498734019
 20
-889.37136145215743
 30
0.0
 11
394.92426196772482
 21
-886.37136145215754
 31
0.0
  0
LINE
  5
193F0
  8
1PHANTOM
 10
402.12426196760902
 20
-886.37136145215754
 30
0.0
 11
402.2242631310059
 21
-885.87136145215743
 31
0.0
  0
LINE
  5
193F1
  8
1PHANTOM
 10
403.72426196760938
 20
-886.37136145215754
 30
0.0
 11
403.82426313100632
 21
-885.87136145215743
 31
0.0
  0
LINE
  5
193F2
  8
1PHANTOM
 10
403.82426313100632
 20
-885.87136145215743
 30
0.0
 11
404.62425382382429
 21
-889.87136145215754
 31
0.0
  0
LINE
  5
193F3
  8
1PHANTOM
 10
403.02425382382398
 20
-889.87136145215754
 30
0.0
 11
403.12425498722263
 21
-889.37136145215743
 31
0.0
  0
LINE
  5
193F4
  8
1PHANTOM
 10
404.62425382382429
 20
-889.87136145215754
 30
0.0
 11
404.72425498722299
 21
-889.37136145215743
 31
0.0
  0
LINE
  5
193F5
  8
1PHANTOM
 10
402.2242631310059
 20
-885.87136145215743
 30
0.0
 11
403.02425382382398
 21
-889.87136145215754
 31
0.0
  0
LINE
  5
193F6
  8
1PHANTOM
 10
405.32426196761338
 20
-886.37136145215754
 30
0.0
 11
405.42426313101032
 21
-885.87136145215743
 31
0.0
  0
LINE
  5
193F7
  8
1PHANTOM
 10
429.92425847747882
 20
-887.87136145215754
 30
0.0
 11
424.62426196761447
 21
-886.37136145215754
 31
0.0
  0
LINE
  5
193F8
  8
1PHANTOM
 10
424.62426196761447
 20
-886.37136145215754
 30
0.0
 11
395.92426253461372
 21
-886.37136145215663
 31
0.0
  0
LINE
  5
193F9
  8
1PHANTOM
 10
429.92425847747882
 20
-887.87136145215754
 30
0.0
 11
424.62425498723633
 21
-889.37136145215743
 31
0.0
  0
LINE
  5
193FA
  8
1PHANTOM
 10
394.92426662142361
 20
-884.37131491626053
 30
0.0
 11
394.92426196772482
 21
-886.37136145215754
 31
0.0
  0
LINE
  5
193FB
  8
1PHANTOM
 10
424.62425498723633
 20
-889.37136145215743
 30
0.0
 11
395.92425555422818
 21
-889.37136145215845
 31
0.0
  0
LINE
  5
193FC
  8
1PHANTOM
 10
394.92426662142361
 20
-884.37131491626053
 30
0.0
 11
393.82426313122818
 21
-884.37131491626053
 31
0.0
  0
LINE
  5
193FD
  8
1PHANTOM
 10
394.92425498734019
 20
-889.37136145215743
 30
0.0
 11
394.92425033385962
 21
-891.3713149162603
 31
0.0
  0
ARC
  5
193FE
  8
1PHANTOM
 10
393.82426313122818
 20
-885.87131491625837
 30
0.0
 40
1.5
 50
89.999999999999986
 51
179.99986668447491
  0
LINE
  5
193FF
  8
1PHANTOM
 10
394.92425033385962
 20
-891.3713149162603
 30
0.0
 11
393.82425382404881
 21
-891.3713149162603
 31
0.0
  0
LINE
  5
19400
  8
1PHANTOM
 10
392.32426313123187
 20
-885.87131142606711
 30
0.0
 11
392.32425382405251
 21
-889.87131142606722
 31
0.0
  0
ARC
  5
19401
  8
1PHANTOM
 10
393.82425382404881
 20
-889.87131491625848
 30
0.0
 40
1.5
 50
179.99986668447491
 51
270.0
  0
LINE
  5
19402
  8
1PHANTOM
 10
399.02426313100528
 20
-885.87136145215743
 30
0.0
 11
399.8242538238232
 21
-889.87136145215754
 31
0.0
  0
LINE
  5
19403
  8
1PHANTOM
 10
401.42425382382362
 20
-889.87136145215754
 30
0.0
 11
401.52425498722232
 21
-889.37136145215743
 31
0.0
  0
LINE
  5
19404
  8
1PHANTOM
 10
399.8242538238232
 20
-889.87136145215754
 30
0.0
 11
399.9242549872219
 21
-889.37136145215743
 31
0.0
  0
LINE
  5
19405
  8
1PHANTOM
 10
400.52426196760871
 20
-886.37136145215754
 30
0.0
 11
400.62426313100559
 21
-885.87136145215743
 31
0.0
  0
LINE
  5
19406
  8
1PHANTOM
 10
400.62426313100559
 20
-885.87136145215743
 30
0.0
 11
401.42425382382362
 21
-889.87136145215754
 31
0.0
  0
LINE
  5
19407
  8
1PHANTOM
 10
397.32426196760429
 20
-886.37136145215754
 30
0.0
 11
397.42426313100123
 21
-885.87136145215743
 31
0.0
  0
LINE
  5
19408
  8
1PHANTOM
 10
397.42426313100123
 20
-885.87136145215743
 30
0.0
 11
398.2242538238192
 21
-889.87136145215754
 31
0.0
  0
LINE
  5
19409
  8
1PHANTOM
 10
396.62425382381889
 20
-889.87136145215754
 30
0.0
 11
396.72425498721759
 21
-889.37136145215743
 31
0.0
  0
LINE
  5
1940A
  8
1PHANTOM
 10
398.2242538238192
 20
-889.87136145215754
 30
0.0
 11
398.32425498721801
 21
-889.37136145215743
 31
0.0
  0
LINE
  5
1940B
  8
1PHANTOM
 10
395.92426253460741
 20
-886.37136428720896
 30
0.0
 11
396.62425382381889
 21
-889.87136145215754
 31
0.0
  0
LINE
  5
1940C
  8
1PHANTOM
 10
398.9242619676084
 20
-886.37136145215754
 30
0.0
 11
399.02426313100528
 21
-885.87136145215743
 31
0.0
  0
LINE
  5
1941C
  8
01
 10
329.92425904452512
 20
-883.12131530701731
 30
0.0
 11
329.92425904452512
 21
-883.37131530714726
 31
0.0
  0
LINE
  5
1941D
  8
01
 10
329.92425904452512
 20
-892.37131530714441
 30
0.0
 11
329.92425904452512
 21
-892.62131530701743
 31
0.0
  0
LINE
  5
19420
  8
01
 10
371.42425904452512
 20
-883.12131530701731
 30
0.0
 11
371.42425904452512
 21
-883.37131530715305
 31
0.0
  0
LINE
  5
19421
  8
01
 10
371.42425904452489
 20
-892.37131530713884
 30
0.0
 11
371.42425904452512
 21
-892.62131530701743
 31
0.0
  0
LINE
  5
19422
  8
01
 10
378.92425904452688
 20
-883.12131530701731
 30
0.0
 11
378.92425904452671
 21
-883.37131530715419
 31
0.0
  0
LINE
  5
19423
  8
01
 10
378.92425904452722
 20
-892.37131530713782
 30
0.0
 11
378.92425904452688
 21
-892.62131530701743
 31
0.0
  0
LINE
  5
19424
  8
01
 10
331.92425904452148
 20
-883.12131530701822
 30
0.0
 11
331.92425904452148
 21
-883.37131530714782
 31
0.0
  0
LINE
  5
19425
  8
01
 10
331.92425904452148
 20
-892.37131530714441
 30
0.0
 11
331.92425904452148
 21
-892.62131530701765
 31
0.0
  0
LINE
  5
19426
  8
01
 10
326.62425904452039
 20
-892.62131530701765
 30
0.0
 11
326.87425904439328
 21
-892.3713153071451
 31
0.0
  0
LINE
  5
19427
  8
01
 10
326.62425904452039
 20
-883.1213153070164
 30
0.0
 11
326.8742590446513
 21
-883.37131530714726
 31
0.0
  0
LINE
  5
1942A
  8
1PHANTOM
 10
395.9242590445287
 20
-883.62131530714862
 30
0.0
 11
395.9242590445287
 21
-884.07131491625512
 31
0.0
  0
LINE
  5
194FB
  8
01
 10
398.2895914964306
 20
-877.87131530701686
 30
0.0
 11
332.87442460925149
 21
-877.87131530701663
 31
0.0
  0
LINE
  5
194FC
  8
01
 10
-47.075740955471247
 20
-877.85678013732104
 30
0.0
 11
258.9242590445287
 21
-877.85678013732104
 31
0.0
  0
LINE
  5
19665
  8
01
 10
320.82425904452202
 20
-883.37131530714635
 30
0.0
 11
398.92425904452858
 21
-883.37131530715737
 31
0.0
  0
LINE
  5
19666
  8
01
 10
398.92425904452858
 20
-883.37131530715737
 30
0.0
 11
398.92425904452858
 21
-892.37131530713543
 31
0.0
  0
LINE
  5
19667
  8
1PHANTOM
 10
393.92426519895048
 20
-883.37131530715646
 30
0.0
 11
393.92426449558889
 21
-884.37131491626064
 31
0.0
  0
LINE
  5
19668
  8
1PHANTOM
 10
393.92425886868779
 20
-892.37131530713623
 30
0.0
 11
393.92425869284722
 21
-892.62131530714646
 31
0.0
  0
LINE
  5
1966B
  8
1PHANTOM
 10
259.72425865364181
 20
-744.87132414883308
 30
0.0
 11
252.12425865365771
 21
-744.87130646518744
 31
0.0
  0
LINE
  5
1966C
  8
1PHANTOM
 10
259.72425632684872
 20
-745.87132414883308
 30
0.0
 11
252.1242563268647
 21
-745.87130646517835
 31
0.0
  0
LINE
  5
1966D
  8
1PHANTOM
 10
256.42421096587577
 20
-745.87131703718114
 30
0.0
 11
255.4242135926784
 21
-744.87131471038799
 31
0.0
  0
LINE
  5
1966E
  8
1PHANTOM
 10
259.72425632684872
 20
-745.87132414883308
 30
0.0
 11
259.72425865364181
 21
-744.87132414883308
 31
0.0
  0
LINE
  5
1966F
  8
1PHANTOM
 10
257.42425865364248
 20
-745.87131936409241
 30
0.0
 11
254.42425865364251
 21
-745.87131238370785
 31
0.0
  0
LINE
  5
19670
  8
1PHANTOM
 10
252.1242563268647
 20
-745.87130646517835
 30
0.0
 11
252.12425865365771
 21
-744.87130646518744
 31
0.0
  0
LINE
  5
19671
  8
1PHANTOM
 10
254.82993483964719
 20
-712.97131332773995
 30
0.0
 11
256.79226992852318
 21
-712.17131789368796
 31
0.0
  0
LINE
  5
19672
  8
1PHANTOM
 10
256.79226992852318
 20
-712.17131789368796
 30
0.0
 11
256.2039933534802
 21
-711.85954803743687
 31
0.0
  0
LINE
  5
19673
  8
1PHANTOM
 10
253.92430518953961
 20
-735.37131122052961
 30
0.0
 11
257.92430518953961
 21
-734.57132052771158
 31
0.0
  0
LINE
  5
19674
  8
1PHANTOM
 10
253.92430518953961
 20
-724.17131122052524
 30
0.0
 11
257.92430518953961
 21
-723.37132052770176
 31
0.0
  0
LINE
  5
19675
  8
1PHANTOM
 10
253.92430518953961
 20
-720.9713112205244
 30
0.0
 11
257.92430518953961
 21
-720.17132052770285
 31
0.0
  0
LINE
  5
19676
  8
1PHANTOM
 10
257.92430518953961
 20
-720.17132052770285
 30
0.0
 11
257.42430518953961
 21
-720.07131936430414
 31
0.0
  0
LINE
  5
19677
  8
1PHANTOM
 10
254.42430518953961
 20
-719.47131238392285
 30
0.0
 11
253.92430518953961
 21
-719.37131122052415
 31
0.0
  0
LINE
  5
19678
  8
1PHANTOM
 10
257.92430518953961
 20
-723.37132052770176
 30
0.0
 11
257.42430518953961
 21
-723.27131936430476
 31
0.0
  0
LINE
  5
19679
  8
1PHANTOM
 10
257.92430518953961
 20
-721.77132052770128
 30
0.0
 11
257.42430518953961
 21
-721.67131936430451
 31
0.0
  0
LINE
  5
1967A
  8
1PHANTOM
 10
254.42430518953961
 20
-721.07131238392128
 30
0.0
 11
253.92430518953961
 21
-720.9713112205244
 31
0.0
  0
LINE
  5
1967B
  8
1PHANTOM
 10
254.42430518953961
 20
-722.67131238392176
 30
0.0
 11
253.92430518953961
 21
-722.57131122052476
 31
0.0
  0
LINE
  5
1967C
  8
1PHANTOM
 10
253.92430518953961
 20
-722.57131122052476
 30
0.0
 11
257.92430518953961
 21
-721.77132052770128
 31
0.0
  0
LINE
  5
1967D
  8
1PHANTOM
 10
257.24508403292981
 20
-713.77131894729416
 30
0.0
 11
256.6933345691254
 21
-713.58855480466627
 31
0.0
  0
LINE
  5
1967E
  8
1PHANTOM
 10
257.92430518953961
 20
-716.97132052770201
 30
0.0
 11
257.42430518953961
 21
-716.87131936430524
 31
0.0
  0
LINE
  5
1967F
  8
1PHANTOM
 10
257.92430518953961
 20
-718.57132052770248
 30
0.0
 11
257.42430518953961
 21
-718.47131936430549
 31
0.0
  0
LINE
  5
19680
  8
1PHANTOM
 10
257.69789813733632
 20
-715.37132000089866
 30
0.0
 11
257.16130440206371
 21
-715.24204930326948
 31
0.0
  0
LINE
  5
19681
  8
1PHANTOM
 10
254.84521978674869
 20
-714.68408178648485
 30
0.0
 11
254.37712133159809
 21
-714.57131227413436
 31
0.0
  0
LINE
  5
19682
  8
1PHANTOM
 10
254.42430518953961
 20
-717.87131238392249
 30
0.0
 11
253.92430518953961
 21
-717.7713112205256
 31
0.0
  0
LINE
  5
19683
  8
1PHANTOM
 10
254.42430518953961
 20
-716.27131238392212
 30
0.0
 11
253.92430518953961
 21
-716.17131122052524
 31
0.0
  0
LINE
  5
19684
  8
1PHANTOM
 10
255.28710668027679
 20
-713.12274912417877
 30
0.0
 11
254.82993483964719
 21
-712.97131332773995
 31
0.0
  0
LINE
  5
19685
  8
1PHANTOM
 10
254.37712133159809
 20
-714.57131227413436
 30
0.0
 11
257.24508403292981
 21
-713.77131894729416
 31
0.0
  0
LINE
  5
19686
  8
1PHANTOM
 10
253.92430518953961
 20
-717.7713112205256
 30
0.0
 11
257.92430518953961
 21
-716.97132052770201
 31
0.0
  0
LINE
  5
19687
  8
1PHANTOM
 10
253.92430518953961
 20
-716.17131122052524
 30
0.0
 11
257.69789813733632
 21
-715.37132000089866
 31
0.0
  0
LINE
  5
19688
  8
1PHANTOM
 10
253.92430518953961
 20
-719.37131122052415
 30
0.0
 11
257.92430518953961
 21
-718.57132052770248
 31
0.0
  0
LINE
  5
19689
  8
1PHANTOM
 10
253.92430518953961
 20
-732.17131122052876
 30
0.0
 11
257.92430518953961
 21
-731.37132052771085
 31
0.0
  0
LINE
  5
1968A
  8
1PHANTOM
 10
257.92430518953961
 20
-731.37132052771085
 30
0.0
 11
257.42430518953961
 21
-731.27131936431397
 31
0.0
  0
LINE
  5
1968B
  8
1PHANTOM
 10
254.42430518953961
 20
-730.67131238392165
 30
0.0
 11
253.92430518953961
 21
-730.57131122052476
 31
0.0
  0
LINE
  5
1968C
  8
1PHANTOM
 10
257.92430518953961
 20
-732.97132052771121
 30
0.0
 11
257.42430518953961
 21
-732.87131936431251
 31
0.0
  0
LINE
  5
1968D
  8
1PHANTOM
 10
257.92430518953961
 20
-734.57132052771158
 30
0.0
 11
257.42430518953961
 21
-734.47131936431276
 31
0.0
  0
LINE
  5
1968E
  8
1PHANTOM
 10
254.42430518953961
 20
-732.27131238392747
 30
0.0
 11
253.92430518953961
 21
-732.17131122052876
 31
0.0
  0
LINE
  5
1968F
  8
1PHANTOM
 10
254.42430518953961
 20
-733.87131238392612
 30
0.0
 11
253.92430518953961
 21
-733.77131122052924
 31
0.0
  0
LINE
  5
19690
  8
1PHANTOM
 10
253.92430518953961
 20
-733.77131122052924
 30
0.0
 11
257.92430518953961
 21
-732.97132052771121
 31
0.0
  0
LINE
  5
19691
  8
1PHANTOM
 10
257.92430518953961
 20
-726.57132052770601
 30
0.0
 11
257.42430518953961
 21
-726.47131936430924
 31
0.0
  0
LINE
  5
19692
  8
1PHANTOM
 10
257.92430518953961
 20
-724.97132052770212
 30
0.0
 11
257.42430518953961
 21
-724.87131936430524
 31
0.0
  0
LINE
  5
19693
  8
1PHANTOM
 10
257.92430518953961
 20
-729.77132052770685
 30
0.0
 11
257.42430518953961
 21
-729.67131936430815
 31
0.0
  0
LINE
  5
19694
  8
1PHANTOM
 10
257.92430518953961
 20
-728.17132052770637
 30
0.0
 11
257.42430518953961
 21
-728.07131936430949
 31
0.0
  0
LINE
  5
19695
  8
1PHANTOM
 10
254.42430518953961
 20
-724.27131238392212
 30
0.0
 11
253.92430518953961
 21
-724.17131122052524
 31
0.0
  0
LINE
  5
19696
  8
1PHANTOM
 10
254.42430518953961
 20
-725.87131238392249
 30
0.0
 11
253.92430518953961
 21
-725.7713112205256
 31
0.0
  0
LINE
  5
19697
  8
1PHANTOM
 10
254.42430518953961
 20
-729.07131238392321
 30
0.0
 11
253.92430518953961
 21
-728.9713112205244
 31
0.0
  0
LINE
  5
19698
  8
1PHANTOM
 10
254.42430518953961
 20
-727.47131238392285
 30
0.0
 11
253.92430518953961
 21
-727.37131122052415
 31
0.0
  0
LINE
  5
19699
  8
1PHANTOM
 10
253.92430518953961
 20
-727.37131122052415
 30
0.0
 11
257.92430518953961
 21
-726.57132052770601
 31
0.0
  0
LINE
  5
1969A
  8
1PHANTOM
 10
253.92430518953961
 20
-725.7713112205256
 30
0.0
 11
257.92430518953961
 21
-724.97132052770212
 31
0.0
  0
LINE
  5
1969B
  8
1PHANTOM
 10
253.92430518953961
 20
-728.9713112205244
 30
0.0
 11
257.92430518953961
 21
-728.17132052770637
 31
0.0
  0
LINE
  5
1969C
  8
1PHANTOM
 10
253.92430518953961
 20
-730.57131122052476
 30
0.0
 11
257.92430518953961
 21
-729.77132052770685
 31
0.0
  0
LINE
  5
1969D
  8
1PHANTOM
 10
257.42430518953961
 20
-745.87131936419973
 30
0.0
 11
254.42430518953961
 21
-745.87131238381505
 31
0.0
  0
LINE
  5
1969E
  8
1PHANTOM
 10
254.42430518953961
 20
-738.67131238393085
 30
0.0
 11
253.92430518953961
 21
-738.57131122053397
 31
0.0
  0
LINE
  5
1969F
  8
1PHANTOM
 10
254.42430518953961
 20
-737.07131238393049
 30
0.0
 11
253.92430518953961
 21
-736.97131122053361
 31
0.0
  0
LINE
  5
196A0
  8
1PHANTOM
 10
253.92430518953961
 20
-736.97131122053361
 30
0.0
 11
257.92430518953961
 21
-736.17132052771558
 31
0.0
  0
LINE
  5
196A1
  8
1PHANTOM
 10
257.92430518953961
 20
-737.77132052771594
 30
0.0
 11
257.42430518953961
 21
-737.67131936431724
 31
0.0
  0
LINE
  5
196A2
  8
1PHANTOM
 10
257.92430518953961
 20
-736.17132052771558
 30
0.0
 11
257.42430518953961
 21
-736.07131936431676
 31
0.0
  0
LINE
  5
196A3
  8
1PHANTOM
 10
253.92430518953961
 20
-738.57131122053397
 30
0.0
 11
257.92430518953961
 21
-737.77132052771594
 31
0.0
  0
LINE
  5
196A4
  8
1PHANTOM
 10
254.42430518953961
 20
-735.47131238392649
 30
0.0
 11
253.92430518953961
 21
-735.37131122052961
 31
0.0
  0
LINE
  5
196A5
  8
1PHANTOM
 10
255.92430518953961
 20
-710.87131587406111
 30
0.0
 11
254.42430518953961
 21
-716.1713123839254
 31
0.0
  0
LINE
  5
196A6
  8
1PHANTOM
 10
254.42430518953961
 20
-716.1713123839254
 30
0.0
 11
254.4243051895387
 21
-744.87131181692621
 31
0.0
  0
LINE
  5
196A7
  8
1PHANTOM
 10
255.92430518953961
 20
-710.87131587406111
 30
0.0
 11
257.42430518953961
 21
-716.1713193643036
 31
0.0
  0
LINE
  5
196A8
  8
1PHANTOM
 10
252.42425865364251
 20
-745.87130773011631
 30
0.0
 11
254.42430518953961
 21
-745.87131238381505
 31
0.0
  0
LINE
  5
196A9
  8
1PHANTOM
 10
257.42430518953961
 20
-716.1713193643036
 30
0.0
 11
257.42430518954052
 21
-744.87131879731157
 31
0.0
  0
LINE
  5
196AA
  8
1PHANTOM
 10
252.42425865364251
 20
-745.87130773011631
 30
0.0
 11
252.42425865364251
 21
-746.97131122031158
 31
0.0
  0
LINE
  5
196AB
  8
1PHANTOM
 10
257.42430518953961
 20
-745.87131936419973
 30
0.0
 11
259.42425865364248
 21
-745.87132401768031
 31
0.0
  0
ARC
  5
196AC
  8
1PHANTOM
 10
253.92425865364069
 20
-746.97131122031158
 30
0.0
 40
1.5
 50
180.0
 51
269.99986668447491
  0
LINE
  5
196AD
  8
1PHANTOM
 10
259.42425865364248
 20
-745.87132401768031
 30
0.0
 11
259.42425865364248
 21
-746.97132052749112
 31
0.0
  0
LINE
  5
196AE
  8
1PHANTOM
 10
253.92425516344929
 20
-748.47131122030805
 30
0.0
 11
257.92425516344929
 21
-748.47132052748736
 31
0.0
  0
ARC
  5
196AF
  8
1PHANTOM
 10
257.92425865364072
 20
-746.97132052749112
 30
0.0
 40
1.5
 50
269.99986668447491
 51
0.0
  0
LINE
  5
196B0
  8
1PHANTOM
 10
253.92430518953961
 20
-741.7713112205347
 30
0.0
 11
257.92430518953961
 21
-740.97132052771656
 31
0.0
  0
LINE
  5
196B1
  8
1PHANTOM
 10
257.92430518953961
 20
-739.37132052771631
 30
0.0
 11
257.42430518953961
 21
-739.27131936431749
 31
0.0
  0
LINE
  5
196B2
  8
1PHANTOM
 10
257.92430518953961
 20
-740.97132052771656
 30
0.0
 11
257.42430518953961
 21
-740.87131936431797
 31
0.0
  0
LINE
  5
196B3
  8
1PHANTOM
 10
254.42430518953961
 20
-740.27131238393122
 30
0.0
 11
253.92430518953961
 21
-740.17131122053434
 31
0.0
  0
LINE
  5
196B4
  8
1PHANTOM
 10
253.92430518953961
 20
-740.17131122053434
 30
0.0
 11
257.92430518953961
 21
-739.37132052771631
 31
0.0
  0
LINE
  5
196B5
  8
1PHANTOM
 10
254.42430518953961
 20
-743.47131238393558
 30
0.0
 11
253.92430518953961
 21
-743.3713112205387
 31
0.0
  0
LINE
  5
196B6
  8
1PHANTOM
 10
253.92430518953961
 20
-743.3713112205387
 30
0.0
 11
257.92430518953961
 21
-742.57132052772056
 31
0.0
  0
LINE
  5
196B7
  8
1PHANTOM
 10
257.92430518953961
 20
-744.17132052772104
 30
0.0
 11
257.42430518953961
 21
-744.07131936432233
 31
0.0
  0
LINE
  5
196B8
  8
1PHANTOM
 10
257.92430518953961
 20
-742.57132052772056
 30
0.0
 11
257.42430518953961
 21
-742.47131936432197
 31
0.0
  0
LINE
  5
196B9
  8
1PHANTOM
 10
254.424308024591
 20
-744.87131181693246
 30
0.0
 11
257.92430518953961
 21
-744.17132052772104
 31
0.0
  0
LINE
  5
196BA
  8
1PHANTOM
 10
254.42430518953961
 20
-741.87131238393158
 30
0.0
 11
253.92430518953961
 21
-741.7713112205347
 31
0.0
  0
LINE
  5
196BC
  8
1PHANTOM
 10
-40.275741346358238
 20
-744.87132414883308
 30
0.0
 11
-47.875741346342231
 21
-744.87130646518744
 31
0.0
  0
LINE
  5
196BD
  8
1PHANTOM
 10
-40.275743673151283
 20
-745.87132414883308
 30
0.0
 11
-47.875743673135268
 21
-745.87130646517835
 31
0.0
  0
LINE
  5
196BE
  8
1PHANTOM
 10
-43.575789034124227
 20
-745.87131703718114
 30
0.0
 11
-44.57578640732163
 21
-744.87131471038799
 31
0.0
  0
LINE
  5
196BF
  8
1PHANTOM
 10
-40.275743673151283
 20
-745.87132414883308
 30
0.0
 11
-40.275741346358238
 21
-744.87132414883308
 31
0.0
  0
LINE
  5
196C0
  8
1PHANTOM
 10
-42.575741346357518
 20
-745.87131936409241
 30
0.0
 11
-45.575741346357518
 21
-745.87131238370785
 31
0.0
  0
LINE
  5
196C1
  8
1PHANTOM
 10
-47.875743673135268
 20
-745.87130646517835
 30
0.0
 11
-47.875741346342231
 21
-744.87130646518744
 31
0.0
  0
LINE
  5
196C2
  8
1PHANTOM
 10
-45.170065160352799
 20
-712.97131332773995
 30
0.0
 11
-43.20773007147681
 21
-712.17131789368796
 31
0.0
  0
LINE
  5
196C3
  8
1PHANTOM
 10
-43.20773007147681
 20
-712.17131789368796
 30
0.0
 11
-43.7960066465198
 21
-711.85954803743687
 31
0.0
  0
LINE
  5
196C4
  8
1PHANTOM
 10
-46.075694810460391
 20
-735.37131122052961
 30
0.0
 11
-42.075694810460377
 21
-734.57132052771158
 31
0.0
  0
LINE
  5
196C5
  8
1PHANTOM
 10
-46.075694810460391
 20
-724.17131122052524
 30
0.0
 11
-42.075694810460377
 21
-723.37132052770176
 31
0.0
  0
LINE
  5
196C6
  8
1PHANTOM
 10
-46.075694810460391
 20
-720.9713112205244
 30
0.0
 11
-42.075694810460377
 21
-720.17132052770285
 31
0.0
  0
LINE
  5
196C7
  8
1PHANTOM
 10
-42.075694810460377
 20
-720.17132052770285
 30
0.0
 11
-42.575694810460391
 21
-720.07131936430414
 31
0.0
  0
LINE
  5
196C8
  8
1PHANTOM
 10
-45.575694810460391
 20
-719.47131238392285
 30
0.0
 11
-46.075694810460391
 21
-719.37131122052415
 31
0.0
  0
LINE
  5
196C9
  8
1PHANTOM
 10
-42.075694810460377
 20
-723.37132052770176
 30
0.0
 11
-42.575694810460391
 21
-723.27131936430476
 31
0.0
  0
LINE
  5
196CA
  8
1PHANTOM
 10
-42.075694810460377
 20
-721.77132052770128
 30
0.0
 11
-42.575694810460391
 21
-721.67131936430451
 31
0.0
  0
LINE
  5
196CB
  8
1PHANTOM
 10
-45.575694810460391
 20
-721.07131238392128
 30
0.0
 11
-46.075694810460391
 21
-720.9713112205244
 31
0.0
  0
LINE
  5
196CC
  8
1PHANTOM
 10
-45.575694810460391
 20
-722.67131238392176
 30
0.0
 11
-46.075694810460391
 21
-722.57131122052476
 31
0.0
  0
LINE
  5
196CD
  8
1PHANTOM
 10
-46.075694810460391
 20
-722.57131122052476
 30
0.0
 11
-42.075694810460377
 21
-721.77132052770128
 31
0.0
  0
LINE
  5
196CE
  8
1PHANTOM
 10
-42.754915967070239
 20
-713.77131894729416
 30
0.0
 11
-43.306665430874538
 21
-713.58855480466627
 31
0.0
  0
LINE
  5
196CF
  8
1PHANTOM
 10
-42.075694810460377
 20
-716.97132052770201
 30
0.0
 11
-42.575694810460391
 21
-716.87131936430524
 31
0.0
  0
LINE
  5
196D0
  8
1PHANTOM
 10
-42.075694810460377
 20
-718.57132052770248
 30
0.0
 11
-42.575694810460391
 21
-718.47131936430549
 31
0.0
  0
LINE
  5
196D1
  8
1PHANTOM
 10
-42.302101862663683
 20
-715.37132000089866
 30
0.0
 11
-42.838695597936287
 21
-715.24204930326948
 31
0.0
  0
LINE
  5
196D2
  8
1PHANTOM
 10
-45.154780213251343
 20
-714.68408178648485
 30
0.0
 11
-45.622878668401881
 21
-714.57131227413436
 31
0.0
  0
LINE
  5
196D3
  8
1PHANTOM
 10
-45.575694810460391
 20
-717.87131238392249
 30
0.0
 11
-46.075694810460391
 21
-717.7713112205256
 31
0.0
  0
LINE
  5
196D4
  8
1PHANTOM
 10
-45.575694810460391
 20
-716.27131238392212
 30
0.0
 11
-46.075694810460391
 21
-716.17131122052524
 31
0.0
  0
LINE
  5
196D5
  8
1PHANTOM
 10
-44.712893319723207
 20
-713.12274912417877
 30
0.0
 11
-45.170065160352799
 21
-712.97131332773995
 31
0.0
  0
LINE
  5
196D6
  8
1PHANTOM
 10
-45.622878668401881
 20
-714.57131227413436
 30
0.0
 11
-42.754915967070239
 21
-713.77131894729416
 31
0.0
  0
LINE
  5
196D7
  8
1PHANTOM
 10
-46.075694810460391
 20
-717.7713112205256
 30
0.0
 11
-42.075694810460377
 21
-716.97132052770201
 31
0.0
  0
LINE
  5
196D8
  8
1PHANTOM
 10
-46.075694810460391
 20
-716.17131122052524
 30
0.0
 11
-42.302101862663683
 21
-715.37132000089866
 31
0.0
  0
LINE
  5
196D9
  8
1PHANTOM
 10
-46.075694810460391
 20
-719.37131122052415
 30
0.0
 11
-42.075694810460377
 21
-718.57132052770248
 31
0.0
  0
LINE
  5
196DA
  8
1PHANTOM
 10
-46.075694810460391
 20
-732.17131122052876
 30
0.0
 11
-42.075694810460377
 21
-731.37132052771085
 31
0.0
  0
LINE
  5
196DB
  8
1PHANTOM
 10
-42.075694810460377
 20
-731.37132052771085
 30
0.0
 11
-42.575694810460391
 21
-731.27131936431397
 31
0.0
  0
LINE
  5
196DC
  8
1PHANTOM
 10
-45.575694810460391
 20
-730.67131238392165
 30
0.0
 11
-46.075694810460391
 21
-730.57131122052476
 31
0.0
  0
LINE
  5
196DD
  8
1PHANTOM
 10
-42.075694810460377
 20
-732.97132052771121
 30
0.0
 11
-42.575694810460391
 21
-732.87131936431251
 31
0.0
  0
LINE
  5
196DE
  8
1PHANTOM
 10
-42.075694810460377
 20
-734.57132052771158
 30
0.0
 11
-42.575694810460391
 21
-734.47131936431276
 31
0.0
  0
LINE
  5
196DF
  8
1PHANTOM
 10
-45.575694810460391
 20
-732.27131238392747
 30
0.0
 11
-46.075694810460391
 21
-732.17131122052876
 31
0.0
  0
LINE
  5
196E0
  8
1PHANTOM
 10
-45.575694810460391
 20
-733.87131238392612
 30
0.0
 11
-46.075694810460391
 21
-733.77131122052924
 31
0.0
  0
LINE
  5
196E1
  8
1PHANTOM
 10
-46.075694810460391
 20
-733.77131122052924
 30
0.0
 11
-42.075694810460377
 21
-732.97132052771121
 31
0.0
  0
LINE
  5
196E2
  8
1PHANTOM
 10
-42.075694810460377
 20
-726.57132052770601
 30
0.0
 11
-42.575694810460391
 21
-726.47131936430924
 31
0.0
  0
LINE
  5
196E3
  8
1PHANTOM
 10
-42.075694810460377
 20
-724.97132052770212
 30
0.0
 11
-42.575694810460391
 21
-724.87131936430524
 31
0.0
  0
LINE
  5
196E4
  8
1PHANTOM
 10
-42.075694810460377
 20
-729.77132052770685
 30
0.0
 11
-42.575694810460391
 21
-729.67131936430815
 31
0.0
  0
LINE
  5
196E5
  8
1PHANTOM
 10
-42.075694810460377
 20
-728.17132052770637
 30
0.0
 11
-42.575694810460391
 21
-728.07131936430949
 31
0.0
  0
LINE
  5
196E6
  8
1PHANTOM
 10
-45.575694810460391
 20
-724.27131238392212
 30
0.0
 11
-46.075694810460391
 21
-724.17131122052524
 31
0.0
  0
LINE
  5
196E7
  8
1PHANTOM
 10
-45.575694810460391
 20
-725.87131238392249
 30
0.0
 11
-46.075694810460391
 21
-725.7713112205256
 31
0.0
  0
LINE
  5
196E8
  8
1PHANTOM
 10
-45.575694810460391
 20
-729.07131238392321
 30
0.0
 11
-46.075694810460391
 21
-728.9713112205244
 31
0.0
  0
LINE
  5
196E9
  8
1PHANTOM
 10
-45.575694810460391
 20
-727.47131238392285
 30
0.0
 11
-46.075694810460391
 21
-727.37131122052415
 31
0.0
  0
LINE
  5
196EA
  8
1PHANTOM
 10
-46.075694810460391
 20
-727.37131122052415
 30
0.0
 11
-42.075694810460377
 21
-726.57132052770601
 31
0.0
  0
LINE
  5
196EB
  8
1PHANTOM
 10
-46.075694810460391
 20
-725.7713112205256
 30
0.0
 11
-42.075694810460377
 21
-724.97132052770212
 31
0.0
  0
LINE
  5
196EC
  8
1PHANTOM
 10
-46.075694810460391
 20
-728.9713112205244
 30
0.0
 11
-42.075694810460377
 21
-728.17132052770637
 31
0.0
  0
LINE
  5
196ED
  8
1PHANTOM
 10
-46.075694810460391
 20
-730.57131122052476
 30
0.0
 11
-42.075694810460377
 21
-729.77132052770685
 31
0.0
  0
LINE
  5
196EE
  8
1PHANTOM
 10
-42.575694810460391
 20
-745.87131936419973
 30
0.0
 11
-45.575694810460391
 21
-745.87131238381505
 31
0.0
  0
LINE
  5
196EF
  8
1PHANTOM
 10
-45.575694810460391
 20
-738.67131238393085
 30
0.0
 11
-46.075694810460391
 21
-738.57131122053397
 31
0.0
  0
LINE
  5
196F0
  8
1PHANTOM
 10
-45.575694810460391
 20
-737.07131238393049
 30
0.0
 11
-46.075694810460391
 21
-736.97131122053361
 31
0.0
  0
LINE
  5
196F1
  8
1PHANTOM
 10
-46.075694810460391
 20
-736.97131122053361
 30
0.0
 11
-42.075694810460377
 21
-736.17132052771558
 31
0.0
  0
LINE
  5
196F2
  8
1PHANTOM
 10
-42.075694810460377
 20
-737.77132052771594
 30
0.0
 11
-42.575694810460391
 21
-737.67131936431724
 31
0.0
  0
LINE
  5
196F3
  8
1PHANTOM
 10
-42.075694810460377
 20
-736.17132052771558
 30
0.0
 11
-42.575694810460391
 21
-736.07131936431676
 31
0.0
  0
LINE
  5
196F4
  8
1PHANTOM
 10
-46.075694810460391
 20
-738.57131122053397
 30
0.0
 11
-42.075694810460377
 21
-737.77132052771594
 31
0.0
  0
LINE
  5
196F5
  8
1PHANTOM
 10
-45.575694810460391
 20
-735.47131238392649
 30
0.0
 11
-46.075694810460391
 21
-735.37131122052961
 31
0.0
  0
LINE
  5
196F6
  8
1PHANTOM
 10
-44.075694810460391
 20
-710.87131587406111
 30
0.0
 11
-45.575694810460391
 21
-716.1713123839254
 31
0.0
  0
LINE
  5
196F7
  8
1PHANTOM
 10
-45.575694810460391
 20
-716.1713123839254
 30
0.0
 11
-45.5756948104613
 21
-744.87131181692621
 31
0.0
  0
LINE
  5
196F8
  8
1PHANTOM
 10
-44.075694810460391
 20
-710.87131587406111
 30
0.0
 11
-42.575694810460391
 21
-716.1713193643036
 31
0.0
  0
LINE
  5
196F9
  8
1PHANTOM
 10
-47.575741346357518
 20
-745.87130773011631
 30
0.0
 11
-45.575694810460391
 21
-745.87131238381505
 31
0.0
  0
LINE
  5
196FA
  8
1PHANTOM
 10
-42.575694810460391
 20
-716.1713193643036
 30
0.0
 11
-42.575694810459481
 21
-744.87131879731157
 31
0.0
  0
LINE
  5
196FB
  8
1PHANTOM
 10
-47.575741346357518
 20
-745.87130773011631
 30
0.0
 11
-47.575741346357518
 21
-746.97131122031158
 31
0.0
  0
LINE
  5
196FC
  8
1PHANTOM
 10
-42.575694810460391
 20
-745.87131936419973
 30
0.0
 11
-40.575741346357518
 21
-745.87132401768031
 31
0.0
  0
ARC
  5
196FD
  8
1PHANTOM
 10
-46.075741346359337
 20
-746.97131122031158
 30
0.0
 40
1.5
 50
180.0
 51
269.99986668447491
  0
LINE
  5
196FE
  8
1PHANTOM
 10
-40.575741346357518
 20
-745.87132401768031
 30
0.0
 11
-40.575741346357518
 21
-746.97132052749112
 31
0.0
  0
LINE
  5
196FF
  8
1PHANTOM
 10
-46.075744836550712
 20
-748.47131122030805
 30
0.0
 11
-42.075744836550712
 21
-748.47132052748736
 31
0.0
  0
ARC
  5
19700
  8
1PHANTOM
 10
-42.075741346359329
 20
-746.97132052749112
 30
0.0
 40
1.5
 50
269.99986668447491
 51
0.0
  0
LINE
  5
19701
  8
1PHANTOM
 10
-46.075694810460391
 20
-741.7713112205347
 30
0.0
 11
-42.075694810460377
 21
-740.97132052771656
 31
0.0
  0
LINE
  5
19702
  8
1PHANTOM
 10
-42.075694810460377
 20
-739.37132052771631
 30
0.0
 11
-42.575694810460391
 21
-739.27131936431749
 31
0.0
  0
LINE
  5
19703
  8
1PHANTOM
 10
-42.075694810460377
 20
-740.97132052771656
 30
0.0
 11
-42.575694810460391
 21
-740.87131936431797
 31
0.0
  0
LINE
  5
19704
  8
1PHANTOM
 10
-45.575694810460391
 20
-740.27131238393122
 30
0.0
 11
-46.075694810460391
 21
-740.17131122053434
 31
0.0
  0
LINE
  5
19705
  8
1PHANTOM
 10
-46.075694810460391
 20
-740.17131122053434
 30
0.0
 11
-42.075694810460377
 21
-739.37132052771631
 31
0.0
  0
LINE
  5
19706
  8
1PHANTOM
 10
-45.575694810460391
 20
-743.47131238393558
 30
0.0
 11
-46.075694810460391
 21
-743.3713112205387
 31
0.0
  0
LINE
  5
19707
  8
1PHANTOM
 10
-46.075694810460391
 20
-743.3713112205387
 30
0.0
 11
-42.075694810460377
 21
-742.57132052772056
 31
0.0
  0
LINE
  5
19708
  8
1PHANTOM
 10
-42.075694810460377
 20
-744.17132052772104
 30
0.0
 11
-42.575694810460391
 21
-744.07131936432233
 31
0.0
  0
LINE
  5
19709
  8
1PHANTOM
 10
-42.075694810460377
 20
-742.57132052772056
 30
0.0
 11
-42.575694810460391
 21
-742.47131936432197
 31
0.0
  0
LINE
  5
1970A
  8
1PHANTOM
 10
-45.575691975408972
 20
-744.87131181693246
 30
0.0
 11
-42.075694810460377
 21
-744.17132052772104
 31
0.0
  0
LINE
  5
1970B
  8
1PHANTOM
 10
-45.575694810460391
 20
-741.87131238393158
 30
0.0
 11
-46.075694810460391
 21
-741.7713112205347
 31
0.0
  0
LINE
  5
1970E
  8
1CENTER
 10
255.92425904453151
 20
-890.85678013732274
 30
0.0
 11
255.92425904453151
 21
-884.85678013732274
 31
0.0
  0
LINE
  5
1970F
  8
1CENTER
 10
252.92425904453151
 20
-887.85678013732286
 30
0.0
 11
258.92425904453148
 21
-887.85678013732286
 31
0.0
  0
LINE
  5
19710
  8
1CENTER
 10
-44.075740955474878
 20
-890.85678013732195
 30
0.0
 11
-44.075740955474878
 21
-884.85678013732195
 31
0.0
  0
LINE
  5
19711
  8
1CENTER
 10
-47.075740955474878
 20
-887.85678013732195
 30
0.0
 11
-41.075740955474878
 21
-887.85678013732195
 31
0.0
  0
LINE
  5
19837
  8
01
 10
407.92430400960183
 20
-834.37131530714134
 30
0.0
 11
407.92430400960183
 21
-914.37131530714089
 31
0.0
  0
LINE
  5
19838
  8
01
 10
419.92430400960188
 20
-834.37131530714134
 30
0.0
 11
419.92430400960188
 21
-914.37131530714089
 31
0.0
  0
LINE
  5
19839
  8
01
 10
398.92430400960188
 20
-834.37131530714134
 30
0.0
 11
398.92430400960188
 21
-914.37131530714089
 31
0.0
  0
TEXT
  5
19983
  8
1TEXT
 10
318.9242590445287
 20
-775.87131530701458
 30
0.0
 40
8.0
  1
SC294--S
  0
LINE
  5
19984
  8
1DIM
 10
318.9242590445287
 20
-787.8713153070147
 30
0.0
 11
433.92425904452921
 21
-787.8713153070147
 31
0.0
  0
TEXT
  5
19985
  8
1TEXT
 10
320.05759237786219
 20
-786.3713153070147
 30
0.0
 40
4.0
  1
表面処理：本体
 72
     1
 11
336.3242590445289
 21
-786.3713153070147
 31
0.0
  0
LINE
  5
19986
  8
1DIM
 10
318.9242590445287
 20
-780.87131530701458
 30
0.0
 11
433.92425904452921
 21
-780.87131530701458
 31
0.0
  0
TEXT
  5
19987
  8
1TEXT
 10
409.52425904452878
 20
-786.3713153070147
 30
0.0
 40
4.0
  1
コード
 72
     1
 11
416.32425904452879
 21
-786.3713153070147
 31
0.0
  0
TEXT
  5
19988
  8
1TEXT
 10
355.23092571119548
 20
-786.3713153070147
 30
0.0
 40
4.0
  1
表面処理：カバー・シェルフ
 41
0.7
 72
     1
 11
376.3242590445289
 21
-786.3713153070147
 31
0.0
  0
LINE
  5
19989
  8
1DIM
 10
353.9242590445279
 20
-794.87131530701515
 30
0.0
 11
398.9242590445283
 21
-794.87131530701561
 31
0.0
  0
LINE
  5
1998A
  8
1DIM
 10
398.92425904452881
 20
-794.87131530701515
 30
0.0
 11
433.92425904452921
 21
-794.8713153070147
 31
0.0
  0
LINE
  5
1998B
  8
1DIM
 10
318.9242590445287
 20
-801.87131530701436
 30
0.0
 11
433.92425904452921
 21
-801.87131530701515
 31
0.0
  0
TEXT
  5
1998C
  8
1TEXT
 10
363.79092571119588
 20
-800.58567229066455
 30
0.0
 40
4.0
  1
黒【艶消し】
 72
     1
 11
376.3242590445293
 21
-800.58567229066455
 31
0.0
  0
TEXT
  5
1998D
  8
1TEXT
 10
363.52425904452929
 20
-793.58567229066455
 30
0.0
 40
4.0
  1
白【艶消し】
 72
     1
 11
376.3242590445293
 21
-793.58567229066455
 31
0.0
  0
TEXT
  5
1998E
  8
1TEXT
 10
326.99092571119598
 20
-796.84921032699935
 30
0.0
 40
4.0
  1
クローム
 72
     1
 11
336.3242590445293
 21
-796.84921032699935
 31
0.0
  0
LINE
  5
1998F
  8
1DIM
 10
353.9242590445287
 20
-780.87131530701458
 30
0.0
 11
353.9242590445283
 21
-801.87131530701367
 31
0.0
  0
LINE
  5
19990
  8
1DIM
 10
398.92425904452881
 20
-780.87131530701458
 30
0.0
 11
398.92425904452881
 21
-801.87131530701515
 31
0.0
  0
LINE
  5
19991
  8
1DIM
 10
433.92425904452921
 20
-780.87131530701458
 30
0.0
 11
433.92425904452921
 21
-801.87131530701515
 31
0.0
  0
LINE
  5
19992
  8
1DIM
 10
318.9242590445287
 20
-780.87131530701458
 30
0.0
 11
318.9242590445287
 21
-801.87131530701436
 31
0.0
  0
TEXT
  5
19993
  8
1TEXT
 10
400.99092571119638
 20
-800.58567229066398
 30
0.0
 40
4.0
  1
SC294KCS
 72
     1
 11
416.3242590445297
 21
-800.58567229066398
 31
0.0
  0
TEXT
  5
19994
  8
1TEXT
 10
400.99092571119638
 20
-793.58567229066409
 30
0.0
 40
4.0
  1
SC294SCS
 72
     1
 11
416.3242590445297
 21
-793.58567229066409
 31
0.0
  0
LINE
  5
19E9F
  8
01
 10
-29.07574095547125
 20
-805.87131530701379
 30
0.0
 11
148.1670786370523
 21
-805.8713153070147
 31
0.0
  0
LINE
  5
19EA7
  8
01
 10
-32.075740955471247
 20
-741.87131530701481
 30
0.0
 11
-32.075740955471247
 21
-802.87131530701572
 31
0.0
  0
ARC
  5
19EA8
  8
01
 10
-29.07574095547125
 20
-802.87131530701572
 30
0.0
 40
3.0
 50
180.0
 51
270.0
  0
LINE
  5
19F91
  8
01
 10
268.67910581900668
 20
-852.92373252136349
 30
0.0
 11
267.47392401257031
 21
-875.91997130357049
 31
0.0
  0
LINE
  5
19F92
  8
01
 10
266.47529447781579
 20
-876.86763534732745
 30
0.0
 11
150.37322361124481
 21
-876.86763534732654
 31
0.0
  0
ARC
  5
19F93
  8
01
 10
150.37322361124481
 20
-875.86763534732665
 30
0.0
 40
1.0
 50
183.0000000000056
 51
270.0
  0
ARC
  5
19F94
  8
01
 10
266.47529447781562
 20
-875.86763534732745
 30
0.0
 40
1.0
 50
270.0
 51
356.99999999999437
  0
LINE
  5
19F95
  8
01
 10
149.16723371095691
 20
-851.85301824157693
 30
0.0
 11
152.16451337808959
 21
-851.85348304144566
 31
0.0
  0
ARC
  5
19F96
  8
01
 10
149.16707863705051
 20
-852.85301822955353
 30
0.0
 40
1.0
 50
89.991114919680285
 51
183.0000000000056
  0
LINE
  5
19F97
  8
01
 10
264.68340040888711
 20
-851.87093178483235
 30
0.0
 11
267.6806313581576
 21
-851.87139657714476
 31
0.0
  0
ARC
  5
19F98
  8
01
 10
267.68047628425211
 20
-852.87139656512124
 30
0.0
 40
1.0
 50
356.99999999999437
 51
89.991114919680285
  0
LINE
  5
19F9C
  8
01
 10
397.42045643490701
 20
-851.87131530701458
 30
0.0
 11
394.37547213016518
 21
-851.87131530701549
 31
0.0
  0
LINE
  5
19F9F
  8
01
 10
397.21973847571962
 20
-876.87131530701345
 30
0.0
 11
321.3781859477981
 21
-876.87131530701595
 31
0.0
  0
ARC
  5
19FA0
  8
01
 10
397.21973847571962
 20
-875.87131530701356
 30
0.0
 40
1.0
 50
270.0
 51
359.4999999999954
  0
LINE
  5
19FA2
  8
01
 10
323.17006233229358
 20
-851.87131530701458
 30
0.0
 11
394.37547213016518
 21
-851.87131530701549
 31
0.0
  0
LINE
  5
19FA4
  8
01
 10
319.17417748953397
 20
-852.9236512632566
 30
0.0
 11
320.3795564130437
 21
-875.92365126325842
 31
0.0
  0
ARC
  5
19FA5
  8
01
 10
320.17280702428837
 20
-852.87131530701345
 30
0.0
 40
1.0
 50
89.999999999999986
 51
183.0000000000058
  0
ARC
  5
19FA6
  8
01
 10
321.3781859477981
 20
-875.87131530701515
 30
0.0
 40
1.0
 50
183.0000000000058
 51
270.0
  0
LINE
  5
19FA7
  8
01
 10
320.17280702428928
 20
-851.87131530701356
 30
0.0
 11
323.17006233229358
 21
-851.87131530701458
 31
0.0
  0
LINE
  5
19FAB
  8
01
 10
398.4204183579709
 20
-852.88004184251326
 30
0.0
 11
398.2023228185239
 21
-877.87131530701618
 31
0.0
  0
ARC
  5
19FAC
  8
01
 10
397.42045643490701
 20
-852.87131530701424
 30
0.0
 40
1.0
 50
359.4999999999954
 51
89.999999999999986
  0
LINE
  5
19FAF
  8
01
 10
148.16844910229719
 20
-852.90535418579555
 30
0.0
 11
149.37459407649021
 21
-875.91997130356958
 31
0.0
  0
LINE
  5
19FB0
  8
01
 10
264.68340040888887
 20
-851.87093178483235
 30
0.0
 11
152.16451337808871
 21
-851.85348304144475
 31
0.0
  0
LINE
  5
19FB1
  8
01
 10
148.16707863705071
 20
-820.61355887263096
 30
0.0
 11
148.16707863705071
 21
-743.3659094620125
 31
0.0
  0
LINE
  5
19FB2
  8
01
 10
268.68047628425228
 20
-820.61355887263096
 30
0.0
 11
268.68047628425228
 21
-743.3659094620125
 31
0.0
  0
LINE
  5
19FB3
  8
01
 10
263.73428848114622
 20
-815.65853147476707
 30
0.0
 11
263.73428848114622
 21
-748.35985833346865
 31
0.0
  0
LINE
  5
19FB4
  8
01
 10
153.1133305826408
 20
-815.65853147476707
 30
0.0
 11
153.1133305826408
 21
-748.35985833346865
 31
0.0
  0
LINE
  5
19FB5
  8
01
 10
267.68047628425228
 20
-821.61355887263107
 30
0.0
 11
149.16707863705071
 21
-821.61355887263107
 31
0.0
  0
LINE
  5
19FB6
  8
01
 10
262.73428848114622
 20
-816.65853147476719
 30
0.0
 11
154.1133305826408
 21
-816.65853147476719
 31
0.0
  0
LINE
  5
19FB7
  8
01
 10
149.16707863705071
 20
-742.36590946201238
 30
0.0
 11
267.68047628425228
 21
-742.36590946201238
 31
0.0
  0
LINE
  5
19FB8
  8
01
 10
154.1133305826408
 20
-747.35985833346876
 30
0.0
 11
262.73428848114622
 21
-747.35985833346876
 31
0.0
  0
ARC
  5
19FB9
  8
01
 10
262.7342884811469
 20
-815.65853147476707
 30
0.0
 40
1.0
 50
269.99999999994787
 51
359.99999999997402
  0
ARC
  5
19FBA
  8
01
 10
267.68047628425211
 20
-820.61355887263096
 30
0.0
 40
1.0
 50
270.0
 51
0.0
  0
ARC
  5
19FBB
  8
01
 10
149.16707863705139
 20
-820.61355887263096
 30
0.0
 40
1.0
 50
179.99999999997391
 51
269.99999999994787
  0
ARC
  5
19FBC
  8
01
 10
154.1133305826406
 20
-815.65853147476707
 30
0.0
 40
1.0
 50
180.0
 51
270.0
  0
ARC
  5
19FBD
  8
01
 10
154.11333058263969
 20
-748.35985833346956
 30
0.0
 40
1.0
 50
89.999999999947889
 51
180.0
  0
ARC
  5
19FBE
  8
01
 10
149.16707863705139
 20
-743.36590946201341
 30
0.0
 40
1.0
 50
90.000000000052125
 51
179.9999999999479
  0
ARC
  5
19FBF
  8
01
 10
262.734288481146
 20
-748.35985833346956
 30
0.0
 40
1.0
 50
0.0
 51
90.0
  0
ARC
  5
19FC0
  8
01
 10
267.68047628425302
 20
-743.3659094620125
 30
0.0
 40
1.0
 50
359.99999999997402
 51
90.000000000052125
  0
LINE
  5
19FC1
  8
1DIM
 10
154.16149469942161
 20
-814.61918341225089
 30
0.0
 11
154.16149469942161
 21
-749.4080139191301
 31
0.0
  0
LINE
  5
19FC2
  8
1DIM
 10
262.68614140125402
 20
-814.61918341225089
 30
0.0
 11
262.68614140125402
 21
-749.4080139191301
 31
0.0
  0
LINE
  5
19FC3
  8
1DIM
 10
261.68614140125391
 20
-815.61918341225089
 30
0.0
 11
155.16149469942161
 21
-815.61918341225089
 31
0.0
  0
LINE
  5
19FC4
  8
1DIM
 10
155.16149469942161
 20
-748.40801391912998
 30
0.0
 11
261.68614140125391
 21
-748.40801391912998
 31
0.0
  0
ARC
  5
19FC5
  8
1DIM
 10
261.68614140125368
 20
-814.61918341225089
 30
0.0
 40
1.0
 50
270.0
 51
0.0
  0
ARC
  5
19FC6
  8
1DIM
 10
155.1614946994213
 20
-814.61918341225089
 30
0.0
 40
1.0
 50
180.00000000002601
 51
270.0
  0
ARC
  5
19FC7
  8
1DIM
 10
155.1614946994213
 20
-749.40801391913101
 30
0.0
 40
1.0
 50
90.0
 51
179.99999999997391
  0
ARC
  5
19FC8
  8
1DIM
 10
261.6861414012547
 20
-749.4080139191301
 30
0.0
 40
1.0
 50
359.99999999997402
 51
90.000000000052125
  0
LINE
  5
19FC9
  8
01
 10
259.4242590445304
 20
-877.85678013729648
 30
0.0
 11
259.4242590445304
 21
-876.86763534732654
 31
0.0
  0
LINE
  5
19FCA
  8
01
 10
157.42425904453029
 20
-877.85678013729466
 30
0.0
 11
157.42425904453029
 21
-876.86763534732654
 31
0.0
  0
LINE
  5
19FDD
  8
01
 10
332.37752057480571
 20
-877.8713153070164
 30
0.0
 11
332.37752057480571
 21
-876.87131530701674
 31
0.0
  0
LINE
  5
19FDF
  8
01
 10
398.2023228185239
 20
-877.87131530701618
 30
0.0
 11
332.37752057480571
 21
-877.8713153070164
 31
0.0
  0
LINE
  5
1A2C5
  8
01
 10
157.42425904453029
 20
-877.85678013729466
 30
0.0
 11
259.4242590445304
 21
-877.85678013729648
 31
0.0
  0
LINE
  5
1A5AF
  8
1DIM
 10
138.1670786370523
 20
-807.87131530701492
 30
0.0
 11
138.1670786370523
 21
-819.87131530701458
 31
0.0
  0
LINE
  5
1A5B0
  8
1DIM
 10
138.1670786370523
 20
-821.8713153070147
 30
0.0
 11
138.1670786370523
 21
-830.43798197368142
 31
0.0
  0
LINE
  5
1A5B4
  8
1DIM
 10
243.9242590445306
 20
-741.87131530701481
 30
0.0
 11
137.1670786370523
 21
-741.87131530701481
 31
0.0
  0
LINE
  5
1A5B5
  8
1DIM
 10
138.1670786370523
 20
-743.87131530701481
 30
0.0
 11
138.1670786370523
 21
-803.87131530701481
 31
0.0
  0
LINE
  5
1A5B9
  8
1DIM
 10
148.16707863705071
 20
-820.61355887263096
 30
0.0
 11
148.16707863705071
 21
-832.61355887263107
 31
0.0
  0
LINE
  5
1A5BA
  8
1DIM
 10
268.68047628425228
 20
-820.61355887263096
 30
0.0
 11
268.68047628425228
 21
-832.61355887263107
 31
0.0
  0
LINE
  5
1A5BB
  8
1DIM
 10
150.16707863705071
 20
-831.61355887263107
 30
0.0
 11
266.68047628425228
 21
-831.61355887263107
 31
0.0
  0
LINE
  5
1A5BF
  8
1DIM
 10
155.1133305826406
 20
-801.61355887263096
 30
0.0
 11
261.73428848114622
 21
-801.61355887263096
 31
0.0
  0
TEXT
  5
1A5C3
  8
1DIM
 10
351.43472013870411
 20
-828.74992593066077
 30
0.0
 40
3.5
  1
材質：亜鉛ダイキャスト
  0
TEXT
  5
1A5C4
  8
1DIM
 10
351.43472013870411
 20
-834.58325926399425
 30
0.0
 40
3.5
  1
仕上げ：クローム
  0
SOLID
  5
1A5C5
  8
1DIM
 10
323.57760167235722
 20
-879.76754376823271
 30
0.0
 11
322.29267049135768
 21
-881.33600255672752
 31
0.0
 12
322.99945659603458
 22
-879.43559088728671
 32
0.0
 13
322.99945659603458
 23
-879.43559088728671
 33
0.0
  0
TEXT
  5
1A5C7
  8
1DIM
 10
364.93373560394821
 20
-842.76420080997184
 30
0.0
 40
3.5
  1
材質：ABS樹脂
  0
TEXT
  5
1A5C8
  8
1DIM
 10
364.93373560394821
 20
-848.59753414330521
 30
0.0
 40
3.5
  1
仕上げ：表参照
  0
SOLID
  5
1A5C9
  8
1DIM
 10
340.57060203926568
 20
-887.72861014757268
 30
0.0
 11
339.286238925997
 21
-889.29753414330526
 31
0.0
 12
339.99233679128389
 22
-887.39686665114664
 32
0.0
 13
339.99233679128389
 23
-887.39686665114664
 33
0.0
  0
TEXT
  5
1A5CB
  8
1DIM
 10
402.57940525199302
 20
-814.07947250047744
 30
0.0
 40
3.5
  1
PB
  0
SOLID
  5
1A5CC
  8
1DIM
 10
403.48393536363568
 20
-833.2322335041672
 30
0.0
 11
403.5042726316799
 21
-835.25971901746675
 31
0.0
 12
402.82747180624358
 22
-833.34842318641381
 32
0.0
 13
402.82747180624358
 23
-833.34842318641381
 33
0.0
  0
SOLID
  5
1A5CE
  8
1DIM
 10
413.04745617616652
 20
-833.23662003426625
 30
0.0
 11
413.50225484562111
 21
-835.2125424217536
 31
0.0
 12
412.43120019478982
 22
-833.49092892098065
 32
0.0
 13
412.43120019478982
 23
-833.49092892098065
 33
0.0
  0
TEXT
  5
1A5D0
  8
1DIM
 10
410.24674974653152
 20
-820.0808185176013
 30
0.0
 40
3.5
  1
合板12mm以上
  0
LINE
  5
1A5D1
  8
1DIM1
 10
-57.075740955473968
 20
-897.35678013732195
 30
0.0
 11
-57.075740955473982
 21
-960.85678013732195
 31
0.0
  0
LINE
  5
1A5D2
  8
1DIM1
 10
268.92425904453103
 20
-897.35678013732195
 30
0.0
 11
268.92425904453103
 21
-960.85678013732195
 31
0.0
  0
LINE
  5
1A5D3
  8
1DIM1
 10
-51.075740955473982
 20
-957.85678013732195
 30
0.0
 11
262.92425904453103
 21
-957.85678013732195
 31
0.0
  0
LINE
  5
1A5D7
  8
1DIM1
 10
-44.075740955474878
 20
-890.85678013732195
 30
0.0
 11
-44.075740955474878
 21
-930.85678013732195
 31
0.0
  0
LINE
  5
1A5D8
  8
1DIM1
 10
255.92425904453151
 20
-890.85678013732274
 30
0.0
 11
255.92425904453151
 21
-930.85678013732195
 31
0.0
  0
LINE
  5
1A5D9
  8
1DIM1
 10
-38.075740955474892
 20
-927.85678013732195
 30
0.0
 11
249.92425904453151
 21
-927.85678013732195
 31
0.0
  0
LINE
  5
1A5DD
  8
1DIM
 10
238.92425904452881
 20
-814.65853147476707
 30
0.0
 11
238.92425904452881
 21
-749.35985833346865
 31
0.0
  0
LINE
  5
1A5E1
  8
1DIM
 10
319.42425904453148
 20
-877.87131530701618
 30
0.0
 11
307.92425904452881
 21
-877.87131530701618
 31
0.0
  0
LINE
  5
1A5E2
  8
1DIM
 10
319.42425904452881
 20
-897.87131530714953
 30
0.0
 11
307.92425904452881
 21
-897.87131530714953
 31
0.0
  0
LINE
  5
1A5E3
  8
1DIM
 10
308.92425904452881
 20
-879.87131530701629
 30
0.0
 11
308.92425904452881
 21
-895.87131530714964
 31
0.0
  0
LINE
  5
1A5E7
  8
1DIM
 10
320.17280702428928
 20
-851.87131530701356
 30
0.0
 11
297.92425904452881
 21
-851.87131530701356
 31
0.0
  0
LINE
  5
1A5E8
  8
1DIM
 10
319.42425904452881
 20
-897.87131530714953
 30
0.0
 11
297.92425904452881
 21
-897.87131530714953
 31
0.0
  0
LINE
  5
1A5E9
  8
1DIM
 10
298.92425904452881
 20
-853.87131530701367
 30
0.0
 11
298.92425904452881
 21
-895.87131530714964
 31
0.0
  0
LINE
  5
1A5ED
  8
1DIM
 10
398.92425904452898
 20
-897.87131530714782
 30
0.0
 11
398.92425904452898
 21
-918.87131530714782
 31
0.0
  0
LINE
  5
1A5EE
  8
1DIM
 10
318.9242590445287
 20
-897.37131530714748
 30
0.0
 11
318.9242590445287
 21
-918.87131530714782
 31
0.0
  0
LINE
  5
1A5EF
  8
1DIM
 10
396.92425904452898
 20
-917.87131530714794
 30
0.0
 11
320.9242590445287
 21
-917.87131530714794
 31
0.0
  0
LINE
  5
1A5F3
  8
1DIM
 10
267.68047628425211
 20
-821.61355887263107
 30
0.0
 11
289.92425904452921
 21
-821.61355887263107
 31
0.0
  0
LINE
  5
1A5F4
  8
1DIM
 10
267.68047628425302
 20
-742.36590946201238
 30
0.0
 11
289.92425904452921
 21
-742.36590946201238
 31
0.0
  0
LINE
  5
1A5F5
  8
1DIM
 10
288.92425904452921
 20
-819.61355887263096
 30
0.0
 11
288.92425904452921
 21
-744.3659094620125
 31
0.0
  0
LINE
  5
1A5F9
  8
1DIM
 10
268.92425904453057
 20
-741.87131530701481
 30
0.0
 11
289.92425904452909
 21
-741.87131530701481
 31
0.0
  0
LINE
  5
1A5FA
  8
1DIM
 10
266.65640275060792
 20
-742.36590946201238
 30
0.0
 11
289.92425904452909
 21
-742.36590946201238
 31
0.0
  0
LINE
  5
1A5FB
  8
1DIM
 10
288.92425904452909
 20
-744.3659094620125
 30
0.0
 11
288.92425904452909
 21
-746.36590946201238
 31
0.0
  0
LINE
  5
1A5FC
  8
1DIM
 10
288.92425904452909
 20
-739.87131530701481
 30
0.0
 11
288.92425904452909
 21
-727.55464864034809
 31
0.0
  0
LINE
  5
1A5FD
  8
1DIM
 10
288.92425904452909
 20
-742.36590946201238
 30
0.0
 11
288.92425904452909
 21
-741.87131530701481
 31
0.0
  0
LINE
  5
1A601
  8
1DIM
 10
243.9242590445306
 20
-741.87131530701481
 30
0.0
 11
243.9242590445306
 21
-720.87131530701299
 31
0.0
  0
LINE
  5
1A602
  8
1DIM
 10
268.9242590445287
 20
-741.87131530701481
 30
0.0
 11
268.9242590445287
 21
-720.87131530701299
 31
0.0
  0
LINE
  5
1A603
  8
1DIM
 10
245.9242590445306
 20
-721.87131530701299
 30
0.0
 11
266.9242590445287
 21
-721.87131530701299
 31
0.0
  0
LINE
  5
1A604
  8
1DIM
 10
268.9242590445287
 20
-721.87131530701299
 30
0.0
 11
280.55759237786327
 21
-721.87131530701299
 31
0.0
  0
TEXT
  5
1A608
  8
1DIM
 10
286.19534721918137
 20
-833.88524061803776
 30
0.0
 40
3.5
  1
材質：アクリル合成樹脂
  0
TEXT
  5
1A609
  8
1DIM
 10
286.19534721918137
 20
-839.71857395137113
 30
0.0
 40
3.5
  1
仕上げ：表参照
  0
SOLID
  5
1A60A
  8
1DIM
 10
270.08050069258348
 20
-855.47276775810712
 30
0.0
 11
268.4802620710567
 21
-856.71789725550275
 31
0.0
 12
269.59017552469697
 22
-855.0210757455792
 32
0.0
 13
269.59017552469697
 23
-855.0210757455792
 33
0.0
  0
LINE
  5
1A60C
  8
1DIM
 10
269.8353381086402
 20
-855.24692175184316
 30
0.0
 11
283.49534721918138
 21
-840.41857395137117
 31
0.0
  0
LINE
  5
1A60D
  8
1DIM
 10
283.49534721918138
 20
-840.41857395137117
 30
0.0
 11
331.46201388584802
 21
-840.41857395137117
 31
0.0
  0
TEXT
  5
1A60E
  8
1DIM
 10
274.10759237786328
 20
-721.17131530701295
 30
0.0
 40
3.5
  1
25 
  0
LINE
  5
1A60F
  8
0
  6
BYBLOCK
 10
266.9242590445287
 20
-721.33541692701294
 30
0.0
 11
268.9242590445287
 21
-721.87131530701299
 31
0.0
  0
LINE
  5
1A610
  8
0
  6
BYBLOCK
 10
268.9242590445287
 20
-721.87131530701299
 30
0.0
 11
266.9242590445287
 21
-722.40721368701304
 31
0.0
  0
LINE
  5
1A611
  8
0
  6
BYBLOCK
 10
268.9242590445287
 20
-721.87131530701299
 30
0.0
 11
266.9242590445287
 21
-721.87131530701299
 31
0.0
  0
LINE
  5
1A612
  8
0
  6
BYBLOCK
 10
245.9242590445306
 20
-722.40721368701304
 30
0.0
 11
243.9242590445306
 21
-721.87131530701299
 31
0.0
  0
LINE
  5
1A613
  8
0
  6
BYBLOCK
 10
243.9242590445306
 20
-721.87131530701299
 30
0.0
 11
245.9242590445306
 21
-721.33541692701294
 31
0.0
  0
LINE
  5
1A614
  8
0
  6
BYBLOCK
 10
243.9242590445306
 20
-721.87131530701299
 30
0.0
 11
245.9242590445306
 21
-721.87131530701299
 31
0.0
  0
TEXT
  5
1A615
  8
1DIM
 10
288.22425904452922
 20
-735.12964864034802
 30
0.0
 40
3.5
  1
0.5 
 50
90.0
  0
LINE
  5
1A616
  8
0
  6
BYBLOCK
 10
289.46015742452909
 20
-739.87131530701481
 30
0.0
 11
288.92425904452909
 21
-741.87131530701481
 31
0.0
  0
LINE
  5
1A617
  8
0
  6
BYBLOCK
 10
288.92425904452909
 20
-741.87131530701481
 30
0.0
 11
288.3883606645291
 21
-739.87131530701481
 31
0.0
  0
LINE
  5
1A618
  8
0
  6
BYBLOCK
 10
288.92425904452909
 20
-741.87131530701481
 30
0.0
 11
288.92425904452909
 21
-739.87131530701481
 31
0.0
  0
LINE
  5
1A619
  8
0
  6
BYBLOCK
 10
288.3883606645291
 20
-744.3659094620125
 30
0.0
 11
288.92425904452909
 21
-742.36590946201238
 31
0.0
  0
LINE
  5
1A61A
  8
0
  6
BYBLOCK
 10
288.92425904452909
 20
-742.36590946201238
 30
0.0
 11
289.46015742452909
 21
-744.3659094620125
 31
0.0
  0
LINE
  5
1A61B
  8
0
  6
BYBLOCK
 10
288.92425904452909
 20
-742.36590946201238
 30
0.0
 11
288.92425904452909
 21
-744.3659094620125
 31
0.0
  0
TEXT
  5
1A61C
  8
1DIM
 10
288.22425904452928
 20
-784.90640083398819
 30
0.0
 40
3.5
  1
79 
 50
90.0
  0
LINE
  5
1A61D
  8
0
  6
BYBLOCK
 10
288.38836066452922
 20
-744.3659094620125
 30
0.0
 11
288.92425904452921
 21
-742.36590946201238
 31
0.0
  0
LINE
  5
1A61E
  8
0
  6
BYBLOCK
 10
288.92425904452921
 20
-742.36590946201238
 30
0.0
 11
289.4601574245292
 21
-744.3659094620125
 31
0.0
  0
LINE
  5
1A61F
  8
0
  6
BYBLOCK
 10
288.92425904452921
 20
-742.36590946201238
 30
0.0
 11
288.92425904452921
 21
-744.3659094620125
 31
0.0
  0
LINE
  5
1A620
  8
0
  6
BYBLOCK
 10
289.4601574245292
 20
-819.61355887263096
 30
0.0
 11
288.92425904452921
 21
-821.61355887263107
 31
0.0
  0
LINE
  5
1A621
  8
0
  6
BYBLOCK
 10
288.92425904452921
 20
-821.61355887263107
 30
0.0
 11
288.38836066452922
 21
-819.61355887263096
 31
0.0
  0
LINE
  5
1A622
  8
0
  6
BYBLOCK
 10
288.92425904452921
 20
-821.61355887263107
 30
0.0
 11
288.92425904452921
 21
-819.61355887263096
 31
0.0
  0
TEXT
  5
1A623
  8
1DIM
 10
356.29925904452892
 20
-917.17131530714767
 30
0.0
 40
3.5
  1
80 
  0
LINE
  5
1A624
  8
0
  6
BYBLOCK
 10
320.9242590445287
 20
-918.40721368714776
 30
0.0
 11
318.9242590445287
 21
-917.87131530714794
 31
0.0
  0
LINE
  5
1A625
  8
0
  6
BYBLOCK
 10
318.9242590445287
 20
-917.87131530714794
 30
0.0
 11
320.9242590445287
 21
-917.33541692714778
 31
0.0
  0
LINE
  5
1A626
  8
0
  6
BYBLOCK
 10
318.9242590445287
 20
-917.87131530714794
 30
0.0
 11
320.9242590445287
 21
-917.87131530714794
 31
0.0
  0
LINE
  5
1A627
  8
0
  6
BYBLOCK
 10
396.92425904452898
 20
-917.33541692714778
 30
0.0
 11
398.92425904452898
 21
-917.87131530714794
 31
0.0
  0
LINE
  5
1A628
  8
0
  6
BYBLOCK
 10
398.92425904452898
 20
-917.87131530714794
 30
0.0
 11
396.92425904452898
 21
-918.40721368714776
 31
0.0
  0
LINE
  5
1A629
  8
0
  6
BYBLOCK
 10
398.92425904452898
 20
-917.87131530714794
 30
0.0
 11
396.92425904452898
 21
-917.87131530714794
 31
0.0
  0
TEXT
  5
1A62A
  8
1DIM
 10
298.22425904452888
 20
-877.78798197374795
 30
0.0
 40
3.5
  1
46 
 50
90.0
  0
LINE
  5
1A62B
  8
0
  6
BYBLOCK
 10
299.4601574245288
 20
-895.87131530714964
 30
0.0
 11
298.92425904452881
 21
-897.87131530714953
 31
0.0
  0
LINE
  5
1A62C
  8
0
  6
BYBLOCK
 10
298.92425904452881
 20
-897.87131530714953
 30
0.0
 11
298.38836066452882
 21
-895.87131530714964
 31
0.0
  0
LINE
  5
1A62D
  8
0
  6
BYBLOCK
 10
298.92425904452881
 20
-897.87131530714953
 30
0.0
 11
298.92425904452881
 21
-895.87131530714964
 31
0.0
  0
LINE
  5
1A62E
  8
0
  6
BYBLOCK
 10
298.38836066452882
 20
-853.87131530701367
 30
0.0
 11
298.92425904452881
 21
-851.87131530701356
 31
0.0
  0
LINE
  5
1A62F
  8
0
  6
BYBLOCK
 10
298.92425904452881
 20
-851.87131530701356
 30
0.0
 11
299.4601574245288
 21
-853.87131530701367
 31
0.0
  0
LINE
  5
1A630
  8
0
  6
BYBLOCK
 10
298.92425904452881
 20
-851.87131530701356
 30
0.0
 11
298.92425904452881
 21
-853.87131530701367
 31
0.0
  0
TEXT
  5
1A631
  8
1DIM
 10
308.22425904452888
 20
-890.49631530708268
 30
0.0
 40
3.5
  1
20 
 50
90.0
  0
LINE
  5
1A632
  8
0
  6
BYBLOCK
 10
309.4601574245288
 20
-895.87131530714964
 30
0.0
 11
308.92425904452881
 21
-897.87131530714953
 31
0.0
  0
LINE
  5
1A633
  8
0
  6
BYBLOCK
 10
308.92425904452881
 20
-897.87131530714953
 30
0.0
 11
308.3883606645287
 21
-895.87131530714964
 31
0.0
  0
LINE
  5
1A634
  8
0
  6
BYBLOCK
 10
308.92425904452881
 20
-897.87131530714953
 30
0.0
 11
308.92425904452881
 21
-895.87131530714964
 31
0.0
  0
LINE
  5
1A635
  8
0
  6
BYBLOCK
 10
308.38836066452882
 20
-879.87131530701629
 30
0.0
 11
308.92425904452881
 21
-877.87131530701618
 31
0.0
  0
LINE
  5
1A636
  8
0
  6
BYBLOCK
 10
308.92425904452881
 20
-877.87131530701618
 30
0.0
 11
309.4601574245288
 21
-879.87131530701629
 31
0.0
  0
LINE
  5
1A637
  8
0
  6
BYBLOCK
 10
308.92425904452881
 20
-877.87131530701618
 30
0.0
 11
308.92425904452881
 21
-879.87131530701629
 31
0.0
  0
TEXT
  5
1A638
  8
1DIM
 10
238.22425904452891
 20
-784.92586157078449
 30
0.0
 40
3.5
  1
69 
 50
90.0
  0
LINE
  5
1A639
  8
0
  6
BYBLOCK
 10
238.38836066452879
 20
-749.35985833346865
 30
0.0
 11
238.92425904452881
 21
-747.35985833346865
 31
0.0
  0
LINE
  5
1A63A
  8
0
  6
BYBLOCK
 10
238.92425904452881
 20
-747.35985833346865
 30
0.0
 11
239.46015742452869
 21
-749.35985833346865
 31
0.0
  0
LINE
  5
1A63B
  8
0
  6
BYBLOCK
 10
238.92425904452881
 20
-747.35985833346865
 30
0.0
 11
238.92425904452881
 21
-749.35985833346865
 31
0.0
  0
LINE
  5
1A63C
  8
0
  6
BYBLOCK
 10
239.46015742452869
 20
-814.65853147476707
 30
0.0
 11
238.92425904452881
 21
-816.65853147476707
 31
0.0
  0
LINE
  5
1A63D
  8
0
  6
BYBLOCK
 10
238.92425904452881
 20
-816.65853147476707
 30
0.0
 11
238.38836066452879
 21
-814.65853147476707
 31
0.0
  0
LINE
  5
1A63E
  8
0
  6
BYBLOCK
 10
238.92425904452881
 20
-816.65853147476707
 30
0.0
 11
238.92425904452881
 21
-814.65853147476707
 31
0.0
  0
TEXT
  5
1A63F
  8
1DIM1
 10
88.424259044528284
 20
-925.75678013732204
 30
0.0
 40
10.5
  1
P300 
  0
LINE
  5
1A640
  8
0
  6
BYBLOCK
 10
249.92425904453151
 20
-926.2490849973218
 30
0.0
 11
255.92425904453151
 21
-927.85678013732195
 31
0.0
  0
LINE
  5
1A641
  8
0
  6
BYBLOCK
 10
255.92425904453151
 20
-927.85678013732195
 30
0.0
 11
249.92425904453151
 21
-929.46447527732187
 31
0.0
  0
LINE
  5
1A642
  8
0
  6
BYBLOCK
 10
255.92425904453151
 20
-927.85678013732195
 30
0.0
 11
249.92425904453151
 21
-927.85678013732195
 31
0.0
  0
LINE
  5
1A643
  8
0
  6
BYBLOCK
 10
-38.075740955474892
 20
-929.46447527732187
 30
0.0
 11
-44.075740955474878
 21
-927.85678013732195
 31
0.0
  0
LINE
  5
1A644
  8
0
  6
BYBLOCK
 10
-44.075740955474878
 20
-927.85678013732195
 30
0.0
 11
-38.075740955474892
 21
-926.2490849973218
 31
0.0
  0
LINE
  5
1A645
  8
0
  6
BYBLOCK
 10
-44.075740955474878
 20
-927.85678013732195
 30
0.0
 11
-38.075740955474892
 21
-927.85678013732195
 31
0.0
  0
TEXT
  5
1A646
  8
1DIM1
 10
91.924259044528526
 20
-955.75678013732193
 30
0.0
 40
10.5
  1
326 
  0
LINE
  5
1A647
  8
0
  6
BYBLOCK
 10
262.92425904453103
 20
-956.24908499732192
 30
0.0
 11
268.92425904453103
 21
-957.85678013732195
 31
0.0
  0
LINE
  5
1A648
  8
0
  6
BYBLOCK
 10
268.92425904453103
 20
-957.85678013732195
 30
0.0
 11
262.92425904453103
 21
-959.46447527732198
 31
0.0
  0
LINE
  5
1A649
  8
0
  6
BYBLOCK
 10
268.92425904453103
 20
-957.85678013732195
 30
0.0
 11
262.92425904453103
 21
-957.85678013732195
 31
0.0
  0
LINE
  5
1A64A
  8
0
  6
BYBLOCK
 10
-51.075740955473982
 20
-959.46447527732198
 30
0.0
 11
-57.075740955473982
 21
-957.85678013732195
 31
0.0
  0
LINE
  5
1A64B
  8
0
  6
BYBLOCK
 10
-57.075740955473982
 20
-957.85678013732195
 30
0.0
 11
-51.075740955473982
 21
-956.24908499732192
 31
0.0
  0
LINE
  5
1A64C
  8
0
  6
BYBLOCK
 10
-57.075740955473982
 20
-957.85678013732195
 30
0.0
 11
-51.075740955473982
 21
-957.85678013732195
 31
0.0
  0
LINE
  5
1A64D
  8
1DIM
 10
412.73932818547809
 20
-833.36377447762345
 30
0.0
 11
407.54674974653148
 21
-820.78081851760135
 31
0.0
  0
LINE
  5
1A64E
  8
1DIM
 10
407.54674974653148
 20
-820.78081851760135
 30
0.0
 11
442.78008307986488
 21
-820.78081851760135
 31
0.0
  0
LINE
  5
1A64F
  8
1DIM
 10
403.15570358493972
 20
-833.2903283452905
 30
0.0
 11
399.87940525199298
 21
-814.77947250047725
 31
0.0
  0
LINE
  5
1A650
  8
1DIM
 10
399.87940525199298
 20
-814.77947250047725
 30
0.0
 11
408.41273858532628
 21
-814.77947250047725
 31
0.0
  0
LINE
  5
1A651
  8
1DIM
 10
340.28146941527478
 20
-887.56273839935966
 30
0.0
 11
362.23373560394822
 21
-849.29753414330514
 31
0.0
  0
LINE
  5
1A652
  8
1DIM
 10
362.23373560394822
 20
-849.29753414330514
 30
0.0
 11
394.83373560394818
 21
-849.29753414330514
 31
0.0
  0
LINE
  5
1A653
  8
1DIM
 10
323.28852913419593
 20
-879.60156732775965
 30
0.0
 11
348.73472013870412
 21
-835.2832592639943
 31
0.0
  0
LINE
  5
1A654
  8
1DIM
 10
348.73472013870412
 20
-835.2832592639943
 30
0.0
 11
396.70138680537082
 21
-835.2832592639943
 31
0.0
  0
TEXT
  5
1A655
  8
1DIM
 10
202.8821428652268
 20
-800.91355887263103
 30
0.0
 40
3.5
  1
110.5
  0
LINE
  5
1A656
  8
0
  6
BYBLOCK
 10
261.73428848114622
 20
-801.07766049263091
 30
0.0
 11
263.73428848114622
 21
-801.61355887263096
 31
0.0
  0
LINE
  5
1A657
  8
0
  6
BYBLOCK
 10
263.73428848114622
 20
-801.61355887263096
 30
0.0
 11
261.73428848114622
 21
-802.14945725263112
 31
0.0
  0
LINE
  5
1A658
  8
0
  6
BYBLOCK
 10
263.73428848114622
 20
-801.61355887263096
 30
0.0
 11
261.73428848114622
 21
-801.61355887263096
 31
0.0
  0
LINE
  5
1A659
  8
0
  6
BYBLOCK
 10
155.1133305826406
 20
-802.14945725263112
 30
0.0
 11
153.1133305826406
 21
-801.61355887263096
 31
0.0
  0
LINE
  5
1A65A
  8
0
  6
BYBLOCK
 10
153.1133305826406
 20
-801.61355887263096
 30
0.0
 11
155.1133305826406
 21
-801.07766049263091
 31
0.0
  0
LINE
  5
1A65B
  8
0
  6
BYBLOCK
 10
153.1133305826406
 20
-801.61355887263096
 30
0.0
 11
155.1133305826406
 21
-801.61355887263096
 31
0.0
  0
TEXT
  5
1A65C
  8
1DIM
 10
202.29877746065151
 20
-830.91355887263092
 30
0.0
 40
3.5
  1
120.5 
  0
LINE
  5
1A65D
  8
0
  6
BYBLOCK
 10
266.68047628425228
 20
-831.07766049263103
 30
0.0
 11
268.68047628425228
 21
-831.61355887263107
 31
0.0
  0
LINE
  5
1A65E
  8
0
  6
BYBLOCK
 10
268.68047628425228
 20
-831.61355887263107
 30
0.0
 11
266.68047628425228
 21
-832.14945725263124
 31
0.0
  0
LINE
  5
1A65F
  8
0
  6
BYBLOCK
 10
268.68047628425228
 20
-831.61355887263107
 30
0.0
 11
266.68047628425228
 21
-831.61355887263107
 31
0.0
  0
LINE
  5
1A660
  8
0
  6
BYBLOCK
 10
150.16707863705071
 20
-832.14945725263124
 30
0.0
 11
148.16707863705071
 21
-831.61355887263107
 31
0.0
  0
LINE
  5
1A661
  8
0
  6
BYBLOCK
 10
148.16707863705071
 20
-831.61355887263107
 30
0.0
 11
150.16707863705071
 21
-831.07766049263103
 31
0.0
  0
LINE
  5
1A662
  8
0
  6
BYBLOCK
 10
148.16707863705071
 20
-831.61355887263107
 30
0.0
 11
150.16707863705071
 21
-831.61355887263107
 31
0.0
  0
TEXT
  5
1A663
  8
1DIM
 10
137.4670786370524
 20
-776.78798197368144
 30
0.0
 40
3.5
  1
64 
 50
90.0
  0
LINE
  5
1A664
  8
0
  6
BYBLOCK
 10
138.70297701705229
 20
-803.87131530701481
 30
0.0
 11
138.1670786370523
 21
-805.8713153070147
 31
0.0
  0
LINE
  5
1A665
  8
0
  6
BYBLOCK
 10
138.1670786370523
 20
-805.8713153070147
 30
0.0
 11
137.63118025705231
 21
-803.87131530701481
 31
0.0
  0
LINE
  5
1A666
  8
0
  6
BYBLOCK
 10
138.1670786370523
 20
-805.8713153070147
 30
0.0
 11
138.1670786370523
 21
-803.87131530701481
 31
0.0
  0
LINE
  5
1A667
  8
0
  6
BYBLOCK
 10
137.63118025705231
 20
-743.87131530701481
 30
0.0
 11
138.1670786370523
 21
-741.87131530701481
 31
0.0
  0
LINE
  5
1A668
  8
0
  6
BYBLOCK
 10
138.1670786370523
 20
-741.87131530701481
 30
0.0
 11
138.70297701705229
 21
-743.87131530701481
 31
0.0
  0
LINE
  5
1A669
  8
0
  6
BYBLOCK
 10
138.1670786370523
 20
-741.87131530701481
 30
0.0
 11
138.1670786370523
 21
-743.87131530701481
 31
0.0
  0
TEXT
  5
1A66A
  8
1DIM
 10
137.46707863705231
 20
-829.48798197368126
 30
0.0
 40
3.5
  1
16 
 50
90.0
  0
LINE
  5
1A66B
  8
0
  6
BYBLOCK
 10
138.70297701705229
 20
-819.87131530701458
 30
0.0
 11
138.1670786370523
 21
-821.8713153070147
 31
0.0
  0
LINE
  5
1A66C
  8
0
  6
BYBLOCK
 10
138.1670786370523
 20
-821.8713153070147
 30
0.0
 11
137.63118025705231
 21
-819.87131530701458
 31
0.0
  0
LINE
  5
1A66D
  8
0
  6
BYBLOCK
 10
138.1670786370523
 20
-821.8713153070147
 30
0.0
 11
138.1670786370523
 21
-819.87131530701458
 31
0.0
  0
LINE
  5
1A66E
  8
0
  6
BYBLOCK
 10
137.63118025705231
 20
-807.87131530701492
 30
0.0
 11
138.1670786370523
 21
-805.8713153070147
 31
0.0
  0
LINE
  5
1A66F
  8
0
  6
BYBLOCK
 10
138.1670786370523
 20
-805.8713153070147
 30
0.0
 11
138.70297701705229
 21
-807.87131530701492
 31
0.0
  0
LINE
  5
1A670
  8
0
  6
BYBLOCK
 10
138.1670786370523
 20
-805.8713153070147
 30
0.0
 11
138.1670786370523
 21
-807.87131530701492
 31
0.0
  0
VIEWPORT
  5
57
 67
     1
  8
0
 10
-12.72041844153455
 20
96.508167838462313
 30
0.0
 40
745.60964221338781
 41
494.40782352308639
 68
     1
 69
     1
1001
ACAD
1000
MVIEW
1002
{
1070
    16
1010
0.0
1020
0.0
1030
0.0
1010
0.0
1020
0.0
1030
1.0
1040
0.0
1040
494.40782352308639
1040
-12.72041844153455
1040
96.508167838462313
1040
50.0
1040
0.0
1040
0.0
1070
     0
1070
   100
1070
     1
1070
     1
1070
     0
1070
     0
1070
     0
1070
     0
1040
0.0
1040
0.0
1040
0.0
1040
10.0
1040
10.0
1040
10.0
1040
10.0
1070
     0
1002
{
1002
}
1002
}
  0
ENDSEC
  0
EOF
