  0
SECTION
  2
HEADER
  9
$ACADVER
  1
AC1009
  9
$INSBASE
 10
0.0
 20
0.0
 30
0.0
  9
$EXTMIN
 10
2731.570319016821
 20
-1954.345602563501
 30
0.0
  9
$EXTMAX
 10
3004.182720962358
 20
-1790.4934952103779
 30
0.0
  9
$LIMMIN
 10
0.0
 20
0.0
  9
$LIMMAX
 10
420.0
 20
297.0
  9
$ORTHOMODE
 70
     0
  9
$REGENMODE
 70
     1
  9
$FILLMODE
 70
     1
  9
$QTEXTMODE
 70
     0
  9
$MIRRTEXT
 70
     0
  9
$DRAGMODE
 70
     2
  9
$LTSCALE
 40
0.5
  9
$OSMODE
 70
  2175
  9
$ATTMODE
 70
     1
  9
$TEXTSIZE
 40
4.0
  9
$TRACEWID
 40
1.0
  9
$TEXTSTYLE
  7
STANDARD
  9
$CLAYER
  8
1TEXT
  9
$CELTYPE
  6
BYLAYER
  9
$CECOLOR
 62
   256
  9
$DIMSCALE
 40
1.0
  9
$DIMASZ
 40
2.0
  9
$DIMEXO
 40
0.0
  9
$DIMDLI
 40
7.0
  9
$DIMRND
 40
0.0
  9
$DIMDLE
 40
0.0
  9
$DIMEXE
 40
1.0
  9
$DIMTP
 40
0.0
  9
$DIMTM
 40
0.0
  9
$DIMTXT
 40
3.5
  9
$DIMCEN
 40
0.0
  9
$DIMTSZ
 40
0.0
  9
$DIMTOL
 70
     0
  9
$DIMLIM
 70
     0
  9
$DIMTIH
 70
     0
  9
$DIMTOH
 70
     0
  9
$DIMSE1
 70
     0
  9
$DIMSE2
 70
     0
  9
$DIMTAD
 70
     1
  9
$DIMZIN
 70
     8
  9
$DIMBLK
  1

  9
$DIMASO
 70
     1
  9
$DIMSHO
 70
     1
  9
$DIMPOST
  1
 
  9
$DIMAPOST
  1

  9
$DIMALT
 70
     0
  9
$DIMALTD
 70
     2
  9
$DIMALTF
 40
25.399999999999999
  9
$DIMLFAC
 40
1.0
  9
$DIMTOFL
 70
     1
  9
$DIMTVP
 40
0.0
  9
$DIMTIX
 70
     0
  9
$DIMSOXD
 70
     0
  9
$DIMSAH
 70
     1
  9
$DIMBLK1
  1
OPEN30
  9
$DIMBLK2
  1
OPEN30
  9
$DIMSTYLE
  2
NEWX10
  9
$DIMCLRD
 70
   256
  9
$DIMCLRE
 70
   256
  9
$DIMCLRT
 70
   201
  9
$DIMTFAC
 40
0.7
  9
$DIMGAP
 40
0.7
  9
$LUNITS
 70
     2
  9
$LUPREC
 70
     4
  9
$SKETCHINC
 40
1.0
  9
$FILLETRAD
 40
0.5
  9
$AUNITS
 70
     0
  9
$AUPREC
 70
     2
  9
$MENU
  1
acad
  9
$ELEVATION
 40
0.0
  9
$PELEVATION
 40
0.0
  9
$THICKNESS
 40
0.0
  9
$LIMCHECK
 70
     0
  9
$BLIPMODE
 70
     0
  9
$CHAMFERA
 40
10.0
  9
$CHAMFERB
 40
10.0
  9
$SKPOLY
 70
     0
  9
$TDCREATE
 40
2453033.7326634838
  9
$TDUPDATE
 40
2455490.4575902321
  9
$TDINDWG
 40
2.4200851619999999
  9
$TDUSRTIMER
 40
2.4200851619999999
  9
$USRTIMER
 70
     1
  9
$ANGBASE
 50
0.0
  9
$ANGDIR
 70
     0
  9
$PDMODE
 70
     0
  9
$PDSIZE
 40
0.0
  9
$PLINEWID
 40
0.0
  9
$COORDS
 70
     2
  9
$SPLFRAME
 70
     0
  9
$SPLINETYPE
 70
     6
  9
$SPLINESEGS
 70
     8
  9
$ATTDIA
 70
     0
  9
$ATTREQ
 70
     1
  9
$HANDLING
 70
     1
  9
$HANDSEED
  5
1A2D9
  9
$SURFTAB1
 70
     6
  9
$SURFTAB2
 70
     6
  9
$SURFTYPE
 70
     6
  9
$SURFU
 70
     6
  9
$SURFV
 70
     6
  9
$UCSNAME
  2

  9
$UCSORG
 10
0.0
 20
0.0
 30
0.0
  9
$UCSXDIR
 10
1.0
 20
0.0
 30
0.0
  9
$UCSYDIR
 10
0.0
 20
1.0
 30
0.0
  9
$PUCSNAME
  2

  9
$PUCSORG
 10
0.0
 20
0.0
 30
0.0
  9
$PUCSXDIR
 10
1.0
 20
0.0
 30
0.0
  9
$PUCSYDIR
 10
0.0
 20
1.0
 30
0.0
  9
$USERI1
 70
     0
  9
$USERI2
 70
     0
  9
$USERI3
 70
     0
  9
$USERI4
 70
     0
  9
$USERI5
 70
     0
  9
$USERR1
 40
0.0
  9
$USERR2
 40
0.0
  9
$USERR3
 40
0.0
  9
$USERR4
 40
0.0
  9
$USERR5
 40
0.0
  9
$WORLDVIEW
 70
     1
  9
$SHADEDGE
 70
     3
  9
$SHADEDIF
 70
    70
  9
$TILEMODE
 70
     1
  9
$MAXACTVP
 70
    48
  9
$PLIMCHECK
 70
     0
  9
$PEXTMIN
 10
1.0000000000000000E+020
 20
1.0000000000000000E+020
 30
1.0000000000000000E+020
  9
$PEXTMAX
 10
-1.0000000000000000E+020
 20
-1.0000000000000000E+020
 30
-1.0000000000000000E+020
  9
$PLIMMIN
 10
0.0
 20
0.0
  9
$PLIMMAX
 10
420.0
 20
297.0
  9
$UNITMODE
 70
     0
  9
$VISRETAIN
 70
     1
  9
$PLINEGEN
 70
     0
  9
$PSLTSCALE
 70
     1
  0
ENDSEC
  0
SECTION
  2
TABLES
  0
TABLE
  2
VPORT
 70
     1
  0
VPORT
  2
*ACTIVE
 70
     0
 10
0.0
 20
0.0
 11
1.0
 21
1.0
 12
2867.8998433559091
 22
-1872.3969758726221
 13
0.0
 23
0.0
 14
10.0
 24
10.0
 15
10.0
 25
10.0
 16
0.0
 26
0.0
 36
1.0
 17
0.0
 27
0.0
 37
0.0
 40
204.36776080464179
 41
1.4123581336696089
 42
50.0
 43
0.0
 44
0.0
 50
0.0
 51
0.0
 71
     0
 72
   100
 73
     1
 74
     1
 75
     0
 76
     0
 77
     0
 78
     0
  0
ENDTAB
  0
TABLE
  2
LTYPE
 70
    16
  0
LTYPE
  2
CONTINUOUS
 70
     0
  3
Solid line
 72
    65
 73
     0
 40
0.0
  0
LTYPE
  2
CENTER2
 70
     0
  3
Center (.5x) ___ _ ___ _ ___ _ ___ _ ___ _ ___
 72
    65
 73
     4
 40
28.574999999999999
 49
19.050000000000001
 49
-3.1749999999999989
 49
3.1749999999999989
 49
-3.1749999999999989
  0
LTYPE
  2
HIDDEN
 70
     0
  3
Hidden __ __ __ __ __ __ __ __ __ __ __ __ __ _
 72
    65
 73
     2
 40
9.5249999999999986
 49
6.3499999999999988
 49
-3.1749999999999989
  0
LTYPE
  2
PHANTOM2
 70
     0
  3
Phantom (.5x) ___ _ _ ___ _ _ ___ _ _ ___ _ _
 72
    65
 73
     6
 40
31.75
 49
15.875
 49
-3.1749999999999989
 49
3.1749999999999989
 49
-3.1749999999999989
 49
3.1749999999999989
 49
-3.1749999999999989
  0
ENDTAB
  0
TABLE
  2
LAYER
 70
    45
  0
LAYER
  2
0
 70
     0
 62
     7
  6
CONTINUOUS
  0
LAYER
  2
1CENTER
 70
     0
 62
     7
  6
CENTER2
  0
LAYER
  2
1TEXT
 70
     0
 62
     7
  6
CONTINUOUS
  0
LAYER
  2
1DIM
 70
     0
 62
     7
  6
CONTINUOUS
  0
LAYER
  2
1HIDDEN
 70
     0
 62
     7
  6
HIDDEN
  0
LAYER
  2
1PHANTOM
 70
     0
 62
     7
  6
PHANTOM2
  0
LAYER
  2
01
 70
     0
 62
     1
  6
CONTINUOUS
  0
LAYER
  2
1HATCH
 70
     0
 62
     7
  6
CONTINUOUS
  0
ENDTAB
  0
TABLE
  2
STYLE
 70
    22
  0
STYLE
  2
STANDARD
 70
     0
 40
0.0
 41
1.0
 50
0.0
 71
     0
 42
4.0
  3
txt.shx
  4
extfont.shx
  0
ENDTAB
  0
TABLE
  2
VIEW
 70
     0
  0
ENDTAB
  0
TABLE
  2
UCS
 70
     0
  0
ENDTAB
  0
TABLE
  2
APPID
 70
    11
  0
APPID
  2
ACAD
 70
     0
  0
APPID
  2
DRAWINGVARIABLESXDATA
 70
     0
  0
APPID
  2
CONTENTTABDATA
 70
     0
  0
APPID
  2
CONTENTCURRENTTAB
 70
     0
  0
APPID
  2
CONTENTBLOCKDESCRIPTION
 70
     0
  0
APPID
  2
CONTENTBLOCKICON
 70
     0
  0
APPID
  2
CONTENTLONGBLOCKNAME
 70
     0
  0
APPID
  2
ACAD_PSEXT
 70
     0
  0
APPID
  2
ACAD_DSTYLE_DIMTEXT_FILL
 70
     0
  0
APPID
  2
ACAD_MLEADERVER
 70
     0
  0
APPID
  2
ACAD_DSTYLE_DIMRADIAL_EXTENSION
 70
     0
  0
ENDTAB
  0
TABLE
  2
DIMSTYLE
 70
     9
  0
DIMSTYLE
  2
NEWX10
 70
     0
  3
 
  4

  5

  6
OPEN30
  7
OPEN30
 40
1.0
 41
2.0
 42
0.0
 43
7.0
 44
1.0
 45
0.0
 46
0.0
 47
0.0
 48
0.0
140
3.5
141
0.0
142
0.0
143
25.399999999999999
144
1.0
145
0.0
146
0.7
147
0.7
 71
     0
 72
     0
 73
     0
 74
     0
 75
     0
 76
     0
 77
     1
 78
     8
170
     0
171
     2
172
     1
173
     1
174
     0
175
     0
176
   256
177
   256
178
   201
  0
ENDTAB
  0
ENDSEC
  0
SECTION
  2
BLOCKS
  0
BLOCK
  8
0
  2
$MODEL_SPACE
 70
     0
 10
0.0
 20
0.0
 30
0.0
  3
$MODEL_SPACE
  1

  0
ENDBLK
  5
1A
  8
0
  0
BLOCK
 67
     1
  8
0
  2
$PAPER_SPACE
 70
     0
 10
0.0
 20
0.0
 30
0.0
  3
$PAPER_SPACE
  1

  0
ENDBLK
  5
17
 67
     1
  8
0
  0
BLOCK
  8
0
  2
_OPEN30
 70
     0
 10
0.0
 20
0.0
 30
0.0
  3
_OPEN30
  1

  0
LINE
  5
44
  8
0
  6
BYBLOCK
 62
     0
 10
-1.0
 20
0.26794919
 30
0.0
 11
0.0
 21
0.0
 31
0.0
  0
LINE
  5
45
  8
0
  6
BYBLOCK
 62
     0
 10
0.0
 20
0.0
 30
0.0
 11
-1.0
 21
-0.26794919
 31
0.0
  0
LINE
  5
46
  8
0
  6
BYBLOCK
 62
     0
 10
0.0
 20
0.0
 30
0.0
 11
-1.0
 21
0.0
 31
0.0
  0
ENDBLK
  5
47
  8
0
  0
BLOCK
  8
0
  2
*U141
 70
     1
 10
0.0
 20
0.0
 30
0.0
  3
*U141
  1

  0
ARC
  5
19D97
  8
0
 10
1.09999534641318
 20
-2.0
 30
0.0
 40
1.5
 50
270.0
 51
359.99986668447059
  0
LINE
  5
19D98
  8
0
 10
2.5999953464091159
 20
-2.0000034901923982
 30
0.0
 11
2.6000046535887118
 21
1.9999965098076009
 31
0.0
  0
LINE
  5
19D99
  8
0
 10
-0.0000081437821393
 20
-3.4999999999998859
 30
0.0
 11
1.09999534641318
 21
-3.5
 31
0.0
  0
ARC
  5
19D9A
  8
0
 10
1.1000046535927761
 20
2.0
 30
0.0
 40
1.5
 50
359.99986668447059
 51
90.0
  0
LINE
  5
19D9B
  8
0
 10
-0.0000081437821393
 20
-3.4999999999998859
 30
0.0
 11
-0.0000034900840546
 21
-1.499953464101736
 31
0.0
  0
LINE
  5
19D9C
  8
0
 10
0.0000081437821393
 20
3.5
 30
0.0
 11
1.1000046535927761
 21
3.5
 31
0.0
  0
LINE
  5
19D9D
  8
0
 10
-34.700003489975927
 20
-1.4999534641020771
 30
0.0
 11
-0.0000034900840546
 21
-1.499953464101736
 31
0.0
  0
LINE
  5
19D9E
  8
0
 10
0.0000034903006281
 20
1.500046535897922
 30
0.0
 11
0.0000081437821393
 21
3.5
 31
0.0
  0
LINE
  5
19D9F
  8
0
 10
-39.999999999837598
 20
0.0000465358979227
 30
0.0
 11
-34.700003489975927
 21
-1.4999534641020771
 31
0.0
  0
LINE
  5
19DA0
  8
0
 10
-34.699996509592303
 20
1.5000465358980359
 30
0.0
 11
0.0000034903006281
 21
1.500046535897922
 31
0.0
  0
LINE
  5
19DA1
  8
0
 10
-39.999999999837598
 20
0.0000465358979227
 30
0.0
 11
-34.699996509592303
 21
1.5000465358980359
 31
0.0
  0
ENDBLK
  5
19DA3
  8
0
  0
BLOCK
  8
0
  2
*U142
 70
     1
 10
0.0
 20
0.0
 30
0.0
  3
*U142
  1

  0
LINE
  5
19DA5
  8
0
 10
3.0
 20
2.7525227000002128
 30
0.0
 11
3.9999999999999432
 21
5.5000000000001128
 31
0.0
  0
LINE
  5
19DA6
  8
0
 10
3.9999999999999432
 20
5.5000000000001128
 30
0.0
 11
-4.0
 21
5.5
 31
0.0
  0
LINE
  5
19DA7
  8
0
 10
3.0
 20
-1.9999999999998861
 30
0.0
 11
3.0
 21
2.7525227000002128
 31
0.0
  0
LINE
  5
19DA8
  8
0
 10
-4.0
 20
5.5
 30
0.0
 11
-3.0
 21
2.752522699999985
 31
0.0
  0
LINE
  5
19DA9
  8
0
 10
2.25
 20
-1.9999999999998861
 30
0.0
 11
3.0
 21
-1.9999999999998861
 31
0.0
  0
LINE
  5
19DAA
  8
0
 10
-3.0
 20
2.752522699999985
 30
0.0
 11
-3.0
 21
-1.9999999999998861
 31
0.0
  0
LINE
  5
19DAB
  8
0
 10
2.25
 20
-9.2990375137529782
 30
0.0
 11
2.25
 21
-1.9999999999998861
 31
0.0
  0
LINE
  5
19DAC
  8
0
 10
-3.0
 20
-1.9999999999998861
 30
0.0
 11
-2.25
 21
-2.0
 31
0.0
  0
LINE
  5
19DAD
  8
0
 10
5.8839740999999322
 20
-3.0048093999998851
 30
0.0
 11
2.25
 21
-9.2990375137529782
 31
0.0
  0
LINE
  5
19DAE
  8
0
 10
-2.25
 20
-2.0
 30
0.0
 11
-2.2499999999999432
 21
-9.2990375137529782
 31
0.0
  0
LINE
  5
19DAF
  8
0
 10
6.7499994999998867
 20
-3.0048093999998851
 30
0.0
 11
5.8839740999999322
 21
-3.0048093999998851
 31
0.0
  0
LINE
  5
19DB0
  8
0
 10
-2.2499999999999432
 20
-9.2990375137529782
 30
0.0
 11
-5.8839741000000449
 21
-3.0048093999997709
 31
0.0
  0
LINE
  5
19DB1
  8
0
 10
3.0
 20
-9.4999991339743701
 30
0.0
 11
6.7499994999998867
 21
-3.0048093999998851
 31
0.0
  0
LINE
  5
19DB2
  8
0
 10
-5.8839741000000449
 20
-3.0048093999997709
 30
0.0
 11
-6.7499995000000581
 21
-3.0048093999998851
 31
0.0
  0
LINE
  5
19DB3
  8
0
 10
3.0
 20
-22.99999930000002
 30
0.0
 11
3.0
 21
-9.4999991339743701
 31
0.0
  0
LINE
  5
19DB4
  8
0
 10
-6.7499995000000581
 20
-3.0048093999998851
 30
0.0
 11
-3.0
 21
-9.4999991339744838
 31
0.0
  0
LINE
  5
19DB5
  8
0
 10
1.4999989000000931
 20
-24.49999999999989
 30
0.0
 11
3.0
 21
-22.99999930000002
 31
0.0
  0
LINE
  5
19DB6
  8
0
 10
-3.0
 20
-9.4999991339744838
 30
0.0
 11
-3.0
 21
-22.99999930000002
 31
0.0
  0
LINE
  5
19DB7
  8
0
 10
-1.49999889999998
 20
-24.49999999999989
 30
0.0
 11
1.4999989000000931
 21
-24.49999999999989
 31
0.0
  0
LINE
  5
19DB8
  8
0
 10
-3.0
 20
-22.99999930000002
 30
0.0
 11
-1.49999889999998
 21
-24.49999999999989
 31
0.0
  0
ENDBLK
  5
19DBA
  8
0
  0
BLOCK
  8
0
  2
*U143
 70
     1
 10
0.0
 20
0.0
 30
0.0
  3
*U143
  1

  0
TEXT
  5
19DBC
  8
1DIM
 62
   201
 10
2402.1691419470399
 20
-1956.071094004714
 30
0.0
 40
3.5
  1
132
  0
ENDBLK
  5
19DBE
  8
0
  0
BLOCK
  8
0
  2
*U144
 70
     1
 10
0.0
 20
0.0
 30
0.0
  3
*U144
  1

  0
TEXT
  5
19DC0
  8
1DIM
 62
   201
 10
2402.4608086137082
 20
-1909.0910861679929
 30
0.0
 40
3.5
  1
120
  0
ENDBLK
  5
19DC2
  8
0
  0
BLOCK
  8
0
  2
*U145
 70
     1
 10
0.0
 20
0.0
 30
0.0
  3
*U145
  1

  0
TEXT
  5
19DC4
  8
1DIM
 62
   201
 10
2485.9524752803741
 20
-1992.531664171875
 30
0.0
 40
3.5
  1
3
  0
ENDBLK
  5
19DC6
  8
0
  0
BLOCK
  8
0
  2
*U146
 70
     1
 10
0.0
 20
0.0
 30
0.0
  3
*U146
  1

  0
TEXT
  5
19DC8
  8
1DIM
 62
   201
 10
2469.9191419470399
 20
-1992.531664171875
 30
0.0
 40
3.5
  1
12
  0
ENDBLK
  5
19DCA
  8
0
  0
BLOCK
  8
0
  2
*U147
 70
     1
 10
0.0
 20
0.0
 30
0.0
  3
*U147
  1

  0
TEXT
  5
19DCC
  8
1DIM
 62
   201
 10
2564.286813082223
 20
-1980.733622694192
 30
0.0
 40
3.5
  1
21.25
 50
90.0
  0
ENDBLK
  5
19DCE
  8
0
  0
BLOCK
  8
0
  2
*U148
 70
     1
 10
0.0
 20
0.0
 30
0.0
  3
*U148
  1

  0
TEXT
  5
19DD0
  8
1DIM
 62
   201
 10
2500.506005176208
 20
-1968.358622694192
 30
0.0
 40
3.5
  1
7
 50
90.0
  0
ENDBLK
  5
19DD2
  8
0
  0
BLOCK
  8
0
  2
*U149
 70
     1
 10
0.0
 20
0.0
 30
0.0
  3
*U149
  1

  0
TEXT
  5
19DD4
  8
1DIM
 62
   201
 10
2471.4191419470399
 20
-1893.655252324209
 30
0.0
 40
3.5
  1
15
  0
ENDBLK
  5
19DD6
  8
0
  0
BLOCK
  8
0
  2
*U150
 70
     1
 10
0.0
 20
0.0
 30
0.0
  3
*U150
  1

  0
TEXT
  5
19DD8
  8
1DIM
 62
   201
 10
2402.4608086137082
 20
-1887.8262159033179
 30
0.0
 40
3.5
  1
150
  0
ENDBLK
  5
19DDA
  8
0
  0
BLOCK
  8
0
  2
*U151
 70
     1
 10
0.0
 20
0.0
 30
0.0
  3
*U151
  1

  0
TEXT
  5
19DDC
  8
1DIM
 62
   201
 10
2469.9191419470399
 20
-2184.5784077830699
 30
0.0
 40
3.5
  1
12
  0
ENDBLK
  5
19DDE
  8
0
  0
BLOCK
  8
0
  2
*U152
 70
     1
 10
0.0
 20
0.0
 30
0.0
  3
*U152
  1

  0
TEXT
  5
19DE0
  8
1DIM
 62
   201
 10
2471.4191419470399
 20
-2085.7019959354052
 30
0.0
 40
3.5
  1
15
  0
ENDBLK
  5
19DE2
  8
0
  0
BLOCK
  8
0
  2
*U153
 70
     1
 10
0.0
 20
0.0
 30
0.0
  3
*U153
  1

  0
TEXT
  5
19DE4
  8
1DIM
 62
   201
 10
2564.286813082223
 20
-2172.7803663053869
 30
0.0
 40
3.5
  1
21.25
 50
90.0
  0
ENDBLK
  5
19DE6
  8
0
  0
BLOCK
  8
0
  2
*U154
 70
     1
 10
0.0
 20
0.0
 30
0.0
  3
*U154
  1

  0
TEXT
  5
19DE8
  8
1DIM
 62
   201
 10
2528.8881549782741
 20
-2147.7819233521382
 30
0.0
 40
3.5
  1
45
  0
ENDBLK
  5
19DEA
  8
0
  0
BLOCK
  8
0
  2
*U155
 70
     1
 10
0.0
 20
0.0
 30
0.0
  3
*U155
  1

  0
TEXT
  5
19DEC
  8
1DIM
 62
   201
 10
2500.506005176208
 20
-2160.4053663053878
 30
0.0
 40
3.5
  1
7
 50
90.0
  0
ENDBLK
  5
19DEE
  8
0
  0
BLOCK
  8
0
  2
*U156
 70
     1
 10
0.0
 20
0.0
 30
0.0
  3
*U156
  1

  0
TEXT
  5
19DF0
  8
1DIM
 62
   201
 10
2402.1691419470399
 20
-2148.11783761591
 30
0.0
 40
3.5
  1
132
  0
ENDBLK
  5
19DF2
  8
0
  0
BLOCK
  8
0
  2
*U157
 70
     1
 10
0.0
 20
0.0
 30
0.0
  3
*U157
  1

  0
TEXT
  5
19DF4
  8
1DIM
 62
   201
 10
2402.4608086137082
 20
-2101.137829779188
 30
0.0
 40
3.5
  1
120
  0
ENDBLK
  5
19DF6
  8
0
  0
BLOCK
  8
0
  2
*U158
 70
     1
 10
0.0
 20
0.0
 30
0.0
  3
*U158
  1

  0
TEXT
  5
19DF8
  8
1DIM
 62
   201
 10
2402.4608086137082
 20
-2079.8729595145142
 30
0.0
 40
3.5
  1
150
  0
ENDBLK
  5
19DFA
  8
0
  0
BLOCK
  8
0
  2
*U159
 70
     1
 10
0.0
 20
0.0
 30
0.0
  3
*U159
  1

  0
TEXT
  5
19DFC
  8
1DIM
 62
   201
 10
2485.9524752803741
 20
-2184.5784077830699
 30
0.0
 40
3.5
  1
3
  0
ENDBLK
  5
19DFE
  8
0
  0
BLOCK
  8
0
  2
*U160
 70
     1
 10
0.0
 20
0.0
 30
0.0
  3
*U160
  1

  0
TEXT
  5
19E00
  8
1DIM
 62
   201
 10
2529.8881549782732
 20
-1957.279644674843
 30
0.0
 40
3.5
  1
43
  0
ENDBLK
  5
19E02
  8
0
  0
BLOCK
  8
0
  2
*U161
 70
     1
 10
0.0
 20
0.0
 30
0.0
  3
*U161
  1

  0
TEXT
  5
19E04
  8
1DIM
 62
   201
 10
2454.5922817682581
 20
-1919.265507656354
 30
0.0
 40
3.5
  1
33
 50
90.0
  0
ENDBLK
  5
19E06
  8
0
  0
BLOCK
  8
0
  2
*U162
 70
     1
 10
0.0
 20
0.0
 30
0.0
  3
*U162
  1

  0
TEXT
  5
19E08
  8
1DIM
 62
   201
 10
1206.965919583163
 20
-3525.359137578223
 30
0.0
 40
3.5
  1
43
 50
90.0
  0
ENDBLK
  5
19E0A
  8
0
  0
BLOCK
  8
0
  2
*U163
 70
     1
 10
0.0
 20
0.0
 30
0.0
  3
*U163
  1

  0
TEXT
  5
19E0C
  8
1DIM
 62
   201
 10
1199.546059141833
 20
-3530.359137578223
 30
0.0
 40
3.5
  1
33
 50
90.0
  0
ENDBLK
  5
19E0E
  8
0
  0
BLOCK
  8
0
  2
*U164
 70
     1
 10
0.0
 20
0.0
 30
0.0
  3
*U164
  1

  0
TEXT
  5
19E10
  8
1DIM
 62
   201
 10
1201.3947347171461
 20
-3440.2306849791321
 30
0.0
 40
3.5
  1
7
 50
90.0
  0
ENDBLK
  5
19E12
  8
0
  0
BLOCK
  8
0
  2
*U165
 70
     1
 10
0.0
 20
0.0
 30
0.0
  3
*U165
  1

  0
TEXT
  5
19E14
  8
1DIM
 62
   201
 10
1208.8169830625429
 20
-3452.6056849791321
 30
0.0
 40
3.5
  1
21.25
 50
90.0
  0
ENDBLK
  5
19E16
  8
0
  0
BLOCK
  8
0
  2
*U166
 70
     1
 10
0.0
 20
0.0
 30
0.0
  3
*U166
  1

  0
TEXT
  5
19E18
  8
1DIM
 62
   201
 10
1158.411795899651
 20
-3460.618453804881
 30
0.0
 40
3.5
  1
12.25
  0
ENDBLK
  5
19E1A
  8
0
  0
BLOCK
  8
0
  2
*U167
 70
     1
 10
0.0
 20
0.0
 30
0.0
  3
*U167
  1

  0
TEXT
  5
19E1C
  8
1DIM
 62
   201
 10
971.88444953508485
 20
-3460.0836030631558
 30
0.0
 40
3.5
  1
0.5
  0
ENDBLK
  5
19E1E
  8
0
  0
BLOCK
  8
0
  2
*U168
 70
     1
 10
0.0
 20
0.0
 30
0.0
  3
*U168
  1

  0
TEXT
  5
19E20
  8
1DIM
 62
   201
 10
976.30944953508481
 20
-3465.9764646837648
 30
0.0
 40
3.5
  1
26
  0
ENDBLK
  5
19E22
  8
0
  0
BLOCK
  8
0
  2
*U169
 70
     1
 10
0.0
 20
0.0
 30
0.0
  3
*U169
  1

  0
TEXT
  5
19E24
  8
1DIM
 62
   201
 10
1107.861795899651
 20
-3462.978721802157
 30
0.0
 40
3.5
  1
144.5
  0
ENDBLK
  5
19E26
  8
0
  0
BLOCK
  8
0
  2
*U170
 70
     1
 10
0.0
 20
0.0
 30
0.0
  3
*U170
  1

  0
TEXT
  5
19E28
  8
1DIM
 62
   201
 10
1196.44848844173
 20
-3576.4194897347352
 30
0.0
 40
3.5
  1
3
 50
90.0
  0
ENDBLK
  5
19E2A
  8
0
  0
BLOCK
  8
0
  2
*U171
 70
     1
 10
0.0
 20
0.0
 30
0.0
  3
*U171
  1

  0
TEXT
  5
19E2C
  8
1DIM
 62
   201
 10
1180.028462566318
 20
-3596.926138216128
 30
0.0
 40
3.5
  1
11
  0
ENDBLK
  5
19E2E
  8
0
  0
BLOCK
  8
0
  2
*U172
 70
     1
 10
0.0
 20
0.0
 30
0.0
  3
*U172
  1

  0
TEXT
  5
19E30
  8
1DIM
 62
   201
 10
1012.553471286412
 20
-3461.3891011196251
 30
0.0
 40
3.5
  1
4-R0.5 
 50
38.473094427907192
  0
TEXT
  5
19E31
  8
1DIM
 62
   201
 10
1027.012210237199
 20
-3447.1423395516322
 30
0.0
 40
2.4500000000000002
  1
+0.5 
 50
38.473094427907192
  0
TEXT
  5
19E32
  8
1DIM
 62
   201
 10
1029.0445573077311
 20
-3449.6998141841582
 30
0.0
 40
2.4500000000000002
  1
 0 
 50
38.473094427907192
  0
ENDBLK
  5
19E34
  8
0
  0
BLOCK
  8
0
  2
*U173
 70
     1
 10
0.0
 20
0.0
 30
0.0
  3
*U173
  1

  0
TEXT
  5
19E36
  8
1DIM
 62
   201
 10
1014.469682998822
 20
-3434.2197000394899
 30
0.0
 40
3.5
  1
4-R0.5
 50
11.13876073523442
  0
ENDBLK
  5
19E38
  8
0
  0
BLOCK
  8
0
  2
*U174
 70
     1
 10
0.0
 20
0.0
 30
0.0
  3
*U174
  1

  0
TEXT
  5
19E3A
  8
1DIM
 62
   201
 10
1060.773798722372
 20
-3517.6700256758299
 30
0.0
 40
3.5
  1
2-R2
 50
307.39786418376258
  0
ENDBLK
  5
19E3C
  8
0
  0
BLOCK
  8
0
  2
*U175
 70
     1
 10
0.0
 20
0.0
 30
0.0
  3
*U175
  1

  0
TEXT
  5
19E3E
  8
1DIM
 62
   201
 10
1058.4402425315291
 20
-3589.4480504304011
 30
0.0
 40
3.5
  1
2-R0.5
 50
313.94130969238131
  0
ENDBLK
  5
19E40
  8
0
  0
BLOCK
  8
0
  2
*U176
 70
     1
 10
0.0
 20
0.0
 30
0.0
  3
*U176
  1

  0
TEXT
  5
19E42
  8
1DIM
 62
   201
 10
1201.3947347171461
 20
-3471.226077251245
 30
0.0
 40
3.5
  1
4.25
 50
90.0
  0
ENDBLK
  5
19E44
  8
0
  0
BLOCK
  8
0
  2
*U177
 70
     1
 10
0.0
 20
0.0
 30
0.0
  3
*U177
  1

  0
TEXT
  5
19E46
  8
1DIM
 62
   201
 10
1103.5020426344161
 20
-3516.7409122446829
 30
0.0
 40
3.5
  1
5
 50
90.0
  0
ENDBLK
  5
19E48
  8
0
  0
BLOCK
  8
0
  2
*U178
 70
     1
 10
0.0
 20
0.0
 30
0.0
  3
*U178
  1

  0
TEXT
  5
19E4A
  8
1DIM
 62
   201
 10
1032.767135525716
 20
-3477.0504169997389
 30
0.0
 40
3.5
  1
2-R0.5
 50
66.542258845715367
  0
ENDBLK
  5
19E4C
  8
0
  0
BLOCK
  8
0
  2
*U179
 70
     1
 10
0.0
 20
0.0
 30
0.0
  3
*U179
  1

  0
TEXT
  5
19E4E
  8
1DIM
 62
   201
 10
1031.4757121408479
 20
-3463.6607157417702
 30
0.0
 40
3.5
  1
2-R0.5
 50
65.734332273485634
  0
ENDBLK
  5
19E50
  8
0
  0
BLOCK
  8
0
  2
*U180
 70
     1
 10
0.0
 20
0.0
 30
0.0
  3
*U180
  1

  0
TEXT
  5
19E52
  8
1DIM
 62
   201
 10
1011.9975646494501
 20
-3484.1654702849619
 30
0.0
 40
3.5
  1
2-R1.5 
 50
330.62323856743512
  0
TEXT
  5
19E53
  8
1DIM
 62
   201
 10
1030.136027598413
 20
-3491.899457912757
 30
0.0
 40
2.4500000000000002
  1
+0.5 
 50
330.62323856743512
  0
TEXT
  5
19E54
  8
1DIM
 62
   201
 10
1028.5335630954171
 20
-3494.746073206004
 30
0.0
 40
2.4500000000000002
  1
 0 
 50
330.62323856743512
  0
ENDBLK
  5
19E56
  8
0
  0
BLOCK
  8
0
  2
*U181
 70
     1
 10
0.0
 20
0.0
 30
0.0
  3
*U181
  1

  0
TEXT
  5
19E58
  8
1DIM
 62
   201
 10
1202.070184243142
 20
-3593.1528230680678
 30
0.0
 40
3.5
  1
2
 50
90.0
  0
ENDBLK
  5
19E5A
  8
0
  0
BLOCK
  8
0
  2
*U182
 70
     1
 10
0.0
 20
0.0
 30
0.0
  3
*U182
  1

  0
TEXT
  5
19E5C
  8
1DIM
 62
   201
 10
1193.9784625663169
 20
-3596.926138216128
 30
0.0
 40
3.5
  1
2
  0
ENDBLK
  5
19E5E
  8
0
  0
BLOCK
  8
0
  2
*U183
 70
     1
 10
0.0
 20
0.0
 30
0.0
  3
*U183
  1

  0
TEXT
  5
19E60
  8
1DIM
 62
   201
 10
1167.2451292329829
 20
-3562.1706643353368
 30
0.0
 40
3.5
  1
2
  0
ENDBLK
  5
19E62
  8
0
  0
BLOCK
  8
0
  2
*U184
 70
     1
 10
0.0
 20
0.0
 30
0.0
  3
*U184
  1

  0
TEXT
  5
19E64
  8
1DIM
 62
   201
 10
1191.2284625663181
 20
-3555.8381732245989
 30
0.0
 40
3.5
  1
2
  0
ENDBLK
  5
19E66
  8
0
  0
BLOCK
  8
0
  2
*U185
 70
     1
 10
0.0
 20
0.0
 30
0.0
  3
*U185
  1

  0
TEXT
  5
19E68
  8
1DIM
 62
   201
 10
1199.72487938019
 20
-3560.1694897347352
 30
0.0
 40
3.5
  1
2
 50
90.0
  0
ENDBLK
  5
19E6A
  8
0
  0
BLOCK
  8
0
  2
*U186
 70
     1
 10
0.0
 20
0.0
 30
0.0
  3
*U186
  1

  0
TEXT
  5
19E6C
  8
1DIM
 62
   201
 10
1161.0453176465001
 20
-3591.5754250931209
 30
0.0
 40
3.5
  1
R1
 50
29.707015685425489
  0
ENDBLK
  5
19E6E
  8
0
  0
BLOCK
  8
0
  2
*U187
 70
     1
 10
0.0
 20
0.0
 30
0.0
  3
*U187
  1

  0
TEXT
  5
19E70
  8
1DIM
 62
   201
 10
1174.7105685977881
 20
-3555.5083990880262
 30
0.0
 40
3.5
  1
R5
 50
289.37845006860613
  0
ENDBLK
  5
19E72
  8
0
  0
BLOCK
  8
0
  2
*U188
 70
     1
 10
0.0
 20
0.0
 30
0.0
  3
*U188
  1

  0
TEXT
  5
19E74
  8
1DIM
 62
   201
 10
1241.917418111607
 20
-3465.3806849791322
 30
0.0
 40
3.5
  1
φ4.5
 50
90.0
  0
ENDBLK
  5
19E76
  8
0
  0
BLOCK
  8
0
  2
*U189
 70
     1
 10
0.0
 20
0.0
 30
0.0
  3
*U189
  1

  0
TEXT
  5
19E78
  8
1DIM
 62
   201
 10
1282.3600893471671
 20
-3459.2973516457978
 30
0.0
 40
3.5
  1
φ6
 50
90.0
  0
ENDBLK
  5
19E7A
  8
0
  0
BLOCK
  8
0
  2
*U190
 70
     1
 10
0.0
 20
0.0
 30
0.0
  3
*U190
  1

  0
TEXT
  5
19E7C
  8
1DIM
 62
   201
 10
1267.5604733914131
 20
-3474.111233363848
 30
0.0
 40
3.5
  1
7
  0
ENDBLK
  5
19E7E
  8
0
  0
BLOCK
  8
0
  2
*U191
 70
     1
 10
0.0
 20
0.0
 30
0.0
  3
*U191
  1

  0
TEXT
  5
19E80
  8
1DIM
 62
   201
 10
1277.5435065875861
 20
-3434.2472181586791
 30
0.0
 40
3.5
  1
5
  0
ENDBLK
  5
19E82
  8
0
  0
BLOCK
  8
0
  2
*U192
 70
     1
 10
0.0
 20
0.0
 30
0.0
  3
*U192
  1

  0
TEXT
  5
19E84
  8
1DIM
 62
   201
 10
1188.4184214676191
 20
-3451.0343296737819
 30
0.0
 40
3.5
  1
R4
 50
326.48365491970742
  0
ENDBLK
  5
19E86
  8
0
  0
BLOCK
  8
0
  2
*U193
 70
     1
 10
0.0
 20
0.0
 30
0.0
  3
*U193
  1

  0
TEXT
  5
19E88
  8
1DIM
 62
   201
 10
1110.486795899652
 20
-3540.8512055731262
 30
0.0
 40
3.5
  1
120
  0
ENDBLK
  5
19E8A
  8
0
  0
BLOCK
  8
0
  2
*U194
 70
     1
 10
0.0
 20
0.0
 30
0.0
  3
*U194
  1

  0
TEXT
  5
19E8C
  8
1DIM
 62
   201
 10
1110.486795899652
 20
-3549.3209492121318
 30
0.0
 40
3.5
  1
150
  0
ENDBLK
  5
19E8E
  8
0
  0
BLOCK
  8
0
  2
*U195
 70
     1
 10
0.0
 20
0.0
 30
0.0
  3
*U195
  1

  0
TEXT
  5
19E90
  8
1DIM
 62
   201
 10
1276.927140058079
 20
-3466.852476710741
 30
0.0
 40
3.5
  1
3
  0
ENDBLK
  5
19E92
  8
0
  0
BLOCK
  8
0
  2
*U196
 70
     1
 10
0.0
 20
0.0
 30
0.0
  3
*U196
  1

  0
TEXT
  5
19E94
  8
1DIM
 62
   201
 10
1059.9099241942311
 20
-3491.6622144838238
 30
0.0
 40
3.5
  1
R4
 50
329.22594279494109
  0
ENDBLK
  5
19E96
  8
0
  0
BLOCK
  8
0
  2
*U197
 70
     1
 10
0.0
 20
0.0
 30
0.0
  3
*U197
  1

  0
TEXT
  5
19E98
  8
1DIM
 62
   201
 10
1110.1951292329841
 20
-3421.0286674168569
 30
0.0
 40
3.5
  1
133
  0
ENDBLK
  5
19E9A
  8
0
  0
BLOCK
  8
0
  2
*U198
 70
     1
 10
0.0
 20
0.0
 30
0.0
  3
*U198
  1

  0
TEXT
  5
19E9C
  8
1DIM
 62
   201
 10
1044.161795899649
 20
-3506.1811329007269
 30
0.0
 40
3.5
  1
φ8
  0
ENDBLK
  5
19E9E
  8
0
  0
BLOCK
  8
0
  2
*U199
 70
     1
 10
0.0
 20
0.0
 30
0.0
  3
*U199
  1

  0
TEXT
  5
19EA0
  8
1DIM
 62
   201
 10
1046.4103242534841
 20
-3511.0837671461409
 30
0.0
 40
3.5
  1
φ8
 50
355.00000000000028
  0
ENDBLK
  5
19EA2
  8
0
  0
BLOCK
  8
0
  2
*U200
 70
     1
 10
0.0
 20
0.0
 30
0.0
  3
*U200
  1

  0
TEXT
  5
19EA4
  8
1DIM
 62
   201
 10
1054.5097172343681
 20
-3533.2194642070281
 30
0.0
 40
3.5
  1
95°
 50
325.33948963054371
  0
ENDBLK
  5
19EA6
  8
0
  0
BLOCK
  8
0
  2
*U201
 70
     1
 10
0.0
 20
0.0
 30
0.0
  3
*U201
  1

  0
TEXT
  5
19EA8
  8
1DIM
 62
   201
 10
1168.97706217214
 20
-3595.7822664790619
 30
0.0
 40
3.5
  1
R5
 50
62.233765675347641
  0
ENDBLK
  5
19EAA
  8
0
  0
BLOCK
  8
0
  2
*U202
 70
     1
 10
0.0
 20
0.0
 30
0.0
  3
*U202
  1

  0
TEXT
  5
19EAC
  8
1DIM
 62
   201
 10
1172.531994614596
 20
-3602.9388149672309
 30
0.0
 40
3.5
  1
R6
 50
74.998823774217115
  0
ENDBLK
  5
19EAE
  8
0
  0
BLOCK
  8
0
  2
*U203
 70
     1
 10
0.0
 20
0.0
 30
0.0
  3
*U203
  1

  0
TEXT
  5
19EB0
  8
1DIM
 62
   201
 10
1265.1854733914131
 20
-3432.5700204992982
 30
0.0
 40
3.5
  1
10
  0
ENDBLK
  5
19EB2
  8
0
  0
BLOCK
  8
0
  2
*U204
 70
     1
 10
0.0
 20
0.0
 30
0.0
  3
*U204
  1

  0
TEXT
  5
19EB4
  8
1DIM
 62
   201
 10
2899.2577760336681
 20
-1991.1637478098021
 30
0.0
 40
3.5
  1
43
 50
90.0
  0
ENDBLK
  5
19EB6
  8
0
  0
BLOCK
  8
0
  2
*U205
 70
     1
 10
0.0
 20
0.0
 30
0.0
  3
*U205
  1

  0
TEXT
  5
19EB8
  8
1DIM
 62
   201
 10
2891.837915592338
 20
-1996.1637478098021
 30
0.0
 40
3.5
  1
33
 50
90.0
  0
ENDBLK
  5
19EBA
  8
0
  0
BLOCK
  8
0
  2
*U206
 70
     1
 10
0.0
 20
0.0
 30
0.0
  3
*U206
  1

  0
TEXT
  5
19EBC
  8
1DIM
 62
   201
 10
2893.68659116765
 20
-1906.035295210711
 30
0.0
 40
3.5
  1
7
 50
90.0
  0
ENDBLK
  5
19EBE
  8
0
  0
BLOCK
  8
0
  2
*U207
 70
     1
 10
0.0
 20
0.0
 30
0.0
  3
*U207
  1

  0
TEXT
  5
19EC0
  8
1DIM
 62
   201
 10
2901.1088395130469
 20
-1918.410295210711
 30
0.0
 40
3.5
  1
21.25
 50
90.0
  0
ENDBLK
  5
19EC2
  8
0
  0
BLOCK
  8
0
  2
*U208
 70
     1
 10
0.0
 20
0.0
 30
0.0
  3
*U208
  1

  0
TEXT
  5
19EC4
  8
1DIM
 62
   201
 10
2850.7036523501552
 20
-1926.4230640364599
 30
0.0
 40
3.5
  1
12.25
  0
ENDBLK
  5
19EC6
  8
0
  0
BLOCK
  8
0
  2
*U209
 70
     1
 10
0.0
 20
0.0
 30
0.0
  3
*U209
  1

  0
TEXT
  5
19EC8
  8
1DIM
 62
   201
 10
2664.1763059855889
 20
-1925.8882132947349
 30
0.0
 40
3.5
  1
0.5
  0
ENDBLK
  5
19ECA
  8
0
  0
BLOCK
  8
0
  2
*U210
 70
     1
 10
0.0
 20
0.0
 30
0.0
  3
*U210
  1

  0
TEXT
  5
19ECC
  8
1DIM
 62
   201
 10
2668.6013059855891
 20
-1931.781074915345
 30
0.0
 40
3.5
  1
26
  0
ENDBLK
  5
19ECE
  8
0
  0
BLOCK
  8
0
  2
*U211
 70
     1
 10
0.0
 20
0.0
 30
0.0
  3
*U211
  1

  0
TEXT
  5
19ED0
  8
1DIM
 62
   201
 10
2800.153652350155
 20
-1928.7833320337361
 30
0.0
 40
3.5
  1
144.5
  0
ENDBLK
  5
19ED2
  8
0
  0
BLOCK
  8
0
  2
*U212
 70
     1
 10
0.0
 20
0.0
 30
0.0
  3
*U212
  1

  0
TEXT
  5
19ED4
  8
1DIM
 62
   201
 10
2888.740344892235
 20
-2042.224099966315
 30
0.0
 40
3.5
  1
3
 50
90.0
  0
ENDBLK
  5
19ED6
  8
0
  0
BLOCK
  8
0
  2
*U213
 70
     1
 10
0.0
 20
0.0
 30
0.0
  3
*U213
  1

  0
TEXT
  5
19ED8
  8
1DIM
 62
   201
 10
2872.3203190168219
 20
-2062.7307484477078
 30
0.0
 40
3.5
  1
11
  0
ENDBLK
  5
19EDA
  8
0
  0
BLOCK
  8
0
  2
*U214
 70
     1
 10
0.0
 20
0.0
 30
0.0
  3
*U214
  1

  0
TEXT
  5
19EDC
  8
1DIM
 62
   201
 10
2704.2972974585132
 20
-1927.6292142948821
 30
0.0
 40
3.5
  1
4-R0.5 
 50
38.473094427891041
  0
TEXT
  5
19EDD
  8
1DIM
 62
   201
 10
2718.7560364093029
 20
-1913.3824527268939
 30
0.0
 40
2.4500000000000002
  1
+0.5 
 50
38.473094427891041
  0
TEXT
  5
19EDE
  8
1DIM
 62
   201
 10
2720.7883834798349
 20
-1915.9399273594199
 30
0.0
 40
2.4500000000000002
  1
 0 
 50
38.473094427891041
  0
ENDBLK
  5
19EE0
  8
0
  0
BLOCK
  8
0
  2
*U215
 70
     1
 10
0.0
 20
0.0
 30
0.0
  3
*U215
  1

  0
TEXT
  5
19EE2
  8
1DIM
 62
   201
 10
2706.7615394493259
 20
-1900.0243102710699
 30
0.0
 40
3.5
  1
4-R0.5
 50
11.138760735229329
  0
ENDBLK
  5
19EE4
  8
0
  0
BLOCK
  8
0
  2
*U216
 70
     1
 10
0.0
 20
0.0
 30
0.0
  3
*U216
  1

  0
TEXT
  5
19EE6
  8
1DIM
 62
   201
 10
2753.0656551728771
 20
-1983.474635907409
 30
0.0
 40
3.5
  1
2-R2
 50
307.39786418376258
  0
ENDBLK
  5
19EE8
  8
0
  0
BLOCK
  8
0
  2
*U217
 70
     1
 10
0.0
 20
0.0
 30
0.0
  3
*U217
  1

  0
TEXT
  5
19EEA
  8
1DIM
 62
   201
 10
2750.7320989820309
 20
-2055.2526606619831
 30
0.0
 40
3.5
  1
2-R0.5
 50
313.94130969234499
  0
ENDBLK
  5
19EEC
  8
0
  0
BLOCK
  8
0
  2
*U218
 70
     1
 10
0.0
 20
0.0
 30
0.0
  3
*U218
  1

  0
TEXT
  5
19EEE
  8
1DIM
 62
   201
 10
2893.68659116765
 20
-1937.0306874828241
 30
0.0
 40
3.5
  1
4.25
 50
90.0
  0
ENDBLK
  5
19EF0
  8
0
  0
BLOCK
  8
0
  2
*U219
 70
     1
 10
0.0
 20
0.0
 30
0.0
  3
*U219
  1

  0
TEXT
  5
19EF2
  8
1DIM
 62
   201
 10
2795.7938990849211
 20
-1982.5455224762629
 30
0.0
 40
3.5
  1
5
 50
90.0
  0
ENDBLK
  5
19EF4
  8
0
  0
BLOCK
  8
0
  2
*U220
 70
     1
 10
0.0
 20
0.0
 30
0.0
  3
*U220
  1

  0
TEXT
  5
19EF6
  8
1DIM
 62
   201
 10
2725.0589919761942
 20
-1942.8550272313071
 30
0.0
 40
3.5
  1
2-R0.5
 50
66.542258845643673
  0
ENDBLK
  5
19EF8
  8
0
  0
BLOCK
  8
0
  2
*U221
 70
     1
 10
0.0
 20
0.0
 30
0.0
  3
*U221
  1

  0
TEXT
  5
19EFA
  8
1DIM
 62
   201
 10
2723.767568591345
 20
-1929.4653259733459
 30
0.0
 40
3.5
  1
2-R0.5
 50
65.734332273464204
  0
ENDBLK
  5
19EFC
  8
0
  0
BLOCK
  8
0
  2
*U222
 70
     1
 10
0.0
 20
0.0
 30
0.0
  3
*U222
  1

  0
TEXT
  5
19EFE
  8
1DIM
 62
   201
 10
2703.679432108544
 20
-1949.6266952659
 30
0.0
 40
3.5
  1
2-R1.5 
 50
330.62323856743512
  0
TEXT
  5
19EFF
  8
1DIM
 62
   201
 10
2721.817895057507
 20
-1957.360682893695
 30
0.0
 40
2.4500000000000002
  1
+0.5 
 50
330.62323856743512
  0
TEXT
  5
19F00
  8
1DIM
 62
   201
 10
2720.2154305545109
 20
-1960.2072981869419
 30
0.0
 40
2.4500000000000002
  1
 0 
 50
330.62323856743512
  0
ENDBLK
  5
19F02
  8
0
  0
BLOCK
  8
0
  2
*U223
 70
     1
 10
0.0
 20
0.0
 30
0.0
  3
*U223
  1

  0
TEXT
  5
19F04
  8
1DIM
 62
   201
 10
2894.3620406936461
 20
-2058.9574332996481
 30
0.0
 40
3.5
  1
2
 50
90.0
  0
ENDBLK
  5
19F06
  8
0
  0
BLOCK
  8
0
  2
*U224
 70
     1
 10
0.0
 20
0.0
 30
0.0
  3
*U224
  1

  0
TEXT
  5
19F08
  8
1DIM
 62
   201
 10
2886.2703190168222
 20
-2062.7307484477078
 30
0.0
 40
3.5
  1
2
  0
ENDBLK
  5
19F0A
  8
0
  0
BLOCK
  8
0
  2
*U225
 70
     1
 10
0.0
 20
0.0
 30
0.0
  3
*U225
  1

  0
TEXT
  5
19F0C
  8
1DIM
 62
   201
 10
2859.5369856834882
 20
-2027.9752745669159
 30
0.0
 40
3.5
  1
2
  0
ENDBLK
  5
19F0E
  8
0
  0
BLOCK
  8
0
  2
*U226
 70
     1
 10
0.0
 20
0.0
 30
0.0
  3
*U226
  1

  0
TEXT
  5
19F10
  8
1DIM
 62
   201
 10
2883.5203190168222
 20
-2021.642783456178
 30
0.0
 40
3.5
  1
2
  0
ENDBLK
  5
19F12
  8
0
  0
BLOCK
  8
0
  2
*U227
 70
     1
 10
0.0
 20
0.0
 30
0.0
  3
*U227
  1

  0
TEXT
  5
19F14
  8
1DIM
 62
   201
 10
2892.016735830694
 20
-2025.974099966314
 30
0.0
 40
3.5
  1
2
 50
90.0
  0
ENDBLK
  5
19F16
  8
0
  0
BLOCK
  8
0
  2
*U228
 70
     1
 10
0.0
 20
0.0
 30
0.0
  3
*U228
  1

  0
TEXT
  5
19F18
  8
1DIM
 62
   201
 10
2853.3371740970028
 20
-2057.3800353247002
 30
0.0
 40
3.5
  1
R1
 50
29.707015685425489
  0
ENDBLK
  5
19F1A
  8
0
  0
BLOCK
  8
0
  2
*U229
 70
     1
 10
0.0
 20
0.0
 30
0.0
  3
*U229
  1

  0
TEXT
  5
19F1C
  8
1DIM
 62
   201
 10
2867.0024250482929
 20
-2021.313009319605
 30
0.0
 40
3.5
  1
R5
 50
289.37845006860363
  0
ENDBLK
  5
19F1E
  8
0
  0
BLOCK
  8
0
  2
*U230
 70
     1
 10
0.0
 20
0.0
 30
0.0
  3
*U230
  1

  0
TEXT
  5
19F20
  8
1DIM
 62
   201
 10
2974.6519457976719
 20
-1925.101961877378
 30
0.0
 40
3.5
  1
φ6
 50
90.0
  0
ENDBLK
  5
19F22
  8
0
  0
BLOCK
  8
0
  2
*U231
 70
     1
 10
0.0
 20
0.0
 30
0.0
  3
*U231
  1

  0
TEXT
  5
19F24
  8
1DIM
 62
   201
 10
2959.8523298419168
 20
-1939.9158435954271
 30
0.0
 40
3.5
  1
7
  0
ENDBLK
  5
19F26
  8
0
  0
BLOCK
  8
0
  2
*U232
 70
     1
 10
0.0
 20
0.0
 30
0.0
  3
*U232
  1

  0
TEXT
  5
19F28
  8
1DIM
 62
   201
 10
2969.8353630380898
 20
-1900.0518283902579
 30
0.0
 40
3.5
  1
5
  0
ENDBLK
  5
19F2A
  8
0
  0
BLOCK
  8
0
  2
*U233
 70
     1
 10
0.0
 20
0.0
 30
0.0
  3
*U233
  1

  0
TEXT
  5
19F2C
  8
1DIM
 62
   201
 10
2934.2092745621112
 20
-1931.185295210711
 30
0.0
 40
3.5
  1
φ4.5
 50
90.0
  0
ENDBLK
  5
19F2E
  8
0
  0
BLOCK
  8
0
  2
*U234
 70
     1
 10
0.0
 20
0.0
 30
0.0
  3
*U234
  1

  0
TEXT
  5
19F30
  8
1DIM
 62
   201
 10
2880.7102779181232
 20
-1916.838939905361
 30
0.0
 40
3.5
  1
R4
 50
326.48365491970918
  0
ENDBLK
  5
19F32
  8
0
  0
BLOCK
  8
0
  2
*U235
 70
     1
 10
0.0
 20
0.0
 30
0.0
  3
*U235
  1

  0
TEXT
  5
19F34
  8
1DIM
 62
   201
 10
2802.7786523501559
 20
-2006.655815804706
 30
0.0
 40
3.5
  1
120
  0
ENDBLK
  5
19F36
  8
0
  0
BLOCK
  8
0
  2
*U236
 70
     1
 10
0.0
 20
0.0
 30
0.0
  3
*U236
  1

  0
TEXT
  5
19F38
  8
1DIM
 62
   201
 10
2802.7786523501559
 20
-2015.1255594437109
 30
0.0
 40
3.5
  1
150
  0
ENDBLK
  5
19F3A
  8
0
  0
BLOCK
  8
0
  2
*U237
 70
     1
 10
0.0
 20
0.0
 30
0.0
  3
*U237
  1

  0
TEXT
  5
19F3C
  8
1DIM
 62
   201
 10
2969.218996508584
 20
-1932.6570869423199
 30
0.0
 40
3.5
  1
3
  0
ENDBLK
  5
19F3E
  8
0
  0
BLOCK
  8
0
  2
*U238
 70
     1
 10
0.0
 20
0.0
 30
0.0
  3
*U238
  1

  0
TEXT
  5
19F40
  8
1DIM
 62
   201
 10
2752.2017806447361
 20
-1957.4668247154029
 30
0.0
 40
3.5
  1
R4
 50
329.22594279493768
  0
ENDBLK
  5
19F42
  8
0
  0
BLOCK
  8
0
  2
*U239
 70
     1
 10
0.0
 20
0.0
 30
0.0
  3
*U239
  1

  0
TEXT
  5
19F44
  8
1DIM
 62
   201
 10
2802.486985683488
 20
-1886.8332776484349
 30
0.0
 40
3.5
  1
133
  0
ENDBLK
  5
19F46
  8
0
  0
BLOCK
  8
0
  2
*U240
 70
     1
 10
0.0
 20
0.0
 30
0.0
  3
*U240
  1

  0
TEXT
  5
19F48
  8
1DIM
 62
   201
 10
2736.4536523501538
 20
-1971.985743132306
 30
0.0
 40
3.5
  1
φ8
  0
ENDBLK
  5
19F4A
  8
0
  0
BLOCK
  8
0
  2
*U241
 70
     1
 10
0.0
 20
0.0
 30
0.0
  3
*U241
  1

  0
TEXT
  5
19F4C
  8
1DIM
 62
   201
 10
2738.7021807039891
 20
-1976.8883773777191
 30
0.0
 40
3.5
  1
φ8
 50
355.00000000000028
  0
ENDBLK
  5
19F4E
  8
0
  0
BLOCK
  8
0
  2
*U242
 70
     1
 10
0.0
 20
0.0
 30
0.0
  3
*U242
  1

  0
TEXT
  5
19F50
  8
1DIM
 62
   201
 10
2746.801573684872
 20
-1999.0240744386081
 30
0.0
 40
3.5
  1
95°
 50
325.33948963054507
  0
ENDBLK
  5
19F52
  8
0
  0
BLOCK
  8
0
  2
*U243
 70
     1
 10
0.0
 20
0.0
 30
0.0
  3
*U243
  1

  0
TEXT
  5
19F54
  8
1DIM
 62
   201
 10
2861.2689186226471
 20
-2061.5868767106431
 30
0.0
 40
3.5
  1
R5
 50
62.233765675352181
  0
ENDBLK
  5
19F56
  8
0
  0
BLOCK
  8
0
  2
*U244
 70
     1
 10
0.0
 20
0.0
 30
0.0
  3
*U244
  1

  0
TEXT
  5
19F58
  8
1DIM
 62
   201
 10
2864.8238510650999
 20
-2068.7434251988111
 30
0.0
 40
3.5
  1
R6
 50
74.998823774217115
  0
ENDBLK
  5
19F5A
  8
0
  0
BLOCK
  8
0
  2
*U245
 70
     1
 10
0.0
 20
0.0
 30
0.0
  3
*U245
  1

  0
TEXT
  5
19F5C
  8
1DIM
 62
   201
 10
2957.4773298419182
 20
-1898.374630730877
 30
0.0
 40
3.5
  1
10
  0
ENDBLK
  5
19F5E
  8
0
  0
BLOCK
  8
0
  2
*U246
 70
     1
 10
0.0
 20
0.0
 30
0.0
  3
*U246
  1

  0
LINE
  5
19F60
  8
0
 10
-29.999999999837598
 20
0.0000465358979227
 30
0.0
 11
-24.700003489975941
 21
-1.4999534641020771
 31
0.0
  0
LINE
  5
19F61
  8
0
 10
-24.700003489975941
 20
-1.4999534641020771
 30
0.0
 11
-0.0000034900840618
 21
-1.499953464101849
 31
0.0
  0
LINE
  5
19F62
  8
0
 10
-29.999999999837598
 20
0.0000465358979227
 30
0.0
 11
-24.6999965095923
 21
1.5000465358980359
 31
0.0
  0
LINE
  5
19F63
  8
0
 10
-0.0000081437821464
 20
-3.4999999999998859
 30
0.0
 11
-0.0000034900840618
 21
-1.499953464101849
 31
0.0
  0
LINE
  5
19F64
  8
0
 10
-24.6999965095923
 20
1.5000465358980359
 30
0.0
 11
0.0000034903006139
 21
1.500046535897922
 31
0.0
  0
LINE
  5
19F65
  8
0
 10
-0.0000081437821464
 20
-3.4999999999998859
 30
0.0
 11
1.0999953464131731
 21
-3.5
 31
0.0
  0
LINE
  5
19F66
  8
0
 10
0.0000034903006139
 20
1.500046535897922
 30
0.0
 11
0.0000081437821322
 21
3.5
 31
0.0
  0
ARC
  5
19F67
  8
0
 10
1.0999953464131731
 20
-2.0
 30
0.0
 40
1.5
 50
270.0
 51
359.99986668447059
  0
LINE
  5
19F68
  8
0
 10
0.0000081437821322
 20
3.5
 30
0.0
 11
1.100004653592769
 21
3.5
 31
0.0
  0
LINE
  5
19F69
  8
0
 10
2.5999953464091159
 20
-2.0000034901923982
 30
0.0
 11
2.6000046535887051
 21
1.9999965098076009
 31
0.0
  0
ARC
  5
19F6A
  8
0
 10
1.100004653592769
 20
2.0
 30
0.0
 40
1.5
 50
359.99986668447059
 51
90.0
  0
ENDBLK
  5
19F6C
  8
0
  0
BLOCK
  8
0
  2
*U247
 70
     1
 10
0.0
 20
0.0
 30
0.0
  3
*U247
  1

  0
TEXT
  5
19F6E
  8
1DIM
 62
   201
 10
895.61962037649323
 20
-1283.711229336421
 30
0.0
 40
3.5
  1
11
 50
90.0
  0
ENDBLK
  5
19F70
  8
0
  0
BLOCK
  8
0
  2
*U248
 70
     1
 10
0.0
 20
0.0
 30
0.0
  3
*U248
  1

  0
TEXT
  5
19F72
  8
1DIM
 62
   201
 10
646.12398976004943
 20
-1304.3218177256331
 30
0.0
 40
3.5
  1
P197
  0
ENDBLK
  5
19F74
  8
0
  0
BLOCK
  8
0
  2
*U249
 70
     1
 10
0.0
 20
0.0
 30
0.0
  3
*U249
  1

  0
TEXT
  5
19F76
  8
1DIM
 62
   201
 10
647.87398976004954
 20
-1166.249470432349
 30
0.0
 40
3.5
  1
175
  0
ENDBLK
  5
19F78
  8
0
  0
BLOCK
  8
0
  2
*U250
 70
     1
 10
0.0
 20
0.0
 30
0.0
  3
*U250
  1

  0
TEXT
  5
19F7A
  8
1DIM
 62
   201
 10
647.58232309338257
 20
-1314.3218177256331
 30
0.0
 40
3.5
  1
220
  0
ENDBLK
  5
19F7C
  8
0
  0
BLOCK
  8
0
  2
*U251
 70
     1
 10
0.0
 20
0.0
 30
0.0
  3
*U251
  1

  0
TEXT
  5
19F7E
  8
1DIM
 62
   201
 10
781.25732309338264
 20
-1289.294562669754
 30
0.0
 40
3.5
  1
21
 50
90.0
  0
ENDBLK
  5
19F80
  8
0
  0
BLOCK
  8
0
  2
*U252
 70
     1
 10
0.0
 20
0.0
 30
0.0
  3
*U252
  1

  0
TEXT
  5
19F82
  8
1DIM
 62
   201
 10
781.25732309338275
 20
-1207.366137099016
 30
0.0
 40
3.5
  1
35
 50
90.0
  0
ENDBLK
  5
19F84
  8
0
  0
BLOCK
  8
0
  2
*U253
 70
     1
 10
0.0
 20
0.0
 30
0.0
  3
*U253
  1

  0
TEXT
  5
19F86
  8
1DIM
 62
   201
 10
781.25732309338275
 20
-1230.282803765682
 30
0.0
 40
3.5
  1
12
 50
90.0
  0
ENDBLK
  5
19F88
  8
0
  0
BLOCK
  8
0
  2
*U254
 70
     1
 10
0.0
 20
0.0
 30
0.0
  3
*U254
  1

  0
TEXT
  5
19F8A
  8
1DIM
 62
   201
 10
791.25732309338275
 20
-1213.366137099016
 30
0.0
 40
3.5
  1
47
 50
90.0
  0
ENDBLK
  5
19F8C
  8
0
  0
BLOCK
  8
0
  2
*U255
 70
     1
 10
0.0
 20
0.0
 30
0.0
  3
*U255
  1

  0
TEXT
  5
19F8E
  8
1DIM
 62
   201
 10
3032.63240331529
 20
-2115.9599362081199
 30
0.0
 40
3.5
  1
11
 50
90.0
  0
ENDBLK
  5
19F90
  8
0
  0
BLOCK
  8
0
  2
*U256
 70
     1
 10
0.0
 20
0.0
 30
0.0
  3
*U256
  1

  0
TEXT
  5
19F92
  8
1DIM
 62
   201
 10
2783.1367726988451
 20
-2136.5705245973322
 30
0.0
 40
3.5
  1
P197
  0
ENDBLK
  5
19F94
  8
0
  0
BLOCK
  8
0
  2
*U257
 70
     1
 10
0.0
 20
0.0
 30
0.0
  3
*U257
  1

  0
TEXT
  5
19F96
  8
1DIM
 62
   201
 10
2784.8867726988451
 20
-1998.4981773040481
 30
0.0
 40
3.5
  1
175
  0
ENDBLK
  5
19F98
  8
0
  0
BLOCK
  8
0
  2
*U258
 70
     1
 10
0.0
 20
0.0
 30
0.0
  3
*U258
  1

  0
TEXT
  5
19F9A
  8
1DIM
 62
   201
 10
2784.5951060321781
 20
-2146.5705245973322
 30
0.0
 40
3.5
  1
220
  0
ENDBLK
  5
19F9C
  8
0
  0
BLOCK
  8
0
  2
*U259
 70
     1
 10
0.0
 20
0.0
 30
0.0
  3
*U259
  1

  0
TEXT
  5
19F9E
  8
1DIM
 62
   201
 10
2918.2701060321779
 20
-2121.5432695414529
 30
0.0
 40
3.5
  1
21
 50
90.0
  0
ENDBLK
  5
19FA0
  8
0
  0
BLOCK
  8
0
  2
*U260
 70
     1
 10
0.0
 20
0.0
 30
0.0
  3
*U260
  1

  0
TEXT
  5
19FA2
  8
1DIM
 62
   201
 10
2918.2701060321788
 20
-2039.614843970714
 30
0.0
 40
3.5
  1
35
 50
90.0
  0
ENDBLK
  5
19FA4
  8
0
  0
BLOCK
  8
0
  2
*U261
 70
     1
 10
0.0
 20
0.0
 30
0.0
  3
*U261
  1

  0
TEXT
  5
19FA6
  8
1DIM
 62
   201
 10
2918.2701060321788
 20
-2062.531510637381
 30
0.0
 40
3.5
  1
12
 50
90.0
  0
ENDBLK
  5
19FA8
  8
0
  0
BLOCK
  8
0
  2
*U262
 70
     1
 10
0.0
 20
0.0
 30
0.0
  3
*U262
  1

  0
TEXT
  5
19FAA
  8
1DIM
 62
   201
 10
2928.2701060321788
 20
-2045.6148439707149
 30
0.0
 40
3.5
  1
47
 50
90.0
  0
ENDBLK
  5
19FAC
  8
0
  0
BLOCK
  8
0
  2
*U263
 70
     1
 10
0.0
 20
0.0
 30
0.0
  3
*U263
  1

  0
TEXT
  5
19FAE
  8
1DIM
 62
   201
 10
2903.8703190168221
 20
-1914.3269618773779
 30
0.0
 40
3.5
  1
21
 50
90.0
  0
ENDBLK
  5
19FB0
  8
0
  0
BLOCK
  8
0
  2
*U264
 70
     1
 10
0.0
 20
0.0
 30
0.0
  3
*U264
  1

  0
TEXT
  5
19FB2
  8
1DIM
 62
   201
 10
2802.7786523501559
 20
-1939.3542169332561
 30
0.0
 40
3.5
  1
150
  0
ENDBLK
  5
19FB4
  8
0
  0
BLOCK
  8
0
  2
*U265
 70
     1
 10
0.0
 20
0.0
 30
0.0
  3
*U265
  1

  0
TEXT
  5
19FB6
  8
1DIM
 62
   201
 10
2800.736985683488
 20
-1929.3542169332561
 30
0.0
 40
3.5
  1
P133
  0
ENDBLK
  5
19FB8
  8
0
  0
BLOCK
  8
0
  2
*U266
 70
     1
 10
0.0
 20
0.0
 30
0.0
  3
*U266
  1

  0
TEXT
  5
19FBA
  8
1DIM
 62
   201
 10
2995.765946087241
 20
-1908.7436285440449
 30
0.0
 40
3.5
  1
11
 50
90.0
  0
ENDBLK
  5
19FBC
  8
0
  0
BLOCK
  8
0
  2
*U267
 70
     1
 10
0.0
 20
0.0
 30
0.0
  3
*U267
  1

  0
TEXT
  5
19FBE
  8
1DIM
 62
   201
 10
2900.3703190168221
 20
-1855.49607646819
 30
0.0
 40
3.5
  1
10
 50
90.0
  0
ENDBLK
  5
19FC0
  8
0
  0
BLOCK
  8
0
  2
*U268
 70
     1
 10
0.0
 20
0.0
 30
0.0
  3
*U268
  1

  0
TEXT
  5
19FC2
  8
1DIM
 62
   201
 10
2900.3703190168221
 20
-1834.87107646819
 30
0.0
 40
3.5
  1
33
 50
90.0
  0
ENDBLK
  5
19FC4
  8
0
  0
BLOCK
  8
0
  2
*U269
 70
     1
 10
0.0
 20
0.0
 30
0.0
  3
*U269
  1

  0
TEXT
  5
19FC6
  8
1DIM
 62
   201
 10
2910.3703190168221
 20
-1839.87107646819
 30
0.0
 40
3.5
  1
43
 50
90.0
  0
ENDBLK
  5
19FC8
  8
0
  0
BLOCK
  8
0
  2
*U270
 70
     1
 10
0.0
 20
0.0
 30
0.0
  3
*U270
  1

  0
TEXT
  5
19FCA
  8
1DIM
 62
   201
 10
2802.7786523501559
 20
-1799.041306575077
 30
0.0
 40
3.5
  1
120
  0
ENDBLK
  5
19FCC
  8
0
  0
ENDSEC
  0
SECTION
  2
ENTITIES
  0
LINE
  5
193FE
  8
01
 10
2881.0703190168219
 20
-1901.3686285440449
 30
0.0
 11
2732.0703190168219
 21
-1901.3686285440449
 31
0.0
  0
ARC
  5
193FF
  8
01
 10
2881.0703190168219
 20
-1901.8686285440449
 30
0.0
 40
0.5
 50
0.0000000000260551
 51
90.0
  0
LINE
  5
19400
  8
01
 10
2881.5703190168219
 20
-1901.8686285440449
 30
0.0
 11
2881.5703190168229
 21
-1907.8686285440449
 31
0.0
  0
ARC
  5
19401
  8
01
 10
2881.0703190168229
 20
-1907.8686285440449
 30
0.0
 40
0.5
 50
270.0
 51
0.0
  0
LINE
  5
19402
  8
01
 10
2878.8203190168219
 20
-1908.8686285440449
 30
0.0
 11
2878.8203190168219
 21
-1922.1186285440449
 31
0.0
  0
ARC
  5
19403
  8
01
 10
2879.3203190168219
 20
-1908.8686285440449
 30
0.0
 40
0.5
 50
90.0
 51
180.0
  0
ARC
  5
19404
  8
01
 10
2878.3203190168219
 20
-1922.1186285440449
 30
0.0
 40
0.5
 50
270.0
 51
0.0
  0
LINE
  5
19405
  8
01
 10
2881.0703190168229
 20
-1908.3686285440449
 30
0.0
 11
2732.0703190168219
 21
-1908.3686285440449
 31
0.0
  0
ARC
  5
19406
  8
01
 10
2733.8203190168201
 20
-1908.8686285440449
 30
0.0
 40
0.5
 50
0.0
 51
90.0
  0
ARC
  5
19407
  8
01
 10
2732.0703190168219
 20
-1907.8686285440449
 30
0.0
 40
0.5
 50
180.0
 51
270.0
  0
LINE
  5
19408
  8
01
 10
2866.5703190168219
 20
-1908.3686285440449
 30
0.0
 11
2866.5703190168219
 21
-1922.1186285440449
 31
0.0
  0
LINE
  5
19409
  8
01
 10
2878.3203190168219
 20
-1922.6186285440449
 30
0.0
 11
2867.0703190168219
 21
-1922.6186285440449
 31
0.0
  0
ARC
  5
1940A
  8
01
 10
2867.0703190168219
 20
-1922.1186285440449
 30
0.0
 40
0.5
 50
180.0
 51
270.0
  0
CIRCLE
  5
1940B
  8
01
 10
2873.0703190168229
 20
-1912.6186285440449
 30
0.0
 40
2.25
  0
LINE
  5
1940C
  8
1CENTER
 10
2873.0703190168219
 20
-1917.1186285440449
 30
0.0
 11
2873.0703190168219
 21
-1908.1186285440449
 31
0.0
  0
LINE
  5
1940D
  8
01
 10
2731.5703190168219
 20
-1901.8686285440449
 30
0.0
 11
2731.570319016821
 21
-1907.8686285440449
 31
0.0
  0
ARC
  5
1940E
  8
01
 10
2732.0703190168219
 20
-1901.8686285440449
 30
0.0
 40
0.5
 50
90.0
 51
180.0
  0
LINE
  5
1940F
  8
01
 10
2734.320319016821
 20
-1908.8686285440449
 30
0.0
 11
2734.320319016821
 21
-1922.1186285440449
 31
0.0
  0
LINE
  5
19410
  8
01
 10
2746.5703190168219
 20
-1908.3686285440449
 30
0.0
 11
2746.5703190168219
 21
-1922.1186285440449
 31
0.0
  0
ARC
  5
19411
  8
01
 10
2746.0703190168219
 20
-1922.1186285440449
 30
0.0
 40
0.5
 50
270.0
 51
0.0
  0
LINE
  5
19412
  8
01
 10
2734.820319016821
 20
-1922.6186285440449
 30
0.0
 11
2746.0703190168219
 21
-1922.6186285440449
 31
0.0
  0
ARC
  5
19413
  8
01
 10
2734.820319016821
 20
-1922.1186285440449
 30
0.0
 40
0.5
 50
180.0
 51
270.0
  0
ARC
  5
19414
  8
01
 10
2740.0703190168201
 20
-1912.6186285440449
 30
0.0
 40
4.0
 50
90.0
 51
270.0
  0
CIRCLE
  5
19415
  8
01
 10
2740.0703190168201
 20
-1912.6186285440449
 30
0.0
 40
2.25
  0
LINE
  5
19416
  8
1CENTER
 10
2740.0703190168201
 20
-1908.118628544044
 30
0.0
 11
2740.0703190168201
 21
-1917.118628544044
 31
0.0
  0
LINE
  5
19417
  8
1HIDDEN
 10
2866.5703190168219
 20
-1908.3686285440449
 30
0.0
 11
2866.5703190168219
 21
-1901.8686285440449
 31
0.0
  0
ARC
  5
19418
  8
1HIDDEN
 10
2867.0703190168219
 20
-1901.8686285440449
 30
0.0
 40
0.5
 50
90.0
 51
180.0
  0
LINE
  5
19419
  8
1HIDDEN
 10
2746.5703190168219
 20
-1908.3686285440449
 30
0.0
 11
2746.5703190168219
 21
-1901.8686285440449
 31
0.0
  0
ARC
  5
1941A
  8
1HIDDEN
 10
2746.0703190168219
 20
-1901.8686285440449
 30
0.0
 40
0.5
 50
0.0
 51
90.0
  0
LINE
  5
19460
  8
1CENTER
 10
2744.570319016821
 20
-1912.6186285440449
 30
0.0
 11
2735.570319016821
 21
-1912.6186285440449
 31
0.0
  0
LINE
  5
19461
  8
1CENTER
 10
2868.5703190168219
 20
-1912.6186285440449
 30
0.0
 11
2877.5703190168219
 21
-1912.6186285440449
 31
0.0
  0
ARC
  5
19476
  8
01
 10
2873.0703190168242
 20
-1912.6186285440449
 30
0.0
 40
4.0
 50
270.0
 51
90.0
  0
LINE
  5
19488
  8
01
 10
2922.0189965085842
 20
-1901.3686285440449
 30
0.0
 11
2964.5189965085842
 21
-1901.3686285440449
 31
0.0
  0
ARC
  5
19489
  8
01
 10
2922.0189965085842
 20
-1901.8686285440449
 30
0.0
 40
0.5
 50
90.0
 51
180.0
  0
LINE
  5
1948A
  8
01
 10
2964.0189965085829
 20
-1922.6186285440449
 30
0.0
 11
2964.5189965085842
 21
-1922.6186285440449
 31
0.0
  0
LINE
  5
1948B
  8
01
 10
2964.5189965085842
 20
-1922.6186285440449
 30
0.0
 11
2964.5189965085842
 21
-1901.3686285440449
 31
0.0
  0
LINE
  5
19490
  8
01
 10
2922.0189965085842
 20
-1908.3686285440449
 30
0.0
 11
2938.5189965085842
 21
-1908.3686285440449
 31
0.0
  0
LINE
  5
19491
  8
01
 10
2921.5189965085842
 20
-1901.8686285440449
 30
0.0
 11
2921.5189965085842
 21
-1907.8686285440449
 31
0.0
  0
ARC
  5
19492
  8
01
 10
2922.0189965085842
 20
-1907.8686285440449
 30
0.0
 40
0.5
 50
180.0
 51
270.0
  0
LINE
  5
19498
  8
01
 10
2938.9663649296349
 20
-1908.6186285440449
 30
0.0
 11
2957.5189965085842
 21
-1908.618628544046
 31
0.0
  0
LINE
  5
1949A
  8
01
 10
2957.5189965085842
 20
-1916.6186285440449
 30
0.0
 11
2957.5189965085842
 21
-1908.618628544046
 31
0.0
  0
LINE
  5
1949B
  8
01
 10
2953.28215440332
 20
-1916.6186285440449
 30
0.0
 11
2957.5189965085842
 21
-1916.6186285440449
 31
0.0
  0
LINE
  5
1949C
  8
01
  6
BYBLOCK
 10
2938.5189965085842
 20
-1908.3686285440449
 30
0.0
 11
2964.0189965085829
 21
-1922.6186285440449
 31
0.0
  0
LINE
  5
1949E
  8
01
 10
2957.5189965085842
 20
-1910.3686285440449
 30
0.0
 11
2964.5189965085842
 21
-1909.6186285440449
 31
0.0
  0
LINE
  5
1949F
  8
01
 10
2957.5189965085842
 20
-1914.8686285440449
 30
0.0
 11
2964.5189965085842
 21
-1915.6186285440449
 31
0.0
  0
LINE
  5
194D6
  8
01
 10
2740.0703190168201
 20
-1908.6186285440449
 30
0.0
 11
2741.693463958552
 21
-1908.6186285440449
 31
0.0
  0
LINE
  5
194D7
  8
01
 10
2740.0703190168201
 20
-1916.6186285440449
 30
0.0
 11
2740.4409946701812
 21
-1916.6186285440449
 31
0.0
  0
POLYLINE
  5
194D8
  8
01
 10
2740.4409946701812
 20
-1916.6186285440449
 30
0.0
 66
     1
 70
     8
  0
VERTEX
  8
01
  5
19FCD
 10
2740.44
 20
-1916.62
 30
0.000000
  70
    32
  0
VERTEX
  8
01
  5
19FCE
 10
2740.50
 20
-1916.62
 30
0.000000
  70
    32
  0
VERTEX
  8
01
  5
19FCF
 10
2740.55
 20
-1916.62
 30
0.000000
  70
    32
  0
VERTEX
  8
01
  5
19FD0
 10
2740.61
 20
-1916.62
 30
0.000000
  70
    32
  0
VERTEX
  8
01
  5
19FD1
 10
2740.67
 20
-1916.61
 30
0.000000
  70
    32
  0
VERTEX
  8
01
  5
19FD2
 10
2740.73
 20
-1916.61
 30
0.000000
  70
    32
  0
VERTEX
  8
01
  5
19FD3
 10
2740.78
 20
-1916.61
 30
0.000000
  70
    32
  0
VERTEX
  8
01
  5
19FD4
 10
2740.84
 20
-1916.60
 30
0.000000
  70
    32
  0
VERTEX
  8
01
  5
19FD5
 10
2740.90
 20
-1916.60
 30
0.000000
  70
    32
  0
VERTEX
  8
01
  5
19FD6
 10
2740.95
 20
-1916.59
 30
0.000000
  70
    32
  0
VERTEX
  8
01
  5
19FD7
 10
2741.01
 20
-1916.59
 30
0.000000
  70
    32
  0
VERTEX
  8
01
  5
19FD8
 10
2741.07
 20
-1916.58
 30
0.000000
  70
    32
  0
VERTEX
  8
01
  5
19FD9
 10
2741.12
 20
-1916.58
 30
0.000000
  70
    32
  0
VERTEX
  8
01
  5
19FDA
 10
2741.18
 20
-1916.57
 30
0.000000
  70
    32
  0
VERTEX
  8
01
  5
19FDB
 10
2741.23
 20
-1916.56
 30
0.000000
  70
    32
  0
VERTEX
  8
01
  5
19FDC
 10
2741.29
 20
-1916.55
 30
0.000000
  70
    32
  0
VERTEX
  8
01
  5
19FDD
 10
2741.35
 20
-1916.54
 30
0.000000
  70
    32
  0
VERTEX
  8
01
  5
19FDE
 10
2741.40
 20
-1916.53
 30
0.000000
  70
    32
  0
VERTEX
  8
01
  5
19FDF
 10
2741.46
 20
-1916.52
 30
0.000000
  70
    32
  0
VERTEX
  8
01
  5
19FE0
 10
2741.51
 20
-1916.51
 30
0.000000
  70
    32
  0
VERTEX
  8
01
  5
19FE1
 10
2741.57
 20
-1916.50
 30
0.000000
  70
    32
  0
VERTEX
  8
01
  5
19FE2
 10
2741.62
 20
-1916.49
 30
0.000000
  70
    32
  0
VERTEX
  8
01
  5
19FE3
 10
2741.68
 20
-1916.47
 30
0.000000
  70
    32
  0
VERTEX
  8
01
  5
19FE4
 10
2741.73
 20
-1916.46
 30
0.000000
  70
    32
  0
VERTEX
  8
01
  5
19FE5
 10
2741.79
 20
-1916.45
 30
0.000000
  70
    32
  0
VERTEX
  8
01
  5
19FE6
 10
2741.84
 20
-1916.43
 30
0.000000
  70
    32
  0
VERTEX
  8
01
  5
19FE7
 10
2741.90
 20
-1916.42
 30
0.000000
  70
    32
  0
VERTEX
  8
01
  5
19FE8
 10
2741.95
 20
-1916.40
 30
0.000000
  70
    32
  0
VERTEX
  8
01
  5
19FE9
 10
2742.00
 20
-1916.38
 30
0.000000
  70
    32
  0
VERTEX
  8
01
  5
19FEA
 10
2742.06
 20
-1916.37
 30
0.000000
  70
    32
  0
VERTEX
  8
01
  5
19FEB
 10
2742.11
 20
-1916.35
 30
0.000000
  70
    32
  0
VERTEX
  8
01
  5
19FEC
 10
2742.16
 20
-1916.33
 30
0.000000
  70
    32
  0
VERTEX
  8
01
  5
19FED
 10
2742.22
 20
-1916.31
 30
0.000000
  70
    32
  0
VERTEX
  8
01
  5
19FEE
 10
2742.27
 20
-1916.30
 30
0.000000
  70
    32
  0
VERTEX
  8
01
  5
19FEF
 10
2742.32
 20
-1916.28
 30
0.000000
  70
    32
  0
VERTEX
  8
01
  5
19FF0
 10
2742.37
 20
-1916.26
 30
0.000000
  70
    32
  0
VERTEX
  8
01
  5
19FF1
 10
2742.43
 20
-1916.23
 30
0.000000
  70
    32
  0
VERTEX
  8
01
  5
19FF2
 10
2742.48
 20
-1916.21
 30
0.000000
  70
    32
  0
VERTEX
  8
01
  5
19FF3
 10
2742.53
 20
-1916.19
 30
0.000000
  70
    32
  0
VERTEX
  8
01
  5
19FF4
 10
2742.58
 20
-1916.17
 30
0.000000
  70
    32
  0
VERTEX
  8
01
  5
19FF5
 10
2742.63
 20
-1916.15
 30
0.000000
  70
    32
  0
VERTEX
  8
01
  5
19FF6
 10
2742.68
 20
-1916.12
 30
0.000000
  70
    32
  0
VERTEX
  8
01
  5
19FF7
 10
2742.73
 20
-1916.10
 30
0.000000
  70
    32
  0
VERTEX
  8
01
  5
19FF8
 10
2742.78
 20
-1916.07
 30
0.000000
  70
    32
  0
VERTEX
  8
01
  5
19FF9
 10
2742.83
 20
-1916.05
 30
0.000000
  70
    32
  0
VERTEX
  8
01
  5
19FFA
 10
2742.88
 20
-1916.02
 30
0.000000
  70
    32
  0
VERTEX
  8
01
  5
19FFB
 10
2742.92
 20
-1916.00
 30
0.000000
  70
    32
  0
VERTEX
  8
01
  5
19FFC
 10
2742.97
 20
-1915.97
 30
0.000000
  70
    32
  0
VERTEX
  8
01
  5
19FFD
 10
2743.02
 20
-1915.94
 30
0.000000
  70
    32
  0
VERTEX
  8
01
  5
19FFE
 10
2743.07
 20
-1915.92
 30
0.000000
  70
    32
  0
VERTEX
  8
01
  5
19FFF
 10
2743.11
 20
-1915.89
 30
0.000000
  70
    32
  0
VERTEX
  8
01
  5
1A000
 10
2743.16
 20
-1915.86
 30
0.000000
  70
    32
  0
VERTEX
  8
01
  5
1A001
 10
2743.21
 20
-1915.83
 30
0.000000
  70
    32
  0
VERTEX
  8
01
  5
1A002
 10
2743.25
 20
-1915.80
 30
0.000000
  70
    32
  0
VERTEX
  8
01
  5
1A003
 10
2743.30
 20
-1915.77
 30
0.000000
  70
    32
  0
VERTEX
  8
01
  5
1A004
 10
2743.34
 20
-1915.74
 30
0.000000
  70
    32
  0
VERTEX
  8
01
  5
1A005
 10
2743.39
 20
-1915.71
 30
0.000000
  70
    32
  0
VERTEX
  8
01
  5
1A006
 10
2743.43
 20
-1915.68
 30
0.000000
  70
    32
  0
VERTEX
  8
01
  5
1A007
 10
2743.47
 20
-1915.65
 30
0.000000
  70
    32
  0
VERTEX
  8
01
  5
1A008
 10
2743.52
 20
-1915.62
 30
0.000000
  70
    32
  0
VERTEX
  8
01
  5
1A009
 10
2743.56
 20
-1915.58
 30
0.000000
  70
    32
  0
VERTEX
  8
01
  5
1A00A
 10
2743.60
 20
-1915.55
 30
0.000000
  70
    32
  0
VERTEX
  8
01
  5
1A00B
 10
2743.64
 20
-1915.52
 30
0.000000
  70
    32
  0
VERTEX
  8
01
  5
1A00C
 10
2743.68
 20
-1915.48
 30
0.000000
  70
    32
  0
VERTEX
  8
01
  5
1A00D
 10
2743.72
 20
-1915.45
 30
0.000000
  70
    32
  0
VERTEX
  8
01
  5
1A00E
 10
2743.76
 20
-1915.41
 30
0.000000
  70
    32
  0
VERTEX
  8
01
  5
1A00F
 10
2743.80
 20
-1915.38
 30
0.000000
  70
    32
  0
VERTEX
  8
01
  5
1A010
 10
2743.84
 20
-1915.34
 30
0.000000
  70
    32
  0
VERTEX
  8
01
  5
1A011
 10
2743.88
 20
-1915.30
 30
0.000000
  70
    32
  0
VERTEX
  8
01
  5
1A012
 10
2743.92
 20
-1915.27
 30
0.000000
  70
    32
  0
VERTEX
  8
01
  5
1A013
 10
2743.96
 20
-1915.23
 30
0.000000
  70
    32
  0
VERTEX
  8
01
  5
1A014
 10
2743.99
 20
-1915.19
 30
0.000000
  70
    32
  0
VERTEX
  8
01
  5
1A015
 10
2744.03
 20
-1915.16
 30
0.000000
  70
    32
  0
VERTEX
  8
01
  5
1A016
 10
2744.06
 20
-1915.12
 30
0.000000
  70
    32
  0
VERTEX
  8
01
  5
1A017
 10
2744.10
 20
-1915.08
 30
0.000000
  70
    32
  0
VERTEX
  8
01
  5
1A018
 10
2744.13
 20
-1915.04
 30
0.000000
  70
    32
  0
VERTEX
  8
01
  5
1A019
 10
2744.17
 20
-1915.00
 30
0.000000
  70
    32
  0
VERTEX
  8
01
  5
1A01A
 10
2744.20
 20
-1914.96
 30
0.000000
  70
    32
  0
VERTEX
  8
01
  5
1A01B
 10
2744.24
 20
-1914.92
 30
0.000000
  70
    32
  0
VERTEX
  8
01
  5
1A01C
 10
2744.27
 20
-1914.88
 30
0.000000
  70
    32
  0
VERTEX
  8
01
  5
1A01D
 10
2744.30
 20
-1914.84
 30
0.000000
  70
    32
  0
VERTEX
  8
01
  5
1A01E
 10
2744.33
 20
-1914.80
 30
0.000000
  70
    32
  0
VERTEX
  8
01
  5
1A01F
 10
2744.36
 20
-1914.76
 30
0.000000
  70
    32
  0
VERTEX
  8
01
  5
1A020
 10
2744.39
 20
-1914.72
 30
0.000000
  70
    32
  0
VERTEX
  8
01
  5
1A021
 10
2744.42
 20
-1914.68
 30
0.000000
  70
    32
  0
VERTEX
  8
01
  5
1A022
 10
2744.45
 20
-1914.63
 30
0.000000
  70
    32
  0
VERTEX
  8
01
  5
1A023
 10
2744.48
 20
-1914.59
 30
0.000000
  70
    32
  0
VERTEX
  8
01
  5
1A024
 10
2744.51
 20
-1914.55
 30
0.000000
  70
    32
  0
VERTEX
  8
01
  5
1A025
 10
2744.53
 20
-1914.50
 30
0.000000
  70
    32
  0
VERTEX
  8
01
  5
1A026
 10
2744.56
 20
-1914.46
 30
0.000000
  70
    32
  0
VERTEX
  8
01
  5
1A027
 10
2744.59
 20
-1914.42
 30
0.000000
  70
    32
  0
VERTEX
  8
01
  5
1A028
 10
2744.61
 20
-1914.37
 30
0.000000
  70
    32
  0
VERTEX
  8
01
  5
1A029
 10
2744.64
 20
-1914.33
 30
0.000000
  70
    32
  0
VERTEX
  8
01
  5
1A02A
 10
2744.66
 20
-1914.28
 30
0.000000
  70
    32
  0
VERTEX
  8
01
  5
1A02B
 10
2744.68
 20
-1914.24
 30
0.000000
  70
    32
  0
VERTEX
  8
01
  5
1A02C
 10
2744.71
 20
-1914.19
 30
0.000000
  70
    32
  0
VERTEX
  8
01
  5
1A02D
 10
2744.73
 20
-1914.15
 30
0.000000
  70
    32
  0
VERTEX
  8
01
  5
1A02E
 10
2744.75
 20
-1914.10
 30
0.000000
  70
    32
  0
VERTEX
  8
01
  5
1A02F
 10
2744.77
 20
-1914.06
 30
0.000000
  70
    32
  0
VERTEX
  8
01
  5
1A030
 10
2744.79
 20
-1914.01
 30
0.000000
  70
    32
  0
VERTEX
  8
01
  5
1A031
 10
2744.81
 20
-1913.97
 30
0.000000
  70
    32
  0
VERTEX
  8
01
  5
1A032
 10
2744.83
 20
-1913.92
 30
0.000000
  70
    32
  0
VERTEX
  8
01
  5
1A033
 10
2744.85
 20
-1913.87
 30
0.000000
  70
    32
  0
VERTEX
  8
01
  5
1A034
 10
2744.87
 20
-1913.83
 30
0.000000
  70
    32
  0
VERTEX
  8
01
  5
1A035
 10
2744.88
 20
-1913.78
 30
0.000000
  70
    32
  0
VERTEX
  8
01
  5
1A036
 10
2744.90
 20
-1913.73
 30
0.000000
  70
    32
  0
VERTEX
  8
01
  5
1A037
 10
2744.91
 20
-1913.69
 30
0.000000
  70
    32
  0
VERTEX
  8
01
  5
1A038
 10
2744.93
 20
-1913.64
 30
0.000000
  70
    32
  0
VERTEX
  8
01
  5
1A039
 10
2744.94
 20
-1913.59
 30
0.000000
  70
    32
  0
VERTEX
  8
01
  5
1A03A
 10
2744.96
 20
-1913.54
 30
0.000000
  70
    32
  0
VERTEX
  8
01
  5
1A03B
 10
2744.97
 20
-1913.50
 30
0.000000
  70
    32
  0
VERTEX
  8
01
  5
1A03C
 10
2744.98
 20
-1913.45
 30
0.000000
  70
    32
  0
VERTEX
  8
01
  5
1A03D
 10
2744.99
 20
-1913.40
 30
0.000000
  70
    32
  0
VERTEX
  8
01
  5
1A03E
 10
2745.00
 20
-1913.35
 30
0.000000
  70
    32
  0
VERTEX
  8
01
  5
1A03F
 10
2745.01
 20
-1913.30
 30
0.000000
  70
    32
  0
VERTEX
  8
01
  5
1A040
 10
2745.02
 20
-1913.25
 30
0.000000
  70
    32
  0
VERTEX
  8
01
  5
1A041
 10
2745.03
 20
-1913.21
 30
0.000000
  70
    32
  0
VERTEX
  8
01
  5
1A042
 10
2745.04
 20
-1913.16
 30
0.000000
  70
    32
  0
VERTEX
  8
01
  5
1A043
 10
2745.05
 20
-1913.11
 30
0.000000
  70
    32
  0
VERTEX
  8
01
  5
1A044
 10
2745.05
 20
-1913.06
 30
0.000000
  70
    32
  0
VERTEX
  8
01
  5
1A045
 10
2745.06
 20
-1913.01
 30
0.000000
  70
    32
  0
VERTEX
  8
01
  5
1A046
 10
2745.07
 20
-1912.96
 30
0.000000
  70
    32
  0
VERTEX
  8
01
  5
1A047
 10
2745.07
 20
-1912.91
 30
0.000000
  70
    32
  0
VERTEX
  8
01
  5
1A048
 10
2745.07
 20
-1912.86
 30
0.000000
  70
    32
  0
VERTEX
  8
01
  5
1A049
 10
2745.08
 20
-1912.81
 30
0.000000
  70
    32
  0
VERTEX
  8
01
  5
1A04A
 10
2745.08
 20
-1912.77
 30
0.000000
  70
    32
  0
VERTEX
  8
01
  5
1A04B
 10
2745.08
 20
-1912.72
 30
0.000000
  70
    32
  0
VERTEX
  8
01
  5
1A04C
 10
2745.08
 20
-1912.67
 30
0.000000
  70
    32
  0
VERTEX
  8
01
  5
1A04D
 10
2745.08
 20
-1912.62
 30
0.000000
  70
    32
  0
SEQEND
  8
01
  5
1A04E
  0
POLYLINE
  5
194D9
  8
01
 10
2745.0825086645395
 20
-1912.6186285440449
 30
0.0
 66
     1
 70
     8
  0
VERTEX
  8
01
  5
1A04F
 10
2745.08
 20
-1912.62
 30
0.000000
  70
    32
  0
VERTEX
  8
01
  5
1A050
 10
2745.08
 20
-1912.57
 30
0.000000
  70
    32
  0
VERTEX
  8
01
  5
1A051
 10
2745.08
 20
-1912.52
 30
0.000000
  70
    32
  0
VERTEX
  8
01
  5
1A052
 10
2745.08
 20
-1912.47
 30
0.000000
  70
    32
  0
VERTEX
  8
01
  5
1A053
 10
2745.08
 20
-1912.42
 30
0.000000
  70
    32
  0
VERTEX
  8
01
  5
1A054
 10
2745.08
 20
-1912.37
 30
0.000000
  70
    32
  0
VERTEX
  8
01
  5
1A055
 10
2745.07
 20
-1912.32
 30
0.000000
  70
    32
  0
VERTEX
  8
01
  5
1A056
 10
2745.07
 20
-1912.28
 30
0.000000
  70
    32
  0
VERTEX
  8
01
  5
1A057
 10
2745.07
 20
-1912.23
 30
0.000000
  70
    32
  0
VERTEX
  8
01
  5
1A058
 10
2745.06
 20
-1912.18
 30
0.000000
  70
    32
  0
VERTEX
  8
01
  5
1A059
 10
2745.06
 20
-1912.13
 30
0.000000
  70
    32
  0
VERTEX
  8
01
  5
1A05A
 10
2745.05
 20
-1912.08
 30
0.000000
  70
    32
  0
VERTEX
  8
01
  5
1A05B
 10
2745.05
 20
-1912.03
 30
0.000000
  70
    32
  0
VERTEX
  8
01
  5
1A05C
 10
2745.04
 20
-1911.98
 30
0.000000
  70
    32
  0
VERTEX
  8
01
  5
1A05D
 10
2745.03
 20
-1911.93
 30
0.000000
  70
    32
  0
VERTEX
  8
01
  5
1A05E
 10
2745.03
 20
-1911.89
 30
0.000000
  70
    32
  0
VERTEX
  8
01
  5
1A05F
 10
2745.02
 20
-1911.84
 30
0.000000
  70
    32
  0
VERTEX
  8
01
  5
1A060
 10
2745.01
 20
-1911.79
 30
0.000000
  70
    32
  0
VERTEX
  8
01
  5
1A061
 10
2745.00
 20
-1911.74
 30
0.000000
  70
    32
  0
VERTEX
  8
01
  5
1A062
 10
2744.99
 20
-1911.69
 30
0.000000
  70
    32
  0
VERTEX
  8
01
  5
1A063
 10
2744.98
 20
-1911.65
 30
0.000000
  70
    32
  0
VERTEX
  8
01
  5
1A064
 10
2744.97
 20
-1911.60
 30
0.000000
  70
    32
  0
VERTEX
  8
01
  5
1A065
 10
2744.96
 20
-1911.55
 30
0.000000
  70
    32
  0
VERTEX
  8
01
  5
1A066
 10
2744.95
 20
-1911.50
 30
0.000000
  70
    32
  0
VERTEX
  8
01
  5
1A067
 10
2744.94
 20
-1911.46
 30
0.000000
  70
    32
  0
VERTEX
  8
01
  5
1A068
 10
2744.92
 20
-1911.41
 30
0.000000
  70
    32
  0
VERTEX
  8
01
  5
1A069
 10
2744.91
 20
-1911.36
 30
0.000000
  70
    32
  0
VERTEX
  8
01
  5
1A06A
 10
2744.90
 20
-1911.32
 30
0.000000
  70
    32
  0
VERTEX
  8
01
  5
1A06B
 10
2744.88
 20
-1911.27
 30
0.000000
  70
    32
  0
VERTEX
  8
01
  5
1A06C
 10
2744.87
 20
-1911.22
 30
0.000000
  70
    32
  0
VERTEX
  8
01
  5
1A06D
 10
2744.86
 20
-1911.18
 30
0.000000
  70
    32
  0
VERTEX
  8
01
  5
1A06E
 10
2744.84
 20
-1911.13
 30
0.000000
  70
    32
  0
VERTEX
  8
01
  5
1A06F
 10
2744.82
 20
-1911.09
 30
0.000000
  70
    32
  0
VERTEX
  8
01
  5
1A070
 10
2744.81
 20
-1911.04
 30
0.000000
  70
    32
  0
VERTEX
  8
01
  5
1A071
 10
2744.79
 20
-1911.00
 30
0.000000
  70
    32
  0
VERTEX
  8
01
  5
1A072
 10
2744.77
 20
-1910.95
 30
0.000000
  70
    32
  0
VERTEX
  8
01
  5
1A073
 10
2744.76
 20
-1910.91
 30
0.000000
  70
    32
  0
VERTEX
  8
01
  5
1A074
 10
2744.74
 20
-1910.86
 30
0.000000
  70
    32
  0
VERTEX
  8
01
  5
1A075
 10
2744.72
 20
-1910.82
 30
0.000000
  70
    32
  0
VERTEX
  8
01
  5
1A076
 10
2744.70
 20
-1910.78
 30
0.000000
  70
    32
  0
VERTEX
  8
01
  5
1A077
 10
2744.68
 20
-1910.73
 30
0.000000
  70
    32
  0
VERTEX
  8
01
  5
1A078
 10
2744.66
 20
-1910.69
 30
0.000000
  70
    32
  0
VERTEX
  8
01
  5
1A079
 10
2744.64
 20
-1910.65
 30
0.000000
  70
    32
  0
VERTEX
  8
01
  5
1A07A
 10
2744.62
 20
-1910.60
 30
0.000000
  70
    32
  0
VERTEX
  8
01
  5
1A07B
 10
2744.60
 20
-1910.56
 30
0.000000
  70
    32
  0
VERTEX
  8
01
  5
1A07C
 10
2744.58
 20
-1910.52
 30
0.000000
  70
    32
  0
VERTEX
  8
01
  5
1A07D
 10
2744.56
 20
-1910.48
 30
0.000000
  70
    32
  0
VERTEX
  8
01
  5
1A07E
 10
2744.53
 20
-1910.44
 30
0.000000
  70
    32
  0
VERTEX
  8
01
  5
1A07F
 10
2744.51
 20
-1910.40
 30
0.000000
  70
    32
  0
VERTEX
  8
01
  5
1A080
 10
2744.49
 20
-1910.36
 30
0.000000
  70
    32
  0
VERTEX
  8
01
  5
1A081
 10
2744.46
 20
-1910.32
 30
0.000000
  70
    32
  0
VERTEX
  8
01
  5
1A082
 10
2744.44
 20
-1910.28
 30
0.000000
  70
    32
  0
VERTEX
  8
01
  5
1A083
 10
2744.42
 20
-1910.24
 30
0.000000
  70
    32
  0
VERTEX
  8
01
  5
1A084
 10
2744.39
 20
-1910.20
 30
0.000000
  70
    32
  0
VERTEX
  8
01
  5
1A085
 10
2744.37
 20
-1910.16
 30
0.000000
  70
    32
  0
VERTEX
  8
01
  5
1A086
 10
2744.34
 20
-1910.12
 30
0.000000
  70
    32
  0
VERTEX
  8
01
  5
1A087
 10
2744.31
 20
-1910.08
 30
0.000000
  70
    32
  0
VERTEX
  8
01
  5
1A088
 10
2744.29
 20
-1910.04
 30
0.000000
  70
    32
  0
VERTEX
  8
01
  5
1A089
 10
2744.26
 20
-1910.01
 30
0.000000
  70
    32
  0
VERTEX
  8
01
  5
1A08A
 10
2744.23
 20
-1909.97
 30
0.000000
  70
    32
  0
VERTEX
  8
01
  5
1A08B
 10
2744.20
 20
-1909.93
 30
0.000000
  70
    32
  0
VERTEX
  8
01
  5
1A08C
 10
2744.18
 20
-1909.90
 30
0.000000
  70
    32
  0
VERTEX
  8
01
  5
1A08D
 10
2744.15
 20
-1909.86
 30
0.000000
  70
    32
  0
VERTEX
  8
01
  5
1A08E
 10
2744.12
 20
-1909.83
 30
0.000000
  70
    32
  0
VERTEX
  8
01
  5
1A08F
 10
2744.09
 20
-1909.79
 30
0.000000
  70
    32
  0
VERTEX
  8
01
  5
1A090
 10
2744.06
 20
-1909.76
 30
0.000000
  70
    32
  0
VERTEX
  8
01
  5
1A091
 10
2744.03
 20
-1909.72
 30
0.000000
  70
    32
  0
VERTEX
  8
01
  5
1A092
 10
2744.00
 20
-1909.69
 30
0.000000
  70
    32
  0
VERTEX
  8
01
  5
1A093
 10
2743.97
 20
-1909.65
 30
0.000000
  70
    32
  0
VERTEX
  8
01
  5
1A094
 10
2743.94
 20
-1909.62
 30
0.000000
  70
    32
  0
VERTEX
  8
01
  5
1A095
 10
2743.91
 20
-1909.59
 30
0.000000
  70
    32
  0
VERTEX
  8
01
  5
1A096
 10
2743.88
 20
-1909.56
 30
0.000000
  70
    32
  0
VERTEX
  8
01
  5
1A097
 10
2743.84
 20
-1909.53
 30
0.000000
  70
    32
  0
VERTEX
  8
01
  5
1A098
 10
2743.81
 20
-1909.50
 30
0.000000
  70
    32
  0
VERTEX
  8
01
  5
1A099
 10
2743.78
 20
-1909.47
 30
0.000000
  70
    32
  0
VERTEX
  8
01
  5
1A09A
 10
2743.75
 20
-1909.44
 30
0.000000
  70
    32
  0
VERTEX
  8
01
  5
1A09B
 10
2743.71
 20
-1909.41
 30
0.000000
  70
    32
  0
VERTEX
  8
01
  5
1A09C
 10
2743.68
 20
-1909.38
 30
0.000000
  70
    32
  0
VERTEX
  8
01
  5
1A09D
 10
2743.64
 20
-1909.35
 30
0.000000
  70
    32
  0
VERTEX
  8
01
  5
1A09E
 10
2743.61
 20
-1909.32
 30
0.000000
  70
    32
  0
VERTEX
  8
01
  5
1A09F
 10
2743.58
 20
-1909.29
 30
0.000000
  70
    32
  0
VERTEX
  8
01
  5
1A0A0
 10
2743.54
 20
-1909.27
 30
0.000000
  70
    32
  0
VERTEX
  8
01
  5
1A0A1
 10
2743.51
 20
-1909.24
 30
0.000000
  70
    32
  0
VERTEX
  8
01
  5
1A0A2
 10
2743.47
 20
-1909.21
 30
0.000000
  70
    32
  0
VERTEX
  8
01
  5
1A0A3
 10
2743.44
 20
-1909.19
 30
0.000000
  70
    32
  0
VERTEX
  8
01
  5
1A0A4
 10
2743.40
 20
-1909.16
 30
0.000000
  70
    32
  0
VERTEX
  8
01
  5
1A0A5
 10
2743.36
 20
-1909.14
 30
0.000000
  70
    32
  0
VERTEX
  8
01
  5
1A0A6
 10
2743.33
 20
-1909.11
 30
0.000000
  70
    32
  0
VERTEX
  8
01
  5
1A0A7
 10
2743.29
 20
-1909.09
 30
0.000000
  70
    32
  0
VERTEX
  8
01
  5
1A0A8
 10
2743.25
 20
-1909.07
 30
0.000000
  70
    32
  0
VERTEX
  8
01
  5
1A0A9
 10
2743.22
 20
-1909.05
 30
0.000000
  70
    32
  0
VERTEX
  8
01
  5
1A0AA
 10
2743.18
 20
-1909.02
 30
0.000000
  70
    32
  0
VERTEX
  8
01
  5
1A0AB
 10
2743.14
 20
-1909.00
 30
0.000000
  70
    32
  0
VERTEX
  8
01
  5
1A0AC
 10
2743.10
 20
-1908.98
 30
0.000000
  70
    32
  0
VERTEX
  8
01
  5
1A0AD
 10
2743.07
 20
-1908.96
 30
0.000000
  70
    32
  0
VERTEX
  8
01
  5
1A0AE
 10
2743.03
 20
-1908.94
 30
0.000000
  70
    32
  0
VERTEX
  8
01
  5
1A0AF
 10
2742.99
 20
-1908.92
 30
0.000000
  70
    32
  0
VERTEX
  8
01
  5
1A0B0
 10
2742.95
 20
-1908.90
 30
0.000000
  70
    32
  0
VERTEX
  8
01
  5
1A0B1
 10
2742.91
 20
-1908.89
 30
0.000000
  70
    32
  0
VERTEX
  8
01
  5
1A0B2
 10
2742.87
 20
-1908.87
 30
0.000000
  70
    32
  0
VERTEX
  8
01
  5
1A0B3
 10
2742.84
 20
-1908.85
 30
0.000000
  70
    32
  0
VERTEX
  8
01
  5
1A0B4
 10
2742.80
 20
-1908.84
 30
0.000000
  70
    32
  0
VERTEX
  8
01
  5
1A0B5
 10
2742.76
 20
-1908.82
 30
0.000000
  70
    32
  0
VERTEX
  8
01
  5
1A0B6
 10
2742.72
 20
-1908.81
 30
0.000000
  70
    32
  0
VERTEX
  8
01
  5
1A0B7
 10
2742.68
 20
-1908.79
 30
0.000000
  70
    32
  0
VERTEX
  8
01
  5
1A0B8
 10
2742.64
 20
-1908.78
 30
0.000000
  70
    32
  0
VERTEX
  8
01
  5
1A0B9
 10
2742.60
 20
-1908.76
 30
0.000000
  70
    32
  0
VERTEX
  8
01
  5
1A0BA
 10
2742.56
 20
-1908.75
 30
0.000000
  70
    32
  0
VERTEX
  8
01
  5
1A0BB
 10
2742.52
 20
-1908.74
 30
0.000000
  70
    32
  0
VERTEX
  8
01
  5
1A0BC
 10
2742.48
 20
-1908.73
 30
0.000000
  70
    32
  0
VERTEX
  8
01
  5
1A0BD
 10
2742.44
 20
-1908.72
 30
0.000000
  70
    32
  0
VERTEX
  8
01
  5
1A0BE
 10
2742.40
 20
-1908.71
 30
0.000000
  70
    32
  0
VERTEX
  8
01
  5
1A0BF
 10
2742.35
 20
-1908.70
 30
0.000000
  70
    32
  0
VERTEX
  8
01
  5
1A0C0
 10
2742.31
 20
-1908.69
 30
0.000000
  70
    32
  0
VERTEX
  8
01
  5
1A0C1
 10
2742.27
 20
-1908.68
 30
0.000000
  70
    32
  0
VERTEX
  8
01
  5
1A0C2
 10
2742.23
 20
-1908.67
 30
0.000000
  70
    32
  0
VERTEX
  8
01
  5
1A0C3
 10
2742.19
 20
-1908.66
 30
0.000000
  70
    32
  0
VERTEX
  8
01
  5
1A0C4
 10
2742.15
 20
-1908.66
 30
0.000000
  70
    32
  0
VERTEX
  8
01
  5
1A0C5
 10
2742.11
 20
-1908.65
 30
0.000000
  70
    32
  0
VERTEX
  8
01
  5
1A0C6
 10
2742.07
 20
-1908.64
 30
0.000000
  70
    32
  0
VERTEX
  8
01
  5
1A0C7
 10
2742.03
 20
-1908.64
 30
0.000000
  70
    32
  0
VERTEX
  8
01
  5
1A0C8
 10
2741.98
 20
-1908.63
 30
0.000000
  70
    32
  0
VERTEX
  8
01
  5
1A0C9
 10
2741.94
 20
-1908.63
 30
0.000000
  70
    32
  0
VERTEX
  8
01
  5
1A0CA
 10
2741.90
 20
-1908.63
 30
0.000000
  70
    32
  0
VERTEX
  8
01
  5
1A0CB
 10
2741.86
 20
-1908.62
 30
0.000000
  70
    32
  0
VERTEX
  8
01
  5
1A0CC
 10
2741.82
 20
-1908.62
 30
0.000000
  70
    32
  0
VERTEX
  8
01
  5
1A0CD
 10
2741.78
 20
-1908.62
 30
0.000000
  70
    32
  0
VERTEX
  8
01
  5
1A0CE
 10
2741.74
 20
-1908.62
 30
0.000000
  70
    32
  0
VERTEX
  8
01
  5
1A0CF
 10
2741.69
 20
-1908.62
 30
0.000000
  70
    32
  0
SEQEND
  8
01
  5
1A0D0
  0
LINE
  5
194DA
  8
01
 10
2873.0703190168242
 20
-1908.6186285440449
 30
0.0
 11
2871.4471740750919
 21
-1908.6186285440449
 31
0.0
  0
POLYLINE
  5
194DB
  8
01
 10
2872.6996433634631
 20
-1916.6186285440449
 30
0.0
 66
     1
 70
     8
  0
VERTEX
  8
01
  5
1A0D1
 10
2872.70
 20
-1916.62
 30
0.000000
  70
    32
  0
VERTEX
  8
01
  5
1A0D2
 10
2872.64
 20
-1916.62
 30
0.000000
  70
    32
  0
VERTEX
  8
01
  5
1A0D3
 10
2872.59
 20
-1916.62
 30
0.000000
  70
    32
  0
VERTEX
  8
01
  5
1A0D4
 10
2872.53
 20
-1916.62
 30
0.000000
  70
    32
  0
VERTEX
  8
01
  5
1A0D5
 10
2872.47
 20
-1916.61
 30
0.000000
  70
    32
  0
VERTEX
  8
01
  5
1A0D6
 10
2872.42
 20
-1916.61
 30
0.000000
  70
    32
  0
VERTEX
  8
01
  5
1A0D7
 10
2872.36
 20
-1916.61
 30
0.000000
  70
    32
  0
VERTEX
  8
01
  5
1A0D8
 10
2872.30
 20
-1916.60
 30
0.000000
  70
    32
  0
VERTEX
  8
01
  5
1A0D9
 10
2872.24
 20
-1916.60
 30
0.000000
  70
    32
  0
VERTEX
  8
01
  5
1A0DA
 10
2872.19
 20
-1916.59
 30
0.000000
  70
    32
  0
VERTEX
  8
01
  5
1A0DB
 10
2872.13
 20
-1916.59
 30
0.000000
  70
    32
  0
VERTEX
  8
01
  5
1A0DC
 10
2872.07
 20
-1916.58
 30
0.000000
  70
    32
  0
VERTEX
  8
01
  5
1A0DD
 10
2872.02
 20
-1916.58
 30
0.000000
  70
    32
  0
VERTEX
  8
01
  5
1A0DE
 10
2871.96
 20
-1916.57
 30
0.000000
  70
    32
  0
VERTEX
  8
01
  5
1A0DF
 10
2871.91
 20
-1916.56
 30
0.000000
  70
    32
  0
VERTEX
  8
01
  5
1A0E0
 10
2871.85
 20
-1916.55
 30
0.000000
  70
    32
  0
VERTEX
  8
01
  5
1A0E1
 10
2871.79
 20
-1916.54
 30
0.000000
  70
    32
  0
VERTEX
  8
01
  5
1A0E2
 10
2871.74
 20
-1916.53
 30
0.000000
  70
    32
  0
VERTEX
  8
01
  5
1A0E3
 10
2871.68
 20
-1916.52
 30
0.000000
  70
    32
  0
VERTEX
  8
01
  5
1A0E4
 10
2871.63
 20
-1916.51
 30
0.000000
  70
    32
  0
VERTEX
  8
01
  5
1A0E5
 10
2871.57
 20
-1916.50
 30
0.000000
  70
    32
  0
VERTEX
  8
01
  5
1A0E6
 10
2871.52
 20
-1916.49
 30
0.000000
  70
    32
  0
VERTEX
  8
01
  5
1A0E7
 10
2871.46
 20
-1916.47
 30
0.000000
  70
    32
  0
VERTEX
  8
01
  5
1A0E8
 10
2871.41
 20
-1916.46
 30
0.000000
  70
    32
  0
VERTEX
  8
01
  5
1A0E9
 10
2871.35
 20
-1916.45
 30
0.000000
  70
    32
  0
VERTEX
  8
01
  5
1A0EA
 10
2871.30
 20
-1916.43
 30
0.000000
  70
    32
  0
VERTEX
  8
01
  5
1A0EB
 10
2871.24
 20
-1916.42
 30
0.000000
  70
    32
  0
VERTEX
  8
01
  5
1A0EC
 10
2871.19
 20
-1916.40
 30
0.000000
  70
    32
  0
VERTEX
  8
01
  5
1A0ED
 10
2871.14
 20
-1916.38
 30
0.000000
  70
    32
  0
VERTEX
  8
01
  5
1A0EE
 10
2871.08
 20
-1916.37
 30
0.000000
  70
    32
  0
VERTEX
  8
01
  5
1A0EF
 10
2871.03
 20
-1916.35
 30
0.000000
  70
    32
  0
VERTEX
  8
01
  5
1A0F0
 10
2870.98
 20
-1916.33
 30
0.000000
  70
    32
  0
VERTEX
  8
01
  5
1A0F1
 10
2870.92
 20
-1916.31
 30
0.000000
  70
    32
  0
VERTEX
  8
01
  5
1A0F2
 10
2870.87
 20
-1916.30
 30
0.000000
  70
    32
  0
VERTEX
  8
01
  5
1A0F3
 10
2870.82
 20
-1916.28
 30
0.000000
  70
    32
  0
VERTEX
  8
01
  5
1A0F4
 10
2870.77
 20
-1916.26
 30
0.000000
  70
    32
  0
VERTEX
  8
01
  5
1A0F5
 10
2870.72
 20
-1916.23
 30
0.000000
  70
    32
  0
VERTEX
  8
01
  5
1A0F6
 10
2870.66
 20
-1916.21
 30
0.000000
  70
    32
  0
VERTEX
  8
01
  5
1A0F7
 10
2870.61
 20
-1916.19
 30
0.000000
  70
    32
  0
VERTEX
  8
01
  5
1A0F8
 10
2870.56
 20
-1916.17
 30
0.000000
  70
    32
  0
VERTEX
  8
01
  5
1A0F9
 10
2870.51
 20
-1916.15
 30
0.000000
  70
    32
  0
VERTEX
  8
01
  5
1A0FA
 10
2870.46
 20
-1916.12
 30
0.000000
  70
    32
  0
VERTEX
  8
01
  5
1A0FB
 10
2870.41
 20
-1916.10
 30
0.000000
  70
    32
  0
VERTEX
  8
01
  5
1A0FC
 10
2870.36
 20
-1916.07
 30
0.000000
  70
    32
  0
VERTEX
  8
01
  5
1A0FD
 10
2870.31
 20
-1916.05
 30
0.000000
  70
    32
  0
VERTEX
  8
01
  5
1A0FE
 10
2870.26
 20
-1916.02
 30
0.000000
  70
    32
  0
VERTEX
  8
01
  5
1A0FF
 10
2870.22
 20
-1916.00
 30
0.000000
  70
    32
  0
VERTEX
  8
01
  5
1A100
 10
2870.17
 20
-1915.97
 30
0.000000
  70
    32
  0
VERTEX
  8
01
  5
1A101
 10
2870.12
 20
-1915.94
 30
0.000000
  70
    32
  0
VERTEX
  8
01
  5
1A102
 10
2870.07
 20
-1915.92
 30
0.000000
  70
    32
  0
VERTEX
  8
01
  5
1A103
 10
2870.03
 20
-1915.89
 30
0.000000
  70
    32
  0
VERTEX
  8
01
  5
1A104
 10
2869.98
 20
-1915.86
 30
0.000000
  70
    32
  0
VERTEX
  8
01
  5
1A105
 10
2869.93
 20
-1915.83
 30
0.000000
  70
    32
  0
VERTEX
  8
01
  5
1A106
 10
2869.89
 20
-1915.80
 30
0.000000
  70
    32
  0
VERTEX
  8
01
  5
1A107
 10
2869.84
 20
-1915.77
 30
0.000000
  70
    32
  0
VERTEX
  8
01
  5
1A108
 10
2869.80
 20
-1915.74
 30
0.000000
  70
    32
  0
VERTEX
  8
01
  5
1A109
 10
2869.76
 20
-1915.71
 30
0.000000
  70
    32
  0
VERTEX
  8
01
  5
1A10A
 10
2869.71
 20
-1915.68
 30
0.000000
  70
    32
  0
VERTEX
  8
01
  5
1A10B
 10
2869.67
 20
-1915.65
 30
0.000000
  70
    32
  0
VERTEX
  8
01
  5
1A10C
 10
2869.63
 20
-1915.62
 30
0.000000
  70
    32
  0
VERTEX
  8
01
  5
1A10D
 10
2869.58
 20
-1915.58
 30
0.000000
  70
    32
  0
VERTEX
  8
01
  5
1A10E
 10
2869.54
 20
-1915.55
 30
0.000000
  70
    32
  0
VERTEX
  8
01
  5
1A10F
 10
2869.50
 20
-1915.52
 30
0.000000
  70
    32
  0
VERTEX
  8
01
  5
1A110
 10
2869.46
 20
-1915.48
 30
0.000000
  70
    32
  0
VERTEX
  8
01
  5
1A111
 10
2869.42
 20
-1915.45
 30
0.000000
  70
    32
  0
VERTEX
  8
01
  5
1A112
 10
2869.38
 20
-1915.41
 30
0.000000
  70
    32
  0
VERTEX
  8
01
  5
1A113
 10
2869.34
 20
-1915.38
 30
0.000000
  70
    32
  0
VERTEX
  8
01
  5
1A114
 10
2869.30
 20
-1915.34
 30
0.000000
  70
    32
  0
VERTEX
  8
01
  5
1A115
 10
2869.26
 20
-1915.30
 30
0.000000
  70
    32
  0
VERTEX
  8
01
  5
1A116
 10
2869.22
 20
-1915.27
 30
0.000000
  70
    32
  0
VERTEX
  8
01
  5
1A117
 10
2869.19
 20
-1915.23
 30
0.000000
  70
    32
  0
VERTEX
  8
01
  5
1A118
 10
2869.15
 20
-1915.19
 30
0.000000
  70
    32
  0
VERTEX
  8
01
  5
1A119
 10
2869.11
 20
-1915.16
 30
0.000000
  70
    32
  0
VERTEX
  8
01
  5
1A11A
 10
2869.08
 20
-1915.12
 30
0.000000
  70
    32
  0
VERTEX
  8
01
  5
1A11B
 10
2869.04
 20
-1915.08
 30
0.000000
  70
    32
  0
VERTEX
  8
01
  5
1A11C
 10
2869.01
 20
-1915.04
 30
0.000000
  70
    32
  0
VERTEX
  8
01
  5
1A11D
 10
2868.97
 20
-1915.00
 30
0.000000
  70
    32
  0
VERTEX
  8
01
  5
1A11E
 10
2868.94
 20
-1914.96
 30
0.000000
  70
    32
  0
VERTEX
  8
01
  5
1A11F
 10
2868.90
 20
-1914.92
 30
0.000000
  70
    32
  0
VERTEX
  8
01
  5
1A120
 10
2868.87
 20
-1914.88
 30
0.000000
  70
    32
  0
VERTEX
  8
01
  5
1A121
 10
2868.84
 20
-1914.84
 30
0.000000
  70
    32
  0
VERTEX
  8
01
  5
1A122
 10
2868.81
 20
-1914.80
 30
0.000000
  70
    32
  0
VERTEX
  8
01
  5
1A123
 10
2868.78
 20
-1914.76
 30
0.000000
  70
    32
  0
VERTEX
  8
01
  5
1A124
 10
2868.75
 20
-1914.72
 30
0.000000
  70
    32
  0
VERTEX
  8
01
  5
1A125
 10
2868.72
 20
-1914.68
 30
0.000000
  70
    32
  0
VERTEX
  8
01
  5
1A126
 10
2868.69
 20
-1914.63
 30
0.000000
  70
    32
  0
VERTEX
  8
01
  5
1A127
 10
2868.66
 20
-1914.59
 30
0.000000
  70
    32
  0
VERTEX
  8
01
  5
1A128
 10
2868.63
 20
-1914.55
 30
0.000000
  70
    32
  0
VERTEX
  8
01
  5
1A129
 10
2868.61
 20
-1914.50
 30
0.000000
  70
    32
  0
VERTEX
  8
01
  5
1A12A
 10
2868.58
 20
-1914.46
 30
0.000000
  70
    32
  0
VERTEX
  8
01
  5
1A12B
 10
2868.55
 20
-1914.42
 30
0.000000
  70
    32
  0
VERTEX
  8
01
  5
1A12C
 10
2868.53
 20
-1914.37
 30
0.000000
  70
    32
  0
VERTEX
  8
01
  5
1A12D
 10
2868.50
 20
-1914.33
 30
0.000000
  70
    32
  0
VERTEX
  8
01
  5
1A12E
 10
2868.48
 20
-1914.28
 30
0.000000
  70
    32
  0
VERTEX
  8
01
  5
1A12F
 10
2868.46
 20
-1914.24
 30
0.000000
  70
    32
  0
VERTEX
  8
01
  5
1A130
 10
2868.43
 20
-1914.19
 30
0.000000
  70
    32
  0
VERTEX
  8
01
  5
1A131
 10
2868.41
 20
-1914.15
 30
0.000000
  70
    32
  0
VERTEX
  8
01
  5
1A132
 10
2868.39
 20
-1914.10
 30
0.000000
  70
    32
  0
VERTEX
  8
01
  5
1A133
 10
2868.37
 20
-1914.06
 30
0.000000
  70
    32
  0
VERTEX
  8
01
  5
1A134
 10
2868.35
 20
-1914.01
 30
0.000000
  70
    32
  0
VERTEX
  8
01
  5
1A135
 10
2868.33
 20
-1913.97
 30
0.000000
  70
    32
  0
VERTEX
  8
01
  5
1A136
 10
2868.31
 20
-1913.92
 30
0.000000
  70
    32
  0
VERTEX
  8
01
  5
1A137
 10
2868.29
 20
-1913.87
 30
0.000000
  70
    32
  0
VERTEX
  8
01
  5
1A138
 10
2868.27
 20
-1913.83
 30
0.000000
  70
    32
  0
VERTEX
  8
01
  5
1A139
 10
2868.26
 20
-1913.78
 30
0.000000
  70
    32
  0
VERTEX
  8
01
  5
1A13A
 10
2868.24
 20
-1913.73
 30
0.000000
  70
    32
  0
VERTEX
  8
01
  5
1A13B
 10
2868.23
 20
-1913.69
 30
0.000000
  70
    32
  0
VERTEX
  8
01
  5
1A13C
 10
2868.21
 20
-1913.64
 30
0.000000
  70
    32
  0
VERTEX
  8
01
  5
1A13D
 10
2868.20
 20
-1913.59
 30
0.000000
  70
    32
  0
VERTEX
  8
01
  5
1A13E
 10
2868.18
 20
-1913.54
 30
0.000000
  70
    32
  0
VERTEX
  8
01
  5
1A13F
 10
2868.17
 20
-1913.50
 30
0.000000
  70
    32
  0
VERTEX
  8
01
  5
1A140
 10
2868.16
 20
-1913.45
 30
0.000000
  70
    32
  0
VERTEX
  8
01
  5
1A141
 10
2868.15
 20
-1913.40
 30
0.000000
  70
    32
  0
VERTEX
  8
01
  5
1A142
 10
2868.14
 20
-1913.35
 30
0.000000
  70
    32
  0
VERTEX
  8
01
  5
1A143
 10
2868.13
 20
-1913.30
 30
0.000000
  70
    32
  0
VERTEX
  8
01
  5
1A144
 10
2868.12
 20
-1913.25
 30
0.000000
  70
    32
  0
VERTEX
  8
01
  5
1A145
 10
2868.11
 20
-1913.21
 30
0.000000
  70
    32
  0
VERTEX
  8
01
  5
1A146
 10
2868.10
 20
-1913.16
 30
0.000000
  70
    32
  0
VERTEX
  8
01
  5
1A147
 10
2868.09
 20
-1913.11
 30
0.000000
  70
    32
  0
VERTEX
  8
01
  5
1A148
 10
2868.09
 20
-1913.06
 30
0.000000
  70
    32
  0
VERTEX
  8
01
  5
1A149
 10
2868.08
 20
-1913.01
 30
0.000000
  70
    32
  0
VERTEX
  8
01
  5
1A14A
 10
2868.08
 20
-1912.96
 30
0.000000
  70
    32
  0
VERTEX
  8
01
  5
1A14B
 10
2868.07
 20
-1912.91
 30
0.000000
  70
    32
  0
VERTEX
  8
01
  5
1A14C
 10
2868.07
 20
-1912.86
 30
0.000000
  70
    32
  0
VERTEX
  8
01
  5
1A14D
 10
2868.06
 20
-1912.81
 30
0.000000
  70
    32
  0
VERTEX
  8
01
  5
1A14E
 10
2868.06
 20
-1912.77
 30
0.000000
  70
    32
  0
VERTEX
  8
01
  5
1A14F
 10
2868.06
 20
-1912.72
 30
0.000000
  70
    32
  0
VERTEX
  8
01
  5
1A150
 10
2868.06
 20
-1912.67
 30
0.000000
  70
    32
  0
VERTEX
  8
01
  5
1A151
 10
2868.06
 20
-1912.62
 30
0.000000
  70
    32
  0
SEQEND
  8
01
  5
1A152
  0
POLYLINE
  5
194DC
  8
01
 10
2868.0581293691043
 20
-1912.6186285440449
 30
0.0
 66
     1
 70
     8
  0
VERTEX
  8
01
  5
1A153
 10
2868.06
 20
-1912.62
 30
0.000000
  70
    32
  0
VERTEX
  8
01
  5
1A154
 10
2868.06
 20
-1912.57
 30
0.000000
  70
    32
  0
VERTEX
  8
01
  5
1A155
 10
2868.06
 20
-1912.52
 30
0.000000
  70
    32
  0
VERTEX
  8
01
  5
1A156
 10
2868.06
 20
-1912.47
 30
0.000000
  70
    32
  0
VERTEX
  8
01
  5
1A157
 10
2868.06
 20
-1912.42
 30
0.000000
  70
    32
  0
VERTEX
  8
01
  5
1A158
 10
2868.06
 20
-1912.37
 30
0.000000
  70
    32
  0
VERTEX
  8
01
  5
1A159
 10
2868.07
 20
-1912.32
 30
0.000000
  70
    32
  0
VERTEX
  8
01
  5
1A15A
 10
2868.07
 20
-1912.28
 30
0.000000
  70
    32
  0
VERTEX
  8
01
  5
1A15B
 10
2868.07
 20
-1912.23
 30
0.000000
  70
    32
  0
VERTEX
  8
01
  5
1A15C
 10
2868.08
 20
-1912.18
 30
0.000000
  70
    32
  0
VERTEX
  8
01
  5
1A15D
 10
2868.08
 20
-1912.13
 30
0.000000
  70
    32
  0
VERTEX
  8
01
  5
1A15E
 10
2868.09
 20
-1912.08
 30
0.000000
  70
    32
  0
VERTEX
  8
01
  5
1A15F
 10
2868.09
 20
-1912.03
 30
0.000000
  70
    32
  0
VERTEX
  8
01
  5
1A160
 10
2868.10
 20
-1911.98
 30
0.000000
  70
    32
  0
VERTEX
  8
01
  5
1A161
 10
2868.11
 20
-1911.93
 30
0.000000
  70
    32
  0
VERTEX
  8
01
  5
1A162
 10
2868.12
 20
-1911.89
 30
0.000000
  70
    32
  0
VERTEX
  8
01
  5
1A163
 10
2868.12
 20
-1911.84
 30
0.000000
  70
    32
  0
VERTEX
  8
01
  5
1A164
 10
2868.13
 20
-1911.79
 30
0.000000
  70
    32
  0
VERTEX
  8
01
  5
1A165
 10
2868.14
 20
-1911.74
 30
0.000000
  70
    32
  0
VERTEX
  8
01
  5
1A166
 10
2868.15
 20
-1911.69
 30
0.000000
  70
    32
  0
VERTEX
  8
01
  5
1A167
 10
2868.16
 20
-1911.65
 30
0.000000
  70
    32
  0
VERTEX
  8
01
  5
1A168
 10
2868.17
 20
-1911.60
 30
0.000000
  70
    32
  0
VERTEX
  8
01
  5
1A169
 10
2868.18
 20
-1911.55
 30
0.000000
  70
    32
  0
VERTEX
  8
01
  5
1A16A
 10
2868.19
 20
-1911.50
 30
0.000000
  70
    32
  0
VERTEX
  8
01
  5
1A16B
 10
2868.20
 20
-1911.46
 30
0.000000
  70
    32
  0
VERTEX
  8
01
  5
1A16C
 10
2868.22
 20
-1911.41
 30
0.000000
  70
    32
  0
VERTEX
  8
01
  5
1A16D
 10
2868.23
 20
-1911.36
 30
0.000000
  70
    32
  0
VERTEX
  8
01
  5
1A16E
 10
2868.24
 20
-1911.32
 30
0.000000
  70
    32
  0
VERTEX
  8
01
  5
1A16F
 10
2868.26
 20
-1911.27
 30
0.000000
  70
    32
  0
VERTEX
  8
01
  5
1A170
 10
2868.27
 20
-1911.22
 30
0.000000
  70
    32
  0
VERTEX
  8
01
  5
1A171
 10
2868.29
 20
-1911.18
 30
0.000000
  70
    32
  0
VERTEX
  8
01
  5
1A172
 10
2868.30
 20
-1911.13
 30
0.000000
  70
    32
  0
VERTEX
  8
01
  5
1A173
 10
2868.32
 20
-1911.09
 30
0.000000
  70
    32
  0
VERTEX
  8
01
  5
1A174
 10
2868.33
 20
-1911.04
 30
0.000000
  70
    32
  0
VERTEX
  8
01
  5
1A175
 10
2868.35
 20
-1911.00
 30
0.000000
  70
    32
  0
VERTEX
  8
01
  5
1A176
 10
2868.37
 20
-1910.95
 30
0.000000
  70
    32
  0
VERTEX
  8
01
  5
1A177
 10
2868.38
 20
-1910.91
 30
0.000000
  70
    32
  0
VERTEX
  8
01
  5
1A178
 10
2868.40
 20
-1910.86
 30
0.000000
  70
    32
  0
VERTEX
  8
01
  5
1A179
 10
2868.42
 20
-1910.82
 30
0.000000
  70
    32
  0
VERTEX
  8
01
  5
1A17A
 10
2868.44
 20
-1910.78
 30
0.000000
  70
    32
  0
VERTEX
  8
01
  5
1A17B
 10
2868.46
 20
-1910.73
 30
0.000000
  70
    32
  0
VERTEX
  8
01
  5
1A17C
 10
2868.48
 20
-1910.69
 30
0.000000
  70
    32
  0
VERTEX
  8
01
  5
1A17D
 10
2868.50
 20
-1910.65
 30
0.000000
  70
    32
  0
VERTEX
  8
01
  5
1A17E
 10
2868.52
 20
-1910.60
 30
0.000000
  70
    32
  0
VERTEX
  8
01
  5
1A17F
 10
2868.54
 20
-1910.56
 30
0.000000
  70
    32
  0
VERTEX
  8
01
  5
1A180
 10
2868.56
 20
-1910.52
 30
0.000000
  70
    32
  0
VERTEX
  8
01
  5
1A181
 10
2868.58
 20
-1910.48
 30
0.000000
  70
    32
  0
VERTEX
  8
01
  5
1A182
 10
2868.61
 20
-1910.44
 30
0.000000
  70
    32
  0
VERTEX
  8
01
  5
1A183
 10
2868.63
 20
-1910.40
 30
0.000000
  70
    32
  0
VERTEX
  8
01
  5
1A184
 10
2868.65
 20
-1910.36
 30
0.000000
  70
    32
  0
VERTEX
  8
01
  5
1A185
 10
2868.68
 20
-1910.32
 30
0.000000
  70
    32
  0
VERTEX
  8
01
  5
1A186
 10
2868.70
 20
-1910.28
 30
0.000000
  70
    32
  0
VERTEX
  8
01
  5
1A187
 10
2868.73
 20
-1910.24
 30
0.000000
  70
    32
  0
VERTEX
  8
01
  5
1A188
 10
2868.75
 20
-1910.20
 30
0.000000
  70
    32
  0
VERTEX
  8
01
  5
1A189
 10
2868.78
 20
-1910.16
 30
0.000000
  70
    32
  0
VERTEX
  8
01
  5
1A18A
 10
2868.80
 20
-1910.12
 30
0.000000
  70
    32
  0
VERTEX
  8
01
  5
1A18B
 10
2868.83
 20
-1910.08
 30
0.000000
  70
    32
  0
VERTEX
  8
01
  5
1A18C
 10
2868.85
 20
-1910.04
 30
0.000000
  70
    32
  0
VERTEX
  8
01
  5
1A18D
 10
2868.88
 20
-1910.01
 30
0.000000
  70
    32
  0
VERTEX
  8
01
  5
1A18E
 10
2868.91
 20
-1909.97
 30
0.000000
  70
    32
  0
VERTEX
  8
01
  5
1A18F
 10
2868.94
 20
-1909.93
 30
0.000000
  70
    32
  0
VERTEX
  8
01
  5
1A190
 10
2868.96
 20
-1909.90
 30
0.000000
  70
    32
  0
VERTEX
  8
01
  5
1A191
 10
2868.99
 20
-1909.86
 30
0.000000
  70
    32
  0
VERTEX
  8
01
  5
1A192
 10
2869.02
 20
-1909.83
 30
0.000000
  70
    32
  0
VERTEX
  8
01
  5
1A193
 10
2869.05
 20
-1909.79
 30
0.000000
  70
    32
  0
VERTEX
  8
01
  5
1A194
 10
2869.08
 20
-1909.76
 30
0.000000
  70
    32
  0
VERTEX
  8
01
  5
1A195
 10
2869.11
 20
-1909.72
 30
0.000000
  70
    32
  0
VERTEX
  8
01
  5
1A196
 10
2869.14
 20
-1909.69
 30
0.000000
  70
    32
  0
VERTEX
  8
01
  5
1A197
 10
2869.17
 20
-1909.65
 30
0.000000
  70
    32
  0
VERTEX
  8
01
  5
1A198
 10
2869.20
 20
-1909.62
 30
0.000000
  70
    32
  0
VERTEX
  8
01
  5
1A199
 10
2869.23
 20
-1909.59
 30
0.000000
  70
    32
  0
VERTEX
  8
01
  5
1A19A
 10
2869.27
 20
-1909.56
 30
0.000000
  70
    32
  0
VERTEX
  8
01
  5
1A19B
 10
2869.30
 20
-1909.53
 30
0.000000
  70
    32
  0
VERTEX
  8
01
  5
1A19C
 10
2869.33
 20
-1909.50
 30
0.000000
  70
    32
  0
VERTEX
  8
01
  5
1A19D
 10
2869.36
 20
-1909.47
 30
0.000000
  70
    32
  0
VERTEX
  8
01
  5
1A19E
 10
2869.40
 20
-1909.44
 30
0.000000
  70
    32
  0
VERTEX
  8
01
  5
1A19F
 10
2869.43
 20
-1909.41
 30
0.000000
  70
    32
  0
VERTEX
  8
01
  5
1A1A0
 10
2869.46
 20
-1909.38
 30
0.000000
  70
    32
  0
VERTEX
  8
01
  5
1A1A1
 10
2869.50
 20
-1909.35
 30
0.000000
  70
    32
  0
VERTEX
  8
01
  5
1A1A2
 10
2869.53
 20
-1909.32
 30
0.000000
  70
    32
  0
VERTEX
  8
01
  5
1A1A3
 10
2869.56
 20
-1909.29
 30
0.000000
  70
    32
  0
VERTEX
  8
01
  5
1A1A4
 10
2869.60
 20
-1909.27
 30
0.000000
  70
    32
  0
VERTEX
  8
01
  5
1A1A5
 10
2869.63
 20
-1909.24
 30
0.000000
  70
    32
  0
VERTEX
  8
01
  5
1A1A6
 10
2869.67
 20
-1909.21
 30
0.000000
  70
    32
  0
VERTEX
  8
01
  5
1A1A7
 10
2869.70
 20
-1909.19
 30
0.000000
  70
    32
  0
VERTEX
  8
01
  5
1A1A8
 10
2869.74
 20
-1909.16
 30
0.000000
  70
    32
  0
VERTEX
  8
01
  5
1A1A9
 10
2869.78
 20
-1909.14
 30
0.000000
  70
    32
  0
VERTEX
  8
01
  5
1A1AA
 10
2869.81
 20
-1909.11
 30
0.000000
  70
    32
  0
VERTEX
  8
01
  5
1A1AB
 10
2869.85
 20
-1909.09
 30
0.000000
  70
    32
  0
VERTEX
  8
01
  5
1A1AC
 10
2869.89
 20
-1909.07
 30
0.000000
  70
    32
  0
VERTEX
  8
01
  5
1A1AD
 10
2869.92
 20
-1909.05
 30
0.000000
  70
    32
  0
VERTEX
  8
01
  5
1A1AE
 10
2869.96
 20
-1909.02
 30
0.000000
  70
    32
  0
VERTEX
  8
01
  5
1A1AF
 10
2870.00
 20
-1909.00
 30
0.000000
  70
    32
  0
VERTEX
  8
01
  5
1A1B0
 10
2870.04
 20
-1908.98
 30
0.000000
  70
    32
  0
VERTEX
  8
01
  5
1A1B1
 10
2870.07
 20
-1908.96
 30
0.000000
  70
    32
  0
VERTEX
  8
01
  5
1A1B2
 10
2870.11
 20
-1908.94
 30
0.000000
  70
    32
  0
VERTEX
  8
01
  5
1A1B3
 10
2870.15
 20
-1908.92
 30
0.000000
  70
    32
  0
VERTEX
  8
01
  5
1A1B4
 10
2870.19
 20
-1908.90
 30
0.000000
  70
    32
  0
VERTEX
  8
01
  5
1A1B5
 10
2870.23
 20
-1908.89
 30
0.000000
  70
    32
  0
VERTEX
  8
01
  5
1A1B6
 10
2870.27
 20
-1908.87
 30
0.000000
  70
    32
  0
VERTEX
  8
01
  5
1A1B7
 10
2870.31
 20
-1908.85
 30
0.000000
  70
    32
  0
VERTEX
  8
01
  5
1A1B8
 10
2870.34
 20
-1908.84
 30
0.000000
  70
    32
  0
VERTEX
  8
01
  5
1A1B9
 10
2870.38
 20
-1908.82
 30
0.000000
  70
    32
  0
VERTEX
  8
01
  5
1A1BA
 10
2870.42
 20
-1908.81
 30
0.000000
  70
    32
  0
VERTEX
  8
01
  5
1A1BB
 10
2870.46
 20
-1908.79
 30
0.000000
  70
    32
  0
VERTEX
  8
01
  5
1A1BC
 10
2870.50
 20
-1908.78
 30
0.000000
  70
    32
  0
VERTEX
  8
01
  5
1A1BD
 10
2870.54
 20
-1908.76
 30
0.000000
  70
    32
  0
VERTEX
  8
01
  5
1A1BE
 10
2870.58
 20
-1908.75
 30
0.000000
  70
    32
  0
VERTEX
  8
01
  5
1A1BF
 10
2870.62
 20
-1908.74
 30
0.000000
  70
    32
  0
VERTEX
  8
01
  5
1A1C0
 10
2870.66
 20
-1908.73
 30
0.000000
  70
    32
  0
VERTEX
  8
01
  5
1A1C1
 10
2870.70
 20
-1908.72
 30
0.000000
  70
    32
  0
VERTEX
  8
01
  5
1A1C2
 10
2870.75
 20
-1908.71
 30
0.000000
  70
    32
  0
VERTEX
  8
01
  5
1A1C3
 10
2870.79
 20
-1908.70
 30
0.000000
  70
    32
  0
VERTEX
  8
01
  5
1A1C4
 10
2870.83
 20
-1908.69
 30
0.000000
  70
    32
  0
VERTEX
  8
01
  5
1A1C5
 10
2870.87
 20
-1908.68
 30
0.000000
  70
    32
  0
VERTEX
  8
01
  5
1A1C6
 10
2870.91
 20
-1908.67
 30
0.000000
  70
    32
  0
VERTEX
  8
01
  5
1A1C7
 10
2870.95
 20
-1908.66
 30
0.000000
  70
    32
  0
VERTEX
  8
01
  5
1A1C8
 10
2870.99
 20
-1908.66
 30
0.000000
  70
    32
  0
VERTEX
  8
01
  5
1A1C9
 10
2871.03
 20
-1908.65
 30
0.000000
  70
    32
  0
VERTEX
  8
01
  5
1A1CA
 10
2871.07
 20
-1908.64
 30
0.000000
  70
    32
  0
VERTEX
  8
01
  5
1A1CB
 10
2871.11
 20
-1908.64
 30
0.000000
  70
    32
  0
VERTEX
  8
01
  5
1A1CC
 10
2871.16
 20
-1908.63
 30
0.000000
  70
    32
  0
VERTEX
  8
01
  5
1A1CD
 10
2871.20
 20
-1908.63
 30
0.000000
  70
    32
  0
VERTEX
  8
01
  5
1A1CE
 10
2871.24
 20
-1908.63
 30
0.000000
  70
    32
  0
VERTEX
  8
01
  5
1A1CF
 10
2871.28
 20
-1908.62
 30
0.000000
  70
    32
  0
VERTEX
  8
01
  5
1A1D0
 10
2871.32
 20
-1908.62
 30
0.000000
  70
    32
  0
VERTEX
  8
01
  5
1A1D1
 10
2871.36
 20
-1908.62
 30
0.000000
  70
    32
  0
VERTEX
  8
01
  5
1A1D2
 10
2871.41
 20
-1908.62
 30
0.000000
  70
    32
  0
VERTEX
  8
01
  5
1A1D3
 10
2871.45
 20
-1908.62
 30
0.000000
  70
    32
  0
SEQEND
  8
01
  5
1A1D4
  0
POLYLINE
  5
194DD
  8
01
 10
2740.0703190168192
 20
-1916.6186285440449
 30
0.0
 66
     1
 70
     8
  0
VERTEX
  8
01
  5
1A1D5
 10
2740.07
 20
-1916.62
 30
0.000000
  70
    32
  0
VERTEX
  8
01
  5
1A1D6
 10
2740.17
 20
-1916.62
 30
0.000000
  70
    32
  0
VERTEX
  8
01
  5
1A1D7
 10
2740.27
 20
-1916.61
 30
0.000000
  70
    32
  0
VERTEX
  8
01
  5
1A1D8
 10
2740.37
 20
-1916.61
 30
0.000000
  70
    32
  0
VERTEX
  8
01
  5
1A1D9
 10
2740.46
 20
-1916.60
 30
0.000000
  70
    32
  0
VERTEX
  8
01
  5
1A1DA
 10
2740.56
 20
-1916.59
 30
0.000000
  70
    32
  0
VERTEX
  8
01
  5
1A1DB
 10
2740.66
 20
-1916.58
 30
0.000000
  70
    32
  0
VERTEX
  8
01
  5
1A1DC
 10
2740.76
 20
-1916.56
 30
0.000000
  70
    32
  0
VERTEX
  8
01
  5
1A1DD
 10
2740.85
 20
-1916.54
 30
0.000000
  70
    32
  0
VERTEX
  8
01
  5
1A1DE
 10
2740.95
 20
-1916.52
 30
0.000000
  70
    32
  0
VERTEX
  8
01
  5
1A1DF
 10
2741.05
 20
-1916.50
 30
0.000000
  70
    32
  0
VERTEX
  8
01
  5
1A1E0
 10
2741.14
 20
-1916.47
 30
0.000000
  70
    32
  0
VERTEX
  8
01
  5
1A1E1
 10
2741.24
 20
-1916.45
 30
0.000000
  70
    32
  0
VERTEX
  8
01
  5
1A1E2
 10
2741.33
 20
-1916.42
 30
0.000000
  70
    32
  0
VERTEX
  8
01
  5
1A1E3
 10
2741.42
 20
-1916.38
 30
0.000000
  70
    32
  0
VERTEX
  8
01
  5
1A1E4
 10
2741.52
 20
-1916.35
 30
0.000000
  70
    32
  0
VERTEX
  8
01
  5
1A1E5
 10
2741.61
 20
-1916.31
 30
0.000000
  70
    32
  0
VERTEX
  8
01
  5
1A1E6
 10
2741.70
 20
-1916.28
 30
0.000000
  70
    32
  0
VERTEX
  8
01
  5
1A1E7
 10
2741.79
 20
-1916.23
 30
0.000000
  70
    32
  0
VERTEX
  8
01
  5
1A1E8
 10
2741.88
 20
-1916.19
 30
0.000000
  70
    32
  0
VERTEX
  8
01
  5
1A1E9
 10
2741.96
 20
-1916.15
 30
0.000000
  70
    32
  0
VERTEX
  8
01
  5
1A1EA
 10
2742.05
 20
-1916.10
 30
0.000000
  70
    32
  0
VERTEX
  8
01
  5
1A1EB
 10
2742.13
 20
-1916.05
 30
0.000000
  70
    32
  0
VERTEX
  8
01
  5
1A1EC
 10
2742.22
 20
-1916.00
 30
0.000000
  70
    32
  0
VERTEX
  8
01
  5
1A1ED
 10
2742.30
 20
-1915.94
 30
0.000000
  70
    32
  0
VERTEX
  8
01
  5
1A1EE
 10
2742.38
 20
-1915.89
 30
0.000000
  70
    32
  0
VERTEX
  8
01
  5
1A1EF
 10
2742.46
 20
-1915.83
 30
0.000000
  70
    32
  0
VERTEX
  8
01
  5
1A1F0
 10
2742.54
 20
-1915.77
 30
0.000000
  70
    32
  0
VERTEX
  8
01
  5
1A1F1
 10
2742.62
 20
-1915.71
 30
0.000000
  70
    32
  0
VERTEX
  8
01
  5
1A1F2
 10
2742.69
 20
-1915.65
 30
0.000000
  70
    32
  0
VERTEX
  8
01
  5
1A1F3
 10
2742.77
 20
-1915.58
 30
0.000000
  70
    32
  0
VERTEX
  8
01
  5
1A1F4
 10
2742.84
 20
-1915.52
 30
0.000000
  70
    32
  0
VERTEX
  8
01
  5
1A1F5
 10
2742.91
 20
-1915.45
 30
0.000000
  70
    32
  0
VERTEX
  8
01
  5
1A1F6
 10
2742.98
 20
-1915.38
 30
0.000000
  70
    32
  0
VERTEX
  8
01
  5
1A1F7
 10
2743.05
 20
-1915.30
 30
0.000000
  70
    32
  0
VERTEX
  8
01
  5
1A1F8
 10
2743.11
 20
-1915.23
 30
0.000000
  70
    32
  0
VERTEX
  8
01
  5
1A1F9
 10
2743.17
 20
-1915.16
 30
0.000000
  70
    32
  0
VERTEX
  8
01
  5
1A1FA
 10
2743.24
 20
-1915.08
 30
0.000000
  70
    32
  0
VERTEX
  8
01
  5
1A1FB
 10
2743.30
 20
-1915.00
 30
0.000000
  70
    32
  0
VERTEX
  8
01
  5
1A1FC
 10
2743.35
 20
-1914.92
 30
0.000000
  70
    32
  0
VERTEX
  8
01
  5
1A1FD
 10
2743.41
 20
-1914.84
 30
0.000000
  70
    32
  0
VERTEX
  8
01
  5
1A1FE
 10
2743.46
 20
-1914.76
 30
0.000000
  70
    32
  0
VERTEX
  8
01
  5
1A1FF
 10
2743.51
 20
-1914.68
 30
0.000000
  70
    32
  0
VERTEX
  8
01
  5
1A200
 10
2743.56
 20
-1914.59
 30
0.000000
  70
    32
  0
VERTEX
  8
01
  5
1A201
 10
2743.61
 20
-1914.50
 30
0.000000
  70
    32
  0
VERTEX
  8
01
  5
1A202
 10
2743.66
 20
-1914.42
 30
0.000000
  70
    32
  0
VERTEX
  8
01
  5
1A203
 10
2743.70
 20
-1914.33
 30
0.000000
  70
    32
  0
VERTEX
  8
01
  5
1A204
 10
2743.74
 20
-1914.24
 30
0.000000
  70
    32
  0
VERTEX
  8
01
  5
1A205
 10
2743.78
 20
-1914.15
 30
0.000000
  70
    32
  0
VERTEX
  8
01
  5
1A206
 10
2743.82
 20
-1914.06
 30
0.000000
  70
    32
  0
VERTEX
  8
01
  5
1A207
 10
2743.85
 20
-1913.97
 30
0.000000
  70
    32
  0
VERTEX
  8
01
  5
1A208
 10
2743.88
 20
-1913.87
 30
0.000000
  70
    32
  0
VERTEX
  8
01
  5
1A209
 10
2743.91
 20
-1913.78
 30
0.000000
  70
    32
  0
VERTEX
  8
01
  5
1A20A
 10
2743.94
 20
-1913.69
 30
0.000000
  70
    32
  0
VERTEX
  8
01
  5
1A20B
 10
2743.97
 20
-1913.59
 30
0.000000
  70
    32
  0
VERTEX
  8
01
  5
1A20C
 10
2743.99
 20
-1913.50
 30
0.000000
  70
    32
  0
VERTEX
  8
01
  5
1A20D
 10
2744.01
 20
-1913.40
 30
0.000000
  70
    32
  0
VERTEX
  8
01
  5
1A20E
 10
2744.03
 20
-1913.30
 30
0.000000
  70
    32
  0
VERTEX
  8
01
  5
1A20F
 10
2744.04
 20
-1913.21
 30
0.000000
  70
    32
  0
VERTEX
  8
01
  5
1A210
 10
2744.06
 20
-1913.11
 30
0.000000
  70
    32
  0
VERTEX
  8
01
  5
1A211
 10
2744.07
 20
-1913.01
 30
0.000000
  70
    32
  0
VERTEX
  8
01
  5
1A212
 10
2744.07
 20
-1912.91
 30
0.000000
  70
    32
  0
VERTEX
  8
01
  5
1A213
 10
2744.08
 20
-1912.81
 30
0.000000
  70
    32
  0
VERTEX
  8
01
  5
1A214
 10
2744.08
 20
-1912.72
 30
0.000000
  70
    32
  0
VERTEX
  8
01
  5
1A215
 10
2744.09
 20
-1912.62
 30
0.000000
  70
    32
  0
VERTEX
  8
01
  5
1A216
 10
2744.08
 20
-1912.52
 30
0.000000
  70
    32
  0
VERTEX
  8
01
  5
1A217
 10
2744.08
 20
-1912.42
 30
0.000000
  70
    32
  0
VERTEX
  8
01
  5
1A218
 10
2744.07
 20
-1912.32
 30
0.000000
  70
    32
  0
VERTEX
  8
01
  5
1A219
 10
2744.07
 20
-1912.23
 30
0.000000
  70
    32
  0
VERTEX
  8
01
  5
1A21A
 10
2744.06
 20
-1912.13
 30
0.000000
  70
    32
  0
VERTEX
  8
01
  5
1A21B
 10
2744.04
 20
-1912.03
 30
0.000000
  70
    32
  0
VERTEX
  8
01
  5
1A21C
 10
2744.03
 20
-1911.93
 30
0.000000
  70
    32
  0
VERTEX
  8
01
  5
1A21D
 10
2744.01
 20
-1911.84
 30
0.000000
  70
    32
  0
VERTEX
  8
01
  5
1A21E
 10
2743.99
 20
-1911.74
 30
0.000000
  70
    32
  0
VERTEX
  8
01
  5
1A21F
 10
2743.97
 20
-1911.65
 30
0.000000
  70
    32
  0
VERTEX
  8
01
  5
1A220
 10
2743.94
 20
-1911.55
 30
0.000000
  70
    32
  0
VERTEX
  8
01
  5
1A221
 10
2743.91
 20
-1911.46
 30
0.000000
  70
    32
  0
VERTEX
  8
01
  5
1A222
 10
2743.88
 20
-1911.36
 30
0.000000
  70
    32
  0
VERTEX
  8
01
  5
1A223
 10
2743.85
 20
-1911.27
 30
0.000000
  70
    32
  0
VERTEX
  8
01
  5
1A224
 10
2743.82
 20
-1911.18
 30
0.000000
  70
    32
  0
VERTEX
  8
01
  5
1A225
 10
2743.78
 20
-1911.09
 30
0.000000
  70
    32
  0
VERTEX
  8
01
  5
1A226
 10
2743.74
 20
-1911.00
 30
0.000000
  70
    32
  0
VERTEX
  8
01
  5
1A227
 10
2743.70
 20
-1910.91
 30
0.000000
  70
    32
  0
VERTEX
  8
01
  5
1A228
 10
2743.66
 20
-1910.82
 30
0.000000
  70
    32
  0
VERTEX
  8
01
  5
1A229
 10
2743.61
 20
-1910.73
 30
0.000000
  70
    32
  0
VERTEX
  8
01
  5
1A22A
 10
2743.56
 20
-1910.65
 30
0.000000
  70
    32
  0
VERTEX
  8
01
  5
1A22B
 10
2743.51
 20
-1910.56
 30
0.000000
  70
    32
  0
VERTEX
  8
01
  5
1A22C
 10
2743.46
 20
-1910.48
 30
0.000000
  70
    32
  0
VERTEX
  8
01
  5
1A22D
 10
2743.41
 20
-1910.40
 30
0.000000
  70
    32
  0
VERTEX
  8
01
  5
1A22E
 10
2743.35
 20
-1910.32
 30
0.000000
  70
    32
  0
VERTEX
  8
01
  5
1A22F
 10
2743.30
 20
-1910.24
 30
0.000000
  70
    32
  0
VERTEX
  8
01
  5
1A230
 10
2743.24
 20
-1910.16
 30
0.000000
  70
    32
  0
VERTEX
  8
01
  5
1A231
 10
2743.17
 20
-1910.08
 30
0.000000
  70
    32
  0
VERTEX
  8
01
  5
1A232
 10
2743.11
 20
-1910.01
 30
0.000000
  70
    32
  0
VERTEX
  8
01
  5
1A233
 10
2743.05
 20
-1909.93
 30
0.000000
  70
    32
  0
VERTEX
  8
01
  5
1A234
 10
2742.98
 20
-1909.86
 30
0.000000
  70
    32
  0
VERTEX
  8
01
  5
1A235
 10
2742.91
 20
-1909.79
 30
0.000000
  70
    32
  0
VERTEX
  8
01
  5
1A236
 10
2742.84
 20
-1909.72
 30
0.000000
  70
    32
  0
VERTEX
  8
01
  5
1A237
 10
2742.77
 20
-1909.65
 30
0.000000
  70
    32
  0
VERTEX
  8
01
  5
1A238
 10
2742.69
 20
-1909.59
 30
0.000000
  70
    32
  0
VERTEX
  8
01
  5
1A239
 10
2742.62
 20
-1909.53
 30
0.000000
  70
    32
  0
VERTEX
  8
01
  5
1A23A
 10
2742.54
 20
-1909.47
 30
0.000000
  70
    32
  0
VERTEX
  8
01
  5
1A23B
 10
2742.46
 20
-1909.41
 30
0.000000
  70
    32
  0
VERTEX
  8
01
  5
1A23C
 10
2742.38
 20
-1909.35
 30
0.000000
  70
    32
  0
VERTEX
  8
01
  5
1A23D
 10
2742.30
 20
-1909.29
 30
0.000000
  70
    32
  0
VERTEX
  8
01
  5
1A23E
 10
2742.22
 20
-1909.24
 30
0.000000
  70
    32
  0
VERTEX
  8
01
  5
1A23F
 10
2742.13
 20
-1909.19
 30
0.000000
  70
    32
  0
VERTEX
  8
01
  5
1A240
 10
2742.05
 20
-1909.14
 30
0.000000
  70
    32
  0
VERTEX
  8
01
  5
1A241
 10
2741.96
 20
-1909.09
 30
0.000000
  70
    32
  0
VERTEX
  8
01
  5
1A242
 10
2741.88
 20
-1909.05
 30
0.000000
  70
    32
  0
VERTEX
  8
01
  5
1A243
 10
2741.79
 20
-1909.00
 30
0.000000
  70
    32
  0
VERTEX
  8
01
  5
1A244
 10
2741.70
 20
-1908.96
 30
0.000000
  70
    32
  0
VERTEX
  8
01
  5
1A245
 10
2741.61
 20
-1908.92
 30
0.000000
  70
    32
  0
VERTEX
  8
01
  5
1A246
 10
2741.52
 20
-1908.89
 30
0.000000
  70
    32
  0
VERTEX
  8
01
  5
1A247
 10
2741.42
 20
-1908.85
 30
0.000000
  70
    32
  0
VERTEX
  8
01
  5
1A248
 10
2741.33
 20
-1908.82
 30
0.000000
  70
    32
  0
VERTEX
  8
01
  5
1A249
 10
2741.24
 20
-1908.79
 30
0.000000
  70
    32
  0
VERTEX
  8
01
  5
1A24A
 10
2741.14
 20
-1908.76
 30
0.000000
  70
    32
  0
VERTEX
  8
01
  5
1A24B
 10
2741.05
 20
-1908.74
 30
0.000000
  70
    32
  0
VERTEX
  8
01
  5
1A24C
 10
2740.95
 20
-1908.72
 30
0.000000
  70
    32
  0
VERTEX
  8
01
  5
1A24D
 10
2740.85
 20
-1908.70
 30
0.000000
  70
    32
  0
VERTEX
  8
01
  5
1A24E
 10
2740.76
 20
-1908.68
 30
0.000000
  70
    32
  0
VERTEX
  8
01
  5
1A24F
 10
2740.66
 20
-1908.66
 30
0.000000
  70
    32
  0
VERTEX
  8
01
  5
1A250
 10
2740.56
 20
-1908.65
 30
0.000000
  70
    32
  0
VERTEX
  8
01
  5
1A251
 10
2740.46
 20
-1908.64
 30
0.000000
  70
    32
  0
VERTEX
  8
01
  5
1A252
 10
2740.37
 20
-1908.63
 30
0.000000
  70
    32
  0
VERTEX
  8
01
  5
1A253
 10
2740.27
 20
-1908.62
 30
0.000000
  70
    32
  0
VERTEX
  8
01
  5
1A254
 10
2740.17
 20
-1908.62
 30
0.000000
  70
    32
  0
VERTEX
  8
01
  5
1A255
 10
2740.07
 20
-1908.62
 30
0.000000
  70
    32
  0
SEQEND
  8
01
  5
1A256
  0
POLYLINE
  5
194DE
  8
01
 10
2873.0703190168251
 20
-1916.6186285440449
 30
0.0
 66
     1
 70
     8
  0
VERTEX
  8
01
  5
1A257
 10
2873.07
 20
-1916.62
 30
0.000000
  70
    32
  0
VERTEX
  8
01
  5
1A258
 10
2872.97
 20
-1916.62
 30
0.000000
  70
    32
  0
VERTEX
  8
01
  5
1A259
 10
2872.87
 20
-1916.61
 30
0.000000
  70
    32
  0
VERTEX
  8
01
  5
1A25A
 10
2872.77
 20
-1916.61
 30
0.000000
  70
    32
  0
VERTEX
  8
01
  5
1A25B
 10
2872.68
 20
-1916.60
 30
0.000000
  70
    32
  0
VERTEX
  8
01
  5
1A25C
 10
2872.58
 20
-1916.59
 30
0.000000
  70
    32
  0
VERTEX
  8
01
  5
1A25D
 10
2872.48
 20
-1916.58
 30
0.000000
  70
    32
  0
VERTEX
  8
01
  5
1A25E
 10
2872.38
 20
-1916.56
 30
0.000000
  70
    32
  0
VERTEX
  8
01
  5
1A25F
 10
2872.29
 20
-1916.54
 30
0.000000
  70
    32
  0
VERTEX
  8
01
  5
1A260
 10
2872.19
 20
-1916.52
 30
0.000000
  70
    32
  0
VERTEX
  8
01
  5
1A261
 10
2872.09
 20
-1916.50
 30
0.000000
  70
    32
  0
VERTEX
  8
01
  5
1A262
 10
2872.00
 20
-1916.47
 30
0.000000
  70
    32
  0
VERTEX
  8
01
  5
1A263
 10
2871.90
 20
-1916.45
 30
0.000000
  70
    32
  0
VERTEX
  8
01
  5
1A264
 10
2871.81
 20
-1916.42
 30
0.000000
  70
    32
  0
VERTEX
  8
01
  5
1A265
 10
2871.72
 20
-1916.38
 30
0.000000
  70
    32
  0
VERTEX
  8
01
  5
1A266
 10
2871.63
 20
-1916.35
 30
0.000000
  70
    32
  0
VERTEX
  8
01
  5
1A267
 10
2871.53
 20
-1916.31
 30
0.000000
  70
    32
  0
VERTEX
  8
01
  5
1A268
 10
2871.44
 20
-1916.28
 30
0.000000
  70
    32
  0
VERTEX
  8
01
  5
1A269
 10
2871.35
 20
-1916.23
 30
0.000000
  70
    32
  0
VERTEX
  8
01
  5
1A26A
 10
2871.27
 20
-1916.19
 30
0.000000
  70
    32
  0
VERTEX
  8
01
  5
1A26B
 10
2871.18
 20
-1916.15
 30
0.000000
  70
    32
  0
VERTEX
  8
01
  5
1A26C
 10
2871.09
 20
-1916.10
 30
0.000000
  70
    32
  0
VERTEX
  8
01
  5
1A26D
 10
2871.01
 20
-1916.05
 30
0.000000
  70
    32
  0
VERTEX
  8
01
  5
1A26E
 10
2870.92
 20
-1916.00
 30
0.000000
  70
    32
  0
VERTEX
  8
01
  5
1A26F
 10
2870.84
 20
-1915.94
 30
0.000000
  70
    32
  0
VERTEX
  8
01
  5
1A270
 10
2870.76
 20
-1915.89
 30
0.000000
  70
    32
  0
VERTEX
  8
01
  5
1A271
 10
2870.68
 20
-1915.83
 30
0.000000
  70
    32
  0
VERTEX
  8
01
  5
1A272
 10
2870.60
 20
-1915.77
 30
0.000000
  70
    32
  0
VERTEX
  8
01
  5
1A273
 10
2870.52
 20
-1915.71
 30
0.000000
  70
    32
  0
VERTEX
  8
01
  5
1A274
 10
2870.45
 20
-1915.65
 30
0.000000
  70
    32
  0
VERTEX
  8
01
  5
1A275
 10
2870.37
 20
-1915.58
 30
0.000000
  70
    32
  0
VERTEX
  8
01
  5
1A276
 10
2870.30
 20
-1915.52
 30
0.000000
  70
    32
  0
VERTEX
  8
01
  5
1A277
 10
2870.23
 20
-1915.45
 30
0.000000
  70
    32
  0
VERTEX
  8
01
  5
1A278
 10
2870.16
 20
-1915.38
 30
0.000000
  70
    32
  0
VERTEX
  8
01
  5
1A279
 10
2870.10
 20
-1915.30
 30
0.000000
  70
    32
  0
VERTEX
  8
01
  5
1A27A
 10
2870.03
 20
-1915.23
 30
0.000000
  70
    32
  0
VERTEX
  8
01
  5
1A27B
 10
2869.97
 20
-1915.16
 30
0.000000
  70
    32
  0
VERTEX
  8
01
  5
1A27C
 10
2869.90
 20
-1915.08
 30
0.000000
  70
    32
  0
VERTEX
  8
01
  5
1A27D
 10
2869.85
 20
-1915.00
 30
0.000000
  70
    32
  0
VERTEX
  8
01
  5
1A27E
 10
2869.79
 20
-1914.92
 30
0.000000
  70
    32
  0
VERTEX
  8
01
  5
1A27F
 10
2869.73
 20
-1914.84
 30
0.000000
  70
    32
  0
VERTEX
  8
01
  5
1A280
 10
2869.68
 20
-1914.76
 30
0.000000
  70
    32
  0
VERTEX
  8
01
  5
1A281
 10
2869.63
 20
-1914.68
 30
0.000000
  70
    32
  0
VERTEX
  8
01
  5
1A282
 10
2869.58
 20
-1914.59
 30
0.000000
  70
    32
  0
VERTEX
  8
01
  5
1A283
 10
2869.53
 20
-1914.50
 30
0.000000
  70
    32
  0
VERTEX
  8
01
  5
1A284
 10
2869.48
 20
-1914.42
 30
0.000000
  70
    32
  0
VERTEX
  8
01
  5
1A285
 10
2869.44
 20
-1914.33
 30
0.000000
  70
    32
  0
VERTEX
  8
01
  5
1A286
 10
2869.40
 20
-1914.24
 30
0.000000
  70
    32
  0
VERTEX
  8
01
  5
1A287
 10
2869.36
 20
-1914.15
 30
0.000000
  70
    32
  0
VERTEX
  8
01
  5
1A288
 10
2869.32
 20
-1914.06
 30
0.000000
  70
    32
  0
VERTEX
  8
01
  5
1A289
 10
2869.29
 20
-1913.97
 30
0.000000
  70
    32
  0
VERTEX
  8
01
  5
1A28A
 10
2869.26
 20
-1913.87
 30
0.000000
  70
    32
  0
VERTEX
  8
01
  5
1A28B
 10
2869.23
 20
-1913.78
 30
0.000000
  70
    32
  0
VERTEX
  8
01
  5
1A28C
 10
2869.20
 20
-1913.69
 30
0.000000
  70
    32
  0
VERTEX
  8
01
  5
1A28D
 10
2869.18
 20
-1913.59
 30
0.000000
  70
    32
  0
VERTEX
  8
01
  5
1A28E
 10
2869.15
 20
-1913.50
 30
0.000000
  70
    32
  0
VERTEX
  8
01
  5
1A28F
 10
2869.13
 20
-1913.40
 30
0.000000
  70
    32
  0
VERTEX
  8
01
  5
1A290
 10
2869.11
 20
-1913.30
 30
0.000000
  70
    32
  0
VERTEX
  8
01
  5
1A291
 10
2869.10
 20
-1913.21
 30
0.000000
  70
    32
  0
VERTEX
  8
01
  5
1A292
 10
2869.09
 20
-1913.11
 30
0.000000
  70
    32
  0
VERTEX
  8
01
  5
1A293
 10
2869.07
 20
-1913.01
 30
0.000000
  70
    32
  0
VERTEX
  8
01
  5
1A294
 10
2869.07
 20
-1912.91
 30
0.000000
  70
    32
  0
VERTEX
  8
01
  5
1A295
 10
2869.06
 20
-1912.81
 30
0.000000
  70
    32
  0
VERTEX
  8
01
  5
1A296
 10
2869.06
 20
-1912.72
 30
0.000000
  70
    32
  0
VERTEX
  8
01
  5
1A297
 10
2869.06
 20
-1912.62
 30
0.000000
  70
    32
  0
VERTEX
  8
01
  5
1A298
 10
2869.06
 20
-1912.52
 30
0.000000
  70
    32
  0
VERTEX
  8
01
  5
1A299
 10
2869.06
 20
-1912.42
 30
0.000000
  70
    32
  0
VERTEX
  8
01
  5
1A29A
 10
2869.07
 20
-1912.32
 30
0.000000
  70
    32
  0
VERTEX
  8
01
  5
1A29B
 10
2869.07
 20
-1912.23
 30
0.000000
  70
    32
  0
VERTEX
  8
01
  5
1A29C
 10
2869.09
 20
-1912.13
 30
0.000000
  70
    32
  0
VERTEX
  8
01
  5
1A29D
 10
2869.10
 20
-1912.03
 30
0.000000
  70
    32
  0
VERTEX
  8
01
  5
1A29E
 10
2869.11
 20
-1911.93
 30
0.000000
  70
    32
  0
VERTEX
  8
01
  5
1A29F
 10
2869.13
 20
-1911.84
 30
0.000000
  70
    32
  0
VERTEX
  8
01
  5
1A2A0
 10
2869.15
 20
-1911.74
 30
0.000000
  70
    32
  0
VERTEX
  8
01
  5
1A2A1
 10
2869.18
 20
-1911.65
 30
0.000000
  70
    32
  0
VERTEX
  8
01
  5
1A2A2
 10
2869.20
 20
-1911.55
 30
0.000000
  70
    32
  0
VERTEX
  8
01
  5
1A2A3
 10
2869.23
 20
-1911.46
 30
0.000000
  70
    32
  0
VERTEX
  8
01
  5
1A2A4
 10
2869.26
 20
-1911.36
 30
0.000000
  70
    32
  0
VERTEX
  8
01
  5
1A2A5
 10
2869.29
 20
-1911.27
 30
0.000000
  70
    32
  0
VERTEX
  8
01
  5
1A2A6
 10
2869.32
 20
-1911.18
 30
0.000000
  70
    32
  0
VERTEX
  8
01
  5
1A2A7
 10
2869.36
 20
-1911.09
 30
0.000000
  70
    32
  0
VERTEX
  8
01
  5
1A2A8
 10
2869.40
 20
-1911.00
 30
0.000000
  70
    32
  0
VERTEX
  8
01
  5
1A2A9
 10
2869.44
 20
-1910.91
 30
0.000000
  70
    32
  0
VERTEX
  8
01
  5
1A2AA
 10
2869.48
 20
-1910.82
 30
0.000000
  70
    32
  0
VERTEX
  8
01
  5
1A2AB
 10
2869.53
 20
-1910.73
 30
0.000000
  70
    32
  0
VERTEX
  8
01
  5
1A2AC
 10
2869.58
 20
-1910.65
 30
0.000000
  70
    32
  0
VERTEX
  8
01
  5
1A2AD
 10
2869.63
 20
-1910.56
 30
0.000000
  70
    32
  0
VERTEX
  8
01
  5
1A2AE
 10
2869.68
 20
-1910.48
 30
0.000000
  70
    32
  0
VERTEX
  8
01
  5
1A2AF
 10
2869.73
 20
-1910.40
 30
0.000000
  70
    32
  0
VERTEX
  8
01
  5
1A2B0
 10
2869.79
 20
-1910.32
 30
0.000000
  70
    32
  0
VERTEX
  8
01
  5
1A2B1
 10
2869.85
 20
-1910.24
 30
0.000000
  70
    32
  0
VERTEX
  8
01
  5
1A2B2
 10
2869.90
 20
-1910.16
 30
0.000000
  70
    32
  0
VERTEX
  8
01
  5
1A2B3
 10
2869.97
 20
-1910.08
 30
0.000000
  70
    32
  0
VERTEX
  8
01
  5
1A2B4
 10
2870.03
 20
-1910.01
 30
0.000000
  70
    32
  0
VERTEX
  8
01
  5
1A2B5
 10
2870.10
 20
-1909.93
 30
0.000000
  70
    32
  0
VERTEX
  8
01
  5
1A2B6
 10
2870.16
 20
-1909.86
 30
0.000000
  70
    32
  0
VERTEX
  8
01
  5
1A2B7
 10
2870.23
 20
-1909.79
 30
0.000000
  70
    32
  0
VERTEX
  8
01
  5
1A2B8
 10
2870.30
 20
-1909.72
 30
0.000000
  70
    32
  0
VERTEX
  8
01
  5
1A2B9
 10
2870.37
 20
-1909.65
 30
0.000000
  70
    32
  0
VERTEX
  8
01
  5
1A2BA
 10
2870.45
 20
-1909.59
 30
0.000000
  70
    32
  0
VERTEX
  8
01
  5
1A2BB
 10
2870.52
 20
-1909.53
 30
0.000000
  70
    32
  0
VERTEX
  8
01
  5
1A2BC
 10
2870.60
 20
-1909.47
 30
0.000000
  70
    32
  0
VERTEX
  8
01
  5
1A2BD
 10
2870.68
 20
-1909.41
 30
0.000000
  70
    32
  0
VERTEX
  8
01
  5
1A2BE
 10
2870.76
 20
-1909.35
 30
0.000000
  70
    32
  0
VERTEX
  8
01
  5
1A2BF
 10
2870.84
 20
-1909.29
 30
0.000000
  70
    32
  0
VERTEX
  8
01
  5
1A2C0
 10
2870.92
 20
-1909.24
 30
0.000000
  70
    32
  0
VERTEX
  8
01
  5
1A2C1
 10
2871.01
 20
-1909.19
 30
0.000000
  70
    32
  0
VERTEX
  8
01
  5
1A2C2
 10
2871.09
 20
-1909.14
 30
0.000000
  70
    32
  0
VERTEX
  8
01
  5
1A2C3
 10
2871.18
 20
-1909.09
 30
0.000000
  70
    32
  0
VERTEX
  8
01
  5
1A2C4
 10
2871.27
 20
-1909.05
 30
0.000000
  70
    32
  0
VERTEX
  8
01
  5
1A2C5
 10
2871.35
 20
-1909.00
 30
0.000000
  70
    32
  0
VERTEX
  8
01
  5
1A2C6
 10
2871.44
 20
-1908.96
 30
0.000000
  70
    32
  0
VERTEX
  8
01
  5
1A2C7
 10
2871.53
 20
-1908.92
 30
0.000000
  70
    32
  0
VERTEX
  8
01
  5
1A2C8
 10
2871.63
 20
-1908.89
 30
0.000000
  70
    32
  0
VERTEX
  8
01
  5
1A2C9
 10
2871.72
 20
-1908.85
 30
0.000000
  70
    32
  0
VERTEX
  8
01
  5
1A2CA
 10
2871.81
 20
-1908.82
 30
0.000000
  70
    32
  0
VERTEX
  8
01
  5
1A2CB
 10
2871.90
 20
-1908.79
 30
0.000000
  70
    32
  0
VERTEX
  8
01
  5
1A2CC
 10
2872.00
 20
-1908.76
 30
0.000000
  70
    32
  0
VERTEX
  8
01
  5
1A2CD
 10
2872.09
 20
-1908.74
 30
0.000000
  70
    32
  0
VERTEX
  8
01
  5
1A2CE
 10
2872.19
 20
-1908.72
 30
0.000000
  70
    32
  0
VERTEX
  8
01
  5
1A2CF
 10
2872.29
 20
-1908.70
 30
0.000000
  70
    32
  0
VERTEX
  8
01
  5
1A2D0
 10
2872.38
 20
-1908.68
 30
0.000000
  70
    32
  0
VERTEX
  8
01
  5
1A2D1
 10
2872.48
 20
-1908.66
 30
0.000000
  70
    32
  0
VERTEX
  8
01
  5
1A2D2
 10
2872.58
 20
-1908.65
 30
0.000000
  70
    32
  0
VERTEX
  8
01
  5
1A2D3
 10
2872.68
 20
-1908.64
 30
0.000000
  70
    32
  0
VERTEX
  8
01
  5
1A2D4
 10
2872.77
 20
-1908.63
 30
0.000000
  70
    32
  0
VERTEX
  8
01
  5
1A2D5
 10
2872.87
 20
-1908.62
 30
0.000000
  70
    32
  0
VERTEX
  8
01
  5
1A2D6
 10
2872.97
 20
-1908.62
 30
0.000000
  70
    32
  0
VERTEX
  8
01
  5
1A2D7
 10
2873.07
 20
-1908.62
 30
0.000000
  70
    32
  0
SEQEND
  8
01
  5
1A2D8
  0
LINE
  5
194EE
  8
01
  6
BYBLOCK
 10
2872.6996433634631
 20
-1916.6186285440449
 30
0.0
 11
2873.0703190168219
 21
-1916.6186285440449
 31
0.0
  0
LINE
  5
1984F
  8
01
 10
2731.5703190168251
 20
-1815.454409801524
 30
0.0
 11
2731.570319016821
 21
-1856.954409801524
 31
0.0
  0
ARC
  5
19850
  8
01
 10
2733.070319016821
 20
-1856.954409801524
 30
0.0
 40
1.5
 50
180.0
 51
270.0
  0
LINE
  5
19851
  8
01
 10
2746.5703190168242
 20
-1815.4544098015249
 30
0.0
 11
2746.5703190168219
 21
-1846.454409801524
 31
0.0
  0
LINE
  5
19852
  8
01
 10
2881.5703190168219
 20
-1815.454409801524
 30
0.0
 11
2881.570319016821
 21
-1856.954409801524
 31
0.0
  0
LINE
  5
19853
  8
01
 10
2866.5703190168219
 20
-1815.454409801524
 30
0.0
 11
2866.570319016821
 21
-1846.454409801524
 31
0.0
  0
ARC
  5
19854
  8
01
 10
2864.5703190168219
 20
-1846.454409801524
 30
0.0
 40
2.0
 50
270.0
 51
0.0
  0
LINE
  5
19855
  8
01
 10
2880.070319016821
 20
-1858.454409801524
 30
0.0
 11
2733.070319016821
 21
-1858.454409801524
 31
0.0
  0
ARC
  5
19856
  8
01
 10
2880.070319016821
 20
-1856.954409801524
 30
0.0
 40
1.5
 50
270.0
 51
0.0
  0
LINE
  5
19857
  8
01
 10
2864.5703190168219
 20
-1848.454409801524
 30
0.0
 11
2748.5703190168219
 21
-1848.454409801524
 31
0.0
  0
ARC
  5
19858
  8
01
 10
2748.5703190168219
 20
-1846.454409801524
 30
0.0
 40
2.0
 50
180.0
 51
270.0
  0
LINE
  5
19859
  8
01
 10
2881.5703190168219
 20
-1815.454409801524
 30
0.0
 11
2866.5703190168219
 21
-1815.454409801524
 31
0.0
  0
LINE
  5
1985A
  8
01
 10
2746.5703190168242
 20
-1815.454409801524
 30
0.0
 11
2731.570319016821
 21
-1815.454409801524
 31
0.0
  0
TEXT
  5
19969
  8
1TEXT
 10
2940.9351019147389
 20
-1811.7799512757549
 30
0.0
 40
4.0
  1
表面処理：
 72
     1
 11
2951.5827209623581
 21
-1811.7799512757549
 31
0.0
  0
TEXT
  5
1996A
  8
1TEXT
 10
2942.2493876290241
 20
-1818.6152399352791
 30
0.0
 40
4.0
  1
クローム
 72
     1
 11
2951.5827209623581
 21
-1818.6152399352791
 31
0.0
  0
LINE
  5
1996B
  8
1DIM
 10
2934.182720962358
 20
-1806.2799512757549
 30
0.0
 11
3004.182720962358
 21
-1806.2799512757549
 31
0.0
  0
LINE
  5
1996C
  8
1DIM
 10
2934.182720962358
 20
-1820.2799512757549
 30
0.0
 11
3004.182720962358
 21
-1820.2799512757549
 31
0.0
  0
LINE
  5
1996D
  8
1DIM
 10
2934.182720962358
 20
-1813.2799512757549
 30
0.0
 11
3004.182720962358
 21
-1813.2799512757549
 31
0.0
  0
LINE
  5
1996E
  8
1DIM
 10
2969.182720962358
 20
-1806.2799512757549
 30
0.0
 11
2969.182720962358
 21
-1827.2799512757549
 31
0.0
  0
TEXT
  5
1996F
  8
1TEXT
 10
2972.582720962359
 20
-1818.9943082594041
 30
0.0
 40
4.0
  1
SC311XCS
 72
     1
 11
2986.5827209623581
 21
-1818.9943082594041
 31
0.0
  0
TEXT
  5
19970
  8
1TEXT
 10
2979.7827209623579
 20
-1811.7799512757549
 30
0.0
 40
4.0
  1
コード
 72
     1
 11
2986.5827209623581
 21
-1811.7799512757549
 31
0.0
  0
LINE
  5
19971
  8
1DIM
 10
2934.182720962358
 20
-1827.2799512757549
 30
0.0
 11
2934.182720962358
 21
-1806.2799512757549
 31
0.0
  0
LINE
  5
19972
  8
1DIM
 10
3004.182720962358
 20
-1827.2799512757549
 30
0.0
 11
3004.182720962358
 21
-1806.2799512757549
 31
0.0
  0
TEXT
  5
19973
  8
1TEXT
 10
2934.182720962358
 20
-1801.2799512757549
 30
0.0
 40
8.0
  1
SC311XCS
  0
LINE
  5
19AFA
  8
01
 10
2973.5189965085842
 20
-1874.3456025635021
 30
0.0
 11
2973.5189965085842
 21
-1954.345602563501
 31
0.0
  0
LINE
  5
19AFB
  8
01
 10
2982.5189965085842
 20
-1874.3456025635021
 30
0.0
 11
2982.5189965085842
 21
-1954.345602563501
 31
0.0
  0
LINE
  5
19AFC
  8
01
 10
2964.5189965085842
 20
-1874.3456025635021
 30
0.0
 11
2964.5189965085842
 21
-1954.345602563501
 31
0.0
  0
LINE
  5
19B31
  8
1PHANTOM
 10
2956.5189883648022
 20
-1916.1186285440449
 30
0.0
 11
2957.5189965085842
 21
-1916.1186285440449
 31
0.0
  0
LINE
  5
19B32
  8
1PHANTOM
 10
2956.518996508476
 20
-1912.6186750799429
 30
0.0
 11
2957.5189965085842
 21
-1912.041324810692
 31
0.0
  0
LINE
  5
19B33
  8
1PHANTOM
 10
2956.5190046523662
 20
-1909.1186285440449
 30
0.0
 11
2957.5189965085842
 21
-1909.1186285440449
 31
0.0
  0
LINE
  5
19B3D
  8
01
 10
2871.820319016821
 20
-1822.454409801524
 30
0.0
 11
2871.070319016821
 21
-1815.454409801524
 31
0.0
  0
LINE
  5
19B3E
  8
01
 10
2876.320319016821
 20
-1822.454409801524
 30
0.0
 11
2877.070319016821
 21
-1815.454409801524
 31
0.0
  0
LINE
  5
19B40
  8
1PHANTOM
 10
2877.5703190168219
 20
-1823.454417945306
 30
0.0
 11
2877.5703190168219
 21
-1822.454409801524
 31
0.0
  0
LINE
  5
19B41
  8
1PHANTOM
 10
2874.07036555272
 20
-1823.454409801632
 30
0.0
 11
2873.4930152834681
 21
-1822.454409801524
 31
0.0
  0
LINE
  5
19B42
  8
1PHANTOM
 10
2870.5703190168219
 20
-1823.454401657742
 30
0.0
 11
2870.5703190168219
 21
-1822.454409801524
 31
0.0
  0
LINE
  5
19B43
  8
1PHANTOM
 10
2870.5703190168219
 20
-1822.454409801524
 30
0.0
 11
2877.5703190168219
 21
-1822.454409801524
 31
0.0
  0
LINE
  5
19B44
  8
01
 10
2736.8203190168219
 20
-1822.454409801524
 30
0.0
 11
2736.0703190168219
 21
-1815.454409801524
 31
0.0
  0
LINE
  5
19B45
  8
01
 10
2741.3203190168229
 20
-1822.454409801524
 30
0.0
 11
2742.0703190168229
 21
-1815.454409801524
 31
0.0
  0
LINE
  5
19B47
  8
1PHANTOM
 10
2742.5703190168229
 20
-1823.454417945306
 30
0.0
 11
2742.5703190168229
 21
-1822.454409801524
 31
0.0
  0
LINE
  5
19B48
  8
1PHANTOM
 10
2739.0703655527209
 20
-1823.454409801632
 30
0.0
 11
2738.493015283469
 21
-1822.454409801524
 31
0.0
  0
LINE
  5
19B49
  8
1PHANTOM
 10
2735.5703190168229
 20
-1823.454401657742
 30
0.0
 11
2735.5703190168229
 21
-1822.454409801524
 31
0.0
  0
LINE
  5
19B4A
  8
1PHANTOM
 10
2735.5703190168229
 20
-1822.454409801524
 30
0.0
 11
2742.5703190168229
 21
-1822.454409801524
 31
0.0
  0
TEXT
  5
19BE4
  8
1TEXT
 10
2935.3160542956912
 20
-1825.6152399352791
 30
0.0
 40
4.0
  1
サテンニッケル
 72
     1
 11
2951.5827209623581
 21
-1825.6152399352791
 31
0.0
  0
LINE
  5
19BE5
  8
1DIM
 10
2934.182720962358
 20
-1827.2799512757549
 30
0.0
 11
3004.182720962358
 21
-1827.2799512757549
 31
0.0
  0
TEXT
  5
19BE6
  8
1TEXT
 10
2972.582720962359
 20
-1825.9943082594041
 30
0.0
 40
4.0
  1
SC311XNS
 72
     1
 11
2986.5827209623581
 21
-1825.9943082594041
 31
0.0
  0
LINE
  5
19C40
  8
1DIM
 10
2880.070319016821
 20
-1858.454409801524
 30
0.0
 11
2912.070319016821
 21
-1858.454409801524
 31
0.0
  0
LINE
  5
19C41
  8
1DIM
 10
2881.5703190168219
 20
-1815.454409801524
 30
0.0
 11
2912.070319016821
 21
-1815.454409801524
 31
0.0
  0
LINE
  5
19C42
  8
1DIM
 10
2911.070319016821
 20
-1856.454409801524
 30
0.0
 11
2911.070319016821
 21
-1817.454409801524
 31
0.0
  0
LINE
  5
19C46
  8
1DIM
 10
2864.5703190168219
 20
-1848.454409801524
 30
0.0
 11
2902.070319016821
 21
-1848.454409801524
 31
0.0
  0
LINE
  5
19C47
  8
1DIM
 10
2880.070319016821
 20
-1858.454409801524
 30
0.0
 11
2902.070319016821
 21
-1858.454409801524
 31
0.0
  0
LINE
  5
19C48
  8
1DIM
 10
2901.070319016821
 20
-1850.454409801524
 30
0.0
 11
2901.070319016821
 21
-1856.454409801524
 31
0.0
  0
LINE
  5
19C4C
  8
1DIM
 10
2881.5703190168219
 20
-1815.454409801524
 30
0.0
 11
2902.070319016821
 21
-1815.454409801524
 31
0.0
  0
LINE
  5
19C4D
  8
1DIM
 10
2864.5703190168219
 20
-1848.454409801524
 30
0.0
 11
2902.070319016821
 21
-1848.454409801524
 31
0.0
  0
LINE
  5
19C4E
  8
1DIM
 10
2901.070319016821
 20
-1817.454409801524
 30
0.0
 11
2901.070319016821
 21
-1846.454409801524
 31
0.0
  0
LINE
  5
19C52
  8
1DIM
 10
2746.5703190168242
 20
-1815.454409801524
 30
0.0
 11
2746.5703190168242
 21
-1798.7413065750779
 31
0.0
  0
LINE
  5
19C53
  8
1DIM
 10
2866.5703190168219
 20
-1815.454409801524
 30
0.0
 11
2866.5703190168219
 21
-1798.7413065750779
 31
0.0
  0
LINE
  5
19C54
  8
1DIM
 10
2748.5703190168242
 20
-1799.7413065750779
 30
0.0
 11
2864.5703190168219
 21
-1799.7413065750779
 31
0.0
  0
TEXT
  5
19C58
  8
1DIM
 10
2758.0687304305111
 20
-1819.9636835068191
 30
0.0
 40
3.5
  1
材質：亜鉛ダイキャスト
  0
TEXT
  5
19C59
  8
1DIM
 10
2758.0687304305111
 20
-1825.7970168401521
 30
0.0
 40
3.5
  1
仕上げ：クローム
  0
SOLID
  5
19C5A
  8
1DIM
 10
2739.645866531705
 20
-1844.7076667210761
 30
0.0
 11
2738.0687304305111
 21
-1845.981932325031
 31
0.0
 12
2739.147340600628
 22
-1844.265042342525
 32
0.0
 13
2739.147340600628
 23
-1844.265042342525
 33
0.0
  0
LINE
  5
19C5D
  8
1CENTER
 10
2739.0703190168229
 20
-1790.4934952103779
 30
0.0
 11
2739.0703190168229
 21
-1827.124686210833
 31
0.0
  0
LINE
  5
19C5E
  8
0
 10
2737.975995202828
 20
-1795.5544072553639
 30
0.0
 11
2739.9383302917031
 21
-1794.7544118213129
 31
0.0
  0
LINE
  5
19C5F
  8
0
 10
2739.9383302917031
 20
-1794.7544118213129
 30
0.0
 11
2739.350053716661
 21
-1794.4426419650611
 31
0.0
  0
LINE
  5
19C60
  8
0
 10
2737.0703655527209
 20
-1817.9544051481539
 30
0.0
 11
2741.0703655527209
 21
-1817.1544144553361
 31
0.0
  0
LINE
  5
19C61
  8
0
 10
2737.0703655527209
 20
-1806.75440514815
 30
0.0
 11
2741.0703655527209
 21
-1805.954414455327
 31
0.0
  0
LINE
  5
19C62
  8
0
 10
2737.0703655527209
 20
-1803.554405148149
 30
0.0
 11
2741.0703655527209
 21
-1802.7544144553269
 31
0.0
  0
LINE
  5
19C63
  8
0
 10
2741.0703655527209
 20
-1802.7544144553269
 30
0.0
 11
2740.5703655527209
 21
-1802.65441329193
 31
0.0
  0
LINE
  5
19C64
  8
0
 10
2737.5703655527209
 20
-1802.0544063115469
 30
0.0
 11
2737.0703655527209
 21
-1801.95440514815
 31
0.0
  0
LINE
  5
19C65
  8
0
 10
2741.0703655527209
 20
-1805.954414455327
 30
0.0
 11
2740.5703655527209
 21
-1805.8544132919301
 31
0.0
  0
LINE
  5
19C66
  8
0
 10
2741.0703655527209
 20
-1804.3544144553271
 30
0.0
 11
2740.5703655527209
 21
-1804.2544132919299
 31
0.0
  0
LINE
  5
19C67
  8
0
 10
2737.5703655527209
 20
-1803.6544063115471
 30
0.0
 11
2737.0703655527209
 21
-1803.554405148149
 31
0.0
  0
LINE
  5
19C68
  8
0
 10
2737.5703655527209
 20
-1805.254406311547
 30
0.0
 11
2737.0703655527209
 21
-1805.154405148149
 31
0.0
  0
LINE
  5
19C69
  8
0
 10
2737.0703655527209
 20
-1805.154405148149
 30
0.0
 11
2741.0703655527209
 21
-1804.3544144553271
 31
0.0
  0
LINE
  5
19C6A
  8
0
 10
2740.3911443961101
 20
-1796.354412874919
 30
0.0
 11
2739.8393949323072
 21
-1796.171648732291
 31
0.0
  0
LINE
  5
19C6B
  8
0
 10
2741.0703655527209
 20
-1799.5544144553271
 30
0.0
 11
2740.5703655527209
 21
-1799.45441329193
 31
0.0
  0
LINE
  5
19C6C
  8
0
 10
2741.0703655527209
 20
-1801.154414455327
 30
0.0
 11
2740.5703655527209
 21
-1801.0544132919299
 31
0.0
  0
LINE
  5
19C6D
  8
0
 10
2740.8439585005171
 20
-1797.954413928524
 30
0.0
 11
2740.3073647652459
 21
-1797.825143230895
 31
0.0
  0
LINE
  5
19C6E
  8
0
 10
2737.991280149929
 20
-1797.26717571411
 30
0.0
 11
2737.5231816947799
 21
-1797.1544062017599
 31
0.0
  0
LINE
  5
19C6F
  8
0
 10
2737.5703655527209
 20
-1800.454406311547
 30
0.0
 11
2737.0703655527209
 21
-1800.3544051481499
 31
0.0
  0
LINE
  5
19C70
  8
0
 10
2737.5703655527209
 20
-1798.8544063115471
 30
0.0
 11
2737.0703655527209
 21
-1798.75440514815
 31
0.0
  0
LINE
  5
19C71
  8
0
 10
2738.433167043459
 20
-1795.7058430518041
 30
0.0
 11
2737.975995202828
 21
-1795.5544072553639
 31
0.0
  0
LINE
  5
19C72
  8
0
 10
2737.5231816947799
 20
-1797.1544062017599
 30
0.0
 11
2740.3911443961101
 21
-1796.354412874919
 31
0.0
  0
LINE
  5
19C73
  8
0
 10
2737.0703655527209
 20
-1800.3544051481499
 30
0.0
 11
2741.0703655527209
 21
-1799.5544144553271
 31
0.0
  0
LINE
  5
19C74
  8
0
 10
2737.0703655527209
 20
-1798.75440514815
 30
0.0
 11
2740.8439585005171
 21
-1797.954413928524
 31
0.0
  0
LINE
  5
19C75
  8
0
 10
2737.0703655527209
 20
-1801.95440514815
 30
0.0
 11
2741.0703655527209
 21
-1801.154414455327
 31
0.0
  0
LINE
  5
19C76
  8
0
 10
2737.0703655527209
 20
-1814.7544051481541
 30
0.0
 11
2741.0703655527209
 21
-1813.9544144553361
 31
0.0
  0
LINE
  5
19C77
  8
0
 10
2741.0703655527209
 20
-1813.9544144553361
 30
0.0
 11
2740.5703655527209
 21
-1813.854413291938
 31
0.0
  0
LINE
  5
19C78
  8
0
 10
2737.5703655527209
 20
-1813.254406311547
 30
0.0
 11
2737.0703655527209
 21
-1813.1544051481501
 31
0.0
  0
LINE
  5
19C79
  8
0
 10
2741.0703655527209
 20
-1815.554414455336
 30
0.0
 11
2740.5703655527209
 21
-1815.454413291938
 31
0.0
  0
LINE
  5
19C7A
  8
0
 10
2741.0703655527209
 20
-1817.1544144553361
 30
0.0
 11
2740.5703655527209
 21
-1817.0544132919381
 31
0.0
  0
LINE
  5
19C7B
  8
0
 10
2737.5703655527209
 20
-1814.8544063115521
 30
0.0
 11
2737.0703655527209
 21
-1814.7544051481541
 31
0.0
  0
LINE
  5
19C7C
  8
0
 10
2737.5703655527209
 20
-1816.454406311552
 30
0.0
 11
2737.0703655527209
 21
-1816.354405148154
 31
0.0
  0
LINE
  5
19C7D
  8
0
 10
2737.0703655527209
 20
-1816.354405148154
 30
0.0
 11
2741.0703655527209
 21
-1815.554414455336
 31
0.0
  0
LINE
  5
19C7E
  8
0
 10
2741.0703655527209
 20
-1809.1544144553311
 30
0.0
 11
2740.5703655527209
 21
-1809.0544132919331
 31
0.0
  0
LINE
  5
19C7F
  8
0
 10
2741.0703655527209
 20
-1807.5544144553271
 30
0.0
 11
2740.5703655527209
 21
-1807.45441329193
 31
0.0
  0
LINE
  5
19C80
  8
0
 10
2741.0703655527209
 20
-1812.3544144553321
 30
0.0
 11
2740.5703655527209
 21
-1812.254413291934
 31
0.0
  0
LINE
  5
19C81
  8
0
 10
2741.0703655527209
 20
-1810.754414455331
 30
0.0
 11
2740.5703655527209
 21
-1810.6544132919339
 31
0.0
  0
LINE
  5
19C82
  8
0
 10
2737.5703655527209
 20
-1806.8544063115471
 30
0.0
 11
2737.0703655527209
 21
-1806.75440514815
 31
0.0
  0
LINE
  5
19C83
  8
0
 10
2737.5703655527209
 20
-1808.4544063115479
 30
0.0
 11
2737.0703655527209
 21
-1808.354405148149
 31
0.0
  0
LINE
  5
19C84
  8
0
 10
2737.5703655527209
 20
-1811.654406311548
 30
0.0
 11
2737.0703655527209
 21
-1811.55440514815
 31
0.0
  0
LINE
  5
19C85
  8
0
 10
2737.5703655527209
 20
-1810.0544063115469
 30
0.0
 11
2737.0703655527209
 21
-1809.95440514815
 31
0.0
  0
LINE
  5
19C86
  8
0
 10
2737.0703655527209
 20
-1809.95440514815
 30
0.0
 11
2741.0703655527209
 21
-1809.1544144553311
 31
0.0
  0
LINE
  5
19C87
  8
0
 10
2737.0703655527209
 20
-1808.354405148149
 30
0.0
 11
2741.0703655527209
 21
-1807.5544144553271
 31
0.0
  0
LINE
  5
19C88
  8
0
 10
2737.0703655527209
 20
-1811.55440514815
 30
0.0
 11
2741.0703655527209
 21
-1810.754414455331
 31
0.0
  0
LINE
  5
19C89
  8
0
 10
2737.0703655527209
 20
-1813.1544051481501
 30
0.0
 11
2741.0703655527209
 21
-1812.3544144553321
 31
0.0
  0
LINE
  5
19C8A
  8
0
 10
2740.5703655527209
 20
-1823.454413291824
 30
0.0
 11
2737.5703655527209
 21
-1823.4544063114399
 31
0.0
  0
LINE
  5
19C8B
  8
0
 10
2737.5703655527209
 20
-1822.854406311556
 30
0.0
 11
2737.0703655527209
 21
-1822.754405148158
 31
0.0
  0
LINE
  5
19C8C
  8
0
 10
2737.0703655527209
 20
-1822.754405148158
 30
0.0
 11
2741.0703655527209
 21
-1821.9544144553399
 31
0.0
  0
LINE
  5
19C8D
  8
0
 10
2741.0703655527209
 20
-1821.9544144553399
 30
0.0
 11
2740.5703655527209
 21
-1821.8544132919419
 31
0.0
  0
LINE
  5
19C8E
  8
0
 10
2737.5703655527209
 20
-1821.2544063115561
 30
0.0
 11
2737.0703655527209
 21
-1821.154405148158
 31
0.0
  0
LINE
  5
19C8F
  8
0
 10
2737.5703655527209
 20
-1819.6544063115559
 30
0.0
 11
2737.0703655527209
 21
-1819.5544051481579
 31
0.0
  0
LINE
  5
19C90
  8
0
 10
2737.0703655527209
 20
-1819.5544051481579
 30
0.0
 11
2741.0703655527209
 21
-1818.7544144553401
 31
0.0
  0
LINE
  5
19C91
  8
0
 10
2741.0703655527209
 20
-1820.35441445534
 30
0.0
 11
2740.5703655527209
 21
-1820.254413291942
 31
0.0
  0
LINE
  5
19C92
  8
0
 10
2741.0703655527209
 20
-1818.7544144553401
 30
0.0
 11
2740.5703655527209
 21
-1818.6544132919421
 31
0.0
  0
LINE
  5
19C93
  8
0
 10
2737.0703655527209
 20
-1821.154405148158
 30
0.0
 11
2741.0703655527209
 21
-1820.35441445534
 31
0.0
  0
LINE
  5
19C94
  8
0
 10
2737.5703655527209
 20
-1818.0544063115519
 30
0.0
 11
2737.0703655527209
 21
-1817.9544051481539
 31
0.0
  0
LINE
  5
19C96
  8
1CENTER
 10
2874.070319016821
 20
-1790.4934952103779
 30
0.0
 11
2874.070319016821
 21
-1827.124686210833
 31
0.0
  0
LINE
  5
19C97
  8
0
 10
2872.9759952028271
 20
-1795.5544072553639
 30
0.0
 11
2874.9383302917022
 21
-1794.7544118213129
 31
0.0
  0
LINE
  5
19C98
  8
0
 10
2874.9383302917022
 20
-1794.7544118213129
 30
0.0
 11
2874.3500537166601
 21
-1794.4426419650611
 31
0.0
  0
LINE
  5
19C99
  8
0
 10
2872.0703655527191
 20
-1817.9544051481539
 30
0.0
 11
2876.0703655527191
 21
-1817.1544144553361
 31
0.0
  0
LINE
  5
19C9A
  8
0
 10
2872.0703655527191
 20
-1806.75440514815
 30
0.0
 11
2876.0703655527191
 21
-1805.954414455327
 31
0.0
  0
LINE
  5
19C9B
  8
0
 10
2872.0703655527191
 20
-1803.554405148149
 30
0.0
 11
2876.0703655527191
 21
-1802.7544144553269
 31
0.0
  0
LINE
  5
19C9C
  8
0
 10
2876.0703655527191
 20
-1802.7544144553269
 30
0.0
 11
2875.57036555272
 21
-1802.65441329193
 31
0.0
  0
LINE
  5
19C9D
  8
0
 10
2872.57036555272
 20
-1802.0544063115469
 30
0.0
 11
2872.0703655527191
 21
-1801.95440514815
 31
0.0
  0
LINE
  5
19C9E
  8
0
 10
2876.0703655527191
 20
-1805.954414455327
 30
0.0
 11
2875.57036555272
 21
-1805.8544132919301
 31
0.0
  0
LINE
  5
19C9F
  8
0
 10
2876.0703655527191
 20
-1804.3544144553271
 30
0.0
 11
2875.57036555272
 21
-1804.2544132919299
 31
0.0
  0
LINE
  5
19CA0
  8
0
 10
2872.57036555272
 20
-1803.6544063115471
 30
0.0
 11
2872.0703655527191
 21
-1803.554405148149
 31
0.0
  0
LINE
  5
19CA1
  8
0
 10
2872.57036555272
 20
-1805.254406311547
 30
0.0
 11
2872.0703655527191
 21
-1805.154405148149
 31
0.0
  0
LINE
  5
19CA2
  8
0
 10
2872.0703655527191
 20
-1805.154405148149
 30
0.0
 11
2876.0703655527191
 21
-1804.3544144553271
 31
0.0
  0
LINE
  5
19CA3
  8
0
 10
2875.3911443961092
 20
-1796.354412874919
 30
0.0
 11
2874.8393949323058
 21
-1796.171648732291
 31
0.0
  0
LINE
  5
19CA4
  8
0
 10
2876.0703655527191
 20
-1799.5544144553271
 30
0.0
 11
2875.57036555272
 21
-1799.45441329193
 31
0.0
  0
LINE
  5
19CA5
  8
0
 10
2876.0703655527191
 20
-1801.154414455327
 30
0.0
 11
2875.57036555272
 21
-1801.0544132919299
 31
0.0
  0
LINE
  5
19CA6
  8
0
 10
2875.8439585005149
 20
-1797.954413928524
 30
0.0
 11
2875.307364765245
 21
-1797.825143230895
 31
0.0
  0
LINE
  5
19CA7
  8
0
 10
2872.9912801499281
 20
-1797.26717571411
 30
0.0
 11
2872.523181694778
 21
-1797.1544062017599
 31
0.0
  0
LINE
  5
19CA8
  8
0
 10
2872.57036555272
 20
-1800.454406311547
 30
0.0
 11
2872.0703655527191
 21
-1800.3544051481499
 31
0.0
  0
LINE
  5
19CA9
  8
0
 10
2872.57036555272
 20
-1798.8544063115471
 30
0.0
 11
2872.0703655527191
 21
-1798.75440514815
 31
0.0
  0
LINE
  5
19CAA
  8
0
 10
2873.4331670434581
 20
-1795.7058430518041
 30
0.0
 11
2872.9759952028271
 21
-1795.5544072553639
 31
0.0
  0
LINE
  5
19CAB
  8
0
 10
2872.523181694778
 20
-1797.1544062017599
 30
0.0
 11
2875.3911443961092
 21
-1796.354412874919
 31
0.0
  0
LINE
  5
19CAC
  8
0
 10
2872.0703655527191
 20
-1800.3544051481499
 30
0.0
 11
2876.0703655527191
 21
-1799.5544144553271
 31
0.0
  0
LINE
  5
19CAD
  8
0
 10
2872.0703655527191
 20
-1798.75440514815
 30
0.0
 11
2875.8439585005149
 21
-1797.954413928524
 31
0.0
  0
LINE
  5
19CAE
  8
0
 10
2872.0703655527191
 20
-1801.95440514815
 30
0.0
 11
2876.0703655527191
 21
-1801.154414455327
 31
0.0
  0
LINE
  5
19CAF
  8
0
 10
2872.0703655527191
 20
-1814.7544051481541
 30
0.0
 11
2876.0703655527191
 21
-1813.9544144553361
 31
0.0
  0
LINE
  5
19CB0
  8
0
 10
2876.0703655527191
 20
-1813.9544144553361
 30
0.0
 11
2875.57036555272
 21
-1813.854413291938
 31
0.0
  0
LINE
  5
19CB1
  8
0
 10
2872.57036555272
 20
-1813.254406311547
 30
0.0
 11
2872.0703655527191
 21
-1813.1544051481501
 31
0.0
  0
LINE
  5
19CB2
  8
0
 10
2876.0703655527191
 20
-1815.554414455336
 30
0.0
 11
2875.57036555272
 21
-1815.454413291938
 31
0.0
  0
LINE
  5
19CB3
  8
0
 10
2876.0703655527191
 20
-1817.1544144553361
 30
0.0
 11
2875.57036555272
 21
-1817.0544132919381
 31
0.0
  0
LINE
  5
19CB4
  8
0
 10
2872.57036555272
 20
-1814.8544063115521
 30
0.0
 11
2872.0703655527191
 21
-1814.7544051481541
 31
0.0
  0
LINE
  5
19CB5
  8
0
 10
2872.57036555272
 20
-1816.454406311552
 30
0.0
 11
2872.0703655527191
 21
-1816.354405148154
 31
0.0
  0
LINE
  5
19CB6
  8
0
 10
2872.0703655527191
 20
-1816.354405148154
 30
0.0
 11
2876.0703655527191
 21
-1815.554414455336
 31
0.0
  0
LINE
  5
19CB7
  8
0
 10
2876.0703655527191
 20
-1809.1544144553311
 30
0.0
 11
2875.57036555272
 21
-1809.0544132919331
 31
0.0
  0
LINE
  5
19CB8
  8
0
 10
2876.0703655527191
 20
-1807.5544144553271
 30
0.0
 11
2875.57036555272
 21
-1807.45441329193
 31
0.0
  0
LINE
  5
19CB9
  8
0
 10
2876.0703655527191
 20
-1812.3544144553321
 30
0.0
 11
2875.57036555272
 21
-1812.254413291934
 31
0.0
  0
LINE
  5
19CBA
  8
0
 10
2876.0703655527191
 20
-1810.754414455331
 30
0.0
 11
2875.57036555272
 21
-1810.6544132919339
 31
0.0
  0
LINE
  5
19CBB
  8
0
 10
2872.57036555272
 20
-1806.8544063115471
 30
0.0
 11
2872.0703655527191
 21
-1806.75440514815
 31
0.0
  0
LINE
  5
19CBC
  8
0
 10
2872.57036555272
 20
-1808.4544063115479
 30
0.0
 11
2872.0703655527191
 21
-1808.354405148149
 31
0.0
  0
LINE
  5
19CBD
  8
0
 10
2872.57036555272
 20
-1811.654406311548
 30
0.0
 11
2872.0703655527191
 21
-1811.55440514815
 31
0.0
  0
LINE
  5
19CBE
  8
0
 10
2872.57036555272
 20
-1810.0544063115469
 30
0.0
 11
2872.0703655527191
 21
-1809.95440514815
 31
0.0
  0
LINE
  5
19CBF
  8
0
 10
2872.0703655527191
 20
-1809.95440514815
 30
0.0
 11
2876.0703655527191
 21
-1809.1544144553311
 31
0.0
  0
LINE
  5
19CC0
  8
0
 10
2872.0703655527191
 20
-1808.354405148149
 30
0.0
 11
2876.0703655527191
 21
-1807.5544144553271
 31
0.0
  0
LINE
  5
19CC1
  8
0
 10
2872.0703655527191
 20
-1811.55440514815
 30
0.0
 11
2876.0703655527191
 21
-1810.754414455331
 31
0.0
  0
LINE
  5
19CC2
  8
0
 10
2872.0703655527191
 20
-1813.1544051481501
 30
0.0
 11
2876.0703655527191
 21
-1812.3544144553321
 31
0.0
  0
LINE
  5
19CC3
  8
0
 10
2875.57036555272
 20
-1823.454413291824
 30
0.0
 11
2872.57036555272
 21
-1823.4544063114399
 31
0.0
  0
LINE
  5
19CC4
  8
0
 10
2872.57036555272
 20
-1822.854406311556
 30
0.0
 11
2872.0703655527191
 21
-1822.754405148158
 31
0.0
  0
LINE
  5
19CC5
  8
0
 10
2872.0703655527191
 20
-1822.754405148158
 30
0.0
 11
2876.0703655527191
 21
-1821.9544144553399
 31
0.0
  0
LINE
  5
19CC6
  8
0
 10
2876.0703655527191
 20
-1821.9544144553399
 30
0.0
 11
2875.57036555272
 21
-1821.8544132919419
 31
0.0
  0
LINE
  5
19CC7
  8
0
 10
2872.57036555272
 20
-1821.2544063115561
 30
0.0
 11
2872.0703655527191
 21
-1821.154405148158
 31
0.0
  0
LINE
  5
19CC8
  8
0
 10
2872.57036555272
 20
-1819.6544063115559
 30
0.0
 11
2872.0703655527191
 21
-1819.5544051481579
 31
0.0
  0
LINE
  5
19CC9
  8
0
 10
2872.0703655527191
 20
-1819.5544051481579
 30
0.0
 11
2876.0703655527191
 21
-1818.7544144553401
 31
0.0
  0
LINE
  5
19CCA
  8
0
 10
2876.0703655527191
 20
-1820.35441445534
 30
0.0
 11
2875.57036555272
 21
-1820.254413291942
 31
0.0
  0
LINE
  5
19CCB
  8
0
 10
2876.0703655527191
 20
-1818.7544144553401
 30
0.0
 11
2875.57036555272
 21
-1818.6544132919421
 31
0.0
  0
LINE
  5
19CCC
  8
0
 10
2872.0703655527191
 20
-1821.154405148158
 30
0.0
 11
2876.0703655527191
 21
-1820.35441445534
 31
0.0
  0
LINE
  5
19CCD
  8
0
 10
2872.57036555272
 20
-1818.0544063115519
 30
0.0
 11
2872.0703655527191
 21
-1817.9544051481539
 31
0.0
  0
LINE
  5
19CCF
  8
1CENTER
 10
2989.4799110997301
 20
-1912.6186285440449
 30
0.0
 11
2952.8487200992749
 21
-1912.6186285440449
 31
0.0
  0
LINE
  5
19CD0
  8
0
 10
2984.4189990547438
 20
-1911.5243047300501
 30
0.0
 11
2985.218994488795
 21
-1913.4866398189261
 31
0.0
  0
LINE
  5
19CD1
  8
0
 10
2985.218994488795
 20
-1913.4866398189261
 30
0.0
 11
2985.530764345046
 21
-1912.8983632438831
 31
0.0
  0
LINE
  5
19CD2
  8
0
 10
2962.0190011619538
 20
-1910.6186750799429
 30
0.0
 11
2962.8189918547719
 21
-1914.6186750799429
 31
0.0
  0
LINE
  5
19CD3
  8
0
 10
2973.2190011619582
 20
-1910.6186750799429
 30
0.0
 11
2974.0189918547799
 21
-1914.6186750799429
 31
0.0
  0
LINE
  5
19CD4
  8
0
 10
2976.419001161958
 20
-1910.6186750799429
 30
0.0
 11
2977.2189918547811
 21
-1914.6186750799429
 31
0.0
  0
LINE
  5
19CD5
  8
0
 10
2977.2189918547811
 20
-1914.6186750799429
 30
0.0
 11
2977.3189930181779
 21
-1914.1186750799429
 31
0.0
  0
LINE
  5
19CD6
  8
0
 10
2977.918999998561
 20
-1911.1186750799429
 30
0.0
 11
2978.0190011619579
 21
-1910.6186750799429
 31
0.0
  0
LINE
  5
19CD7
  8
0
 10
2974.0189918547799
 20
-1914.6186750799429
 30
0.0
 11
2974.1189930181781
 21
-1914.1186750799429
 31
0.0
  0
LINE
  5
19CD8
  8
0
 10
2975.6189918547811
 20
-1914.6186750799429
 30
0.0
 11
2975.718993018178
 21
-1914.1186750799429
 31
0.0
  0
LINE
  5
19CD9
  8
0
 10
2976.3189999985611
 20
-1911.1186750799429
 30
0.0
 11
2976.419001161958
 21
-1910.6186750799429
 31
0.0
  0
LINE
  5
19CDA
  8
0
 10
2974.7189999985608
 20
-1911.1186750799429
 30
0.0
 11
2974.8190011619581
 21
-1910.6186750799429
 31
0.0
  0
LINE
  5
19CDB
  8
0
 10
2974.8190011619581
 20
-1910.6186750799429
 30
0.0
 11
2975.6189918547811
 21
-1914.6186750799429
 31
0.0
  0
LINE
  5
19CDC
  8
0
 10
2983.6189934351892
 20
-1913.9394539233319
 30
0.0
 11
2983.8017575778172
 21
-1913.387704459529
 31
0.0
  0
LINE
  5
19CDD
  8
0
 10
2980.4189918547809
 20
-1914.6186750799429
 30
0.0
 11
2980.5189930181782
 21
-1914.1186750799429
 31
0.0
  0
LINE
  5
19CDE
  8
0
 10
2978.8189918547801
 20
-1914.6186750799429
 30
0.0
 11
2978.9189930181778
 21
-1914.1186750799429
 31
0.0
  0
LINE
  5
19CDF
  8
0
 10
2982.0189923815828
 20
-1914.392268027739
 30
0.0
 11
2982.1482630792129
 21
-1913.8556742924679
 31
0.0
  0
LINE
  5
19CE0
  8
0
 10
2982.706230595998
 20
-1911.539589677152
 30
0.0
 11
2982.8190001083481
 21
-1911.0714912220019
 31
0.0
  0
LINE
  5
19CE1
  8
0
 10
2979.518999998561
 20
-1911.1186750799429
 30
0.0
 11
2979.6190011619578
 21
-1910.6186750799429
 31
0.0
  0
LINE
  5
19CE2
  8
0
 10
2981.1189999985609
 20
-1911.1186750799429
 30
0.0
 11
2981.2190011619582
 21
-1910.6186750799429
 31
0.0
  0
LINE
  5
19CE3
  8
0
 10
2984.2675632583032
 20
-1911.9814765706819
 30
0.0
 11
2984.4189990547438
 21
-1911.5243047300501
 31
0.0
  0
LINE
  5
19CE4
  8
0
 10
2982.8190001083481
 20
-1911.0714912220019
 30
0.0
 11
2983.6189934351892
 21
-1913.9394539233319
 31
0.0
  0
LINE
  5
19CE5
  8
0
 10
2979.6190011619578
 20
-1910.6186750799429
 30
0.0
 11
2980.4189918547809
 21
-1914.6186750799429
 31
0.0
  0
LINE
  5
19CE6
  8
0
 10
2981.2190011619582
 20
-1910.6186750799429
 30
0.0
 11
2982.0189923815828
 21
-1914.392268027739
 31
0.0
  0
LINE
  5
19CE7
  8
0
 10
2978.0190011619579
 20
-1910.6186750799429
 30
0.0
 11
2978.8189918547801
 21
-1914.6186750799429
 31
0.0
  0
LINE
  5
19CE8
  8
0
 10
2965.2190011619541
 20
-1910.6186750799429
 30
0.0
 11
2966.0189918547721
 21
-1914.6186750799429
 31
0.0
  0
LINE
  5
19CE9
  8
0
 10
2966.0189918547721
 20
-1914.6186750799429
 30
0.0
 11
2966.1189930181699
 21
-1914.1186750799429
 31
0.0
  0
LINE
  5
19CEA
  8
0
 10
2966.7189999985599
 20
-1911.1186750799429
 30
0.0
 11
2966.8190011619581
 21
-1910.6186750799429
 31
0.0
  0
LINE
  5
19CEB
  8
0
 10
2964.4189918547718
 20
-1914.6186750799429
 30
0.0
 11
2964.51899301817
 21
-1914.1186750799429
 31
0.0
  0
LINE
  5
19CEC
  8
0
 10
2962.8189918547719
 20
-1914.6186750799429
 30
0.0
 11
2962.9189930181701
 21
-1914.1186750799429
 31
0.0
  0
LINE
  5
19CED
  8
0
 10
2965.1189999985559
 20
-1911.1186750799429
 30
0.0
 11
2965.2190011619541
 21
-1910.6186750799429
 31
0.0
  0
LINE
  5
19CEE
  8
0
 10
2963.518999998556
 20
-1911.1186750799429
 30
0.0
 11
2963.6190011619542
 21
-1910.6186750799429
 31
0.0
  0
LINE
  5
19CEF
  8
0
 10
2963.6190011619542
 20
-1910.6186750799429
 30
0.0
 11
2964.4189918547718
 21
-1914.6186750799429
 31
0.0
  0
LINE
  5
19CF0
  8
0
 10
2970.8189918547769
 20
-1914.6186750799429
 30
0.0
 11
2970.9189930181728
 21
-1914.1186750799429
 31
0.0
  0
LINE
  5
19CF1
  8
0
 10
2972.4189918547809
 20
-1914.6186750799429
 30
0.0
 11
2972.5189930181782
 21
-1914.1186750799429
 31
0.0
  0
LINE
  5
19CF2
  8
0
 10
2967.6189918547761
 20
-1914.6186750799429
 30
0.0
 11
2967.7189930181739
 21
-1914.1186750799429
 31
0.0
  0
LINE
  5
19CF3
  8
0
 10
2969.218991854776
 20
-1914.6186750799429
 30
0.0
 11
2969.3189930181738
 21
-1914.1186750799429
 31
0.0
  0
LINE
  5
19CF4
  8
0
 10
2973.1189999985609
 20
-1911.1186750799429
 30
0.0
 11
2973.2190011619582
 21
-1910.6186750799429
 31
0.0
  0
LINE
  5
19CF5
  8
0
 10
2971.51899999856
 20
-1911.1186750799429
 30
0.0
 11
2971.6190011619578
 21
-1910.6186750799429
 31
0.0
  0
LINE
  5
19CF6
  8
0
 10
2968.3189999985598
 20
-1911.1186750799429
 30
0.0
 11
2968.419001161958
 21
-1910.6186750799429
 31
0.0
  0
LINE
  5
19CF7
  8
0
 10
2969.9189999985601
 20
-1911.1186750799429
 30
0.0
 11
2970.0190011619579
 21
-1910.6186750799429
 31
0.0
  0
LINE
  5
19CF8
  8
0
 10
2970.0190011619579
 20
-1910.6186750799429
 30
0.0
 11
2970.8189918547769
 21
-1914.6186750799429
 31
0.0
  0
LINE
  5
19CF9
  8
0
 10
2971.6190011619578
 20
-1910.6186750799429
 30
0.0
 11
2972.4189918547809
 21
-1914.6186750799429
 31
0.0
  0
LINE
  5
19CFA
  8
0
 10
2968.419001161958
 20
-1910.6186750799429
 30
0.0
 11
2969.218991854776
 21
-1914.6186750799429
 31
0.0
  0
LINE
  5
19CFB
  8
0
 10
2966.8190011619581
 20
-1910.6186750799429
 30
0.0
 11
2967.6189918547761
 21
-1914.6186750799429
 31
0.0
  0
LINE
  5
19CFC
  8
0
 10
2956.5189930182828
 20
-1914.1186750799429
 30
0.0
 11
2956.5189999986678
 21
-1911.1186750799429
 31
0.0
  0
LINE
  5
19CFD
  8
0
 10
2957.1189999985522
 20
-1911.1186750799429
 30
0.0
 11
2957.21900116195
 21
-1910.6186750799429
 31
0.0
  0
LINE
  5
19CFE
  8
0
 10
2957.21900116195
 20
-1910.6186750799429
 30
0.0
 11
2958.018991854768
 21
-1914.6186750799429
 31
0.0
  0
LINE
  5
19CFF
  8
0
 10
2958.018991854768
 20
-1914.6186750799429
 30
0.0
 11
2958.1189930181658
 21
-1914.1186750799429
 31
0.0
  0
LINE
  5
19D00
  8
0
 10
2958.7189999985521
 20
-1911.1186750799429
 30
0.0
 11
2958.8190011619499
 21
-1910.6186750799429
 31
0.0
  0
LINE
  5
19D01
  8
0
 10
2960.318999998552
 20
-1911.1186750799429
 30
0.0
 11
2960.4190011619498
 21
-1910.6186750799429
 31
0.0
  0
LINE
  5
19D02
  8
0
 10
2960.4190011619498
 20
-1910.6186750799429
 30
0.0
 11
2961.2189918547679
 21
-1914.6186750799429
 31
0.0
  0
LINE
  5
19D03
  8
0
 10
2959.618991854768
 20
-1914.6186750799429
 30
0.0
 11
2959.7189930181648
 21
-1914.1186750799429
 31
0.0
  0
LINE
  5
19D04
  8
0
 10
2961.2189918547679
 20
-1914.6186750799429
 30
0.0
 11
2961.3189930181652
 21
-1914.1186750799429
 31
0.0
  0
LINE
  5
19D05
  8
0
 10
2958.8190011619499
 20
-1910.6186750799429
 30
0.0
 11
2959.618991854768
 21
-1914.6186750799429
 31
0.0
  0
LINE
  5
19D06
  8
0
 10
2961.918999998556
 20
-1911.1186750799429
 30
0.0
 11
2962.0190011619538
 21
-1910.6186750799429
 31
0.0
  0
LINE
  5
19D07
  8
1DIM
 10
2989.4799110997301
 20
-1912.6186285440449
 30
0.0
 11
2997.4659460872399
 21
-1912.6186285440449
 31
0.0
  0
LINE
  5
19D08
  8
1DIM
 10
2964.518996508586
 20
-1901.3686285440449
 30
0.0
 11
2997.4659460872399
 21
-1901.3686285440449
 31
0.0
  0
LINE
  5
19D09
  8
1DIM
 10
2996.4659460872399
 20
-1910.6186285440449
 30
0.0
 11
2996.4659460872399
 21
-1903.3686285440449
 31
0.0
  0
TEXT
  5
19D0D
  8
1HATCH
 10
2968.1740977509749
 20
-1853.4287597568371
 30
0.0
 40
3.5
  1
PB
  0
SOLID
  5
19D0E
  8
1HATCH
 10
2969.0786278626179
 20
-1872.5815207605269
 30
0.0
 11
2969.0989651306618
 21
-1874.6090062738269
 31
0.0
 12
2968.422164305226
 22
-1872.697710442774
 32
0.0
 13
2968.422164305226
 23
-1872.697710442774
 33
0.0
  0
SOLID
  5
19D10
  8
1DIM
 10
2977.1421486751478
 20
-1872.585907290626
 30
0.0
 11
2977.596947344603
 21
-1874.5618296781131
 31
0.0
 12
2976.5258926937722
 22
-1872.8402161773399
 32
0.0
 13
2976.5258926937722
 23
-1872.8402161773399
 33
0.0
  0
TEXT
  5
19D12
  8
1DIM
 10
2974.3414422455139
 20
-1859.430105773961
 30
0.0
 40
3.5
  1
合板9mm以上
  0
LINE
  5
19D13
  8
1DIM
 10
2878.3203190168219
 20
-1922.6186285440449
 30
0.0
 11
2905.5703190168219
 21
-1922.6186285440449
 31
0.0
  0
LINE
  5
19D14
  8
1DIM
 10
2881.0703190168219
 20
-1901.3686285440449
 30
0.0
 11
2905.5703190168219
 21
-1901.3686285440449
 31
0.0
  0
LINE
  5
19D15
  8
1DIM
 10
2904.570319016821
 20
-1920.6186285440449
 30
0.0
 11
2904.570319016821
 21
-1903.3686285440449
 31
0.0
  0
LINE
  5
19D19
  8
1DIM
 10
2731.570319016821
 20
-1907.8686285440449
 30
0.0
 11
2731.570319016821
 21
-1941.0542169332559
 31
0.0
  0
LINE
  5
19D1A
  8
1DIM
 10
2881.5703190168229
 20
-1907.8686285440449
 30
0.0
 11
2881.5703190168229
 21
-1941.0542169332559
 31
0.0
  0
LINE
  5
19D1B
  8
1DIM
 10
2733.5703190168219
 20
-1940.0542169332571
 30
0.0
 11
2879.5703190168229
 21
-1940.0542169332571
 31
0.0
  0
LINE
  5
19D1F
  8
1DIM
 10
2740.0703190168201
 20
-1917.118628544044
 30
0.0
 11
2740.0703190168201
 21
-1931.0542169332559
 31
0.0
  0
LINE
  5
19D20
  8
1DIM
 10
2873.0703190168219
 20
-1917.1186285440449
 30
0.0
 11
2873.0703190168219
 21
-1931.0542169332559
 31
0.0
  0
LINE
  5
19D21
  8
1DIM
 10
2742.0703190168201
 20
-1930.0542169332559
 30
0.0
 11
2871.0703190168219
 21
-1930.0542169332559
 31
0.0
  0
TEXT
  5
19D25
  8
1DIM
 10
2800.736985683488
 20
-1929.3542169332561
 30
0.0
 40
3.5
  1
P133
  0
LINE
  5
19D26
  8
0
  6
BYBLOCK
 10
2871.0703190168219
 20
-1929.5183185532569
 30
0.0
 11
2873.0703190168219
 21
-1930.0542169332559
 31
0.0
  0
LINE
  5
19D27
  8
0
  6
BYBLOCK
 10
2873.0703190168219
 20
-1930.0542169332559
 30
0.0
 11
2871.0703190168219
 21
-1930.590115313257
 31
0.0
  0
LINE
  5
19D28
  8
0
  6
BYBLOCK
 10
2873.0703190168219
 20
-1930.0542169332559
 30
0.0
 11
2871.0703190168219
 21
-1930.0542169332559
 31
0.0
  0
LINE
  5
19D29
  8
0
  6
BYBLOCK
 10
2742.0703190168201
 20
-1930.590115313257
 30
0.0
 11
2740.0703190168201
 21
-1930.0542169332559
 31
0.0
  0
LINE
  5
19D2A
  8
0
  6
BYBLOCK
 10
2740.0703190168201
 20
-1930.0542169332559
 30
0.0
 11
2742.0703190168201
 21
-1929.5183185532569
 31
0.0
  0
LINE
  5
19D2B
  8
0
  6
BYBLOCK
 10
2740.0703190168201
 20
-1930.0542169332559
 30
0.0
 11
2742.0703190168201
 21
-1930.0542169332559
 31
0.0
  0
TEXT
  5
19D2C
  8
1DIM
 10
2802.7786523501559
 20
-1939.3542169332561
 30
0.0
 40
3.5
  1
150
  0
LINE
  5
19D2D
  8
0
  6
BYBLOCK
 10
2879.5703190168229
 20
-1939.5183185532569
 30
0.0
 11
2881.5703190168229
 21
-1940.0542169332571
 31
0.0
  0
LINE
  5
19D2E
  8
0
  6
BYBLOCK
 10
2881.5703190168229
 20
-1940.0542169332571
 30
0.0
 11
2879.5703190168229
 21
-1940.5901153132561
 31
0.0
  0
LINE
  5
19D2F
  8
0
  6
BYBLOCK
 10
2881.5703190168229
 20
-1940.0542169332571
 30
0.0
 11
2879.5703190168229
 21
-1940.0542169332571
 31
0.0
  0
LINE
  5
19D30
  8
0
  6
BYBLOCK
 10
2733.5703190168219
 20
-1940.5901153132561
 30
0.0
 11
2731.570319016821
 21
-1940.0542169332571
 31
0.0
  0
LINE
  5
19D31
  8
0
  6
BYBLOCK
 10
2731.570319016821
 20
-1940.0542169332571
 30
0.0
 11
2733.5703190168219
 21
-1939.5183185532569
 31
0.0
  0
LINE
  5
19D32
  8
0
  6
BYBLOCK
 10
2731.570319016821
 20
-1940.0542169332571
 30
0.0
 11
2733.5703190168219
 21
-1940.0542169332571
 31
0.0
  0
TEXT
  5
19D33
  8
1DIM
 10
2903.8703190168221
 20
-1914.3269618773779
 30
0.0
 40
3.5
  1
21
 50
90.0
  0
LINE
  5
19D34
  8
0
  6
BYBLOCK
 10
2904.0344206368218
 20
-1903.3686285440449
 30
0.0
 11
2904.570319016821
 21
-1901.3686285440449
 31
0.0
  0
LINE
  5
19D35
  8
0
  6
BYBLOCK
 10
2904.570319016821
 20
-1901.3686285440449
 30
0.0
 11
2905.1062173968221
 21
-1903.3686285440449
 31
0.0
  0
LINE
  5
19D36
  8
0
  6
BYBLOCK
 10
2904.570319016821
 20
-1901.3686285440449
 30
0.0
 11
2904.570319016821
 21
-1903.3686285440449
 31
0.0
  0
LINE
  5
19D37
  8
0
  6
BYBLOCK
 10
2905.1062173968221
 20
-1920.6186285440449
 30
0.0
 11
2904.570319016821
 21
-1922.6186285440449
 31
0.0
  0
LINE
  5
19D38
  8
0
  6
BYBLOCK
 10
2904.570319016821
 20
-1922.6186285440449
 30
0.0
 11
2904.0344206368218
 21
-1920.6186285440449
 31
0.0
  0
LINE
  5
19D39
  8
0
  6
BYBLOCK
 10
2904.570319016821
 20
-1922.6186285440449
 30
0.0
 11
2904.570319016821
 21
-1920.6186285440449
 31
0.0
  0
LINE
  5
19D3A
  8
1DIM
 10
2976.83402068446
 20
-1872.7130617339831
 30
0.0
 11
2971.6414422455141
 21
-1860.1301057739611
 31
0.0
  0
LINE
  5
19D3B
  8
1DIM
 10
2971.6414422455141
 20
-1860.1301057739611
 30
0.0
 11
3003.5414422455142
 21
-1860.1301057739611
 31
0.0
  0
LINE
  5
19D3C
  8
1HATCH
 10
2968.7503960839222
 20
-1872.6396156016499
 30
0.0
 11
2965.474097750975
 21
-1854.1287597568371
 31
0.0
  0
LINE
  5
19D3D
  8
1HATCH
 10
2965.474097750975
 20
-1854.1287597568371
 30
0.0
 11
2974.0074310843079
 21
-1854.1287597568371
 31
0.0
  0
TEXT
  5
19D3E
  8
1DIM
 10
2995.765946087241
 20
-1908.7436285440449
 30
0.0
 40
3.5
  1
11
 50
90.0
  0
LINE
  5
19D3F
  8
0
  6
BYBLOCK
 10
2995.9300477072402
 20
-1903.3686285440449
 30
0.0
 11
2996.4659460872399
 21
-1901.3686285440449
 31
0.0
  0
LINE
  5
19D40
  8
0
  6
BYBLOCK
 10
2996.4659460872399
 20
-1901.3686285440449
 30
0.0
 11
2997.0018444672401
 21
-1903.3686285440449
 31
0.0
  0
LINE
  5
19D41
  8
0
  6
BYBLOCK
 10
2996.4659460872399
 20
-1901.3686285440449
 30
0.0
 11
2996.4659460872399
 21
-1903.3686285440449
 31
0.0
  0
LINE
  5
19D42
  8
0
  6
BYBLOCK
 10
2997.0018444672401
 20
-1910.6186285440449
 30
0.0
 11
2996.4659460872399
 21
-1912.6186285440449
 31
0.0
  0
LINE
  5
19D43
  8
0
  6
BYBLOCK
 10
2996.4659460872399
 20
-1912.6186285440449
 30
0.0
 11
2995.9300477072402
 21
-1910.6186285440449
 31
0.0
  0
LINE
  5
19D44
  8
0
  6
BYBLOCK
 10
2996.4659460872399
 20
-1912.6186285440449
 30
0.0
 11
2996.4659460872399
 21
-1910.6186285440449
 31
0.0
  0
LINE
  5
19D45
  8
0
 10
2986.5189965084219
 20
-1912.6186750799429
 30
0.0
 11
2981.2189999985599
 21
-1911.1186750799429
 31
0.0
  0
LINE
  5
19D46
  8
0
 10
2981.2189999985599
 20
-1911.1186750799429
 30
0.0
 11
2956.5189999986678
 21
-1911.1186750799429
 31
0.0
  0
LINE
  5
19D47
  8
0
 10
2986.5189965084219
 20
-1912.6186750799429
 30
0.0
 11
2981.2189930181762
 21
-1914.1186750799429
 31
0.0
  0
LINE
  5
19D48
  8
0
 10
2956.5190046523662
 20
-1909.1186285440449
 30
0.0
 11
2956.5189999986678
 21
-1911.1186750799429
 31
0.0
  0
LINE
  5
19D49
  8
0
 10
2981.2189930181762
 20
-1914.1186750799429
 30
0.0
 11
2956.5189930182828
 21
-1914.1186750799429
 31
0.0
  0
LINE
  5
19D4A
  8
0
 10
2956.5190046523662
 20
-1909.1186285440449
 30
0.0
 11
2955.4190011621699
 21
-1909.1186285440449
 31
0.0
  0
LINE
  5
19D4B
  8
0
 10
2956.5189930182828
 20
-1914.1186750799429
 30
0.0
 11
2956.5189883648022
 21
-1916.1186285440449
 31
0.0
  0
ARC
  5
19D4C
  8
0
 10
2955.4190011621699
 20
-1910.6186285440449
 30
0.0
 40
1.5
 50
90.0
 51
179.9998666844663
  0
LINE
  5
19D4D
  8
0
 10
2956.5189883648022
 20
-1916.1186285440449
 30
0.0
 11
2955.418991854991
 21
-1916.1186285440449
 31
0.0
  0
LINE
  5
19D4E
  8
0
 10
2953.9190011621749
 20
-1910.6186250538531
 30
0.0
 11
2953.9189918549951
 21
-1914.6186250538531
 31
0.0
  0
ARC
  5
19D4F
  8
0
 10
2955.418991854991
 20
-1914.6186285440449
 30
0.0
 40
1.5
 50
179.9998666844663
 51
270.0
  0
LINE
  5
19D50
  8
0
 10
2874.07036555272
 20
-1793.4544098016861
 30
0.0
 11
2872.57036555272
 21
-1798.7544063115481
 31
0.0
  0
LINE
  5
19D51
  8
0
 10
2872.57036555272
 20
-1798.7544063115481
 30
0.0
 11
2872.57036555272
 21
-1823.4544063114399
 31
0.0
  0
LINE
  5
19D52
  8
0
 10
2874.07036555272
 20
-1793.4544098016861
 30
0.0
 11
2875.57036555272
 21
-1798.754413291932
 31
0.0
  0
LINE
  5
19D53
  8
0
 10
2870.5703190168219
 20
-1823.4544016577411
 30
0.0
 11
2872.57036555272
 21
-1823.4544063114399
 31
0.0
  0
LINE
  5
19D54
  8
0
 10
2875.57036555272
 20
-1798.754413291932
 30
0.0
 11
2875.57036555272
 21
-1823.454413291824
 31
0.0
  0
LINE
  5
19D55
  8
0
 10
2870.5703190168219
 20
-1823.4544016577411
 30
0.0
 11
2870.5703190168219
 21
-1824.5544051479369
 31
0.0
  0
LINE
  5
19D56
  8
0
 10
2875.57036555272
 20
-1823.454413291824
 30
0.0
 11
2877.5703190168219
 21
-1823.454417945306
 31
0.0
  0
ARC
  5
19D57
  8
0
 10
2872.0703190168219
 20
-1824.5544051479369
 30
0.0
 40
1.5
 50
180.0
 51
269.99986668447491
  0
LINE
  5
19D58
  8
0
 10
2877.5703190168219
 20
-1823.454417945306
 30
0.0
 11
2877.5703190168219
 21
-1824.554414455117
 31
0.0
  0
LINE
  5
19D59
  8
0
 10
2872.0703155266292
 20
-1826.054405147933
 30
0.0
 11
2876.0703155266292
 21
-1826.054414455112
 31
0.0
  0
ARC
  5
19D5A
  8
0
 10
2876.0703190168219
 20
-1824.554414455117
 30
0.0
 40
1.5
 50
269.99986668447491
 51
0.0
  0
LINE
  5
19D5B
  8
0
 10
2739.0703655527209
 20
-1793.4544098016861
 30
0.0
 11
2737.5703655527209
 21
-1798.7544063115481
 31
0.0
  0
LINE
  5
19D5C
  8
0
 10
2737.5703655527209
 20
-1798.7544063115481
 30
0.0
 11
2737.5703655527209
 21
-1823.4544063114399
 31
0.0
  0
LINE
  5
19D5D
  8
0
 10
2739.0703655527209
 20
-1793.4544098016861
 30
0.0
 11
2740.5703655527209
 21
-1798.754413291932
 31
0.0
  0
LINE
  5
19D5E
  8
0
 10
2735.5703190168229
 20
-1823.4544016577411
 30
0.0
 11
2737.5703655527209
 21
-1823.4544063114399
 31
0.0
  0
LINE
  5
19D5F
  8
0
 10
2740.5703655527209
 20
-1798.754413291932
 30
0.0
 11
2740.5703655527209
 21
-1823.454413291824
 31
0.0
  0
LINE
  5
19D60
  8
0
 10
2735.5703190168229
 20
-1823.4544016577411
 30
0.0
 11
2735.5703190168229
 21
-1824.5544051479369
 31
0.0
  0
LINE
  5
19D61
  8
0
 10
2740.5703655527209
 20
-1823.454413291824
 30
0.0
 11
2742.5703190168229
 21
-1823.454417945306
 31
0.0
  0
ARC
  5
19D62
  8
0
 10
2737.0703190168229
 20
-1824.5544051479369
 30
0.0
 40
1.5
 50
180.0
 51
269.99986668447491
  0
LINE
  5
19D63
  8
0
 10
2742.5703190168229
 20
-1823.454417945306
 30
0.0
 11
2742.5703190168229
 21
-1824.554414455117
 31
0.0
  0
LINE
  5
19D64
  8
0
 10
2737.070315526631
 20
-1826.054405147933
 30
0.0
 11
2741.070315526631
 21
-1826.054414455112
 31
0.0
  0
ARC
  5
19D65
  8
0
 10
2741.0703190168229
 20
-1824.554414455117
 30
0.0
 40
1.5
 50
269.99986668447491
 51
0.0
  0
LINE
  5
19D66
  8
1DIM
 10
2739.396603566167
 20
-1844.486354531801
 30
0.0
 11
2755.3687304305108
 21
-1826.4970168401519
 31
0.0
  0
LINE
  5
19D67
  8
1DIM
 10
2755.3687304305108
 20
-1826.4970168401519
 30
0.0
 11
2803.3353970971771
 21
-1826.4970168401519
 31
0.0
  0
TEXT
  5
19D68
  8
1DIM
 10
2802.7786523501559
 20
-1799.041306575077
 30
0.0
 40
3.5
  1
120
  0
LINE
  5
19D69
  8
0
  6
BYBLOCK
 10
2864.5703190168219
 20
-1799.205408195078
 30
0.0
 11
2866.5703190168219
 21
-1799.7413065750779
 31
0.0
  0
LINE
  5
19D6A
  8
0
  6
BYBLOCK
 10
2866.5703190168219
 20
-1799.7413065750779
 30
0.0
 11
2864.5703190168219
 21
-1800.2772049550781
 31
0.0
  0
LINE
  5
19D6B
  8
0
  6
BYBLOCK
 10
2866.5703190168219
 20
-1799.7413065750779
 30
0.0
 11
2864.5703190168219
 21
-1799.7413065750779
 31
0.0
  0
LINE
  5
19D6C
  8
0
  6
BYBLOCK
 10
2748.5703190168242
 20
-1800.2772049550781
 30
0.0
 11
2746.5703190168242
 21
-1799.7413065750779
 31
0.0
  0
LINE
  5
19D6D
  8
0
  6
BYBLOCK
 10
2746.5703190168242
 20
-1799.7413065750779
 30
0.0
 11
2748.5703190168242
 21
-1799.205408195078
 31
0.0
  0
LINE
  5
19D6E
  8
0
  6
BYBLOCK
 10
2746.5703190168242
 20
-1799.7413065750779
 30
0.0
 11
2748.5703190168242
 21
-1799.7413065750779
 31
0.0
  0
TEXT
  5
19D6F
  8
1DIM
 10
2900.3703190168221
 20
-1834.87107646819
 30
0.0
 40
3.5
  1
33
 50
90.0
  0
LINE
  5
19D70
  8
0
  6
BYBLOCK
 10
2901.6062173968212
 20
-1846.454409801524
 30
0.0
 11
2901.070319016821
 21
-1848.454409801524
 31
0.0
  0
LINE
  5
19D71
  8
0
  6
BYBLOCK
 10
2901.070319016821
 20
-1848.454409801524
 30
0.0
 11
2900.5344206368209
 21
-1846.454409801524
 31
0.0
  0
LINE
  5
19D72
  8
0
  6
BYBLOCK
 10
2901.070319016821
 20
-1848.454409801524
 30
0.0
 11
2901.070319016821
 21
-1846.454409801524
 31
0.0
  0
LINE
  5
19D73
  8
0
  6
BYBLOCK
 10
2900.5344206368209
 20
-1817.454409801524
 30
0.0
 11
2901.070319016821
 21
-1815.454409801524
 31
0.0
  0
LINE
  5
19D74
  8
0
  6
BYBLOCK
 10
2901.070319016821
 20
-1815.454409801524
 30
0.0
 11
2901.6062173968212
 21
-1817.454409801524
 31
0.0
  0
LINE
  5
19D75
  8
0
  6
BYBLOCK
 10
2901.070319016821
 20
-1815.454409801524
 30
0.0
 11
2901.070319016821
 21
-1817.454409801524
 31
0.0
  0
TEXT
  5
19D76
  8
1DIM
 10
2900.3703190168221
 20
-1855.49607646819
 30
0.0
 40
3.5
  1
10
 50
90.0
  0
LINE
  5
19D77
  8
0
  6
BYBLOCK
 10
2901.6062173968212
 20
-1856.454409801524
 30
0.0
 11
2901.070319016821
 21
-1858.454409801524
 31
0.0
  0
LINE
  5
19D78
  8
0
  6
BYBLOCK
 10
2901.070319016821
 20
-1858.454409801524
 30
0.0
 11
2900.5344206368209
 21
-1856.454409801524
 31
0.0
  0
LINE
  5
19D79
  8
0
  6
BYBLOCK
 10
2901.070319016821
 20
-1858.454409801524
 30
0.0
 11
2901.070319016821
 21
-1856.454409801524
 31
0.0
  0
LINE
  5
19D7A
  8
0
  6
BYBLOCK
 10
2900.5344206368209
 20
-1850.454409801524
 30
0.0
 11
2901.070319016821
 21
-1848.454409801524
 31
0.0
  0
LINE
  5
19D7B
  8
0
  6
BYBLOCK
 10
2901.070319016821
 20
-1848.454409801524
 30
0.0
 11
2901.6062173968212
 21
-1850.454409801524
 31
0.0
  0
LINE
  5
19D7C
  8
0
  6
BYBLOCK
 10
2901.070319016821
 20
-1848.454409801524
 30
0.0
 11
2901.070319016821
 21
-1850.454409801524
 31
0.0
  0
TEXT
  5
19D7D
  8
1DIM
 10
2910.3703190168221
 20
-1839.87107646819
 30
0.0
 40
3.5
  1
43
 50
90.0
  0
LINE
  5
19D7E
  8
0
  6
BYBLOCK
 10
2910.5344206368209
 20
-1817.454409801524
 30
0.0
 11
2911.070319016821
 21
-1815.454409801524
 31
0.0
  0
LINE
  5
19D7F
  8
0
  6
BYBLOCK
 10
2911.070319016821
 20
-1815.454409801524
 30
0.0
 11
2911.6062173968212
 21
-1817.454409801524
 31
0.0
  0
LINE
  5
19D80
  8
0
  6
BYBLOCK
 10
2911.070319016821
 20
-1815.454409801524
 30
0.0
 11
2911.070319016821
 21
-1817.454409801524
 31
0.0
  0
LINE
  5
19D81
  8
0
  6
BYBLOCK
 10
2911.6062173968212
 20
-1856.454409801524
 30
0.0
 11
2911.070319016821
 21
-1858.454409801524
 31
0.0
  0
LINE
  5
19D82
  8
0
  6
BYBLOCK
 10
2911.070319016821
 20
-1858.454409801524
 30
0.0
 11
2910.5344206368209
 21
-1856.454409801524
 31
0.0
  0
LINE
  5
19D83
  8
0
  6
BYBLOCK
 10
2911.070319016821
 20
-1858.454409801524
 30
0.0
 11
2911.070319016821
 21
-1856.454409801524
 31
0.0
  0
VIEWPORT
  5
57
 67
     1
  8
0
 10
0.8533699337836537
 20
10.09248672500371
 30
0.0
 40
405.37998137641398
 41
287.02350467097892
 68
     1
 69
     1
1001
ACAD
1000
MVIEW
1002
{
1070
    16
1010
0.0
1020
0.0
1030
0.0
1010
0.0
1020
0.0
1030
1.0
1040
0.0
1040
287.02350467097892
1040
0.8533699337836537
1040
10.09248672500371
1040
50.0
1040
0.0
1040
0.0
1070
     0
1070
   100
1070
     1
1070
     1
1070
     0
1070
     0
1070
     0
1070
     0
1040
0.0
1040
0.0
1040
0.0
1040
10.0
1040
10.0
1040
10.0
1040
10.0
1070
     0
1002
{
1002
}
1002
}
  0
ENDSEC
  0
EOF
